  0
SECTION
  2
HEADER
  9
$ACADVER
  1
AC1018
  9
$ACADMAINTVER
 70
     0
  9
$DWGCODEPAGE
  3
ANSI_1252
  9
$EXTMIN
 10
-606958.523
 20
-1168755.627
 30
0.0
  9
$EXTMAX
 10
-590270.17
 20
-1150493.479
 30
0.0
  9
$LIMMIN
 10
0.0
 20
0.0
  9
$LIMMAX
 10
12.0
 20
9.0
  9
$ORTHOMODE
 70
     0
  9
$REGENMODE
 70
     1
  9
$FILLMODE
 70
     1
  9
$QTEXTMODE
 70
     0
  9
$MIRRTEXT
 70
     1
  9
$LTSCALE
 40
1.0
  9
$ATTMODE
 70
     1
  9
$TEXTSIZE
 40
0.2
  9
$TRACEWID
 40
0.05
  9
$TEXTSTYLE
  7
Standard
  9
$CLAYER
  8
0
  9
$CELTYPE
  6
ByLayer
  9
$CECOLOR
 62
   256
  9
$CELTSCALE
 40
1.0
  9
$DISPSILH
 70
     0
  9
$LUNITS
 70
     2
  9
$LUPREC
 70
     4
  9
$SKETCHINC
 40
0.1
  9
$FILLETRAD
 40
0.5
  9
$AUNITS
 70
     0
  9
$AUPREC
 70
     0
  9
$MENU
  1
.
  9
$ELEVATION
 40
0.0
  9
$PELEVATION
 40
0.0
  9
$THICKNESS
 40
0.0
  9
$LIMCHECK
 70
     0
  9
$CHAMFERA
 40
0.5
  9
$CHAMFERB
 40
0.5
  9
$CHAMFERC
 40
1.0
  9
$CHAMFERD
 40
0.0
  9
$SKPOLY
 70
     0
  9
$ANGBASE
 50
0.0
  9
$ANGDIR
 70
     0
  9
$PDMODE
 70
     0
  9
$PDSIZE
 40
0.0
  9
$PLINEWID
 40
0.0
  9
$SPLFRAME
 70
     0
  9
$SPLINETYPE
 70
     6
  9
$SPLINESEGS
 70
     8
  9
$HANDSEED
  5
00020A15
  9
$SURFTAB1
 70
     6
  9
$SURFTAB2
 70
     6
  9
$SURFTYPE
 70
     6
  9
$SURFU
 70
     6
  9
$SURFV
 70
     6
  9
$UCSBASE
  2

  9
$UCSNAME
  2

  9
$UCSORG
 10
0.0
 20
0.0
 30
0.0
  9
$UCSXDIR
 10
1.0
 20
0.0
 30
0.0
  9
$UCSYDIR
 10
0.0
 20
1.0
 30
0.0
  9
$UCSORTHOREF
  2

  9
$UCSORTHOVIEW
 70
     0
  9
$UCSORGTOP
 10
0.0
 20
0.0
 30
0.0
  9
$UCSORGBOTTOM
 10
0.0
 20
0.0
 30
0.0
  9
$UCSORGLEFT
 10
0.0
 20
0.0
 30
0.0
  9
$UCSORGRIGHT
 10
0.0
 20
0.0
 30
0.0
  9
$UCSORGFRONT
 10
0.0
 20
0.0
 30
0.0
  9
$UCSORGBACK
 10
0.0
 20
0.0
 30
0.0
  9
$PUCSBASE
  2

  9
$PUCSNAME
  2

  9
$PUCSORG
 10
0.0
 20
0.0
 30
0.0
  9
$PUCSXDIR
 10
1.0
 20
0.0
 30
0.0
  9
$PUCSYDIR
 10
0.0
 20
1.0
 30
0.0
  9
$PUCSORTHOREF
  2

  9
$PUCSORTHOVIEW
 70
     0
  9
$PUCSORGTOP
 10
0.0
 20
0.0
 30
0.0
  9
$PUCSORGBOTTOM
 10
0.0
 20
0.0
 30
0.0
  9
$PUCSORGLEFT
 10
0.0
 20
0.0
 30
0.0
  9
$PUCSORGRIGHT
 10
0.0
 20
0.0
 30
0.0
  9
$PUCSORGFRONT
 10
0.0
 20
0.0
 30
0.0
  9
$PUCSORGBACK
 10
0.0
 20
0.0
 30
0.0
  9
$WORLDVIEW
 70
     1
  9
$SHADEDGE
 70
     3
  9
$SHADEDIF
 70
    70
  9
$TILEMODE
 70
     1
  9
$MAXACTVP
 70
    64
  9
$PINSBASE
 10
0.0
 20
0.0
 30
0.0
  9
$PLIMCHECK
 70
     0
  9
$PEXTMIN
 10
1.000000000000000E+20
 20
1.000000000000000E+20
 30
1.000000000000000E+20
  9
$PEXTMAX
 10
-1.000000000000000E+20
 20
-1.000000000000000E+20
 30
-1.000000000000000E+20
  9
$PLIMMIN
 10
0.0
 20
0.0
  9
$PLIMMAX
 10
12.0
 20
9.0
  9
$UNITMODE
 70
     0
  9
$VISRETAIN
 70
     1
  9
$PLINEGEN
 70
     0
  9
$PSLTSCALE
 70
     1
  9
$TREEDEPTH
 70
  3020
  9
$CMLSTYLE
  2
Standard
  9
$CMLJUST
 70
     0
  9
$CMLSCALE
 40
1.0
  9
$PROXYGRAPHICS
 70
     1
  9
$MEASUREMENT
 70
     0
  9
$CELWEIGHT
370
    -1
  9
$ENDCAPS
280
     0
  9
$JOINSTYLE
280
     0
  9
$LWDISPLAY
290
     0
  9
$INSUNITS
 70
     1
  9
$HYPERLINKBASE
  1

  9
$STYLESHEET
  1

  9
$XEDIT
290
     1
  9
$CEPSNTYPE
380
     0
  9
$PSTYLEMODE
290
     1
  9
$EXTNAMES
290
     1
  9
$PSVPSCALE
 40
0.0
  9
$OLESTARTUP
290
     0
  9
$SORTENTS
280
   127
  9
$INDEXCTL
280
     0
  9
$HIDETEXT
280
     1
  9
$XCLIPFRAME
290
     0
  9
$HALOGAP
280
     0
  9
$OBSCOLOR
 70
   257
  9
$OBSLTYPE
280
     0
  9
$INTERSECTIONDISPLAY
280
     0
  9
$INTERSECTIONCOLOR
 70
   257
  9
$DIMASSOC
280
     2
  9
$PROJECTNAME
  1

  0
ENDSEC
  0
SECTION
  2
CLASSES
  0
CLASS
  1
ACDBDICTIONARYWDFLT
  2
AcDbDictionaryWithDefault
  3
ObjectDBX Classes
 90
        0
 91
        4
280
     0
281
     0
  0
ENDSEC
  0
SECTION
  2
TABLES
  0
TABLE
  2
VPORT
  5
8
330
0
100
AcDbSymbolTable
 70
     1
  0
VPORT
  5
29
330
8
100
AcDbSymbolTableRecord
100
AcDbViewportTableRecord
  2
*Active
 70
     0
 10
0.0
 20
0.0
 11
1.0
 21
1.0
 12
80.25
 22
106.4409457059851
 13
0.0
 23
0.0
 14
0.5
 24
0.5
 15
0.5
 25
0.5
 16
0.0
 26
0.0
 36
1.0
 17
0.0
 27
0.0
 37
0.0
 40
113.3818914119703
 41
0.8863849310366128
 42
50.0
 43
0.0
 44
0.0
 50
0.0
 51
0.0
 71
     0
 72
  1000
 73
     1
 74
     3
 75
     0
 76
     0
 77
     0
 78
     0
281
     0
 65
     1
110
0.0
120
0.0
130
0.0
111
1.0
121
0.0
131
0.0
112
0.0
122
1.0
132
0.0
 79
     0
146
0.0
  0
ENDTAB
  0
TABLE
  2
LTYPE
  5
5
330
0
100
AcDbSymbolTable
 70
     1
  0
LTYPE
  5
14
330
5
100
AcDbSymbolTableRecord
100
AcDbLinetypeTableRecord
  2
ByBlock
 70
     0
  3

 72
    65
 73
     0
 40
0.0
  0
LTYPE
  5
15
330
5
100
AcDbSymbolTableRecord
100
AcDbLinetypeTableRecord
  2
ByLayer
 70
     0
  3

 72
    65
 73
     0
 40
0.0
  0
LTYPE
  5
16
330
5
100
AcDbSymbolTableRecord
100
AcDbLinetypeTableRecord
  2
Continuous
 70
     0
  3
Solid line
 72
    65
 73
     0
 40
0.0
  0
ENDTAB
  0
TABLE
  2
LAYER
  5
2
330
0
100
AcDbSymbolTable
 70
     1
  0
LAYER
  5
10
330
2
100
AcDbSymbolTableRecord
100
AcDbLayerTableRecord
  2
0
 70
     0
 62
     7
  6
Continuous
370
    -3
390
F
  0
ENDTAB
  0
TABLE
  2
STYLE
  5
3
330
0
100
AcDbSymbolTable
 70
     1
  0
STYLE
  5
11
330
3
100
AcDbSymbolTableRecord
100
AcDbTextStyleTableRecord
  2
Standard
 70
     0
 40
0.0
 41
1.0
 50
0.0
 71
     0
 42
0.2
  3
txt
  4

  0
ENDTAB
  0
TABLE
  2
VIEW
  5
6
330
0
100
AcDbSymbolTable
 70
     0
  0
ENDTAB
  0
TABLE
  2
UCS
  5
7
330
0
100
AcDbSymbolTable
 70
     0
  0
ENDTAB
  0
TABLE
  2
APPID
  5
9
330
0
100
AcDbSymbolTable
 70
     1
  0
APPID
  5
12
330
9
100
AcDbSymbolTableRecord
100
AcDbRegAppTableRecord
  2
ACAD
 70
     0
  0
ENDTAB
  0
TABLE
  2
DIMSTYLE
  5
A
330
0
100
AcDbSymbolTable
 70
     1
100
AcDbDimStyleTable
  0
DIMSTYLE
105
27
330
A
100
AcDbSymbolTableRecord
100
AcDbDimStyleTableRecord
  2
Standard
 70
     0
340
11
  0
ENDTAB
  0
TABLE
  2
BLOCK_RECORD
  5
1
330
0
100
AcDbSymbolTable
 70
     1
  0
BLOCK_RECORD
  5
1F
330
1
100
AcDbSymbolTableRecord
100
AcDbBlockTableRecord
  2
*Model_Space
340
22
  0
BLOCK_RECORD
  5
1B
330
1
100
AcDbSymbolTableRecord
100
AcDbBlockTableRecord
  2
*Paper_Space
340
1E
  0
ENDTAB
  0
ENDSEC
  0
SECTION
  2
BLOCKS
  0
BLOCK
  5
20
330
1F
100
AcDbEntity
  8
0
100
AcDbBlockBegin
  2
*Model_Space
 70
     0
 10
0.0
 20
0.0
 30
0.0
  3
*Model_Space
  1

  0
ENDBLK
  5
21
330
1F
100
AcDbEntity
  8
0
100
AcDbBlockEnd
  0
BLOCK
  5
1C
330
1B
100
AcDbEntity
 67
     1
  8
0
100
AcDbBlockBegin
  2
*Paper_Space
 70
     0
 10
0.0
 20
0.0
 30
0.0
  3
*Paper_Space
  1

  0
ENDBLK
  5
1D
330
1B
100
AcDbEntity
 67
     1
  8
0
100
AcDbBlockEnd
  0
ENDSEC
  0
SECTION
  2
ENTITIES
  0
LWPOLYLINE
  5
20000
100
AcDbEntity
  8
0
100
AcDbPolyline
 70
0
 90
2
 10
-601323.226
 20
-1162402.68
 10
-601319.228
 20
-1162403.298
  0
LWPOLYLINE
  5
20001
100
AcDbEntity
  8
0
100
AcDbPolyline
 70
0
 90
2
 10
-600618.706
 20
-1163695.406
 10
-600615.786
 20
-1163692.949
  0
LWPOLYLINE
  5
20002
100
AcDbEntity
  8
0
100
AcDbPolyline
 70
0
 90
2
 10
-601494.402
 20
-1162449.989
 10
-601495.548
 20
-1162456.681
  0
LWPOLYLINE
  5
20003
100
AcDbEntity
  8
0
100
AcDbPolyline
 70
0
 90
2
 10
-601478.09
 20
-1162291.72
 10
-601479.26
 20
-1162298.02
  0
LWPOLYLINE
  5
20004
100
AcDbEntity
  8
0
100
AcDbPolyline
 70
0
 90
2
 10
-601476.18
 20
-1162282.7
 10
-601477.53
 20
-1162289.11
  0
LWPOLYLINE
  5
20005
100
AcDbEntity
  8
0
100
AcDbPolyline
 70
0
 90
2
 10
-601340.37
 20
-1162315.45
 10
-601339.31
 20
-1162309.58
  0
LWPOLYLINE
  5
20006
100
AcDbEntity
  8
0
100
AcDbPolyline
 70
0
 90
2
 10
-601342.16
 20
-1162324.16
 10
-601341.09
 20
-1162318.18
  0
LWPOLYLINE
  5
20007
100
AcDbEntity
  8
0
100
AcDbPolyline
 70
0
 90
2
 10
-601275.32
 20
-1162330.95
 10
-601276.36
 20
-1162336.79
  0
LWPOLYLINE
  5
20008
100
AcDbEntity
  8
0
100
AcDbPolyline
 70
0
 90
2
 10
-601273.89
 20
-1162321.86
 10
-601274.97
 20
-1162327.81
  0
LWPOLYLINE
  5
20009
100
AcDbEntity
  8
0
100
AcDbPolyline
 70
0
 90
2
 10
-601307.6
 20
-1162289.44
 10
-601301.94
 20
-1162290.35
  0
LWPOLYLINE
  5
2000A
100
AcDbEntity
  8
0
100
AcDbPolyline
 70
0
 90
2
 10
-600904.18
 20
-1162414.65
 10
-600898.18
 20
-1162415.81
  0
LWPOLYLINE
  5
2000B
100
AcDbEntity
  8
0
100
AcDbPolyline
 70
0
 90
2
 10
-600911.6
 20
-1162400.55
 10
-600912.66
 20
-1162406.35
  0
LWPOLYLINE
  5
2000C
100
AcDbEntity
  8
0
100
AcDbPolyline
 70
0
 90
2
 10
-600909.89
 20
-1162391.82
 10
-600910.91
 20
-1162397.44
  0
LWPOLYLINE
  5
2000D
100
AcDbEntity
  8
0
100
AcDbPolyline
 70
0
 90
2
 10
-601313.21
 20
-1162351.08
 10
-601309.3
 20
-1162351.9
  0
LWPOLYLINE
  5
2000E
100
AcDbEntity
  8
0
100
AcDbPolyline
 70
0
 90
2
 10
-601323.51
 20
-1162348.81
 10
-601317.53
 20
-1162349.94
  0
LWPOLYLINE
  5
2000F
100
AcDbEntity
  8
0
100
AcDbPolyline
 70
0
 90
2
 10
-601359.98
 20
-1162482.04
 10
-601358.74
 20
-1162476.64
  0
LWPOLYLINE
  5
20010
100
AcDbEntity
  8
0
100
AcDbPolyline
 70
0
 90
2
 10
-600070.22
 20
-1163700.14
 10
-600060.05
 20
-1163701.23
  0
LWPOLYLINE
  5
20011
100
AcDbEntity
  8
0
100
AcDbPolyline
 70
0
 90
2
 10
-600483.625
 20
-1162916.137
 10
-600473.987
 20
-1162918.005
  0
LWPOLYLINE
  5
20012
100
AcDbEntity
  8
0
100
AcDbPolyline
 70
0
 90
2
 10
-600412.529
 20
-1163741.51
 10
-600413.257
 20
-1163748.484
  0
LWPOLYLINE
  5
20013
100
AcDbEntity
  8
0
100
AcDbPolyline
 70
0
 90
2
 10
-599698.124
 20
-1164028.244
 10
-599700.154
 20
-1164034.418
  0
LWPOLYLINE
  5
20014
100
AcDbEntity
  8
0
100
AcDbPolyline
 70
0
 90
2
 10
-601144.506
 20
-1163573.294
 10
-601139.117
 20
-1163570.495
  0
LWPOLYLINE
  5
20015
100
AcDbEntity
  8
0
100
AcDbPolyline
 70
0
 90
2
 10
-601163.11
 20
-1163561.47
 10
-601161.584
 20
-1163564.413
  0
LWPOLYLINE
  5
20016
100
AcDbEntity
  8
0
100
AcDbPolyline
 70
0
 90
2
 10
-600774.378
 20
-1163805.317
 10
-600771.526
 20
-1163811.533
  0
LWPOLYLINE
  5
20017
100
AcDbEntity
  8
0
100
AcDbPolyline
 70
0
 90
2
 10
-600198.858
 20
-1163772.174
 10
-600198.071
 20
-1163765.663
  0
LWPOLYLINE
  5
20018
100
AcDbEntity
  8
0
100
AcDbPolyline
 70
0
 90
2
 10
-600367.39
 20
-1162935.02
 10
-600359.91
 20
-1162940.49
  0
LWPOLYLINE
  5
20019
100
AcDbEntity
  8
0
100
AcDbPolyline
 70
0
 90
2
 10
-600943.93
 20
-1163045.778
 10
-600943.912
 20
-1163037.775
  0
LWPOLYLINE
  5
2001A
100
AcDbEntity
  8
0
100
AcDbPolyline
 70
0
 90
2
 10
-601069.214
 20
-1163242.145
 10
-601069.314
 20
-1163249.171
  0
LWPOLYLINE
  5
2001B
100
AcDbEntity
  8
0
100
AcDbPolyline
 70
0
 90
3
 10
-600859.421
 20
-1163671.28
 10
-600859.33
 20
-1163669.954
 10
-600858.905
 20
-1163664.248
  0
LWPOLYLINE
  5
2001C
100
AcDbEntity
  8
0
100
AcDbPolyline
 70
0
 90
2
 10
-600870.073
 20
-1163655.337
 10
-600863.869
 20
-1163655.771
  0
LWPOLYLINE
  5
2001D
100
AcDbEntity
  8
0
100
AcDbPolyline
 70
0
 90
2
 10
-601160.86
 20
-1163240.86
 10
-601160.21
 20
-1163233.73
  0
LWPOLYLINE
  5
2001E
100
AcDbEntity
  8
0
100
AcDbPolyline
 70
0
 90
2
 10
-601178.692
 20
-1163244.62
 10
-601171.6
 20
-1163245.392
  0
LWPOLYLINE
  5
2001F
100
AcDbEntity
  8
0
100
AcDbPolyline
 70
0
 90
2
 10
-600182.381
 20
-1162970.825
 10
-600162.34
 20
-1162974.414
  0
LWPOLYLINE
  5
20020
100
AcDbEntity
  8
0
100
AcDbPolyline
 70
0
 90
2
 10
-600482.157
 20
-1162937.744
 10
-600489.02
 20
-1162936.178
  0
LWPOLYLINE
  5
20021
100
AcDbEntity
  8
0
100
AcDbPolyline
 70
0
 90
2
 10
-600257.59
 20
-1162959.41
 10
-600245.72
 20
-1162958.83
  0
LWPOLYLINE
  5
20022
100
AcDbEntity
  8
0
100
AcDbPolyline
 70
0
 90
2
 10
-601035.737
 20
-1163511.549
 10
-601026.319
 20
-1163506.557
  0
LWPOLYLINE
  5
20023
100
AcDbEntity
  8
0
100
AcDbPolyline
 70
0
 90
2
 10
-601019.571
 20
-1163483.839
 10
-601011.794
 20
-1163479.915
  0
LWPOLYLINE
  5
20024
100
AcDbEntity
  8
0
100
AcDbPolyline
 70
0
 90
2
 10
-600454.37
 20
-1163315.685
 10
-600448.352
 20
-1163312.388
  0
LWPOLYLINE
  5
20025
100
AcDbEntity
  8
0
100
AcDbPolyline
 70
0
 90
2
 10
-600402.48
 20
-1163285.46
 10
-600406.26
 20
-1163273
  0
LWPOLYLINE
  5
20026
100
AcDbEntity
  8
0
100
AcDbPolyline
 70
0
 90
2
 10
-600002.752
 20
-1163908.715
 10
-599997.553
 20
-1163904.585
  0
LWPOLYLINE
  5
20027
100
AcDbEntity
  8
0
100
AcDbPolyline
 70
0
 90
2
 10
-600242.968
 20
-1163755.903
 10
-600236.043
 20
-1163756.521
  0
LWPOLYLINE
  5
20028
100
AcDbEntity
  8
0
100
AcDbPolyline
 70
0
 90
2
 10
-600072.978
 20
-1163823.552
 10
-600067.807
 20
-1163817.74
  0
LWPOLYLINE
  5
20029
100
AcDbEntity
  8
0
100
AcDbPolyline
 70
0
 90
2
 10
-600071.84
 20
-1163653.9
 10
-600072.65
 20
-1163660.84
  0
LWPOLYLINE
  5
2002A
100
AcDbEntity
  8
0
100
AcDbPolyline
 70
0
 90
2
 10
-600061.03
 20
-1163551.24
 10
-600060.16
 20
-1163545.34
  0
LWPOLYLINE
  5
2002B
100
AcDbEntity
  8
0
100
AcDbPolyline
 70
0
 90
2
 10
-600112.466
 20
-1163312.071
 10
-600100.478
 20
-1163307.729
  0
LWPOLYLINE
  5
2002C
100
AcDbEntity
  8
0
100
AcDbPolyline
 70
0
 90
2
 10
-600190.068
 20
-1162996.575
 10
-600173.231
 20
-1163003.369
  0
LWPOLYLINE
  5
2002D
100
AcDbEntity
  8
0
100
AcDbPolyline
 70
0
 90
2
 10
-600199.541
 20
-1162987.562
 10
-600196.527
 20
-1162972.741
  0
LWPOLYLINE
  5
2002E
100
AcDbEntity
  8
0
100
AcDbPolyline
 70
0
 90
2
 10
-600499.253
 20
-1162930.526
 10
-600496.447
 20
-1162915.815
  0
LWPOLYLINE
  5
2002F
100
AcDbEntity
  8
0
100
AcDbPolyline
 70
0
 90
2
 10
-600694.5
 20
-1162893.78
 10
-600691.701
 20
-1162878.123
  0
LWPOLYLINE
  5
20030
100
AcDbEntity
  8
0
100
AcDbPolyline
 70
0
 90
2
 10
-601049.56
 20
-1162834.78
 10
-601046.52
 20
-1162838.82
  0
LWPOLYLINE
  5
20031
100
AcDbEntity
  8
0
100
AcDbPolyline
 70
0
 90
2
 10
-601046.19
 20
-1162828.54
 10
-601043.1
 20
-1162811.75
  0
LWPOLYLINE
  5
20032
100
AcDbEntity
  8
0
100
AcDbPolyline
 70
0
 90
2
 10
-601058.374
 20
-1162832.369
 10
-601052.569
 20
-1162833.045
  0
LWPOLYLINE
  5
20033
100
AcDbEntity
  8
0
100
AcDbPolyline
 70
0
 90
2
 10
-601066.282
 20
-1162831.402
 10
-601061.46
 20
-1162832.247
  0
LWPOLYLINE
  5
20034
100
AcDbEntity
  8
0
100
AcDbPolyline
 70
0
 90
2
 10
-601077.11
 20
-1162831.21
 10
-601071.448
 20
-1162830.835
  0
LWPOLYLINE
  5
20035
100
AcDbEntity
  8
0
100
AcDbPolyline
 70
0
 90
2
 10
-604028.52
 20
-1162527.166
 10
-604029.431
 20
-1162530.239
  0
LWPOLYLINE
  5
20036
100
AcDbEntity
  8
0
100
AcDbPolyline
 70
0
 90
2
 10
-603847.09
 20
-1162499.92
 10
-603838.931
 20
-1162495.582
  0
LWPOLYLINE
  5
20037
100
AcDbEntity
  8
0
100
AcDbPolyline
 70
0
 90
2
 10
-603039.341
 20
-1162641.207
 10
-603035.481
 20
-1162626.804
  0
LWPOLYLINE
  5
20038
100
AcDbEntity
  8
0
100
AcDbPolyline
 70
0
 90
2
 10
-603701.17
 20
-1162465.959
 10
-603700.657
 20
-1162469.548
  0
LWPOLYLINE
  5
20039
100
AcDbEntity
  8
0
100
AcDbPolyline
 70
0
 90
2
 10
-604155.278
 20
-1162492.716
 10
-604155.28
 20
-1162495.603
  0
LWPOLYLINE
  5
2003A
100
AcDbEntity
  8
0
100
AcDbPolyline
 70
0
 90
2
 10
-603858.578
 20
-1162508.97
 10
-603857.485
 20
-1162511.429
  0
LWPOLYLINE
  5
2003B
100
AcDbEntity
  8
0
100
AcDbPolyline
 70
0
 90
2
 10
-595797.494
 20
-1165552.471
 10
-595790.808
 20
-1165552.563
  0
LWPOLYLINE
  5
2003C
100
AcDbEntity
  8
0
100
AcDbPolyline
 70
0
 90
2
 10
-595345.983
 20
-1165741.979
 10
-595339.632
 20
-1165741.979
  0
LWPOLYLINE
  5
2003D
100
AcDbEntity
  8
0
100
AcDbPolyline
 70
0
 90
2
 10
-595222.351
 20
-1165850.224
 10
-595213.593
 20
-1165859.27
  0
LWPOLYLINE
  5
2003E
100
AcDbEntity
  8
0
100
AcDbPolyline
 70
0
 90
2
 10
-595168.699
 20
-1165941.544
 10
-595174.832
 20
-1165937.217
  0
LWPOLYLINE
  5
2003F
100
AcDbEntity
  8
0
100
AcDbPolyline
 70
0
 90
2
 10
-594953.394
 20
-1166031.698
 10
-594949.535
 20
-1166036.87
  0
LWPOLYLINE
  5
20040
100
AcDbEntity
  8
0
100
AcDbPolyline
 70
0
 90
2
 10
-605673.959
 20
-1157534.027
 10
-605669.755
 20
-1157528.401
  0
LWPOLYLINE
  5
20041
100
AcDbEntity
  8
0
100
AcDbPolyline
 70
0
 90
2
 10
-605794.101
 20
-1157726.694
 10
-605791.806
 20
-1157733.212
  0
LWPOLYLINE
  5
20042
100
AcDbEntity
  8
0
100
AcDbPolyline
 70
0
 90
2
 10
-603291.25
 20
-1156557.34
 10
-603295.51
 20
-1156559.23
  0
LWPOLYLINE
  5
20043
100
AcDbEntity
  8
0
100
AcDbPolyline
 70
0
 90
2
 10
-603350.07
 20
-1156589.98
 10
-603342.62
 20
-1156589.14
  0
LWPOLYLINE
  5
20044
100
AcDbEntity
  8
0
100
AcDbPolyline
 70
0
 90
2
 10
-603359.17
 20
-1156606.35
 10
-603354.52
 20
-1156612.64
  0
LWPOLYLINE
  5
20045
100
AcDbEntity
  8
0
100
AcDbPolyline
 70
0
 90
2
 10
-603608.25
 20
-1156762.71
 10
-603602.05
 20
-1156761.41
  0
LWPOLYLINE
  5
20046
100
AcDbEntity
  8
0
100
AcDbPolyline
 70
0
 90
2
 10
-603683.994
 20
-1156748.776
 10
-603675.832
 20
-1156749.082
  0
LWPOLYLINE
  5
20047
100
AcDbEntity
  8
0
100
AcDbPolyline
 70
0
 90
2
 10
-603288.82
 20
-1156556.19
 10
-603284.5
 20
-1156554.32
  0
LWPOLYLINE
  5
20048
100
AcDbEntity
  8
0
100
AcDbPolyline
 70
0
 90
2
 10
-603337.359
 20
-1156684.376
 10
-603333.561
 20
-1156683.129
  0
LWPOLYLINE
  5
20049
100
AcDbEntity
  8
0
100
AcDbPolyline
 70
0
 90
2
 10
-603885.882
 20
-1157455.137
 10
-603891.197
 20
-1157453.03
  0
LWPOLYLINE
  5
2004A
100
AcDbEntity
  8
0
100
AcDbPolyline
 70
0
 90
2
 10
-603873.149
 20
-1157457.141
 10
-603880.437
 20
-1157456.562
  0
LWPOLYLINE
  5
2004B
100
AcDbEntity
  8
0
100
AcDbPolyline
 70
0
 90
2
 10
-604034.49
 20
-1158036.62
 10
-604036.48
 20
-1158046.25
  0
LWPOLYLINE
  5
2004C
100
AcDbEntity
  8
0
100
AcDbPolyline
 70
0
 90
2
 10
-604165.708
 20
-1157836.9
 10
-604155.495
 20
-1157837.345
  0
LWPOLYLINE
  5
2004D
100
AcDbEntity
  8
0
100
AcDbPolyline
 70
0
 90
2
 10
-605193.57
 20
-1157407.97
 10
-605189.675
 20
-1157411.782
  0
LWPOLYLINE
  5
2004E
100
AcDbEntity
  8
0
100
AcDbPolyline
 70
0
 90
2
 10
-605130.136
 20
-1157428.051
 10
-605136.091
 20
-1157430.153
  0
LWPOLYLINE
  5
2004F
100
AcDbEntity
  8
0
100
AcDbPolyline
 70
0
 90
2
 10
-605515.448
 20
-1157179.256
 10
-605515.241
 20
-1157185.193
  0
LWPOLYLINE
  5
20050
100
AcDbEntity
  8
0
100
AcDbPolyline
 70
0
 90
2
 10
-605148.256
 20
-1157367.609
 10
-605144.149
 20
-1157371.654
  0
LWPOLYLINE
  5
20051
100
AcDbEntity
  8
0
100
AcDbPolyline
 70
0
 90
2
 10
-603657.286
 20
-1156754.758
 10
-603657.582
 20
-1156761.806
  0
LWPOLYLINE
  5
20052
100
AcDbEntity
  8
0
100
AcDbPolyline
 70
0
 90
2
 10
-603755.256
 20
-1156620.953
 10
-603748.827
 20
-1156617.017
  0
LWPOLYLINE
  5
20053
100
AcDbEntity
  8
0
100
AcDbPolyline
 70
0
 90
2
 10
-604427.372
 20
-1157531.383
 10
-604426.356
 20
-1157534.235
  0
LWPOLYLINE
  5
20054
100
AcDbEntity
  8
0
100
AcDbPolyline
 70
0
 90
2
 10
-603347.467
 20
-1156617.01
 10
-603340.35
 20
-1156616.38
  0
LWPOLYLINE
  5
20055
100
AcDbEntity
  8
0
100
AcDbPolyline
 70
0
 90
2
 10
-603344.33
 20
-1156684.34
 10
-603340.661
 20
-1156684.503
  0
LWPOLYLINE
  5
20056
100
AcDbEntity
  8
0
100
AcDbPolyline
 70
0
 90
2
 10
-605035.519
 20
-1157376.072
 10
-605031.45
 20
-1157381.74
  0
LWPOLYLINE
  5
20057
100
AcDbEntity
  8
0
100
AcDbPolyline
 70
0
 90
2
 10
-603998.762
 20
-1156463.26
 10
-603990.381
 20
-1156456.614
  0
LWPOLYLINE
  5
20058
100
AcDbEntity
  8
0
100
AcDbPolyline
 70
0
 90
2
 10
-605515.329
 20
-1154612.057
 10
-605510.419
 20
-1154609.275
  0
LWPOLYLINE
  5
20059
100
AcDbEntity
  8
0
100
AcDbPolyline
 70
0
 90
2
 10
-605133.96
 20
-1155229.15
 10
-605128.23
 20
-1155230.06
  0
LWPOLYLINE
  5
2005A
100
AcDbEntity
  8
0
100
AcDbPolyline
 70
0
 90
2
 10
-605170.97
 20
-1155445.32
 10
-605166.161
 20
-1155446.009
  0
LWPOLYLINE
  5
2005B
100
AcDbEntity
  8
0
100
AcDbPolyline
 70
0
 90
2
 10
-605068.543
 20
-1155614.938
 10
-605071.08
 20
-1155621.157
  0
LWPOLYLINE
  5
2005C
100
AcDbEntity
  8
0
100
AcDbPolyline
 70
0
 90
2
 10
-604312.078
 20
-1156726.076
 10
-604316.693
 20
-1156727.379
  0
LWPOLYLINE
  5
2005D
100
AcDbEntity
  8
0
100
AcDbPolyline
 70
0
 90
2
 10
-604291.796
 20
-1156665.144
 10
-604283.339
 20
-1156668.26
  0
LWPOLYLINE
  5
2005E
100
AcDbEntity
  8
0
100
AcDbPolyline
 70
0
 90
2
 10
-605489.885
 20
-1157108.33
 10
-605489.62
 20
-1157112.231
  0
LWPOLYLINE
  5
2005F
100
AcDbEntity
  8
0
100
AcDbPolyline
 70
0
 90
2
 10
-605035.353
 20
-1157389.163
 10
-605038.415
 20
-1157391.583
  0
LWPOLYLINE
  5
20060
100
AcDbEntity
  8
0
100
AcDbPolyline
 70
0
 90
2
 10
-604910.287
 20
-1157517.34
 10
-604912.374
 20
-1157520.44
  0
LWPOLYLINE
  5
20061
100
AcDbEntity
  8
0
100
AcDbPolyline
 70
0
 90
2
 10
-604312.549
 20
-1157470.25
 10
-604309.775
 20
-1157473.161
  0
LWPOLYLINE
  5
20062
100
AcDbEntity
  8
0
100
AcDbPolyline
 70
0
 90
2
 10
-604294.5
 20
-1157465.821
 10
-604285.004
 20
-1157456.592
  0
LWPOLYLINE
  5
20063
100
AcDbEntity
  8
0
100
AcDbPolyline
 70
0
 90
2
 10
-604230.984
 20
-1157161.094
 10
-604234.861
 20
-1157160.088
  0
LWPOLYLINE
  5
20064
100
AcDbEntity
  8
0
100
AcDbPolyline
 70
0
 90
2
 10
-604023.638
 20
-1157092.499
 10
-604021.268
 20
-1157087.708
  0
LWPOLYLINE
  5
20065
100
AcDbEntity
  8
0
100
AcDbPolyline
 70
0
 90
2
 10
-603128.68
 20
-1156521.14
 10
-603126.99
 20
-1156525.9
  0
LWPOLYLINE
  5
20066
100
AcDbEntity
  8
0
100
AcDbPolyline
 70
0
 90
2
 10
-603144.004
 20
-1156521.367
 10
-603135.15
 20
-1156517.145
  0
LWPOLYLINE
  5
20067
100
AcDbEntity
  8
0
100
AcDbPolyline
 70
0
 90
2
 10
-603910.273
 20
-1157199.767
 10
-603907.765
 20
-1157198.046
  0
LWPOLYLINE
  5
20068
100
AcDbEntity
  8
0
100
AcDbPolyline
 70
0
 90
2
 10
-603598.395
 20
-1157217.848
 10
-603595.49
 20
-1157222.382
  0
LWPOLYLINE
  5
20069
100
AcDbEntity
  8
0
100
AcDbPolyline
 70
0
 90
2
 10
-604180.535
 20
-1157835.937
 10
-604176.079
 20
-1157836.11
  0
LWPOLYLINE
  5
2006A
100
AcDbEntity
  8
0
100
AcDbPolyline
 70
0
 90
2
 10
-604149.97
 20
-1156543.71
 10
-604138.95
 20
-1156544.27
  0
LWPOLYLINE
  5
2006B
100
AcDbEntity
  8
0
100
AcDbPolyline
 70
0
 90
2
 10
-604013.222
 20
-1156455.71
 10
-604005.35
 20
-1156464.963
  0
LWPOLYLINE
  5
2006C
100
AcDbEntity
  8
0
100
AcDbPolyline
 70
0
 90
2
 10
-603369.87
 20
-1156468.06
 10
-603362.42
 20
-1156465.25
  0
LWPOLYLINE
  5
2006D
100
AcDbEntity
  8
0
100
AcDbPolyline
 70
0
 90
2
 10
-603251.179
 20
-1156688.15
 10
-603247.974
 20
-1156692.868
  0
LWPOLYLINE
  5
2006E
100
AcDbEntity
  8
0
100
AcDbPolyline
 70
0
 90
2
 10
-603243.39
 20
-1156707.33
 10
-603244.04
 20
-1156700.37
  0
LWPOLYLINE
  5
2006F
100
AcDbEntity
  8
0
100
AcDbPolyline
 70
0
 90
2
 10
-597325.328
 20
-1159771.012
 10
-597321.083
 20
-1159770.678
  0
LWPOLYLINE
  5
20070
100
AcDbEntity
  8
0
100
AcDbPolyline
 70
0
 90
2
 10
-597677.269
 20
-1160048.524
 10
-597677.851
 20
-1160056.542
  0
LWPOLYLINE
  5
20071
100
AcDbEntity
  8
0
100
AcDbPolyline
 70
0
 90
2
 10
-597266.78
 20
-1159954.132
 10
-597263.709
 20
-1159953.081
  0
LWPOLYLINE
  5
20072
100
AcDbEntity
  8
0
100
AcDbPolyline
 70
0
 90
2
 10
-597667.87
 20
-1159968.682
 10
-597657.009
 20
-1159968.95
  0
LWPOLYLINE
  5
20073
100
AcDbEntity
  8
0
100
AcDbPolyline
 70
0
 90
2
 10
-597857.38
 20
-1159317.57
 10
-597844.9
 20
-1159310.48
  0
LWPOLYLINE
  5
20074
100
AcDbEntity
  8
0
100
AcDbPolyline
 70
0
 90
2
 10
-596522.132
 20
-1158541.49
 10
-596510.028
 20
-1158547.222
  0
LWPOLYLINE
  5
20075
100
AcDbEntity
  8
0
100
AcDbPolyline
 70
0
 90
2
 10
-596481.87
 20
-1158457.66
 10
-596469.601
 20
-1158464.152
  0
LWPOLYLINE
  5
20076
100
AcDbEntity
  8
0
100
AcDbPolyline
 70
0
 90
2
 10
-596426.782
 20
-1158382.464
 10
-596439.048
 20
-1158375.729
  0
LWPOLYLINE
  5
20077
100
AcDbEntity
  8
0
100
AcDbPolyline
 70
0
 90
2
 10
-596409.81
 20
-1158319.85
 10
-596418.23
 20
-1158335.03
  0
LWPOLYLINE
  5
20078
100
AcDbEntity
  8
0
100
AcDbPolyline
 70
0
 90
2
 10
-596775.456
 20
-1157923.59
 10
-596779.165
 20
-1157928.253
  0
LWPOLYLINE
  5
20079
100
AcDbEntity
  8
0
100
AcDbPolyline
 70
0
 90
2
 10
-596989.702
 20
-1158398.729
 10
-596981.981
 20
-1158396.651
  0
LWPOLYLINE
  5
2007A
100
AcDbEntity
  8
0
100
AcDbPolyline
 70
0
 90
2
 10
-596993.444
 20
-1158406.768
 10
-596992.36
 20
-1158412.612
  0
LWPOLYLINE
  5
2007B
100
AcDbEntity
  8
0
100
AcDbPolyline
 70
0
 90
2
 10
-596915.241
 20
-1159171.388
 10
-596908.343
 20
-1159174.856
  0
LWPOLYLINE
  5
2007C
100
AcDbEntity
  8
0
100
AcDbPolyline
 70
0
 90
2
 10
-596351.891
 20
-1158206.992
 10
-596355.91
 20
-1158214.6
  0
LWPOLYLINE
  5
2007D
100
AcDbEntity
  8
0
100
AcDbPolyline
 70
0
 90
2
 10
-596903.932
 20
-1157883.572
 10
-596912.995
 20
-1157881.84
  0
LWPOLYLINE
  5
2007E
100
AcDbEntity
  8
0
100
AcDbPolyline
 70
0
 90
2
 10
-596501.914
 20
-1158486.776
 10
-596505.268
 20
-1158492.8
  0
LWPOLYLINE
  5
2007F
100
AcDbEntity
  8
0
100
AcDbPolyline
 70
0
 90
2
 10
-596787.839
 20
-1158196.468
 10
-596791.223
 20
-1158202.968
  0
LWPOLYLINE
  5
20080
100
AcDbEntity
  8
0
100
AcDbPolyline
 70
0
 90
2
 10
-596804.717
 20
-1158203.21
 10
-596800.512
 20
-1158205.482
  0
LWPOLYLINE
  5
20081
100
AcDbEntity
  8
0
100
AcDbPolyline
 70
0
 90
2
 10
-596807.54
 20
-1158192.73
 10
-596804.71
 20
-1158187.07
  0
LWPOLYLINE
  5
20082
100
AcDbEntity
  8
0
100
AcDbPolyline
 70
0
 90
2
 10
-597881.63
 20
-1159204.74
 10
-597875.47
 20
-1159204.87
  0
LWPOLYLINE
  5
20083
100
AcDbEntity
  8
0
100
AcDbPolyline
 70
0
 90
2
 10
-597903.612
 20
-1159206.437
 10
-597895.251
 20
-1159199.515
  0
LWPOLYLINE
  5
20084
100
AcDbEntity
  8
0
100
AcDbPolyline
 70
0
 90
2
 10
-596594.173
 20
-1158733.754
 10
-596609.834
 20
-1158726.294
  0
LWPOLYLINE
  5
20085
100
AcDbEntity
  8
0
100
AcDbPolyline
 70
0
 90
2
 10
-596496.322
 20
-1158531.639
 10
-596493.838
 20
-1158516.093
  0
LWPOLYLINE
  5
20086
100
AcDbEntity
  8
0
100
AcDbPolyline
 70
0
 90
2
 10
-597745.994
 20
-1159488.212
 10
-597734.32
 20
-1159480.55
  0
LWPOLYLINE
  5
20087
100
AcDbEntity
  8
0
100
AcDbPolyline
 70
0
 90
2
 10
-597144.925
 20
-1159395.153
 10
-597146.539
 20
-1159391.632
  0
LWPOLYLINE
  5
20088
100
AcDbEntity
  8
0
100
AcDbPolyline
 70
0
 90
2
 10
-597173.329
 20
-1159333.155
 10
-597174.589
 20
-1159330.241
  0
LWPOLYLINE
  5
20089
100
AcDbEntity
  8
0
100
AcDbPolyline
 70
0
 90
2
 10
-597269.088
 20
-1159156.365
 10
-597272.467
 20
-1159148.468
  0
LWPOLYLINE
  5
2008A
100
AcDbEntity
  8
0
100
AcDbPolyline
 70
0
 90
2
 10
-597129.943
 20
-1159095.627
 10
-597125.114
 20
-1159094.242
  0
LWPOLYLINE
  5
2008B
100
AcDbEntity
  8
0
100
AcDbPolyline
 70
0
 90
2
 10
-597189.485
 20
-1158866.942
 10
-597184.875
 20
-1158865.634
  0
LWPOLYLINE
  5
2008C
100
AcDbEntity
  8
0
100
AcDbPolyline
 70
0
 90
2
 10
-597339.335
 20
-1158508.095
 10
-597336.642
 20
-1158516.373
  0
LWPOLYLINE
  5
2008D
100
AcDbEntity
  8
0
100
AcDbPolyline
 70
0
 90
2
 10
-596968.363
 20
-1159702.649
 10
-596972.041
 20
-1159695.608
  0
LWPOLYLINE
  5
2008E
100
AcDbEntity
  8
0
100
AcDbPolyline
 70
0
 90
2
 10
-596979.476
 20
-1159600.596
 10
-596979.95
 20
-1159593.157
  0
LWPOLYLINE
  5
2008F
100
AcDbEntity
  8
0
100
AcDbPolyline
 70
0
 90
2
 10
-596850.567
 20
-1159601.691
 10
-596851.649
 20
-1159593.895
  0
LWPOLYLINE
  5
20090
100
AcDbEntity
  8
0
100
AcDbPolyline
 70
0
 90
2
 10
-596869.198
 20
-1159460.788
 10
-596869.365
 20
-1159455.195
  0
LWPOLYLINE
  5
20091
100
AcDbEntity
  8
0
100
AcDbPolyline
 70
0
 90
2
 10
-596850.074
 20
-1159458.271
 10
-596850.64
 20
-1159451.934
  0
LWPOLYLINE
  5
20092
100
AcDbEntity
  8
0
100
AcDbPolyline
 70
0
 90
2
 10
-596949.198
 20
-1159339.912
 10
-596948.394
 20
-1159333.935
  0
LWPOLYLINE
  5
20093
100
AcDbEntity
  8
0
100
AcDbPolyline
 70
0
 90
2
 10
-596852.55
 20
-1159294.751
 10
-596846.798
 20
-1159295.91
  0
LWPOLYLINE
  5
20094
100
AcDbEntity
  8
0
100
AcDbPolyline
 70
0
 90
2
 10
-596838.908
 20
-1159289.028
 10
-596837.527
 20
-1159282.619
  0
LWPOLYLINE
  5
20095
100
AcDbEntity
  8
0
100
AcDbPolyline
 70
0
 90
2
 10
-596856.881
 20
-1159284.134
 10
-596855.37
 20
-1159278.02
  0
LWPOLYLINE
  5
20096
100
AcDbEntity
  8
0
100
AcDbPolyline
 70
0
 90
2
 10
-596922.495
 20
-1159266.312
 10
-596921.035
 20
-1159260.37
  0
LWPOLYLINE
  5
20097
100
AcDbEntity
  8
0
100
AcDbPolyline
 70
0
 90
2
 10
-596935.199
 20
-1159263.333
 10
-596933.825
 20
-1159257.523
  0
LWPOLYLINE
  5
20098
100
AcDbEntity
  8
0
100
AcDbPolyline
 70
0
 90
2
 10
-596902.925
 20
-1159161.796
 10
-596902.009
 20
-1159158.035
  0
LWPOLYLINE
  5
20099
100
AcDbEntity
  8
0
100
AcDbPolyline
 70
0
 90
2
 10
-596905.865
 20
-1159173.818
 10
-596905.05
 20
-1159170.068
  0
LWPOLYLINE
  5
2009A
100
AcDbEntity
  8
0
100
AcDbPolyline
 70
0
 90
2
 10
-597017.483
 20
-1158815.657
 10
-597013.519
 20
-1158814.512
  0
LWPOLYLINE
  5
2009B
100
AcDbEntity
  8
0
100
AcDbPolyline
 70
0
 90
2
 10
-597105.708
 20
-1158843.377
 10
-597100.936
 20
-1158842.13
  0
LWPOLYLINE
  5
2009C
100
AcDbEntity
  8
0
100
AcDbPolyline
 70
0
 90
2
 10
-597045.65
 20
-1159072.97
 10
-597040.95
 20
-1159071.61
  0
LWPOLYLINE
  5
2009D
100
AcDbEntity
  8
0
100
AcDbPolyline
 70
0
 90
2
 10
-596958.464
 20
-1159050.35
 10
-596952.697
 20
-1159048.861
  0
LWPOLYLINE
  5
2009E
100
AcDbEntity
  8
0
100
AcDbPolyline
 70
0
 90
2
 10
-596903.958
 20
-1159047.308
 10
-596902.398
 20
-1159038.393
  0
LWPOLYLINE
  5
2009F
100
AcDbEntity
  8
0
100
AcDbPolyline
 70
0
 90
2
 10
-596897.278
 20
-1159022.741
 10
-596889.275
 20
-1159023.222
  0
LWPOLYLINE
  5
200A0
100
AcDbEntity
  8
0
100
AcDbPolyline
 70
0
 90
2
 10
-596886.193
 20
-1158363.349
 10
-596881.562
 20
-1158365.707
  0
LWPOLYLINE
  5
200A1
100
AcDbEntity
  8
0
100
AcDbPolyline
 70
0
 90
2
 10
-596891.487
 20
-1158391.62
 10
-596886.779
 20
-1158388.142
  0
LWPOLYLINE
  5
200A2
100
AcDbEntity
  8
0
100
AcDbPolyline
 70
0
 90
2
 10
-596828.326
 20
-1158179.773
 10
-596825.922
 20
-1158175.121
  0
LWPOLYLINE
  5
200A3
100
AcDbEntity
  8
0
100
AcDbPolyline
 70
0
 90
2
 10
-596655.427
 20
-1158862.949
 10
-596652.92
 20
-1158857.539
  0
LWPOLYLINE
  5
200A4
100
AcDbEntity
  8
0
100
AcDbPolyline
 70
0
 90
2
 10
-596739.676
 20
-1158880.323
 10
-596736.87
 20
-1158876.53
  0
LWPOLYLINE
  5
200A5
100
AcDbEntity
  8
0
100
AcDbPolyline
 70
0
 90
2
 10
-596734.069
 20
-1158891.425
 10
-596740.08
 20
-1158886.517
  0
LWPOLYLINE
  5
200A6
100
AcDbEntity
  8
0
100
AcDbPolyline
 70
0
 90
2
 10
-596697.07
 20
-1158907.306
 10
-596693.601
 20
-1158899.733
  0
LWPOLYLINE
  5
200A7
100
AcDbEntity
  8
0
100
AcDbPolyline
 70
0
 90
2
 10
-597269.082
 20
-1158878.52
 10
-597271.409
 20
-1158870.772
  0
LWPOLYLINE
  5
200A8
100
AcDbEntity
  8
0
100
AcDbPolyline
 70
0
 90
2
 10
-597268.408
 20
-1158881.061
 10
-597266.418
 20
-1158887.737
  0
LWPOLYLINE
  5
200A9
100
AcDbEntity
  8
0
100
AcDbPolyline
 70
0
 90
2
 10
-597281.673
 20
-1158895.742
 10
-597272.118
 20
-1158893.012
  0
LWPOLYLINE
  5
200AA
100
AcDbEntity
  8
0
100
AcDbPolyline
 70
0
 90
2
 10
-596902.649
 20
-1158764.273
 10
-596898.766
 20
-1158777.659
  0
LWPOLYLINE
  5
200AB
100
AcDbEntity
  8
0
100
AcDbPolyline
 70
0
 90
2
 10
-596887.81
 20
-1158749.63
 10
-596877.11
 20
-1158746.63
  0
LWPOLYLINE
  5
200AC
100
AcDbEntity
  8
0
100
AcDbPolyline
 70
0
 90
2
 10
-596614.754
 20
-1158697.594
 10
-596616.688
 20
-1158711.114
  0
LWPOLYLINE
  5
200AD
100
AcDbEntity
  8
0
100
AcDbPolyline
 70
0
 90
2
 10
-596597.621
 20
-1158690.208
 10
-596579.959
 20
-1158697.483
  0
LWPOLYLINE
  5
200AE
100
AcDbEntity
  8
0
100
AcDbPolyline
 70
0
 90
2
 10
-596564.117
 20
-1158693.125
 10
-596567.823
 20
-1158696.373
  0
LWPOLYLINE
  5
200AF
100
AcDbEntity
  8
0
100
AcDbPolyline
 70
0
 90
2
 10
-596574.215
 20
-1158702.198
 10
-596575.419
 20
-1158715.81
  0
LWPOLYLINE
  5
200B0
100
AcDbEntity
  8
0
100
AcDbPolyline
 70
0
 90
2
 10
-597644.825
 20
-1159698.534
 10
-597645.464
 20
-1159710.307
  0
LWPOLYLINE
  5
200B1
100
AcDbEntity
  8
0
100
AcDbPolyline
 70
0
 90
2
 10
-597661.717
 20
-1159693.351
 10
-597648.28
 20
-1159693.831
  0
LWPOLYLINE
  5
200B2
100
AcDbEntity
  8
0
100
AcDbPolyline
 70
0
 90
2
 10
-597660.935
 20
-1159710.91
 10
-597648.921
 20
-1159711.26
  0
LWPOLYLINE
  5
200B3
100
AcDbEntity
  8
0
100
AcDbPolyline
 70
0
 90
2
 10
-596886.668
 20
-1158781.124
 10
-596871.252
 20
-1158777.161
  0
LWPOLYLINE
  5
200B4
100
AcDbEntity
  8
0
100
AcDbPolyline
 70
0
 90
2
 10
-596864.237
 20
-1158753.361
 10
-596859.985
 20
-1158766.369
  0
LWPOLYLINE
  5
200B5
100
AcDbEntity
  8
0
100
AcDbPolyline
 70
0
 90
2
 10
-596798.38
 20
-1157930.52
 10
-596790.61
 20
-1157929.78
  0
LWPOLYLINE
  5
200B6
100
AcDbEntity
  8
0
100
AcDbPolyline
 70
0
 90
2
 10
-597116.185
 20
-1158063.509
 10
-597103.451
 20
-1158064.663
  0
LWPOLYLINE
  5
200B7
100
AcDbEntity
  8
0
100
AcDbPolyline
 70
0
 90
2
 10
-596914.293
 20
-1159815.153
 10
-596925.315
 20
-1159820.402
  0
LWPOLYLINE
  5
200B8
100
AcDbEntity
  8
0
100
AcDbPolyline
 70
0
 90
2
 10
-597541.909
 20
-1160085.741
 10
-597534.725
 20
-1160082.178
  0
LWPOLYLINE
  5
200B9
100
AcDbEntity
  8
0
100
AcDbPolyline
 70
0
 90
2
 10
-597280.496
 20
-1159956.85
 10
-597277.578
 20
-1159957.367
  0
LWPOLYLINE
  5
200BA
100
AcDbEntity
  8
0
100
AcDbPolyline
 70
0
 90
2
 10
-596137.962
 20
-1162553.647
 10
-596131.12
 20
-1162551.47
  0
LWPOLYLINE
  5
200BB
100
AcDbEntity
  8
0
100
AcDbPolyline
 70
0
 90
2
 10
-596428.449
 20
-1161755.622
 10
-596422.046
 20
-1161752.161
  0
LWPOLYLINE
  5
200BC
100
AcDbEntity
  8
0
100
AcDbPolyline
 70
0
 90
2
 10
-596011.478
 20
-1163032.687
 10
-596032.229
 20
-1163035.638
  0
LWPOLYLINE
  5
200BD
100
AcDbEntity
  8
0
100
AcDbPolyline
 70
0
 90
2
 10
-595229.83
 20
-1162069.63
 10
-595221.32
 20
-1162072.57
  0
LWPOLYLINE
  5
200BE
100
AcDbEntity
  8
0
100
AcDbPolyline
 70
0
 90
2
 10
-594299.07
 20
-1163614.41
 10
-594292.934
 20
-1163626.828
  0
LWPOLYLINE
  5
200BF
100
AcDbEntity
  8
0
100
AcDbPolyline
 70
0
 90
2
 10
-594695.34
 20
-1162235.36
 10
-594681.76
 20
-1162241.97
  0
LWPOLYLINE
  5
200C0
100
AcDbEntity
  8
0
100
AcDbPolyline
 70
0
 90
2
 10
-594669.61
 20
-1162223.39
 10
-594662.23
 20
-1162226.67
  0
LWPOLYLINE
  5
200C1
100
AcDbEntity
  8
0
100
AcDbPolyline
 70
0
 90
2
 10
-594659.3
 20
-1162229.8
 10
-594663.71
 20
-1162240
  0
LWPOLYLINE
  5
200C2
100
AcDbEntity
  8
0
100
AcDbPolyline
 70
0
 90
2
 10
-594593.36
 20
-1162272.46
 10
-594587.01
 20
-1162275.26
  0
LWPOLYLINE
  5
200C3
100
AcDbEntity
  8
0
100
AcDbPolyline
 70
0
 90
2
 10
-594564.86
 20
-1162270.24
 10
-594569.68
 20
-1162281.24
  0
LWPOLYLINE
  5
200C4
100
AcDbEntity
  8
0
100
AcDbPolyline
 70
0
 90
2
 10
-596076.835
 20
-1162765.015
 10
-596069.05
 20
-1162762.844
  0
LWPOLYLINE
  5
200C5
100
AcDbEntity
  8
0
100
AcDbPolyline
 70
0
 90
2
 10
-596166.45
 20
-1162458.59
 10
-596163.52
 20
-1162475.12
  0
LWPOLYLINE
  5
200C6
100
AcDbEntity
  8
0
100
AcDbPolyline
 70
0
 90
2
 10
-596172.65
 20
-1162382.33
 10
-596172.25
 20
-1162387.87
  0
LWPOLYLINE
  5
200C7
100
AcDbEntity
  8
0
100
AcDbPolyline
 70
0
 90
2
 10
-596176.14
 20
-1162332.24
 10
-596175.73
 20
-1162338.91
  0
LWPOLYLINE
  5
200C8
100
AcDbEntity
  8
0
100
AcDbPolyline
 70
0
 90
2
 10
-596284.48
 20
-1161561.47
 10
-596276.11
 20
-1161565.39
  0
LWPOLYLINE
  5
200C9
100
AcDbEntity
  8
0
100
AcDbPolyline
 70
0
 90
2
 10
-596342.57
 20
-1161533.89
 10
-596334.039
 20
-1161538.604
  0
LWPOLYLINE
  5
200CA
100
AcDbEntity
  8
0
100
AcDbPolyline
 70
0
 90
2
 10
-596527.839
 20
-1161531.001
 10
-596530.9
 20
-1161522.61
  0
LWPOLYLINE
  5
200CB
100
AcDbEntity
  8
0
100
AcDbPolyline
 70
0
 90
2
 10
-596566.25
 20
-1161531.08
 10
-596568.83
 20
-1161524.5
  0
LWPOLYLINE
  5
200CC
100
AcDbEntity
  8
0
100
AcDbPolyline
 70
0
 90
2
 10
-596545.662
 20
-1163010.423
 10
-596547.38
 20
-1163017.564
  0
LWPOLYLINE
  5
200CD
100
AcDbEntity
  8
0
100
AcDbPolyline
 70
0
 90
2
 10
-596551.442
 20
-1163030.565
 10
-596549.29
 20
-1163022.834
  0
LWPOLYLINE
  5
200CE
100
AcDbEntity
  8
0
100
AcDbPolyline
 70
0
 90
2
 10
-596535.305
 20
-1163063.779
 10
-596529.243
 20
-1163063.999
  0
LWPOLYLINE
  5
200CF
100
AcDbEntity
  8
0
100
AcDbPolyline
 70
0
 90
2
 10
-596035.25
 20
-1163313.417
 10
-596031.341
 20
-1163302.456
  0
LWPOLYLINE
  5
200D0
100
AcDbEntity
  8
0
100
AcDbPolyline
 70
0
 90
2
 10
-596030.12
 20
-1163299.511
 10
-596027.545
 20
-1163291.486
  0
LWPOLYLINE
  5
200D1
100
AcDbEntity
  8
0
100
AcDbPolyline
 70
0
 90
2
 10
-596025.954
 20
-1163129.431
 10
-596024.611
 20
-1163146.687
  0
LWPOLYLINE
  5
200D2
100
AcDbEntity
  8
0
100
AcDbPolyline
 70
0
 90
2
 10
-595729.75
 20
-1161766.47
 10
-595734.88
 20
-1161777.98
  0
LWPOLYLINE
  5
200D3
100
AcDbEntity
  8
0
100
AcDbPolyline
 70
0
 90
2
 10
-595714.171
 20
-1161754.947
 10
-595706.817
 20
-1161758.072
  0
LWPOLYLINE
  5
200D4
100
AcDbEntity
  8
0
100
AcDbPolyline
 70
0
 90
2
 10
-595835.833
 20
-1161737.312
 10
-595830.215
 20
-1161740.008
  0
LWPOLYLINE
  5
200D5
100
AcDbEntity
  8
0
100
AcDbPolyline
 70
0
 90
2
 10
-596033.35
 20
-1161650.89
 10
-596041.37
 20
-1161649.41
  0
LWPOLYLINE
  5
200D6
100
AcDbEntity
  8
0
100
AcDbPolyline
 70
0
 90
2
 10
-596203.568
 20
-1161601.481
 10
-596214.152
 20
-1161596.856
  0
LWPOLYLINE
  5
200D7
100
AcDbEntity
  8
0
100
AcDbPolyline
 70
0
 90
2
 10
-596219.951
 20
-1161576.096
 10
-596224.656
 20
-1161587.169
  0
LWPOLYLINE
  5
200D8
100
AcDbEntity
  8
0
100
AcDbPolyline
 70
0
 90
2
 10
-596212.18
 20
-1161557.86
 10
-596216.63
 20
-1161567.88
  0
LWPOLYLINE
  5
200D9
100
AcDbEntity
  8
0
100
AcDbPolyline
 70
0
 90
2
 10
-596481.56
 20
-1161489.97
 10
-596474.83
 20
-1161488.64
  0
LWPOLYLINE
  5
200DA
100
AcDbEntity
  8
0
100
AcDbPolyline
 70
0
 90
2
 10
-596440.88
 20
-1161481.39
 10
-596446.96
 20
-1161483.95
  0
LWPOLYLINE
  5
200DB
100
AcDbEntity
  8
0
100
AcDbPolyline
 70
0
 90
2
 10
-596704.128
 20
-1161352.829
 10
-596688.106
 20
-1161357.638
  0
LWPOLYLINE
  5
200DC
100
AcDbEntity
  8
0
100
AcDbPolyline
 70
0
 90
2
 10
-596550.419
 20
-1161503.094
 10
-596562.526
 20
-1161509.788
  0
LWPOLYLINE
  5
200DD
100
AcDbEntity
  8
0
100
AcDbPolyline
 70
0
 90
2
 10
-596541.15
 20
-1161549.77
 10
-596528.57
 20
-1161543.92
  0
LWPOLYLINE
  5
200DE
100
AcDbEntity
  8
0
100
AcDbPolyline
 70
0
 90
2
 10
-596537.068
 20
-1161507.638
 10
-596532.28
 20
-1161519.002
  0
LWPOLYLINE
  5
200DF
100
AcDbEntity
  8
0
100
AcDbPolyline
 70
0
 90
2
 10
-596565.22
 20
-1161533.34
 10
-596561.41
 20
-1161542.77
  0
LWPOLYLINE
  5
200E0
100
AcDbEntity
  8
0
100
AcDbPolyline
 70
0
 90
2
 10
-599259.87
 20
-1165024.09
 10
-599252.42
 20
-1165024.09
  0
LWPOLYLINE
  5
200E1
100
AcDbEntity
  8
0
100
AcDbPolyline
 70
0
 90
2
 10
-599259.27
 20
-1165144.64
 10
-599251.97
 20
-1165144.33
  0
LWPOLYLINE
  5
200E2
100
AcDbEntity
  8
0
100
AcDbPolyline
 70
0
 90
2
 10
-599281.16
 20
-1165117.73
 10
-599279.94
 20
-1165124.72
  0
LWPOLYLINE
  5
200E3
100
AcDbEntity
  8
0
100
AcDbPolyline
 70
0
 90
2
 10
-599150.181
 20
-1164850.014
 10
-599143.623
 20
-1164854.555
  0
LWPOLYLINE
  5
200E4
100
AcDbEntity
  8
0
100
AcDbPolyline
 70
0
 90
2
 10
-599230.736
 20
-1164853.437
 10
-599230.736
 20
-1164860.26
  0
LWPOLYLINE
  5
200E5
100
AcDbEntity
  8
0
100
AcDbPolyline
 70
0
 90
2
 10
-599273.081
 20
-1164847.135
 10
-599264.425
 20
-1164841.872
  0
LWPOLYLINE
  5
200E6
100
AcDbEntity
  8
0
100
AcDbPolyline
 70
0
 90
2
 10
-597670.524
 20
-1165411.746
 10
-597663.858
 20
-1165413.242
  0
LWPOLYLINE
  5
200E7
100
AcDbEntity
  8
0
100
AcDbPolyline
 70
0
 90
2
 10
-597694.356
 20
-1165601.58
 10
-597685.255
 20
-1165601.317
  0
LWPOLYLINE
  5
200E8
100
AcDbEntity
  8
0
100
AcDbPolyline
 70
0
 90
2
 10
-597682.352
 20
-1165602.944
 10
-597681.872
 20
-1165609.024
  0
LWPOLYLINE
  5
200E9
100
AcDbEntity
  8
0
100
AcDbPolyline
 70
0
 90
2
 10
-599261.682
 20
-1165252.062
 10
-599262.599
 20
-1165261.078
  0
LWPOLYLINE
  5
200EA
100
AcDbEntity
  8
0
100
AcDbPolyline
 70
0
 90
2
 10
-595669.882
 20
-1166836.121
 10
-595662.583
 20
-1166832.545
  0
LWPOLYLINE
  5
200EB
100
AcDbEntity
  8
0
100
AcDbPolyline
 70
0
 90
2
 10
-595785.13
 20
-1166298.7
 10
-595779.19
 20
-1166297.75
  0
LWPOLYLINE
  5
200EC
100
AcDbEntity
  8
0
100
AcDbPolyline
 70
0
 90
2
 10
-595804.39
 20
-1165841.25
 10
-595798.45
 20
-1165841.46
  0
LWPOLYLINE
  5
200ED
100
AcDbEntity
  8
0
100
AcDbPolyline
 70
0
 90
2
 10
-595801.43
 20
-1165724.43
 10
-595795.4
 20
-1165724.6
  0
LWPOLYLINE
  5
200EE
100
AcDbEntity
  8
0
100
AcDbPolyline
 70
0
 90
2
 10
-598166.76
 20
-1164357.62
 10
-598160.77
 20
-1164355.512
  0
LWPOLYLINE
  5
200EF
100
AcDbEntity
  8
0
100
AcDbPolyline
 70
0
 90
2
 10
-597868.461
 20
-1164168.142
 10
-597865.621
 20
-1164173.957
  0
LWPOLYLINE
  5
200F0
100
AcDbEntity
  8
0
100
AcDbPolyline
 70
0
 90
2
 10
-598342.088
 20
-1164126.667
 10
-598340.806
 20
-1164133.487
  0
LWPOLYLINE
  5
200F1
100
AcDbEntity
  8
0
100
AcDbPolyline
 70
0
 90
2
 10
-598233.734
 20
-1164103.674
 10
-598232.487
 20
-1164110.589
  0
LWPOLYLINE
  5
200F2
100
AcDbEntity
  8
0
100
AcDbPolyline
 70
0
 90
2
 10
-598059.49
 20
-1164081.291
 10
-598058.823
 20
-1164088.008
  0
LWPOLYLINE
  5
200F3
100
AcDbEntity
  8
0
100
AcDbPolyline
 70
0
 90
2
 10
-597863.343
 20
-1163525.386
 10
-597863.401
 20
-1163532.177
  0
LWPOLYLINE
  5
200F4
100
AcDbEntity
  8
0
100
AcDbPolyline
 70
0
 90
2
 10
-597879.866
 20
-1163363.011
 10
-597879.283
 20
-1163368.693
  0
LWPOLYLINE
  5
200F5
100
AcDbEntity
  8
0
100
AcDbPolyline
 70
0
 90
2
 10
-597907.763
 20
-1163285.416
 10
-597907.407
 20
-1163288.977
  0
LWPOLYLINE
  5
200F6
100
AcDbEntity
  8
0
100
AcDbPolyline
 70
0
 90
2
 10
-597678.23
 20
-1163069.196
 10
-597664.248
 20
-1163068.019
  0
LWPOLYLINE
  5
200F7
100
AcDbEntity
  8
0
100
AcDbPolyline
 70
0
 90
2
 10
-597670.691
 20
-1163086.515
 10
-597665.915
 20
-1163086.011
  0
LWPOLYLINE
  5
200F8
100
AcDbEntity
  8
0
100
AcDbPolyline
 70
0
 90
2
 10
-599334.438
 20
-1164157.95
 10
-599324.646
 20
-1164163.267
  0
LWPOLYLINE
  5
200F9
100
AcDbEntity
  8
0
100
AcDbPolyline
 70
0
 90
2
 10
-597015.729
 20
-1164042.336
 10
-597006.141
 20
-1164036.774
  0
LWPOLYLINE
  5
200FA
100
AcDbEntity
  8
0
100
AcDbPolyline
 70
0
 90
2
 10
-597023.753
 20
-1164046.896
 10
-597017.295
 20
-1164042.731
  0
LWPOLYLINE
  5
200FB
100
AcDbEntity
  8
0
100
AcDbPolyline
 70
0
 90
2
 10
-597002.52
 20
-1164035.252
 10
-596997.023
 20
-1164037.247
  0
LWPOLYLINE
  5
200FC
100
AcDbEntity
  8
0
100
AcDbPolyline
 70
0
 90
2
 10
-597030.729
 20
-1164053.54
 10
-597029.699
 20
-1164048.508
  0
LWPOLYLINE
  5
200FD
100
AcDbEntity
  8
0
100
AcDbPolyline
 70
0
 90
2
 10
-597885.561
 20
-1164069.549
 10
-597872.798
 20
-1164069.217
  0
LWPOLYLINE
  5
200FE
100
AcDbEntity
  8
0
100
AcDbPolyline
 70
0
 90
2
 10
-597885.578
 20
-1164033.215
 10
-597874.53
 20
-1164032.184
  0
LWPOLYLINE
  5
200FF
100
AcDbEntity
  8
0
100
AcDbPolyline
 70
0
 90
2
 10
-597899.786
 20
-1164048.012
 10
-597897.925
 20
-1164056.72
  0
LWPOLYLINE
  5
20100
100
AcDbEntity
  8
0
100
AcDbPolyline
 70
0
 90
2
 10
-599422.614
 20
-1164121.317
 10
-599415.403
 20
-1164123.75
  0
LWPOLYLINE
  5
20101
100
AcDbEntity
  8
0
100
AcDbPolyline
 70
0
 90
2
 10
-599429.706
 20
-1164129.27
 10
-599426.709
 20
-1164122.474
  0
LWPOLYLINE
  5
20102
100
AcDbEntity
  8
0
100
AcDbPolyline
 70
0
 90
2
 10
-599491.286
 20
-1164103.817
 10
-599488.252
 20
-1164096.638
  0
LWPOLYLINE
  5
20103
100
AcDbEntity
  8
0
100
AcDbPolyline
 70
0
 90
2
 10
-596388.525
 20
-1158328.284
 10
-596391.609
 20
-1158333.47
  0
LWPOLYLINE
  5
20104
100
AcDbEntity
  8
0
100
AcDbPolyline
 70
0
 90
2
 10
-595870.06
 20
-1158908.77
 10
-595864.65
 20
-1158902.62
  0
LWPOLYLINE
  5
20105
100
AcDbEntity
  8
0
100
AcDbPolyline
 70
0
 90
2
 10
-595874.74
 20
-1158869.724
 10
-595868.775
 20
-1158876.282
  0
LWPOLYLINE
  5
20106
100
AcDbEntity
  8
0
100
AcDbPolyline
 70
0
 90
2
 10
-596305.53
 20
-1158521.19
 10
-596300.21
 20
-1158525.54
  0
LWPOLYLINE
  5
20107
100
AcDbEntity
  8
0
100
AcDbPolyline
 70
0
 90
2
 10
-596535.263
 20
-1159354.52
 10
-596531.554
 20
-1159356.647
  0
LWPOLYLINE
  5
20108
100
AcDbEntity
  8
0
100
AcDbPolyline
 70
0
 90
2
 10
-596104.15
 20
-1159185.16
 10
-596107.424
 20
-1159190.647
  0
LWPOLYLINE
  5
20109
100
AcDbEntity
  8
0
100
AcDbPolyline
 70
0
 90
2
 10
-596113.004
 20
-1159199.035
 10
-596116.25
 20
-1159204.45
  0
LWPOLYLINE
  5
2010A
100
AcDbEntity
  8
0
100
AcDbPolyline
 70
0
 90
2
 10
-596117.451
 20
-1159209.557
 10
-596108.648
 20
-1159215.283
  0
LWPOLYLINE
  5
2010B
100
AcDbEntity
  8
0
100
AcDbPolyline
 70
0
 90
2
 10
-595912.064
 20
-1158895.313
 10
-595905.009
 20
-1158899.025
  0
LWPOLYLINE
  5
2010C
100
AcDbEntity
  8
0
100
AcDbPolyline
 70
0
 90
2
 10
-595910.441
 20
-1158889.354
 10
-595902.195
 20
-1158879.829
  0
LWPOLYLINE
  5
2010D
100
AcDbEntity
  8
0
100
AcDbPolyline
 70
0
 90
2
 10
-595900.652
 20
-1158878.992
 10
-595894.831
 20
-1158872.377
  0
LWPOLYLINE
  5
2010E
100
AcDbEntity
  8
0
100
AcDbPolyline
 70
0
 90
2
 10
-595855.55
 20
-1158893.07
 10
-595863.08
 20
-1158900.97
  0
LWPOLYLINE
  5
2010F
100
AcDbEntity
  8
0
100
AcDbPolyline
 70
0
 90
2
 10
-595855.46
 20
-1158888.2
 10
-595861.386
 20
-1158882.099
  0
LWPOLYLINE
  5
20110
100
AcDbEntity
  8
0
100
AcDbPolyline
 70
0
 90
2
 10
-595897.713
 20
-1158902.639
 10
-595885.098
 20
-1158909.531
  0
LWPOLYLINE
  5
20111
100
AcDbEntity
  8
0
100
AcDbPolyline
 70
0
 90
2
 10
-596328.436
 20
-1158219.592
 10
-596331.919
 20
-1158225.609
  0
LWPOLYLINE
  5
20112
100
AcDbEntity
  8
0
100
AcDbPolyline
 70
0
 90
2
 10
-596385.05
 20
-1158311.8
 10
-596380.33
 20
-1158303.41
  0
LWPOLYLINE
  5
20113
100
AcDbEntity
  8
0
100
AcDbPolyline
 70
0
 90
2
 10
-595916.82
 20
-1158893.82
 10
-595922.32
 20
-1158896.06
  0
LWPOLYLINE
  5
20114
100
AcDbEntity
  8
0
100
AcDbPolyline
 70
0
 90
2
 10
-595835.341
 20
-1158890.131
 10
-595830.226
 20
-1158892.292
  0
LWPOLYLINE
  5
20115
100
AcDbEntity
  8
0
100
AcDbPolyline
 70
0
 90
2
 10
-595792.408
 20
-1158850.215
 10
-595803.764
 20
-1158849.668
  0
LWPOLYLINE
  5
20116
100
AcDbEntity
  8
0
100
AcDbPolyline
 70
0
 90
2
 10
-595809.26
 20
-1158871.3
 10
-595809.49
 20
-1158856.277
  0
LWPOLYLINE
  5
20117
100
AcDbEntity
  8
0
100
AcDbPolyline
 70
0
 90
2
 10
-595809.26
 20
-1158874.24
 10
-595809.72
 20
-1158881.87
  0
LWPOLYLINE
  5
20118
100
AcDbEntity
  8
0
100
AcDbPolyline
 70
0
 90
2
 10
-595790.043
 20
-1158885.292
 10
-595784.132
 20
-1158883.982
  0
LWPOLYLINE
  5
20119
100
AcDbEntity
  8
0
100
AcDbPolyline
 70
0
 90
2
 10
-595932.58
 20
-1168158.56
 10
-595933.72
 20
-1168152.4
  0
LWPOLYLINE
  5
2011A
100
AcDbEntity
  8
0
100
AcDbPolyline
 70
0
 90
2
 10
-593652.373
 20
-1168755.627
 10
-593646.782
 20
-1168751.297
  0
LWPOLYLINE
  5
2011B
100
AcDbEntity
  8
0
100
AcDbPolyline
 70
0
 90
2
 10
-595408.37
 20
-1167838.7
 10
-595409.04
 20
-1167844.91
  0
LWPOLYLINE
  5
2011C
100
AcDbEntity
  8
0
100
AcDbPolyline
 70
0
 90
2
 10
-595291.352
 20
-1168157.09
 10
-595285.583
 20
-1168157.41
  0
LWPOLYLINE
  5
2011D
100
AcDbEntity
  8
0
100
AcDbPolyline
 70
0
 90
2
 10
-595562.391
 20
-1167700.924
 10
-595553.18
 20
-1167696.32
  0
LWPOLYLINE
  5
2011E
100
AcDbEntity
  8
0
100
AcDbPolyline
 70
0
 90
2
 10
-595487.61
 20
-1167853.24
 10
-595481.47
 20
-1167851.38
  0
LWPOLYLINE
  5
2011F
100
AcDbEntity
  8
0
100
AcDbPolyline
 70
0
 90
2
 10
-595471.588
 20
-1167832.599
 10
-595472.305
 20
-1167838.803
  0
LWPOLYLINE
  5
20120
100
AcDbEntity
  8
0
100
AcDbPolyline
 70
0
 90
2
 10
-595525.1
 20
-1167818.97
 10
-595517.65
 20
-1167817.9
  0
LWPOLYLINE
  5
20121
100
AcDbEntity
  8
0
100
AcDbPolyline
 70
0
 90
2
 10
-595695.045
 20
-1167815.984
 10
-595687.202
 20
-1167820.594
  0
LWPOLYLINE
  5
20122
100
AcDbEntity
  8
0
100
AcDbPolyline
 70
0
 90
2
 10
-595393.792
 20
-1168140.544
 10
-595387.733
 20
-1168140.693
  0
LWPOLYLINE
  5
20123
100
AcDbEntity
  8
0
100
AcDbPolyline
 70
0
 90
2
 10
-595605.1
 20
-1167678.75
 10
-595596.06
 20
-1167682
  0
LWPOLYLINE
  5
20124
100
AcDbEntity
  8
0
100
AcDbPolyline
 70
0
 90
2
 10
-595570.14
 20
-1167663.85
 10
-595579.35
 20
-1167668.64
  0
LWPOLYLINE
  5
20125
100
AcDbEntity
  8
0
100
AcDbPolyline
 70
0
 90
2
 10
-595427.64
 20
-1167491.76
 10
-595425.8
 20
-1167498.29
  0
LWPOLYLINE
  5
20126
100
AcDbEntity
  8
0
100
AcDbPolyline
 70
0
 90
2
 10
-595872.84
 20
-1167996.72
 10
-595870.66
 20
-1168002.35
  0
LWPOLYLINE
  5
20127
100
AcDbEntity
  8
0
100
AcDbPolyline
 70
0
 90
2
 10
-595761.53
 20
-1167972.9
 10
-595760.78
 20
-1167979.03
  0
LWPOLYLINE
  5
20128
100
AcDbEntity
  8
0
100
AcDbPolyline
 70
0
 90
2
 10
-595484.267
 20
-1167872.556
 10
-595480.379
 20
-1167886.017
  0
LWPOLYLINE
  5
20129
100
AcDbEntity
  8
0
100
AcDbPolyline
 70
0
 90
2
 10
-600083.589
 20
-1153140.036
 10
-600088.634
 20
-1153145.006
  0
LWPOLYLINE
  5
2012A
100
AcDbEntity
  8
0
100
AcDbPolyline
 70
0
 90
2
 10
-600027.23
 20
-1153161.84
 10
-600021.88
 20
-1153162.34
  0
LWPOLYLINE
  5
2012B
100
AcDbEntity
  8
0
100
AcDbPolyline
 70
0
 90
2
 10
-600037
 20
-1153161.09
 10
-600030.48
 20
-1153161.76
  0
LWPOLYLINE
  5
2012C
100
AcDbEntity
  8
0
100
AcDbPolyline
 70
0
 90
2
 10
-599496.425
 20
-1153394.819
 10
-599487.836
 20
-1153384.606
  0
LWPOLYLINE
  5
2012D
100
AcDbEntity
  8
0
100
AcDbPolyline
 70
0
 90
2
 10
-598188.123
 20
-1152596.064
 10
-598188.763
 20
-1152601.997
  0
LWPOLYLINE
  5
2012E
100
AcDbEntity
  8
0
100
AcDbPolyline
 70
0
 90
2
 10
-598163.19
 20
-1152408.64
 10
-598159.78
 20
-1152420.27
  0
LWPOLYLINE
  5
2012F
100
AcDbEntity
  8
0
100
AcDbPolyline
 70
0
 90
2
 10
-598152.38
 20
-1152442.231
 10
-598135.44
 20
-1152442.28
  0
LWPOLYLINE
  5
20130
100
AcDbEntity
  8
0
100
AcDbPolyline
 70
0
 90
2
 10
-598137.15
 20
-1152224.64
 10
-598130.64
 20
-1152226.57
  0
LWPOLYLINE
  5
20131
100
AcDbEntity
  8
0
100
AcDbPolyline
 70
0
 90
2
 10
-597997.42
 20
-1152070.29
 10
-597989.56
 20
-1152061.09
  0
LWPOLYLINE
  5
20132
100
AcDbEntity
  8
0
100
AcDbPolyline
 70
0
 90
2
 10
-602044.392
 20
-1158845.873
 10
-602044.18
 20
-1158838.693
  0
LWPOLYLINE
  5
20133
100
AcDbEntity
  8
0
100
AcDbPolyline
 70
0
 90
2
 10
-601548.301
 20
-1159284.562
 10
-601552.915
 20
-1159288.983
  0
LWPOLYLINE
  5
20134
100
AcDbEntity
  8
0
100
AcDbPolyline
 70
0
 90
2
 10
-601094.64
 20
-1159643.48
 10
-601099.63
 20
-1159634.84
  0
LWPOLYLINE
  5
20135
100
AcDbEntity
  8
0
100
AcDbPolyline
 70
0
 90
2
 10
-602123.176
 20
-1158825.011
 10
-602124.103
 20
-1158831.029
  0
LWPOLYLINE
  5
20136
100
AcDbEntity
  8
0
100
AcDbPolyline
 70
0
 90
2
 10
-602118.045
 20
-1158820.877
 10
-602114.607
 20
-1158821.199
  0
LWPOLYLINE
  5
20137
100
AcDbEntity
  8
0
100
AcDbPolyline
 70
0
 90
2
 10
-602079.366
 20
-1158485.06
 10
-602074.028
 20
-1158484.201
  0
LWPOLYLINE
  5
20138
100
AcDbEntity
  8
0
100
AcDbPolyline
 70
0
 90
2
 10
-601157.1
 20
-1159585.33
 10
-601160.45
 20
-1159591.15
  0
LWPOLYLINE
  5
20139
100
AcDbEntity
  8
0
100
AcDbPolyline
 70
0
 90
2
 10
-601791.108
 20
-1159022.308
 10
-601796.522
 20
-1159026.233
  0
LWPOLYLINE
  5
2013A
100
AcDbEntity
  8
0
100
AcDbPolyline
 70
0
 90
2
 10
-601817.801
 20
-1159010.595
 10
-601814.482
 20
-1159017.193
  0
LWPOLYLINE
  5
2013B
100
AcDbEntity
  8
0
100
AcDbPolyline
 70
0
 90
2
 10
-601771.147
 20
-1158831.902
 10
-601776.49
 20
-1158837.695
  0
LWPOLYLINE
  5
2013C
100
AcDbEntity
  8
0
100
AcDbPolyline
 70
0
 90
2
 10
-601758.784
 20
-1158825.889
 10
-601753.3
 20
-1158829.98
  0
LWPOLYLINE
  5
2013D
100
AcDbEntity
  8
0
100
AcDbPolyline
 70
0
 90
2
 10
-601702.783
 20
-1158743.397
 10
-601706.442
 20
-1158749.19
  0
LWPOLYLINE
  5
2013E
100
AcDbEntity
  8
0
100
AcDbPolyline
 70
0
 90
2
 10
-603256.193
 20
-1155243.352
 10
-603254.921
 20
-1155232.817
  0
LWPOLYLINE
  5
2013F
100
AcDbEntity
  8
0
100
AcDbPolyline
 70
0
 90
2
 10
-603478.88
 20
-1155559.79
 10
-603471.3
 20
-1155558.11
  0
LWPOLYLINE
  5
20140
100
AcDbEntity
  8
0
100
AcDbPolyline
 70
0
 90
2
 10
-603440.53
 20
-1155764.93
 10
-603439.41
 20
-1155775.07
  0
LWPOLYLINE
  5
20141
100
AcDbEntity
  8
0
100
AcDbPolyline
 70
0
 90
2
 10
-603439.86
 20
-1155756.01
 10
-603432.28
 20
-1155754.67
  0
LWPOLYLINE
  5
20142
100
AcDbEntity
  8
0
100
AcDbPolyline
 70
0
 90
2
 10
-603462.04
 20
-1155644.24
 10
-603454.8
 20
-1155642.9
  0
LWPOLYLINE
  5
20143
100
AcDbEntity
  8
0
100
AcDbPolyline
 70
0
 90
2
 10
-603710.228
 20
-1160000.704
 10
-603708.698
 20
-1159995.987
  0
LWPOLYLINE
  5
20144
100
AcDbEntity
  8
0
100
AcDbPolyline
 70
0
 90
2
 10
-602840.877
 20
-1160413.961
 10
-602832.465
 20
-1160411.652
  0
LWPOLYLINE
  5
20145
100
AcDbEntity
  8
0
100
AcDbPolyline
 70
0
 90
2
 10
-602916.303
 20
-1160423.033
 10
-602910.705
 20
-1160423.531
  0
LWPOLYLINE
  5
20146
100
AcDbEntity
  8
0
100
AcDbPolyline
 70
0
 90
2
 10
-603410.559
 20
-1160002.525
 10
-603410.153
 20
-1159995.566
  0
LWPOLYLINE
  5
20147
100
AcDbEntity
  8
0
100
AcDbPolyline
 70
0
 90
2
 10
-603445.359
 20
-1159979.148
 10
-603430.877
 20
-1159978.317
  0
LWPOLYLINE
  5
20148
100
AcDbEntity
  8
0
100
AcDbPolyline
 70
0
 90
2
 10
-603884.141
 20
-1160355.104
 10
-603884.087
 20
-1160348.057
  0
LWPOLYLINE
  5
20149
100
AcDbEntity
  8
0
100
AcDbPolyline
 70
0
 90
2
 10
-602890.698
 20
-1160756.82
 10
-602893.601
 20
-1160764.049
  0
LWPOLYLINE
  5
2014A
100
AcDbEntity
  8
0
100
AcDbPolyline
 70
0
 90
2
 10
-603287.373
 20
-1160337.412
 10
-603282.366
 20
-1160343.81
  0
LWPOLYLINE
  5
2014B
100
AcDbEntity
  8
0
100
AcDbPolyline
 70
0
 90
2
 10
-603711.186
 20
-1160003.468
 10
-603712.54
 20
-1160008.153
  0
LWPOLYLINE
  5
2014C
100
AcDbEntity
  8
0
100
AcDbPolyline
 70
0
 90
2
 10
-602676.692
 20
-1160142.681
 10
-602672.818
 20
-1160143.402
  0
LWPOLYLINE
  5
2014D
100
AcDbEntity
  8
0
100
AcDbPolyline
 70
0
 90
2
 10
-602690.247
 20
-1160127.001
 10
-602691.131
 20
-1160134.676
  0
LWPOLYLINE
  5
2014E
100
AcDbEntity
  8
0
100
AcDbPolyline
 70
0
 90
2
 10
-602830.864
 20
-1160400.582
 10
-602829.244
 20
-1160406.228
  0
LWPOLYLINE
  5
2014F
100
AcDbEntity
  8
0
100
AcDbPolyline
 70
0
 90
2
 10
-602846.261
 20
-1160388.037
 10
-602858.584
 20
-1160390.502
  0
LWPOLYLINE
  5
20150
100
AcDbEntity
  8
0
100
AcDbPolyline
 70
0
 90
2
 10
-603056.209
 20
-1160329.853
 10
-603050.071
 20
-1160335.866
  0
LWPOLYLINE
  5
20151
100
AcDbEntity
  8
0
100
AcDbPolyline
 70
0
 90
2
 10
-603032.326
 20
-1160304.677
 10
-603025.98
 20
-1160311.065
  0
LWPOLYLINE
  5
20152
100
AcDbEntity
  8
0
100
AcDbPolyline
 70
0
 90
2
 10
-603040.87
 20
-1160303.68
 10
-603055.76
 20
-1160319.03
  0
LWPOLYLINE
  5
20153
100
AcDbEntity
  8
0
100
AcDbPolyline
 70
0
 90
2
 10
-603161.319
 20
-1160172.858
 10
-603156.927
 20
-1160177.346
  0
LWPOLYLINE
  5
20154
100
AcDbEntity
  8
0
100
AcDbPolyline
 70
0
 90
2
 10
-603264.705
 20
-1160112.391
 10
-603269.271
 20
-1160117.561
  0
LWPOLYLINE
  5
20155
100
AcDbEntity
  8
0
100
AcDbPolyline
 70
0
 90
2
 10
-603256.127
 20
-1160102.943
 10
-603260.645
 20
-1160107.969
  0
LWPOLYLINE
  5
20156
100
AcDbEntity
  8
0
100
AcDbPolyline
 70
0
 90
2
 10
-603411.284
 20
-1160005.917
 10
-603412.038
 20
-1160013.34
  0
LWPOLYLINE
  5
20157
100
AcDbEntity
  8
0
100
AcDbPolyline
 70
0
 90
2
 10
-603733.365
 20
-1160262.207
 10
-603729.251
 20
-1160266.529
  0
LWPOLYLINE
  5
20158
100
AcDbEntity
  8
0
100
AcDbPolyline
 70
0
 90
2
 10
-603825.082
 20
-1160742.438
 10
-603821.777
 20
-1160747.518
  0
LWPOLYLINE
  5
20159
100
AcDbEntity
  8
0
100
AcDbPolyline
 70
0
 90
2
 10
-603792.832
 20
-1160742.793
 10
-603797.718
 20
-1160746.336
  0
LWPOLYLINE
  5
2015A
100
AcDbEntity
  8
0
100
AcDbPolyline
 70
0
 90
2
 10
-603533.185
 20
-1161020.606
 10
-603535.605
 20
-1161023.229
  0
LWPOLYLINE
  5
2015B
100
AcDbEntity
  8
0
100
AcDbPolyline
 70
0
 90
2
 10
-597606.8
 20
-1163081.15
 10
-597606.4
 20
-1163070.8
  0
LWPOLYLINE
  5
2015C
100
AcDbEntity
  8
0
100
AcDbPolyline
 70
0
 90
2
 10
-597159.7
 20
-1163579.17
 10
-597150.27
 20
-1163575.81
  0
LWPOLYLINE
  5
2015D
100
AcDbEntity
  8
0
100
AcDbPolyline
 70
0
 90
2
 10
-597217.15
 20
-1162498.26
 10
-597211.56
 20
-1162499.9
  0
LWPOLYLINE
  5
2015E
100
AcDbEntity
  8
0
100
AcDbPolyline
 70
0
 90
2
 10
-597321.24
 20
-1162571.75
 10
-597313.54
 20
-1162571.05
  0
LWPOLYLINE
  5
2015F
100
AcDbEntity
  8
0
100
AcDbPolyline
 70
0
 90
2
 10
-597129.384
 20
-1163776.034
 10
-597116.974
 20
-1163771.487
  0
LWPOLYLINE
  5
20160
100
AcDbEntity
  8
0
100
AcDbPolyline
 70
0
 90
2
 10
-597251.55
 20
-1162821.176
 10
-597246.017
 20
-1162821.59
  0
LWPOLYLINE
  5
20161
100
AcDbEntity
  8
0
100
AcDbPolyline
 70
0
 90
2
 10
-597169.09
 20
-1163604.38
 10
-597174.27
 20
-1163592.83
  0
LWPOLYLINE
  5
20162
100
AcDbEntity
  8
0
100
AcDbPolyline
 70
0
 90
2
 10
-597179.084
 20
-1163624.818
 10
-597170.1
 20
-1163621.52
  0
LWPOLYLINE
  5
20163
100
AcDbEntity
  8
0
100
AcDbPolyline
 70
0
 90
2
 10
-597359.129
 20
-1163110.555
 10
-597374.646
 20
-1163115.05
  0
LWPOLYLINE
  5
20164
100
AcDbEntity
  8
0
100
AcDbPolyline
 70
0
 90
2
 10
-596986.272
 20
-1162897.874
 10
-596993.889
 20
-1162897.566
  0
LWPOLYLINE
  5
20165
100
AcDbEntity
  8
0
100
AcDbPolyline
 70
0
 90
2
 10
-596721.61
 20
-1162951.91
 10
-596706.779
 20
-1162955.61
  0
LWPOLYLINE
  5
20166
100
AcDbEntity
  8
0
100
AcDbPolyline
 70
0
 90
2
 10
-596700.168
 20
-1162977.086
 10
-596697.41
 20
-1162967.14
  0
LWPOLYLINE
  5
20167
100
AcDbEntity
  8
0
100
AcDbPolyline
 70
0
 90
2
 10
-596701.662
 20
-1162982.72
 10
-596703.74
 20
-1162989.71
  0
LWPOLYLINE
  5
20168
100
AcDbEntity
  8
0
100
AcDbPolyline
 70
0
 90
2
 10
-597601.8
 20
-1163066.89
 10
-597594.91
 20
-1163068.8
  0
LWPOLYLINE
  5
20169
100
AcDbEntity
  8
0
100
AcDbPolyline
 70
0
 90
2
 10
-597013.449
 20
-1164021.316
 10
-597006.44
 20
-1164031.49
  0
LWPOLYLINE
  5
2016A
100
AcDbEntity
  8
0
100
AcDbPolyline
 70
0
 90
2
 10
-597013.44
 20
-1164011.74
 10
-597014.98
 20
-1164016.59
  0
LWPOLYLINE
  5
2016B
100
AcDbEntity
  8
0
100
AcDbPolyline
 70
0
 90
2
 10
-597037.946
 20
-1164030.681
 10
-597032.478
 20
-1164043.236
  0
LWPOLYLINE
  5
2016C
100
AcDbEntity
  8
0
100
AcDbPolyline
 70
0
 90
2
 10
-597047.595
 20
-1164025.035
 10
-597043.008
 20
-1164026.716
  0
LWPOLYLINE
  5
2016D
100
AcDbEntity
  8
0
100
AcDbPolyline
 70
0
 90
2
 10
-597391.337
 20
-1163105.061
 10
-597391.273
 20
-1163096.081
  0
LWPOLYLINE
  5
2016E
100
AcDbEntity
  8
0
100
AcDbPolyline
 70
0
 90
2
 10
-597347.846
 20
-1162556.123
 10
-597347.599
 20
-1162568.137
  0
LWPOLYLINE
  5
2016F
100
AcDbEntity
  8
0
100
AcDbPolyline
 70
0
 90
2
 10
-597013.603
 20
-1162933.902
 10
-597013.48
 20
-1162939.14
  0
LWPOLYLINE
  5
20170
100
AcDbEntity
  8
0
100
AcDbPolyline
 70
0
 90
2
 10
-597014.53
 20
-1162916.554
 10
-597014.474
 20
-1162924.444
  0
LWPOLYLINE
  5
20171
100
AcDbEntity
  8
0
100
AcDbPolyline
 70
0
 90
2
 10
-597014.71
 20
-1162903.67
 10
-597014.609
 20
-1162911.699
  0
LWPOLYLINE
  5
20172
100
AcDbEntity
  8
0
100
AcDbPolyline
 70
0
 90
2
 10
-596988.606
 20
-1162942.519
 10
-596982.079
 20
-1162942.596
  0
LWPOLYLINE
  5
20173
100
AcDbEntity
  8
0
100
AcDbPolyline
 70
0
 90
2
 10
-601349.27
 20
-1157893.76
 10
-601349.48
 20
-1157903.29
  0
LWPOLYLINE
  5
20174
100
AcDbEntity
  8
0
100
AcDbPolyline
 70
0
 90
2
 10
-601328.79
 20
-1157874.2
 10
-601318.621
 20
-1157875.07
  0
LWPOLYLINE
  5
20175
100
AcDbEntity
  8
0
100
AcDbPolyline
 70
0
 90
2
 10
-601298.462
 20
-1157909.911
 10
-601301.306
 20
-1157918.711
  0
LWPOLYLINE
  5
20176
100
AcDbEntity
  8
0
100
AcDbPolyline
 70
0
 90
2
 10
-601400.32
 20
-1157771.33
 10
-601391.32
 20
-1157772.91
  0
LWPOLYLINE
  5
20177
100
AcDbEntity
  8
0
100
AcDbPolyline
 70
0
 90
2
 10
-602972.737
 20
-1157196.657
 10
-602980.511
 20
-1157195.808
  0
LWPOLYLINE
  5
20178
100
AcDbEntity
  8
0
100
AcDbPolyline
 70
0
 90
2
 10
-601843.58
 20
-1157812.99
 10
-601834.68
 20
-1157805.46
  0
LWPOLYLINE
  5
20179
100
AcDbEntity
  8
0
100
AcDbPolyline
 70
0
 90
2
 10
-601745.745
 20
-1157532.187
 10
-601752.461
 20
-1157532.187
  0
LWPOLYLINE
  5
2017A
100
AcDbEntity
  8
0
100
AcDbPolyline
 70
0
 90
2
 10
-601761.77
 20
-1157513.452
 10
-601761.593
 20
-1157521.347
  0
LWPOLYLINE
  5
2017B
100
AcDbEntity
  8
0
100
AcDbPolyline
 70
0
 90
2
 10
-602080.718
 20
-1157510.111
 10
-602071.633
 20
-1157507.638
  0
LWPOLYLINE
  5
2017C
100
AcDbEntity
  8
0
100
AcDbPolyline
 70
0
 90
2
 10
-602082.898
 20
-1157515.005
 10
-602080.46
 20
-1157520.535
  0
LWPOLYLINE
  5
2017D
100
AcDbEntity
  8
0
100
AcDbPolyline
 70
0
 90
2
 10
-602136.95
 20
-1157547.16
 10
-602133.896
 20
-1157552.389
  0
LWPOLYLINE
  5
2017E
100
AcDbEntity
  8
0
100
AcDbPolyline
 70
0
 90
2
 10
-602202.672
 20
-1157587.824
 10
-602204.181
 20
-1157577.899
  0
LWPOLYLINE
  5
2017F
100
AcDbEntity
  8
0
100
AcDbPolyline
 70
0
 90
2
 10
-601831.606
 20
-1157528.941
 10
-601832.431
 20
-1157522.932
  0
LWPOLYLINE
  5
20180
100
AcDbEntity
  8
0
100
AcDbPolyline
 70
0
 90
2
 10
-601771.429
 20
-1156792.152
 10
-601771.503
 20
-1156798.414
  0
LWPOLYLINE
  5
20181
100
AcDbEntity
  8
0
100
AcDbPolyline
 70
0
 90
2
 10
-601810.566
 20
-1156794.91
 10
-601805.795
 20
-1156791.555
  0
LWPOLYLINE
  5
20182
100
AcDbEntity
  8
0
100
AcDbPolyline
 70
0
 90
2
 10
-601384.417
 20
-1157763.884
 10
-601384.93
 20
-1157771.08
  0
LWPOLYLINE
  5
20183
100
AcDbEntity
  8
0
100
AcDbPolyline
 70
0
 90
2
 10
-601614.465
 20
-1157739.128
 10
-601609.251
 20
-1157732.801
  0
LWPOLYLINE
  5
20184
100
AcDbEntity
  8
0
100
AcDbPolyline
 70
0
 90
2
 10
-601614.132
 20
-1157544.099
 10
-601607.042
 20
-1157545.231
  0
LWPOLYLINE
  5
20185
100
AcDbEntity
  8
0
100
AcDbPolyline
 70
0
 90
2
 10
-601600.573
 20
-1157171.556
 10
-601595.271
 20
-1157169.317
  0
LWPOLYLINE
  5
20186
100
AcDbEntity
  8
0
100
AcDbPolyline
 70
0
 90
2
 10
-601636.18
 20
-1157086.31
 10
-601631.298
 20
-1157094.92
  0
LWPOLYLINE
  5
20187
100
AcDbEntity
  8
0
100
AcDbPolyline
 70
0
 90
2
 10
-601389.379
 20
-1157106.3
 10
-601381.474
 20
-1157107.404
  0
LWPOLYLINE
  5
20188
100
AcDbEntity
  8
0
100
AcDbPolyline
 70
0
 90
2
 10
-601394
 20
-1157045.42
 10
-601392.64
 20
-1157052.84
  0
LWPOLYLINE
  5
20189
100
AcDbEntity
  8
0
100
AcDbPolyline
 70
0
 90
2
 10
-601403.47
 20
-1157151.8
 10
-601410.36
 20
-1157164.49
  0
LWPOLYLINE
  5
2018A
100
AcDbEntity
  8
0
100
AcDbPolyline
 70
0
 90
2
 10
-601792.583
 20
-1156817.601
 10
-601788.374
 20
-1156814.758
  0
LWPOLYLINE
  5
2018B
100
AcDbEntity
  8
0
100
AcDbPolyline
 70
0
 90
2
 10
-601810.204
 20
-1156805.091
 10
-601806.039
 20
-1156810.497
  0
LWPOLYLINE
  5
2018C
100
AcDbEntity
  8
0
100
AcDbPolyline
 70
0
 90
2
 10
-601513.233
 20
-1156962.765
 10
-601496.141
 20
-1156967.465
  0
LWPOLYLINE
  5
2018D
100
AcDbEntity
  8
0
100
AcDbPolyline
 70
0
 90
2
 10
-601393.261
 20
-1157118.585
 10
-601391.338
 20
-1157106.941
  0
LWPOLYLINE
  5
2018E
100
AcDbEntity
  8
0
100
AcDbPolyline
 70
0
 90
2
 10
-601411.179
 20
-1157172.204
 10
-601404.725
 20
-1157176.087
  0
LWPOLYLINE
  5
2018F
100
AcDbEntity
  8
0
100
AcDbPolyline
 70
0
 90
2
 10
-601417.732
 20
-1157200.681
 10
-601421.614
 20
-1157206.022
  0
LWPOLYLINE
  5
20190
100
AcDbEntity
  8
0
100
AcDbPolyline
 70
0
 90
2
 10
-601430.481
 20
-1157215.423
 10
-601435.181
 20
-1157220.551
  0
LWPOLYLINE
  5
20191
100
AcDbEntity
  8
0
100
AcDbPolyline
 70
0
 90
2
 10
-601450.6
 20
-1157233.976
 10
-601457.58
 20
-1157239.282
  0
LWPOLYLINE
  5
20192
100
AcDbEntity
  8
0
100
AcDbPolyline
 70
0
 90
2
 10
-601554.195
 20
-1157264.824
 10
-601552.95
 20
-1157271.779
  0
LWPOLYLINE
  5
20193
100
AcDbEntity
  8
0
100
AcDbPolyline
 70
0
 90
2
 10
-601561.35
 20
-1157258.2
 10
-601567.34
 20
-1157259.01
  0
LWPOLYLINE
  5
20194
100
AcDbEntity
  8
0
100
AcDbPolyline
 70
0
 90
2
 10
-601569.264
 20
-1157326.296
 10
-601575.979
 20
-1157334.883
  0
LWPOLYLINE
  5
20195
100
AcDbEntity
  8
0
100
AcDbPolyline
 70
0
 90
2
 10
-601597.929
 20
-1157332.88
 10
-601592.862
 20
-1157337.946
  0
LWPOLYLINE
  5
20196
100
AcDbEntity
  8
0
100
AcDbPolyline
 70
0
 90
2
 10
-601719.234
 20
-1157413.121
 10
-601715.758
 20
-1157422.135
  0
LWPOLYLINE
  5
20197
100
AcDbEntity
  8
0
100
AcDbPolyline
 70
0
 90
2
 10
-601750.76
 20
-1157506.15
 10
-601743.742
 20
-1157506.854
  0
LWPOLYLINE
  5
20198
100
AcDbEntity
  8
0
100
AcDbPolyline
 70
0
 90
2
 10
-601762.805
 20
-1157753.302
 10
-601756.215
 20
-1157751.91
  0
LWPOLYLINE
  5
20199
100
AcDbEntity
  8
0
100
AcDbPolyline
 70
0
 90
2
 10
-601652.464
 20
-1157839.534
 10
-601655.087
 20
-1157847.105
  0
LWPOLYLINE
  5
2019A
100
AcDbEntity
  8
0
100
AcDbPolyline
 70
0
 90
2
 10
-601640.679
 20
-1157855.568
 10
-601651.135
 20
-1157852.143
  0
LWPOLYLINE
  5
2019B
100
AcDbEntity
  8
0
100
AcDbPolyline
 70
0
 90
2
 10
-601407.583
 20
-1157880.801
 10
-601402.544
 20
-1157881.495
  0
LWPOLYLINE
  5
2019C
100
AcDbEntity
  8
0
100
AcDbPolyline
 70
0
 90
2
 10
-601420.651
 20
-1157882.758
 10
-601422.366
 20
-1157890.497
  0
LWPOLYLINE
  5
2019D
100
AcDbEntity
  8
0
100
AcDbPolyline
 70
0
 90
2
 10
-601102.129
 20
-1158070.294
 10
-601107.47
 20
-1158074.399
  0
LWPOLYLINE
  5
2019E
100
AcDbEntity
  8
0
100
AcDbPolyline
 70
0
 90
2
 10
-601339.65
 20
-1157920.3
 10
-601329.83
 20
-1157924.19
  0
LWPOLYLINE
  5
2019F
100
AcDbEntity
  8
0
100
AcDbPolyline
 70
0
 90
2
 10
-601360.361
 20
-1158053.611
 10
-601360.629
 20
-1158063.651
  0
LWPOLYLINE
  5
201A0
100
AcDbEntity
  8
0
100
AcDbPolyline
 70
0
 90
2
 10
-601453.384
 20
-1158288.046
 10
-601443.28
 20
-1158291.83
  0
LWPOLYLINE
  5
201A1
100
AcDbEntity
  8
0
100
AcDbPolyline
 70
0
 90
2
 10
-601457.452
 20
-1158291.686
 10
-601461.322
 20
-1158300.898
  0
LWPOLYLINE
  5
201A2
100
AcDbEntity
  8
0
100
AcDbPolyline
 70
0
 90
2
 10
-602964.199
 20
-1157128.886
 10
-602964.805
 20
-1157148.867
  0
LWPOLYLINE
  5
201A3
100
AcDbEntity
  8
0
100
AcDbPolyline
 70
0
 90
2
 10
-602983.526
 20
-1156964.111
 10
-602980.722
 20
-1156973.946
  0
LWPOLYLINE
  5
201A4
100
AcDbEntity
  8
0
100
AcDbPolyline
 70
0
 90
2
 10
-602984.507
 20
-1156952.399
 10
-602984.439
 20
-1156960.206
  0
LWPOLYLINE
  5
201A5
100
AcDbEntity
  8
0
100
AcDbPolyline
 70
0
 90
2
 10
-603031.334
 20
-1157242.743
 10
-603016.262
 20
-1157240.24
  0
LWPOLYLINE
  5
201A6
100
AcDbEntity
  8
0
100
AcDbPolyline
 70
0
 90
2
 10
-602187.878
 20
-1157639.308
 10
-602187.767
 20
-1157650.372
  0
LWPOLYLINE
  5
201A7
100
AcDbEntity
  8
0
100
AcDbPolyline
 70
0
 90
2
 10
-601382.145
 20
-1158421.24
 10
-601378.168
 20
-1158410.646
  0
LWPOLYLINE
  5
201A8
100
AcDbEntity
  8
0
100
AcDbPolyline
 70
0
 90
2
 10
-598679.786
 20
-1157809.547
 10
-598676.769
 20
-1157808.716
  0
LWPOLYLINE
  5
201A9
100
AcDbEntity
  8
0
100
AcDbPolyline
 70
0
 90
2
 10
-599291.564
 20
-1156892.174
 10
-599289.668
 20
-1156901.07
  0
LWPOLYLINE
  5
201AA
100
AcDbEntity
  8
0
100
AcDbPolyline
 70
0
 90
2
 10
-599661.62
 20
-1156776.92
 10
-599666.34
 20
-1156780.87
  0
LWPOLYLINE
  5
201AB
100
AcDbEntity
  8
0
100
AcDbPolyline
 70
0
 90
2
 10
-599676.55
 20
-1156789.62
 10
-599679.96
 20
-1156792.31
  0
LWPOLYLINE
  5
201AC
100
AcDbEntity
  8
0
100
AcDbPolyline
 70
0
 90
2
 10
-599702.49
 20
-1156783.99
 10
-599697.75
 20
-1156784.04
  0
LWPOLYLINE
  5
201AD
100
AcDbEntity
  8
0
100
AcDbPolyline
 70
0
 90
2
 10
-599683.35
 20
-1156797.53
 10
-599683.8
 20
-1156801.17
  0
LWPOLYLINE
  5
201AE
100
AcDbEntity
  8
0
100
AcDbPolyline
 70
0
 90
2
 10
-599687.68
 20
-1156791.03
 10
-599693.83
 20
-1156786.16
  0
LWPOLYLINE
  5
201AF
100
AcDbEntity
  8
0
100
AcDbPolyline
 70
0
 90
2
 10
-598835.223
 20
-1158534.272
 10
-598844.944
 20
-1158536.694
  0
LWPOLYLINE
  5
201B0
100
AcDbEntity
  8
0
100
AcDbPolyline
 70
0
 90
2
 10
-600000.27
 20
-1157026.95
 10
-600000.5
 20
-1157019.89
  0
LWPOLYLINE
  5
201B1
100
AcDbEntity
  8
0
100
AcDbPolyline
 70
0
 90
2
 10
-600071.867
 20
-1156922.248
 10
-600064.101
 20
-1156926.66
  0
LWPOLYLINE
  5
201B2
100
AcDbEntity
  8
0
100
AcDbPolyline
 70
0
 90
2
 10
-599853.48
 20
-1157483.34
 10
-599855.03
 20
-1157475.44
  0
LWPOLYLINE
  5
201B3
100
AcDbEntity
  8
0
100
AcDbPolyline
 70
0
 90
2
 10
-600032.563
 20
-1157421.362
 10
-600033.508
 20
-1157426.903
  0
LWPOLYLINE
  5
201B4
100
AcDbEntity
  8
0
100
AcDbPolyline
 70
0
 90
2
 10
-599965.13
 20
-1157428.43
 10
-599958.92
 20
-1157428.8
  0
LWPOLYLINE
  5
201B5
100
AcDbEntity
  8
0
100
AcDbPolyline
 70
0
 90
2
 10
-599626.423
 20
-1156907.132
 10
-599623.421
 20
-1156907.296
  0
LWPOLYLINE
  5
201B6
100
AcDbEntity
  8
0
100
AcDbPolyline
 70
0
 90
2
 10
-599649.884
 20
-1157015.176
 10
-599649.552
 20
-1157007.017
  0
LWPOLYLINE
  5
201B7
100
AcDbEntity
  8
0
100
AcDbPolyline
 70
0
 90
2
 10
-599328.53
 20
-1156759.24
 10
-599326.99
 20
-1156765.22
  0
LWPOLYLINE
  5
201B8
100
AcDbEntity
  8
0
100
AcDbPolyline
 70
0
 90
2
 10
-598972.085
 20
-1158086.629
 10
-598970.876
 20
-1158091.035
  0
LWPOLYLINE
  5
201B9
100
AcDbEntity
  8
0
100
AcDbPolyline
 70
0
 90
2
 10
-600109.103
 20
-1157026.04
 10
-600107.265
 20
-1157031.407
  0
LWPOLYLINE
  5
201BA
100
AcDbEntity
  8
0
100
AcDbPolyline
 70
0
 90
2
 10
-600058.62
 20
-1157016.87
 10
-600059.01
 20
-1157024.11
  0
LWPOLYLINE
  5
201BB
100
AcDbEntity
  8
0
100
AcDbPolyline
 70
0
 90
2
 10
-600080.716
 20
-1157042.033
 10
-600075.09
 20
-1157041.687
  0
LWPOLYLINE
  5
201BC
100
AcDbEntity
  8
0
100
AcDbPolyline
 70
0
 90
2
 10
-597084.157
 20
-1157786.334
 10
-597073.447
 20
-1157791.526
  0
LWPOLYLINE
  5
201BD
100
AcDbEntity
  8
0
100
AcDbPolyline
 70
0
 90
2
 10
-599289.278
 20
-1158302.295
 10
-599277.423
 20
-1158298.709
  0
LWPOLYLINE
  5
201BE
100
AcDbEntity
  8
0
100
AcDbPolyline
 70
0
 90
2
 10
-599375.107
 20
-1158050.738
 10
-599371.975
 20
-1158060.72
  0
LWPOLYLINE
  5
201BF
100
AcDbEntity
  8
0
100
AcDbPolyline
 70
0
 90
2
 10
-599354.289
 20
-1158045.338
 10
-599351.49
 20
-1158054.921
  0
LWPOLYLINE
  5
201C0
100
AcDbEntity
  8
0
100
AcDbPolyline
 70
0
 90
2
 10
-598027.294
 20
-1157030.421
 10
-598027.161
 20
-1157037.609
  0
LWPOLYLINE
  5
201C1
100
AcDbEntity
  8
0
100
AcDbPolyline
 70
0
 90
2
 10
-599056.311
 20
-1156451.898
 10
-599061.139
 20
-1156453.18
  0
LWPOLYLINE
  5
201C2
100
AcDbEntity
  8
0
100
AcDbPolyline
 70
0
 90
2
 10
-598734.66
 20
-1156899.273
 10
-598725.69
 20
-1156896.23
  0
LWPOLYLINE
  5
201C3
100
AcDbEntity
  8
0
100
AcDbPolyline
 70
0
 90
2
 10
-598674.944
 20
-1157105.108
 10
-598673.222
 20
-1157114.01
  0
LWPOLYLINE
  5
201C4
100
AcDbEntity
  8
0
100
AcDbPolyline
 70
0
 90
2
 10
-598639.043
 20
-1157277.772
 10
-598637.407
 20
-1157286.484
  0
LWPOLYLINE
  5
201C5
100
AcDbEntity
  8
0
100
AcDbPolyline
 70
0
 90
2
 10
-598409.932
 20
-1157155.934
 10
-598396.973
 20
-1157151.799
  0
LWPOLYLINE
  5
201C6
100
AcDbEntity
  8
0
100
AcDbPolyline
 70
0
 90
2
 10
-598404.988
 20
-1157175.297
 10
-598390.476
 20
-1157172.734
  0
LWPOLYLINE
  5
201C7
100
AcDbEntity
  8
0
100
AcDbPolyline
 70
0
 90
2
 10
-598695.512
 20
-1156770.538
 10
-598686.812
 20
-1156776.972
  0
LWPOLYLINE
  5
201C8
100
AcDbEntity
  8
0
100
AcDbPolyline
 70
0
 90
2
 10
-598682.563
 20
-1156787.553
 10
-598686.095
 20
-1156778.273
  0
LWPOLYLINE
  5
201C9
100
AcDbEntity
  8
0
100
AcDbPolyline
 70
0
 90
2
 10
-598674.929
 20
-1156797.718
 10
-598667.471
 20
-1156795.013
  0
LWPOLYLINE
  5
201CA
100
AcDbEntity
  8
0
100
AcDbPolyline
 70
0
 90
2
 10
-598630.412
 20
-1156855.747
 10
-598621.677
 20
-1156854.116
  0
LWPOLYLINE
  5
201CB
100
AcDbEntity
  8
0
100
AcDbPolyline
 70
0
 90
2
 10
-598629.394
 20
-1156874.051
 10
-598629.824
 20
-1156882.625
  0
LWPOLYLINE
  5
201CC
100
AcDbEntity
  8
0
100
AcDbPolyline
 70
0
 90
2
 10
-598630.691
 20
-1156869.634
 10
-598633.788
 20
-1156864.444
  0
LWPOLYLINE
  5
201CD
100
AcDbEntity
  8
0
100
AcDbPolyline
 70
0
 90
2
 10
-599265.47
 20
-1157307.83
 10
-599259.3
 20
-1157305.86
  0
LWPOLYLINE
  5
201CE
100
AcDbEntity
  8
0
100
AcDbPolyline
 70
0
 90
2
 10
-599155.462
 20
-1157269.853
 10
-599159.215
 20
-1157264.086
  0
LWPOLYLINE
  5
201CF
100
AcDbEntity
  8
0
100
AcDbPolyline
 70
0
 90
2
 10
-599142.72
 20
-1157259.852
 10
-599140.267
 20
-1157264.035
  0
LWPOLYLINE
  5
201D0
100
AcDbEntity
  8
0
100
AcDbPolyline
 70
0
 90
2
 10
-599095.066
 20
-1156439.968
 10
-599089.211
 20
-1156438.045
  0
LWPOLYLINE
  5
201D1
100
AcDbEntity
  8
0
100
AcDbPolyline
 70
0
 90
2
 10
-599171.86
 20
-1156591.94
 10
-599166.856
 20
-1156590.412
  0
LWPOLYLINE
  5
201D2
100
AcDbEntity
  8
0
100
AcDbPolyline
 70
0
 90
2
 10
-599630.922
 20
-1157250.38
 10
-599618.85
 20
-1157246.31
  0
LWPOLYLINE
  5
201D3
100
AcDbEntity
  8
0
100
AcDbPolyline
 70
0
 90
2
 10
-600022.3
 20
-1156768.4
 10
-600015.04
 20
-1156771.88
  0
LWPOLYLINE
  5
201D4
100
AcDbEntity
  8
0
100
AcDbPolyline
 70
0
 90
2
 10
-600042.449
 20
-1156805.622
 10
-600038.621
 20
-1156795.978
  0
LWPOLYLINE
  5
201D5
100
AcDbEntity
  8
0
100
AcDbPolyline
 70
0
 90
2
 10
-599893.042
 20
-1157410.653
 10
-599888.472
 20
-1157417.639
  0
LWPOLYLINE
  5
201D6
100
AcDbEntity
  8
0
100
AcDbPolyline
 70
0
 90
2
 10
-599986.881
 20
-1157351.364
 10
-599991.975
 20
-1157353.076
  0
LWPOLYLINE
  5
201D7
100
AcDbEntity
  8
0
100
AcDbPolyline
 70
0
 90
2
 10
-599298.375
 20
-1156915.049
 10
-599290.43
 20
-1156912.66
  0
LWPOLYLINE
  5
201D8
100
AcDbEntity
  8
0
100
AcDbPolyline
 70
0
 90
2
 10
-599339.135
 20
-1156784.156
 10
-599333.13
 20
-1156782.343
  0
LWPOLYLINE
  5
201D9
100
AcDbEntity
  8
0
100
AcDbPolyline
 70
0
 90
2
 10
-599356.211
 20
-1156773.407
 10
-599357.447
 20
-1156766.136
  0
LWPOLYLINE
  5
201DA
100
AcDbEntity
  8
0
100
AcDbPolyline
 70
0
 90
2
 10
-599442.665
 20
-1156683.013
 10
-599436.056
 20
-1156680.995
  0
LWPOLYLINE
  5
201DB
100
AcDbEntity
  8
0
100
AcDbPolyline
 70
0
 90
2
 10
-598930.867
 20
-1158238.407
 10
-598930.008
 20
-1158242.304
  0
LWPOLYLINE
  5
201DC
100
AcDbEntity
  8
0
100
AcDbPolyline
 70
0
 90
2
 10
-599014.482
 20
-1157875.804
 10
-599012.42
 20
-1157882.697
  0
LWPOLYLINE
  5
201DD
100
AcDbEntity
  8
0
100
AcDbPolyline
 70
0
 90
2
 10
-599090.602
 20
-1157373.75
 10
-599088.431
 20
-1157377.113
  0
LWPOLYLINE
  5
201DE
100
AcDbEntity
  8
0
100
AcDbPolyline
 70
0
 90
2
 10
-598741.289
 20
-1156941.314
 10
-598739.141
 20
-1156944.787
  0
LWPOLYLINE
  5
201DF
100
AcDbEntity
  8
0
100
AcDbPolyline
 70
0
 90
2
 10
-598747.152
 20
-1156931.556
 10
-598744.833
 20
-1156935.25
  0
LWPOLYLINE
  5
201E0
100
AcDbEntity
  8
0
100
AcDbPolyline
 70
0
 90
2
 10
-598957.62
 20
-1156812.48
 10
-598972.084
 20
-1156816.733
  0
LWPOLYLINE
  5
201E1
100
AcDbEntity
  8
0
100
AcDbPolyline
 70
0
 90
2
 10
-598835.932
 20
-1158518.927
 10
-598833.306
 20
-1158529.892
  0
LWPOLYLINE
  5
201E2
100
AcDbEntity
  8
0
100
AcDbPolyline
 70
0
 90
2
 10
-598889.888
 20
-1158391.148
 10
-598891.916
 20
-1158384.496
  0
LWPOLYLINE
  5
201E3
100
AcDbEntity
  8
0
100
AcDbPolyline
 70
0
 90
2
 10
-598661.679
 20
-1157113.402
 10
-598670.383
 20
-1157115.257
  0
LWPOLYLINE
  5
201E4
100
AcDbEntity
  8
0
100
AcDbPolyline
 70
0
 90
2
 10
-600227.82
 20
-1156697.41
 10
-600233.65
 20
-1156701.78
  0
LWPOLYLINE
  5
201E5
100
AcDbEntity
  8
0
100
AcDbPolyline
 70
0
 90
2
 10
-598017.982
 20
-1156882.462
 10
-598019.311
 20
-1156889.458
  0
LWPOLYLINE
  5
201E6
100
AcDbEntity
  8
0
100
AcDbPolyline
 70
0
 90
2
 10
-598824.63
 20
-1156637.29
 10
-598818.91
 20
-1156635.32
  0
LWPOLYLINE
  5
201E7
100
AcDbEntity
  8
0
100
AcDbPolyline
 70
0
 90
2
 10
-598866.31
 20
-1156513.71
 10
-598860.71
 20
-1156511.73
  0
LWPOLYLINE
  5
201E8
100
AcDbEntity
  8
0
100
AcDbPolyline
 70
0
 90
2
 10
-598541.82
 20
-1157228.9
 10
-598536.67
 20
-1157225.81
  0
LWPOLYLINE
  5
201E9
100
AcDbEntity
  8
0
100
AcDbPolyline
 70
0
 90
2
 10
-599286.42
 20
-1157747.3
 10
-599288.2
 20
-1157741.59
  0
LWPOLYLINE
  5
201EA
100
AcDbEntity
  8
0
100
AcDbPolyline
 70
0
 90
2
 10
-599268.4
 20
-1157735.54
 10
-599266.59
 20
-1157741.23
  0
LWPOLYLINE
  5
201EB
100
AcDbEntity
  8
0
100
AcDbPolyline
 70
0
 90
2
 10
-599021.363
 20
-1157659.97
 10
-599023.203
 20
-1157669.887
  0
LWPOLYLINE
  5
201EC
100
AcDbEntity
  8
0
100
AcDbPolyline
 70
0
 90
2
 10
-599028.834
 20
-1157701.116
 10
-599018.089
 20
-1157698.357
  0
LWPOLYLINE
  5
201ED
100
AcDbEntity
  8
0
100
AcDbPolyline
 70
0
 90
2
 10
-599030.431
 20
-1157691.504
 10
-599034.182
 20
-1157697.198
  0
LWPOLYLINE
  5
201EE
100
AcDbEntity
  8
0
100
AcDbPolyline
 70
0
 90
2
 10
-599013.418
 20
-1157691.606
 10
-599013.589
 20
-1157681.446
  0
LWPOLYLINE
  5
201EF
100
AcDbEntity
  8
0
100
AcDbPolyline
 70
0
 90
2
 10
-599670.79
 20
-1156757.777
 10
-599677.89
 20
-1156753.26
  0
LWPOLYLINE
  5
201F0
100
AcDbEntity
  8
0
100
AcDbPolyline
 70
0
 90
2
 10
-599610.25
 20
-1157321.27
 10
-599614.73
 20
-1157308.806
  0
LWPOLYLINE
  5
201F1
100
AcDbEntity
  8
0
100
AcDbPolyline
 70
0
 90
2
 10
-599568.367
 20
-1157393.54
 10
-599569.831
 20
-1157388.904
  0
LWPOLYLINE
  5
201F2
100
AcDbEntity
  8
0
100
AcDbPolyline
 70
0
 90
2
 10
-599611.72
 20
-1157261.68
 10
-599614.37
 20
-1157254.19
  0
LWPOLYLINE
  5
201F3
100
AcDbEntity
  8
0
100
AcDbPolyline
 70
0
 90
2
 10
-599521.403
 20
-1157537.606
 10
-599523.177
 20
-1157531.894
  0
LWPOLYLINE
  5
201F4
100
AcDbEntity
  8
0
100
AcDbPolyline
 70
0
 90
2
 10
-599539.23
 20
-1157543.19
 10
-599540.89
 20
-1157537.24
  0
LWPOLYLINE
  5
201F5
100
AcDbEntity
  8
0
100
AcDbPolyline
 70
0
 90
2
 10
-599296.33
 20
-1158291.824
 10
-599294.434
 20
-1158297.608
  0
LWPOLYLINE
  5
201F6
100
AcDbEntity
  8
0
100
AcDbPolyline
 70
0
 90
2
 10
-599366.125
 20
-1158063.679
 10
-599353.569
 20
-1158059.535
  0
LWPOLYLINE
  5
201F7
100
AcDbEntity
  8
0
100
AcDbPolyline
 70
0
 90
2
 10
-599371.992
 20
-1158045.882
 10
-599360.077
 20
-1158042.132
  0
LWPOLYLINE
  5
201F8
100
AcDbEntity
  8
0
100
AcDbPolyline
 70
0
 90
2
 10
-599437.83
 20
-1157795.31
 10
-599440.52
 20
-1157786.05
  0
LWPOLYLINE
  5
201F9
100
AcDbEntity
  8
0
100
AcDbPolyline
 70
0
 90
2
 10
-599455.39
 20
-1157800.37
 10
-599458
 20
-1157791.28
  0
LWPOLYLINE
  5
201FA
100
AcDbEntity
  8
0
100
AcDbPolyline
 70
0
 90
2
 10
-597071.684
 20
-1157807.295
 10
-597069.81
 20
-1157803.593
  0
LWPOLYLINE
  5
201FB
100
AcDbEntity
  8
0
100
AcDbPolyline
 70
0
 90
2
 10
-597459.914
 20
-1157647.446
 10
-597458.01
 20
-1157637.517
  0
LWPOLYLINE
  5
201FC
100
AcDbEntity
  8
0
100
AcDbPolyline
 70
0
 90
2
 10
-597853.84
 20
-1157548.25
 10
-597858.65
 20
-1157561.29
  0
LWPOLYLINE
  5
201FD
100
AcDbEntity
  8
0
100
AcDbPolyline
 70
0
 90
2
 10
-597915.6
 20
-1157536.28
 10
-597911.25
 20
-1157526.45
  0
LWPOLYLINE
  5
201FE
100
AcDbEntity
  8
0
100
AcDbPolyline
 70
0
 90
2
 10
-598248.51
 20
-1157318.538
 10
-598236.912
 20
-1157314.868
  0
LWPOLYLINE
  5
201FF
100
AcDbEntity
  8
0
100
AcDbPolyline
 70
0
 90
2
 10
-598388.206
 20
-1157170.521
 10
-598390.288
 20
-1157152.8
  0
LWPOLYLINE
  5
20200
100
AcDbEntity
  8
0
100
AcDbPolyline
 70
0
 90
2
 10
-598526.898
 20
-1157249.063
 10
-598515.182
 20
-1157242.262
  0
LWPOLYLINE
  5
20201
100
AcDbEntity
  8
0
100
AcDbPolyline
 70
0
 90
2
 10
-598537.89
 20
-1157247.58
 10
-598545.372
 20
-1157233.309
  0
LWPOLYLINE
  5
20202
100
AcDbEntity
  8
0
100
AcDbPolyline
 70
0
 90
2
 10
-598952.812
 20
-1156825.023
 10
-598953.837
 20
-1156821.903
  0
LWPOLYLINE
  5
20203
100
AcDbEntity
  8
0
100
AcDbPolyline
 70
0
 90
2
 10
-598973.272
 20
-1156827.62
 10
-598974.584
 20
-1156821.729
  0
LWPOLYLINE
  5
20204
100
AcDbEntity
  8
0
100
AcDbPolyline
 70
0
 90
2
 10
-598942.982
 20
-1156924.406
 10
-598944.269
 20
-1156920.124
  0
LWPOLYLINE
  5
20205
100
AcDbEntity
  8
0
100
AcDbPolyline
 70
0
 90
2
 10
-598557.788
 20
-1158234.941
 10
-598553.28
 20
-1158251.233
  0
LWPOLYLINE
  5
20206
100
AcDbEntity
  8
0
100
AcDbPolyline
 70
0
 90
2
 10
-598599.213
 20
-1158081.97
 10
-598600.222
 20
-1158078.29
  0
LWPOLYLINE
  5
20207
100
AcDbEntity
  8
0
100
AcDbPolyline
 70
0
 90
2
 10
-598658.575
 20
-1157865.291
 10
-598659.589
 20
-1157861.335
  0
LWPOLYLINE
  5
20208
100
AcDbEntity
  8
0
100
AcDbPolyline
 70
0
 90
2
 10
-598682.51
 20
-1157874.186
 10
-598684.085
 20
-1157867.928
  0
LWPOLYLINE
  5
20209
100
AcDbEntity
  8
0
100
AcDbPolyline
 70
0
 90
2
 10
-598692.116
 20
-1157812.703
 10
-598687.139
 20
-1157811.42
  0
LWPOLYLINE
  5
2020A
100
AcDbEntity
  8
0
100
AcDbPolyline
 70
0
 90
2
 10
-598699.81
 20
-1157806.201
 10
-598701.412
 20
-1157799.82
  0
LWPOLYLINE
  5
2020B
100
AcDbEntity
  8
0
100
AcDbPolyline
 70
0
 90
2
 10
-598693.719
 20
-1157732.436
 10
-598694.502
 20
-1157729.516
  0
LWPOLYLINE
  5
2020C
100
AcDbEntity
  8
0
100
AcDbPolyline
 70
0
 90
2
 10
-598717.721
 20
-1157742.418
 10
-598718.465
 20
-1157739.157
  0
LWPOLYLINE
  5
2020D
100
AcDbEntity
  8
0
100
AcDbPolyline
 70
0
 90
2
 10
-598736.886
 20
-1157642.265
 10
-598723.39
 20
-1157638.78
  0
LWPOLYLINE
  5
2020E
100
AcDbEntity
  8
0
100
AcDbPolyline
 70
0
 90
2
 10
-598744.04
 20
-1157636.91
 10
-598744.95
 20
-1157632.44
  0
LWPOLYLINE
  5
2020F
100
AcDbEntity
  8
0
100
AcDbPolyline
 70
0
 90
2
 10
-598769.22
 20
-1157528.098
 10
-598765.814
 20
-1157527.197
  0
LWPOLYLINE
  5
20210
100
AcDbEntity
  8
0
100
AcDbPolyline
 70
0
 90
2
 10
-598785.874
 20
-1157465.092
 10
-598782.034
 20
-1157464.083
  0
LWPOLYLINE
  5
20211
100
AcDbEntity
  8
0
100
AcDbPolyline
 70
0
 90
2
 10
-599320.641
 20
-1157619.93
 10
-599314.965
 20
-1157618.09
  0
LWPOLYLINE
  5
20212
100
AcDbEntity
  8
0
100
AcDbPolyline
 70
0
 90
2
 10
-599329.94
 20
-1157614.74
 10
-599331.413
 20
-1157610.133
  0
LWPOLYLINE
  5
20213
100
AcDbEntity
  8
0
100
AcDbPolyline
 70
0
 90
2
 10
-599323.297
 20
-1157592.002
 10
-599329.12
 20
-1157593.943
  0
LWPOLYLINE
  5
20214
100
AcDbEntity
  8
0
100
AcDbPolyline
 70
0
 90
2
 10
-598794.19
 20
-1157450.2
 10
-598792.13
 20
-1157457.27
  0
LWPOLYLINE
  5
20215
100
AcDbEntity
  8
0
100
AcDbPolyline
 70
0
 90
2
 10
-598797.695
 20
-1157437.229
 10
-598799.801
 20
-1157430.523
  0
LWPOLYLINE
  5
20216
100
AcDbEntity
  8
0
100
AcDbPolyline
 70
0
 90
2
 10
-598798.147
 20
-1157421.213
 10
-598792.356
 20
-1157419.668
  0
LWPOLYLINE
  5
20217
100
AcDbEntity
  8
0
100
AcDbPolyline
 70
0
 90
2
 10
-598827.47
 20
-1157235.19
 10
-598830.1
 20
-1157225.59
  0
LWPOLYLINE
  5
20218
100
AcDbEntity
  8
0
100
AcDbPolyline
 70
0
 90
2
 10
-598866.732
 20
-1157179.218
 10
-598865.237
 20
-1157183.917
  0
LWPOLYLINE
  5
20219
100
AcDbEntity
  8
0
100
AcDbPolyline
 70
0
 90
2
 10
-598853.392
 20
-1157135.356
 10
-598851.767
 20
-1157143.257
  0
LWPOLYLINE
  5
2021A
100
AcDbEntity
  8
0
100
AcDbPolyline
 70
0
 90
2
 10
-598894.9
 20
-1157054.21
 10
-598880.14
 20
-1157049.55
  0
LWPOLYLINE
  5
2021B
100
AcDbEntity
  8
0
100
AcDbPolyline
 70
0
 90
2
 10
-598908.482
 20
-1157032.025
 10
-598906.937
 20
-1157036.696
  0
LWPOLYLINE
  5
2021C
100
AcDbEntity
  8
0
100
AcDbPolyline
 70
0
 90
2
 10
-598884.5
 20
-1157016.32
 10
-598876.026
 20
-1157034.192
  0
LWPOLYLINE
  5
2021D
100
AcDbEntity
  8
0
100
AcDbPolyline
 70
0
 90
2
 10
-598886.31
 20
-1157008.62
 10
-598884.33
 20
-1157003.3
  0
LWPOLYLINE
  5
2021E
100
AcDbEntity
  8
0
100
AcDbPolyline
 70
0
 90
2
 10
-598910.99
 20
-1157014.44
 10
-598895.598
 20
-1157009.376
  0
LWPOLYLINE
  5
2021F
100
AcDbEntity
  8
0
100
AcDbPolyline
 70
0
 90
2
 10
-598756.99
 20
-1156796.86
 10
-598764.25
 20
-1156808.45
  0
LWPOLYLINE
  5
20220
100
AcDbEntity
  8
0
100
AcDbPolyline
 70
0
 90
2
 10
-598555.743
 20
-1157845.161
 10
-598556.533
 20
-1157841.497
  0
LWPOLYLINE
  5
20221
100
AcDbEntity
  8
0
100
AcDbPolyline
 70
0
 90
2
 10
-598570.237
 20
-1157516.457
 10
-598570.875
 20
-1157522.248
  0
LWPOLYLINE
  5
20222
100
AcDbEntity
  8
0
100
AcDbPolyline
 70
0
 90
2
 10
-598628.529
 20
-1157295.197
 10
-598617.195
 20
-1157292.456
  0
LWPOLYLINE
  5
20223
100
AcDbEntity
  8
0
100
AcDbPolyline
 70
0
 90
2
 10
-598614.26
 20
-1157271.3
 10
-598611.55
 20
-1157280.04
  0
LWPOLYLINE
  5
20224
100
AcDbEntity
  8
0
100
AcDbPolyline
 70
0
 90
2
 10
-598615.11
 20
-1157268.49
 10
-598617.76
 20
-1157259.8
  0
LWPOLYLINE
  5
20225
100
AcDbEntity
  8
0
100
AcDbPolyline
 70
0
 90
2
 10
-598638.465
 20
-1157257.242
 10
-598626.23
 20
-1157253.81
  0
LWPOLYLINE
  5
20226
100
AcDbEntity
  8
0
100
AcDbPolyline
 70
0
 90
2
 10
-598718.472
 20
-1156946.453
 10
-598708.845
 20
-1156941.726
  0
LWPOLYLINE
  5
20227
100
AcDbEntity
  8
0
100
AcDbPolyline
 70
0
 90
2
 10
-598582.96
 20
-1156793.72
 10
-598577.53
 20
-1156790.9
  0
LWPOLYLINE
  5
20228
100
AcDbEntity
  8
0
100
AcDbPolyline
 70
0
 90
2
 10
-596251.549
 20
-1156359.568
 10
-596247.951
 20
-1156371.635
  0
LWPOLYLINE
  5
20229
100
AcDbEntity
  8
0
100
AcDbPolyline
 70
0
 90
2
 10
-596020.781
 20
-1158151.934
 10
-596024.086
 20
-1158160.236
  0
LWPOLYLINE
  5
2022A
100
AcDbEntity
  8
0
100
AcDbPolyline
 70
0
 90
2
 10
-596088.984
 20
-1157232.994
 10
-596084.598
 20
-1157233.486
  0
LWPOLYLINE
  5
2022B
100
AcDbEntity
  8
0
100
AcDbPolyline
 70
0
 90
2
 10
-596935.621
 20
-1157600.094
 10
-596928.321
 20
-1157608.344
  0
LWPOLYLINE
  5
2022C
100
AcDbEntity
  8
0
100
AcDbPolyline
 70
0
 90
2
 10
-596333.06
 20
-1156966.35
 10
-596330.708
 20
-1156963.112
  0
LWPOLYLINE
  5
2022D
100
AcDbEntity
  8
0
100
AcDbPolyline
 70
0
 90
2
 10
-597107.218
 20
-1157040.976
 10
-597099.022
 20
-1157048.523
  0
LWPOLYLINE
  5
2022E
100
AcDbEntity
  8
0
100
AcDbPolyline
 70
0
 90
2
 10
-596691.53
 20
-1156680.98
 10
-596682.7
 20
-1156681.17
  0
LWPOLYLINE
  5
2022F
100
AcDbEntity
  8
0
100
AcDbPolyline
 70
0
 90
2
 10
-596417.528
 20
-1156607.093
 10
-596415.392
 20
-1156616.921
  0
LWPOLYLINE
  5
20230
100
AcDbEntity
  8
0
100
AcDbPolyline
 70
0
 90
2
 10
-596441.017
 20
-1156608.744
 10
-596428.996
 20
-1156605.104
  0
LWPOLYLINE
  5
20231
100
AcDbEntity
  8
0
100
AcDbPolyline
 70
0
 90
2
 10
-596449.07
 20
-1156597.99
 10
-596446.79
 20
-1156608.14
  0
LWPOLYLINE
  5
20232
100
AcDbEntity
  8
0
100
AcDbPolyline
 70
0
 90
2
 10
-596446.586
 20
-1156613.432
 10
-596445.019
 20
-1156623.331
  0
LWPOLYLINE
  5
20233
100
AcDbEntity
  8
0
100
AcDbPolyline
 70
0
 90
2
 10
-596578.867
 20
-1156639.064
 10
-596567.199
 20
-1156636.375
  0
LWPOLYLINE
  5
20234
100
AcDbEntity
  8
0
100
AcDbPolyline
 70
0
 90
2
 10
-596584.256
 20
-1156651.007
 10
-596583.606
 20
-1156654.085
  0
LWPOLYLINE
  5
20235
100
AcDbEntity
  8
0
100
AcDbPolyline
 70
0
 90
2
 10
-596558.58
 20
-1156638.41
 10
-596557.908
 20
-1156641.273
  0
LWPOLYLINE
  5
20236
100
AcDbEntity
  8
0
100
AcDbPolyline
 70
0
 90
2
 10
-596560.02
 20
-1156632.24
 10
-596562.05
 20
-1156622.56
  0
LWPOLYLINE
  5
20237
100
AcDbEntity
  8
0
100
AcDbPolyline
 70
0
 90
2
 10
-596222.953
 20
-1156988.771
 10
-596226.552
 20
-1156995.901
  0
LWPOLYLINE
  5
20238
100
AcDbEntity
  8
0
100
AcDbPolyline
 70
0
 90
2
 10
-596250.53
 20
-1157364.51
 10
-596247.22
 20
-1157358.04
  0
LWPOLYLINE
  5
20239
100
AcDbEntity
  8
0
100
AcDbPolyline
 70
0
 90
2
 10
-596174.489
 20
-1157142.84
 10
-596181.284
 20
-1157145.556
  0
LWPOLYLINE
  5
2023A
100
AcDbEntity
  8
0
100
AcDbPolyline
 70
0
 90
2
 10
-596177.185
 20
-1157239.517
 10
-596170.109
 20
-1157241.701
  0
LWPOLYLINE
  5
2023B
100
AcDbEntity
  8
0
100
AcDbPolyline
 70
0
 90
2
 10
-596249.535
 20
-1156351.769
 10
-596240.818
 20
-1156349.11
  0
LWPOLYLINE
  5
2023C
100
AcDbEntity
  8
0
100
AcDbPolyline
 70
0
 90
2
 10
-596160.658
 20
-1156646.259
 10
-596156.825
 20
-1156645.07
  0
LWPOLYLINE
  5
2023D
100
AcDbEntity
  8
0
100
AcDbPolyline
 70
0
 90
2
 10
-596756.51
 20
-1157786.12
 10
-596750.65
 20
-1157782.11
  0
LWPOLYLINE
  5
2023E
100
AcDbEntity
  8
0
100
AcDbPolyline
 70
0
 90
2
 10
-596706.22
 20
-1157812.18
 10
-596703.07
 20
-1157802.93
  0
LWPOLYLINE
  5
2023F
100
AcDbEntity
  8
0
100
AcDbPolyline
 70
0
 90
2
 10
-596574.95
 20
-1157865.904
 10
-596570.425
 20
-1157853.911
  0
LWPOLYLINE
  5
20240
100
AcDbEntity
  8
0
100
AcDbPolyline
 70
0
 90
2
 10
-596435.125
 20
-1156626.715
 10
-596427.345
 20
-1156625.272
  0
LWPOLYLINE
  5
20241
100
AcDbEntity
  8
0
100
AcDbPolyline
 70
0
 90
2
 10
-596572.49
 20
-1156656.969
 10
-596564.536
 20
-1156655.155
  0
LWPOLYLINE
  5
20242
100
AcDbEntity
  8
0
100
AcDbPolyline
 70
0
 90
2
 10
-596778.097
 20
-1156702.965
 10
-596769.173
 20
-1156699.14
  0
LWPOLYLINE
  5
20243
100
AcDbEntity
  8
0
100
AcDbPolyline
 70
0
 90
2
 10
-596894.96
 20
-1156749.409
 10
-596892.862
 20
-1156751.652
  0
LWPOLYLINE
  5
20244
100
AcDbEntity
  8
0
100
AcDbPolyline
 70
0
 90
2
 10
-596908.939
 20
-1156760.01
 10
-596902.511
 20
-1156750.979
  0
LWPOLYLINE
  5
20245
100
AcDbEntity
  8
0
100
AcDbPolyline
 70
0
 90
2
 10
-596889.978
 20
-1156765.284
 10
-596895.021
 20
-1156771.43
  0
LWPOLYLINE
  5
20246
100
AcDbEntity
  8
0
100
AcDbPolyline
 70
0
 90
2
 10
-596947.217
 20
-1156832.196
 10
-596938.294
 20
-1156836.712
  0
LWPOLYLINE
  5
20247
100
AcDbEntity
  8
0
100
AcDbPolyline
 70
0
 90
2
 10
-596946.944
 20
-1156865.59
 10
-596943.846
 20
-1156858.61
  0
LWPOLYLINE
  5
20248
100
AcDbEntity
  8
0
100
AcDbPolyline
 70
0
 90
2
 10
-597097.804
 20
-1157052.013
 10
-597104.02
 20
-1157059.61
  0
LWPOLYLINE
  5
20249
100
AcDbEntity
  8
0
100
AcDbPolyline
 70
0
 90
2
 10
-597158.605
 20
-1157235.781
 10
-597155.956
 20
-1157234.917
  0
LWPOLYLINE
  5
2024A
100
AcDbEntity
  8
0
100
AcDbPolyline
 70
0
 90
2
 10
-597137.524
 20
-1157248.427
 10
-597134.767
 20
-1157255.693
  0
LWPOLYLINE
  5
2024B
100
AcDbEntity
  8
0
100
AcDbPolyline
 70
0
 90
2
 10
-596952.604
 20
-1157579.658
 10
-596945.445
 20
-1157587.942
  0
LWPOLYLINE
  5
2024C
100
AcDbEntity
  8
0
100
AcDbPolyline
 70
0
 90
2
 10
-596492.38
 20
-1157903.42
 10
-596483.92
 20
-1157904.46
  0
LWPOLYLINE
  5
2024D
100
AcDbEntity
  8
0
100
AcDbPolyline
 70
0
 90
2
 10
-596593.926
 20
-1157863.224
 10
-596584.846
 20
-1157866.821
  0
LWPOLYLINE
  5
2024E
100
AcDbEntity
  8
0
100
AcDbPolyline
 70
0
 90
2
 10
-596586.711
 20
-1157842.046
 10
-596575.82
 20
-1157846.498
  0
LWPOLYLINE
  5
2024F
100
AcDbEntity
  8
0
100
AcDbPolyline
 70
0
 90
2
 10
-596280.786
 20
-1157799.246
 10
-596277.184
 20
-1157800.869
  0
LWPOLYLINE
  5
20250
100
AcDbEntity
  8
0
100
AcDbPolyline
 70
0
 90
2
 10
-596266.808
 20
-1157744.378
 10
-596269.764
 20
-1157750.574
  0
LWPOLYLINE
  5
20251
100
AcDbEntity
  8
0
100
AcDbPolyline
 70
0
 90
2
 10
-596133.295
 20
-1157415.582
 10
-596135.197
 20
-1157422.223
  0
LWPOLYLINE
  5
20252
100
AcDbEntity
  8
0
100
AcDbPolyline
 70
0
 90
2
 10
-596130.554
 20
-1156781.726
 10
-596128.724
 20
-1156788.471
  0
LWPOLYLINE
  5
20253
100
AcDbEntity
  8
0
100
AcDbPolyline
 70
0
 90
2
 10
-596089.41
 20
-1157054.28
 10
-596089.17
 20
-1157064.14
  0
LWPOLYLINE
  5
20254
100
AcDbEntity
  8
0
100
AcDbPolyline
 70
0
 90
2
 10
-596196.974
 20
-1156556.98
 10
-596195.544
 20
-1156568.049
  0
LWPOLYLINE
  5
20255
100
AcDbEntity
  8
0
100
AcDbPolyline
 70
0
 90
2
 10
-591719.04
 20
-1161476.87
 10
-591722.94
 20
-1161476.78
  0
LWPOLYLINE
  5
20256
100
AcDbEntity
  8
0
100
AcDbPolyline
 70
0
 90
2
 10
-592760.325
 20
-1160618.737
 10
-592759.288
 20
-1160626.393
  0
LWPOLYLINE
  5
20257
100
AcDbEntity
  8
0
100
AcDbPolyline
 70
0
 90
2
 10
-592876.895
 20
-1160668.775
 10
-592874.69
 20
-1160675.388
  0
LWPOLYLINE
  5
20258
100
AcDbEntity
  8
0
100
AcDbPolyline
 70
0
 90
2
 10
-593250.591
 20
-1160044.256
 10
-593243.766
 20
-1160044.85
  0
LWPOLYLINE
  5
20259
100
AcDbEntity
  8
0
100
AcDbPolyline
 70
0
 90
2
 10
-593233.191
 20
-1160019.671
 10
-593233.462
 20
-1160025.469
  0
LWPOLYLINE
  5
2025A
100
AcDbEntity
  8
0
100
AcDbPolyline
 70
0
 90
2
 10
-593325.958
 20
-1159660.804
 10
-593318.395
 20
-1159663.184
  0
LWPOLYLINE
  5
2025B
100
AcDbEntity
  8
0
100
AcDbPolyline
 70
0
 90
2
 10
-593339.365
 20
-1159656.399
 10
-593329.735
 20
-1159659.553
  0
LWPOLYLINE
  5
2025C
100
AcDbEntity
  8
0
100
AcDbPolyline
 70
0
 90
2
 10
-593007.917
 20
-1159453.154
 10
-592996.995
 20
-1159460.182
  0
LWPOLYLINE
  5
2025D
100
AcDbEntity
  8
0
100
AcDbPolyline
 70
0
 90
2
 10
-592997.04
 20
-1159476.94
 10
-592992.657
 20
-1159471.723
  0
LWPOLYLINE
  5
2025E
100
AcDbEntity
  8
0
100
AcDbPolyline
 70
0
 90
2
 10
-593627.171
 20
-1160613.798
 10
-593625.742
 20
-1160603.543
  0
LWPOLYLINE
  5
2025F
100
AcDbEntity
  8
0
100
AcDbPolyline
 70
0
 90
2
 10
-593702.489
 20
-1160560.891
 10
-593691.851
 20
-1160558.148
  0
LWPOLYLINE
  5
20260
100
AcDbEntity
  8
0
100
AcDbPolyline
 70
0
 90
2
 10
-592364.82
 20
-1160016.57
 10
-592362.91
 20
-1160022.18
  0
LWPOLYLINE
  5
20261
100
AcDbEntity
  8
0
100
AcDbPolyline
 70
0
 90
2
 10
-592407.27
 20
-1160022.5
 10
-592407.7
 20
-1160031.18
  0
LWPOLYLINE
  5
20262
100
AcDbEntity
  8
0
100
AcDbPolyline
 70
0
 90
2
 10
-592401.908
 20
-1160038.395
 10
-592396.076
 20
-1160038.354
  0
LWPOLYLINE
  5
20263
100
AcDbEntity
  8
0
100
AcDbPolyline
 70
0
 90
2
 10
-592270.882
 20
-1160562.242
 10
-592269.144
 20
-1160569.089
  0
LWPOLYLINE
  5
20264
100
AcDbEntity
  8
0
100
AcDbPolyline
 70
0
 90
2
 10
-592227.82
 20
-1160544.07
 10
-592224.95
 20
-1160550.84
  0
LWPOLYLINE
  5
20265
100
AcDbEntity
  8
0
100
AcDbPolyline
 70
0
 90
2
 10
-590326.885
 20
-1160713.893
 10
-590318.813
 20
-1160715.051
  0
LWPOLYLINE
  5
20266
100
AcDbEntity
  8
0
100
AcDbPolyline
 70
0
 90
2
 10
-590300.76
 20
-1160797.93
 10
-590294.68
 20
-1160797.23
  0
LWPOLYLINE
  5
20267
100
AcDbEntity
  8
0
100
AcDbPolyline
 70
0
 90
2
 10
-590270.17
 20
-1160957.76
 10
-590276.25
 20
-1160959.14
  0
LWPOLYLINE
  5
20268
100
AcDbEntity
  8
0
100
AcDbPolyline
 70
0
 90
2
 10
-592659.834
 20
-1160806.684
 10
-592654.55
 20
-1160815.611
  0
LWPOLYLINE
  5
20269
100
AcDbEntity
  8
0
100
AcDbPolyline
 70
0
 90
2
 10
-592453.53
 20
-1160771.69
 10
-592447.47
 20
-1160774.76
  0
LWPOLYLINE
  5
2026A
100
AcDbEntity
  8
0
100
AcDbPolyline
 70
0
 90
2
 10
-592401.337
 20
-1160675.259
 10
-592393.051
 20
-1160675.589
  0
LWPOLYLINE
  5
2026B
100
AcDbEntity
  8
0
100
AcDbPolyline
 70
0
 90
2
 10
-593687.27
 20
-1160616.24
 10
-593678.09
 20
-1160613.92
  0
LWPOLYLINE
  5
2026C
100
AcDbEntity
  8
0
100
AcDbPolyline
 70
0
 90
2
 10
-591827.26
 20
-1160490.78
 10
-591820.4
 20
-1160491.58
  0
LWPOLYLINE
  5
2026D
100
AcDbEntity
  8
0
100
AcDbPolyline
 70
0
 90
2
 10
-591763.068
 20
-1160217.211
 10
-591770.561
 20
-1160214.713
  0
LWPOLYLINE
  5
2026E
100
AcDbEntity
  8
0
100
AcDbPolyline
 70
0
 90
2
 10
-591385.33
 20
-1159583.431
 10
-591377.631
 20
-1159587.398
  0
LWPOLYLINE
  5
2026F
100
AcDbEntity
  8
0
100
AcDbPolyline
 70
0
 90
2
 10
-592199.126
 20
-1159793.364
 10
-592199.794
 20
-1159799.175
  0
LWPOLYLINE
  5
20270
100
AcDbEntity
  8
0
100
AcDbPolyline
 70
0
 90
2
 10
-591716.967
 20
-1161476.814
 10
-591713.73
 20
-1161476.87
  0
LWPOLYLINE
  5
20271
100
AcDbEntity
  8
0
100
AcDbPolyline
 70
0
 90
2
 10
-591788.391
 20
-1161103.561
 10
-591782.733
 20
-1161100.96
  0
LWPOLYLINE
  5
20272
100
AcDbEntity
  8
0
100
AcDbPolyline
 70
0
 90
2
 10
-592222.261
 20
-1160568.869
 10
-592221.654
 20
-1160561.699
  0
LWPOLYLINE
  5
20273
100
AcDbEntity
  8
0
100
AcDbPolyline
 70
0
 90
2
 10
-591234.893
 20
-1160267.74
 10
-591229.032
 20
-1160260.544
  0
LWPOLYLINE
  5
20274
100
AcDbEntity
  8
0
100
AcDbPolyline
 70
0
 90
2
 10
-591729.439
 20
-1160108.972
 10
-591726.168
 20
-1160099.602
  0
LWPOLYLINE
  5
20275
100
AcDbEntity
  8
0
100
AcDbPolyline
 70
0
 90
2
 10
-591874.896
 20
-1160102.985
 10
-591873.224
 20
-1160087.947
  0
LWPOLYLINE
  5
20276
100
AcDbEntity
  8
0
100
AcDbPolyline
 70
0
 90
2
 10
-592503.028
 20
-1159264.644
 10
-592501.82
 20
-1159259.36
  0
LWPOLYLINE
  5
20277
100
AcDbEntity
  8
0
100
AcDbPolyline
 70
0
 90
2
 10
-591791.97
 20
-1161059.812
 10
-591794.754
 20
-1161047.934
  0
LWPOLYLINE
  5
20278
100
AcDbEntity
  8
0
100
AcDbPolyline
 70
0
 90
2
 10
-591592.51
 20
-1159802.08
 10
-591585.8
 20
-1159805.06
  0
LWPOLYLINE
  5
20279
100
AcDbEntity
  8
0
100
AcDbPolyline
 70
0
 90
2
 10
-592250.904
 20
-1159944.833
 10
-592245.984
 20
-1159948.544
  0
LWPOLYLINE
  5
2027A
100
AcDbEntity
  8
0
100
AcDbPolyline
 70
0
 90
2
 10
-591833.877
 20
-1160588.412
 10
-591833.67
 20
-1160596.97
  0
LWPOLYLINE
  5
2027B
100
AcDbEntity
  8
0
100
AcDbPolyline
 70
0
 90
2
 10
-591829.45
 20
-1160610.36
 10
-591821.752
 20
-1160610.029
  0
LWPOLYLINE
  5
2027C
100
AcDbEntity
  8
0
100
AcDbPolyline
 70
0
 90
2
 10
-591824.484
 20
-1160722.537
 10
-591816.551
 20
-1160722.262
  0
LWPOLYLINE
  5
2027D
100
AcDbEntity
  8
0
100
AcDbPolyline
 70
0
 90
2
 10
-591813.648
 20
-1160726.573
 10
-591813.339
 20
-1160735.245
  0
LWPOLYLINE
  5
2027E
100
AcDbEntity
  8
0
100
AcDbPolyline
 70
0
 90
2
 10
-593172.477
 20
-1160674.49
 10
-593174.373
 20
-1160683.781
  0
LWPOLYLINE
  5
2027F
100
AcDbEntity
  8
0
100
AcDbPolyline
 70
0
 90
2
 10
-593004.047
 20
-1160715.289
 10
-593006.227
 20
-1160723.538
  0
LWPOLYLINE
  5
20280
100
AcDbEntity
  8
0
100
AcDbPolyline
 70
0
 90
2
 10
-592939.674
 20
-1160732.26
 10
-592942.233
 20
-1160740.982
  0
LWPOLYLINE
  5
20281
100
AcDbEntity
  8
0
100
AcDbPolyline
 70
0
 90
2
 10
-591756.951
 20
-1160159.591
 10
-591748.233
 20
-1160161.856
  0
LWPOLYLINE
  5
20282
100
AcDbEntity
  8
0
100
AcDbPolyline
 70
0
 90
2
 10
-591755.754
 20
-1160133.747
 10
-591761.138
 20
-1160151.002
  0
LWPOLYLINE
  5
20283
100
AcDbEntity
  8
0
100
AcDbPolyline
 70
0
 90
2
 10
-592229.801
 20
-1159530.003
 10
-592225.037
 20
-1159529.255
  0
LWPOLYLINE
  5
20284
100
AcDbEntity
  8
0
100
AcDbPolyline
 70
0
 90
2
 10
-592235.773
 20
-1159537.904
 10
-592233.583
 20
-1159545.026
  0
LWPOLYLINE
  5
20285
100
AcDbEntity
  8
0
100
AcDbPolyline
 70
0
 90
2
 10
-592178.911
 20
-1159785.573
 10
-592174.05
 20
-1159786.16
  0
LWPOLYLINE
  5
20286
100
AcDbEntity
  8
0
100
AcDbPolyline
 70
0
 90
2
 10
-592182.59
 20
-1159808.445
 10
-592177.976
 20
-1159809.35
  0
LWPOLYLINE
  5
20287
100
AcDbEntity
  8
0
100
AcDbPolyline
 70
0
 90
2
 10
-592286.473
 20
-1159986.51
 10
-592277.627
 20
-1159994.672
  0
LWPOLYLINE
  5
20288
100
AcDbEntity
  8
0
100
AcDbPolyline
 70
0
 90
2
 10
-592292.515
 20
-1160026.414
 10
-592286.119
 20
-1160019.28
  0
LWPOLYLINE
  5
20289
100
AcDbEntity
  8
0
100
AcDbPolyline
 70
0
 90
2
 10
-592277.79
 20
-1160010.283
 10
-592284.151
 20
-1160017.276
  0
LWPOLYLINE
  5
2028A
100
AcDbEntity
  8
0
100
AcDbPolyline
 70
0
 90
2
 10
-592383.786
 20
-1160057.271
 10
-592382.375
 20
-1160060.067
  0
LWPOLYLINE
  5
2028B
100
AcDbEntity
  8
0
100
AcDbPolyline
 70
0
 90
2
 10
-592445.19
 20
-1160080.42
 10
-592444.282
 20
-1160083.662
  0
LWPOLYLINE
  5
2028C
100
AcDbEntity
  8
0
100
AcDbPolyline
 70
0
 90
2
 10
-592873.078
 20
-1160272.265
 10
-592868.396
 20
-1160276.024
  0
LWPOLYLINE
  5
2028D
100
AcDbEntity
  8
0
100
AcDbPolyline
 70
0
 90
2
 10
-593073.998
 20
-1160411.597
 10
-593063.73
 20
-1160409.131
  0
LWPOLYLINE
  5
2028E
100
AcDbEntity
  8
0
100
AcDbPolyline
 70
0
 90
2
 10
-593592.929
 20
-1160507.923
 10
-593592.293
 20
-1160510.736
  0
LWPOLYLINE
  5
2028F
100
AcDbEntity
  8
0
100
AcDbPolyline
 70
0
 90
2
 10
-593856.907
 20
-1160567.241
 10
-593853.686
 20
-1160581.839
  0
LWPOLYLINE
  5
20290
100
AcDbEntity
  8
0
100
AcDbPolyline
 70
0
 90
2
 10
-593896.257
 20
-1160593.101
 10
-593888.365
 20
-1160595.074
  0
LWPOLYLINE
  5
20291
100
AcDbEntity
  8
0
100
AcDbPolyline
 70
0
 90
2
 10
-593901.64
 20
-1160577.56
 10
-593898.85
 20
-1160590.74
  0
LWPOLYLINE
  5
20292
100
AcDbEntity
  8
0
100
AcDbPolyline
 70
0
 90
2
 10
-593804.734
 20
-1160411.316
 10
-593794.2
 20
-1160408.957
  0
LWPOLYLINE
  5
20293
100
AcDbEntity
  8
0
100
AcDbPolyline
 70
0
 90
2
 10
-593890.251
 20
-1160565.689
 10
-593864.756
 20
-1160565.336
  0
LWPOLYLINE
  5
20294
100
AcDbEntity
  8
0
100
AcDbPolyline
 70
0
 90
2
 10
-593848.954
 20
-1160497.453
 10
-593852.027
 20
-1160509.633
  0
LWPOLYLINE
  5
20295
100
AcDbEntity
  8
0
100
AcDbPolyline
 70
0
 90
2
 10
-593802.17
 20
-1160296.64
 10
-593822.47
 20
-1160291.32
  0
LWPOLYLINE
  5
20296
100
AcDbEntity
  8
0
100
AcDbPolyline
 70
0
 90
2
 10
-594208.567
 20
-1159447.424
 10
-594207.169
 20
-1159443.782
  0
LWPOLYLINE
  5
20297
100
AcDbEntity
  8
0
100
AcDbPolyline
 70
0
 90
2
 10
-595184.376
 20
-1158052.502
 10
-595174.941
 20
-1158055.733
  0
LWPOLYLINE
  5
20298
100
AcDbEntity
  8
0
100
AcDbPolyline
 70
0
 90
2
 10
-595320.05
 20
-1158790.761
 10
-595310.228
 20
-1158791.681
  0
LWPOLYLINE
  5
20299
100
AcDbEntity
  8
0
100
AcDbPolyline
 70
0
 90
2
 10
-594786.556
 20
-1157518.725
 10
-594791.835
 20
-1157519.826
  0
LWPOLYLINE
  5
2029A
100
AcDbEntity
  8
0
100
AcDbPolyline
 70
0
 90
2
 10
-594772.4
 20
-1157509.626
 10
-594775.457
 20
-1157499.168
  0
LWPOLYLINE
  5
2029B
100
AcDbEntity
  8
0
100
AcDbPolyline
 70
0
 90
2
 10
-595211.38
 20
-1158105.16
 10
-595200.98
 20
-1158098.76
  0
LWPOLYLINE
  5
2029C
100
AcDbEntity
  8
0
100
AcDbPolyline
 70
0
 90
2
 10
-595220.713
 20
-1158111.935
 10
-595227.575
 20
-1158117.128
  0
LWPOLYLINE
  5
2029D
100
AcDbEntity
  8
0
100
AcDbPolyline
 70
0
 90
2
 10
-595247.626
 20
-1158109.082
 10
-595237.768
 20
-1158103.238
  0
LWPOLYLINE
  5
2029E
100
AcDbEntity
  8
0
100
AcDbPolyline
 70
0
 90
2
 10
-595305.176
 20
-1158250.545
 10
-595296.748
 20
-1158252.206
  0
LWPOLYLINE
  5
2029F
100
AcDbEntity
  8
0
100
AcDbPolyline
 70
0
 90
2
 10
-595313.574
 20
-1158300.576
 10
-595305.027
 20
-1158301.852
  0
LWPOLYLINE
  5
202A0
100
AcDbEntity
  8
0
100
AcDbPolyline
 70
0
 90
2
 10
-595281.87
 20
-1158234.507
 10
-595279.085
 20
-1158218.518
  0
LWPOLYLINE
  5
202A1
100
AcDbEntity
  8
0
100
AcDbPolyline
 70
0
 90
2
 10
-595331.89
 20
-1158473.48
 10
-595343.86
 20
-1158471.78
  0
LWPOLYLINE
  5
202A2
100
AcDbEntity
  8
0
100
AcDbPolyline
 70
0
 90
2
 10
-595430.315
 20
-1159203.96
 10
-595418.344
 20
-1159207.674
  0
LWPOLYLINE
  5
202A3
100
AcDbEntity
  8
0
100
AcDbPolyline
 70
0
 90
2
 10
-595444.506
 20
-1159199.619
 10
-595436.018
 20
-1159196.567
  0
LWPOLYLINE
  5
202A4
100
AcDbEntity
  8
0
100
AcDbPolyline
 70
0
 90
2
 10
-595425.827
 20
-1159151.919
 10
-595425.128
 20
-1159158.023
  0
LWPOLYLINE
  5
202A5
100
AcDbEntity
  8
0
100
AcDbPolyline
 70
0
 90
2
 10
-595423.716
 20
-1159172.865
 10
-595429.471
 20
-1159186.713
  0
LWPOLYLINE
  5
202A6
100
AcDbEntity
  8
0
100
AcDbPolyline
 70
0
 90
2
 10
-598404.682
 20
-1160594.59
 10
-598399.264
 20
-1160593.911
  0
LWPOLYLINE
  5
202A7
100
AcDbEntity
  8
0
100
AcDbPolyline
 70
0
 90
2
 10
-597710.014
 20
-1160854.894
 10
-597699.936
 20
-1160868.96
  0
LWPOLYLINE
  5
202A8
100
AcDbEntity
  8
0
100
AcDbPolyline
 70
0
 90
2
 10
-597728.755
 20
-1160848.344
 10
-597725.582
 20
-1160855.238
  0
LWPOLYLINE
  5
202A9
100
AcDbEntity
  8
0
100
AcDbPolyline
 70
0
 90
2
 10
-598447.113
 20
-1160712.658
 10
-598435.168
 20
-1160711.374
  0
LWPOLYLINE
  5
202AA
100
AcDbEntity
  8
0
100
AcDbPolyline
 70
0
 90
2
 10
-598023.786
 20
-1160404.605
 10
-598014.527
 20
-1160392.854
  0
LWPOLYLINE
  5
202AB
100
AcDbEntity
  8
0
100
AcDbPolyline
 70
0
 90
2
 10
-597826.28
 20
-1161114.41
 10
-597814.1
 20
-1161120.66
  0
LWPOLYLINE
  5
202AC
100
AcDbEntity
  8
0
100
AcDbPolyline
 70
0
 90
2
 10
-597827.98
 20
-1161117.61
 10
-597815.8
 20
-1161123.94
  0
LWPOLYLINE
  5
202AD
100
AcDbEntity
  8
0
100
AcDbPolyline
 70
0
 90
2
 10
-598033.12
 20
-1161283.51
 10
-598031.838
 20
-1161286.643
  0
LWPOLYLINE
  5
202AE
100
AcDbEntity
  8
0
100
AcDbPolyline
 70
0
 90
2
 10
-598040.776
 20
-1161264.351
 10
-598039.352
 20
-1161267.663
  0
LWPOLYLINE
  5
202AF
100
AcDbEntity
  8
0
100
AcDbPolyline
 70
0
 90
2
 10
-598104.68
 20
-1161288.05
 10
-598103.24
 20
-1161291.431
  0
LWPOLYLINE
  5
202B0
100
AcDbEntity
  8
0
100
AcDbPolyline
 70
0
 90
2
 10
-598093.383
 20
-1161315.076
 10
-598094.907
 20
-1161311.397
  0
LWPOLYLINE
  5
202B1
100
AcDbEntity
  8
0
100
AcDbPolyline
 70
0
 90
2
 10
-598169.201
 20
-1161318.46
 10
-598170.591
 20
-1161315.165
  0
LWPOLYLINE
  5
202B2
100
AcDbEntity
  8
0
100
AcDbPolyline
 70
0
 90
2
 10
-598159.358
 20
-1161342.162
 10
-598160.818
 20
-1161338.735
  0
LWPOLYLINE
  5
202B3
100
AcDbEntity
  8
0
100
AcDbPolyline
 70
0
 90
2
 10
-597940.64
 20
-1161215.47
 10
-597942.922
 20
-1161210.265
  0
LWPOLYLINE
  5
202B4
100
AcDbEntity
  8
0
100
AcDbPolyline
 70
0
 90
2
 10
-598635.035
 20
-1160488.013
 10
-598629.697
 20
-1160488.857
  0
LWPOLYLINE
  5
202B5
100
AcDbEntity
  8
0
100
AcDbPolyline
 70
0
 90
2
 10
-597698.48
 20
-1160883.78
 10
-597698.777
 20
-1160895.501
  0
LWPOLYLINE
  5
202B6
100
AcDbEntity
  8
0
100
AcDbPolyline
 70
0
 90
2
 10
-597977.822
 20
-1161233.804
 10
-597975.59
 20
-1161239.392
  0
LWPOLYLINE
  5
202B7
100
AcDbEntity
  8
0
100
AcDbPolyline
 70
0
 90
2
 10
-597974.879
 20
-1161230.462
 10
-597971.875
 20
-1161237.886
  0
LWPOLYLINE
  5
202B8
100
AcDbEntity
  8
0
100
AcDbPolyline
 70
0
 90
2
 10
-597964.89
 20
-1161255
 10
-597963.57
 20
-1161258.33
  0
LWPOLYLINE
  5
202B9
100
AcDbEntity
  8
0
100
AcDbPolyline
 70
0
 90
2
 10
-597968.41
 20
-1161256.49
 10
-597967.03
 20
-1161259.72
  0
LWPOLYLINE
  5
202BA
100
AcDbEntity
  8
0
100
AcDbPolyline
 70
0
 90
2
 10
-599136.66
 20
-1160418.564
 10
-599136.101
 20
-1160424.537
  0
LWPOLYLINE
  5
202BB
100
AcDbEntity
  8
0
100
AcDbPolyline
 70
0
 90
2
 10
-598256.715
 20
-1161366.773
 10
-598260.192
 20
-1161365.034
  0
LWPOLYLINE
  5
202BC
100
AcDbEntity
  8
0
100
AcDbPolyline
 70
0
 90
2
 10
-598283.687
 20
-1161400.576
 10
-598284.505
 20
-1161405.984
  0
LWPOLYLINE
  5
202BD
100
AcDbEntity
  8
0
100
AcDbPolyline
 70
0
 90
2
 10
-598223.19
 20
-1161409.72
 10
-598217.53
 20
-1161408.22
  0
LWPOLYLINE
  5
202BE
100
AcDbEntity
  8
0
100
AcDbPolyline
 70
0
 90
2
 10
-598544.137
 20
-1160409.473
 10
-598548.29
 20
-1160404.19
  0
LWPOLYLINE
  5
202BF
100
AcDbEntity
  8
0
100
AcDbPolyline
 70
0
 90
2
 10
-598126.869
 20
-1160339.435
 10
-598111.81
 20
-1160358.5
  0
LWPOLYLINE
  5
202C0
100
AcDbEntity
  8
0
100
AcDbPolyline
 70
0
 90
2
 10
-598068.09
 20
-1160347.374
 10
-598080.46
 20
-1160362.31
  0
LWPOLYLINE
  5
202C1
100
AcDbEntity
  8
0
100
AcDbPolyline
 70
0
 90
2
 10
-598083.12
 20
-1160316.323
 10
-598072.843
 20
-1160334.591
  0
LWPOLYLINE
  5
202C2
100
AcDbEntity
  8
0
100
AcDbPolyline
 70
0
 90
2
 10
-598118.009
 20
-1160311.522
 10
-598110.175
 20
-1160311.415
  0
LWPOLYLINE
  5
202C3
100
AcDbEntity
  8
0
100
AcDbPolyline
 70
0
 90
2
 10
-598250.29
 20
-1160372.209
 10
-598244.9
 20
-1160368.587
  0
LWPOLYLINE
  5
202C4
100
AcDbEntity
  8
0
100
AcDbPolyline
 70
0
 90
2
 10
-597817.49
 20
-1161165.31
 10
-597810.96
 20
-1161182.18
  0
LWPOLYLINE
  5
202C5
100
AcDbEntity
  8
0
100
AcDbPolyline
 70
0
 90
2
 10
-597816.07
 20
-1161158.36
 10
-597809.84
 20
-1161157.44
  0
LWPOLYLINE
  5
202C6
100
AcDbEntity
  8
0
100
AcDbPolyline
 70
0
 90
2
 10
-597787.997
 20
-1161104.454
 10
-597785.14
 20
-1161112.734
  0
LWPOLYLINE
  5
202C7
100
AcDbEntity
  8
0
100
AcDbPolyline
 70
0
 90
2
 10
-597790.179
 20
-1161084.496
 10
-597780.372
 20
-1161082.189
  0
LWPOLYLINE
  5
202C8
100
AcDbEntity
  8
0
100
AcDbPolyline
 70
0
 90
2
 10
-597740.395
 20
-1161027.582
 10
-597750.812
 20
-1161031.575
  0
LWPOLYLINE
  5
202C9
100
AcDbEntity
  8
0
100
AcDbPolyline
 70
0
 90
2
 10
-597755.33
 20
-1161016.22
 10
-597759.455
 20
-1161025.051
  0
LWPOLYLINE
  5
202CA
100
AcDbEntity
  8
0
100
AcDbPolyline
 70
0
 90
2
 10
-597738.728
 20
-1161011.687
 10
-597731.195
 20
-1161015.206
  0
LWPOLYLINE
  5
202CB
100
AcDbEntity
  8
0
100
AcDbPolyline
 70
0
 90
2
 10
-597761.856
 20
-1160977.084
 10
-597743.577
 20
-1160986.276
  0
LWPOLYLINE
  5
202CC
100
AcDbEntity
  8
0
100
AcDbPolyline
 70
0
 90
2
 10
-597762.318
 20
-1160967.438
 10
-597765.433
 20
-1160973.966
  0
LWPOLYLINE
  5
202CD
100
AcDbEntity
  8
0
100
AcDbPolyline
 70
0
 90
2
 10
-597717.091
 20
-1160898.795
 10
-597703.613
 20
-1160905.401
  0
LWPOLYLINE
  5
202CE
100
AcDbEntity
  8
0
100
AcDbPolyline
 70
0
 90
2
 10
-597699.3
 20
-1160898.18
 10
-597690.919
 20
-1160903.573
  0
LWPOLYLINE
  5
202CF
100
AcDbEntity
  8
0
100
AcDbPolyline
 70
0
 90
2
 10
-597687.78
 20
-1160863.58
 10
-597682.573
 20
-1160863.49
  0
LWPOLYLINE
  5
202D0
100
AcDbEntity
  8
0
100
AcDbPolyline
 70
0
 90
2
 10
-597721.902
 20
-1160857.559
 10
-597713
 20
-1160853.61
  0
LWPOLYLINE
  5
202D1
100
AcDbEntity
  8
0
100
AcDbPolyline
 70
0
 90
2
 10
-597684.743
 20
-1160752.772
 10
-597676.154
 20
-1160749.1
  0
LWPOLYLINE
  5
202D2
100
AcDbEntity
  8
0
100
AcDbPolyline
 70
0
 90
2
 10
-597678.119
 20
-1160727.476
 10
-597671.268
 20
-1160741.977
  0
LWPOLYLINE
  5
202D3
100
AcDbEntity
  8
0
100
AcDbPolyline
 70
0
 90
2
 10
-597738.925
 20
-1160616.454
 10
-597732.723
 20
-1160613.623
  0
LWPOLYLINE
  5
202D4
100
AcDbEntity
  8
0
100
AcDbPolyline
 70
0
 90
2
 10
-597821.345
 20
-1160650.475
 10
-597814.64
 20
-1160663.36
  0
LWPOLYLINE
  5
202D5
100
AcDbEntity
  8
0
100
AcDbPolyline
 70
0
 90
2
 10
-597802.238
 20
-1160643.239
 10
-597796.749
 20
-1160654.901
  0
LWPOLYLINE
  5
202D6
100
AcDbEntity
  8
0
100
AcDbPolyline
 70
0
 90
2
 10
-597819.155
 20
-1160648.527
 10
-597804.504
 20
-1160642.162
  0
LWPOLYLINE
  5
202D7
100
AcDbEntity
  8
0
100
AcDbPolyline
 70
0
 90
2
 10
-597783.649
 20
-1160515.309
 10
-597777.374
 20
-1160512.715
  0
LWPOLYLINE
  5
202D8
100
AcDbEntity
  8
0
100
AcDbPolyline
 70
0
 90
2
 10
-597792.28
 20
-1160520.31
 10
-597788.64
 20
-1160518.55
  0
LWPOLYLINE
  5
202D9
100
AcDbEntity
  8
0
100
AcDbPolyline
 70
0
 90
2
 10
-597869.979
 20
-1160542.6
 10
-597866.667
 20
-1160550.791
  0
LWPOLYLINE
  5
202DA
100
AcDbEntity
  8
0
100
AcDbPolyline
 70
0
 90
2
 10
-597858.821
 20
-1160552.874
 10
-597846.595
 20
-1160548.037
  0
LWPOLYLINE
  5
202DB
100
AcDbEntity
  8
0
100
AcDbPolyline
 70
0
 90
2
 10
-597846.118
 20
-1160525.274
 10
-597840.127
 20
-1160537.013
  0
LWPOLYLINE
  5
202DC
100
AcDbEntity
  8
0
100
AcDbPolyline
 70
0
 90
2
 10
-597853.996
 20
-1160521.756
 10
-597868.893
 20
-1160532.053
  0
LWPOLYLINE
  5
202DD
100
AcDbEntity
  8
0
100
AcDbPolyline
 70
0
 90
2
 10
-598639.02
 20
-1160512.456
 10
-598645.171
 20
-1160518.972
  0
LWPOLYLINE
  5
202DE
100
AcDbEntity
  8
0
100
AcDbPolyline
 70
0
 90
2
 10
-597690.138
 20
-1160727.429
 10
-597683.115
 20
-1160724.116
  0
LWPOLYLINE
  5
202DF
100
AcDbEntity
  8
0
100
AcDbPolyline
 70
0
 90
2
 10
-597592.52
 20
-1160714.31
 10
-597583.59
 20
-1160710.08
  0
LWPOLYLINE
  5
202E0
100
AcDbEntity
  8
0
100
AcDbPolyline
 70
0
 90
2
 10
-598337.66
 20
-1161385.84
 10
-598351.44
 20
-1161383.59
  0
LWPOLYLINE
  5
202E1
100
AcDbEntity
  8
0
100
AcDbPolyline
 70
0
 90
2
 10
-598249.54
 20
-1161378.85
 10
-598256.69
 20
-1161385.75
  0
LWPOLYLINE
  5
202E2
100
AcDbEntity
  8
0
100
AcDbPolyline
 70
0
 90
2
 10
-598203.835
 20
-1161333.564
 10
-598209.248
 20
-1161334.495
  0
LWPOLYLINE
  5
202E3
100
AcDbEntity
  8
0
100
AcDbPolyline
 70
0
 90
2
 10
-597602.5
 20
-1160719.02
 10
-597595.22
 20
-1160715.66
  0
LWPOLYLINE
  5
202E4
100
AcDbEntity
  8
0
100
AcDbPolyline
 70
0
 90
2
 10
-597613.532
 20
-1160706.387
 10
-597615.751
 20
-1160701.013
  0
LWPOLYLINE
  5
202E5
100
AcDbEntity
  8
0
100
AcDbPolyline
 70
0
 90
2
 10
-597608.648
 20
-1160691.444
 10
-597594.019
 20
-1160685.775
  0
LWPOLYLINE
  5
202E6
100
AcDbEntity
  8
0
100
AcDbPolyline
 70
0
 90
2
 10
-597695.53
 20
-1160471.57
 10
-597682.108
 20
-1160465.214
  0
LWPOLYLINE
  5
202E7
100
AcDbEntity
  8
0
100
AcDbPolyline
 70
0
 90
2
 10
-597709.63
 20
-1160457.991
 10
-597704.39
 20
-1160467.81
  0
LWPOLYLINE
  5
202E8
100
AcDbEntity
  8
0
100
AcDbPolyline
 70
0
 90
2
 10
-597708.686
 20
-1160451.438
 10
-597695.53
 20
-1160442.23
  0
LWPOLYLINE
  5
202E9
100
AcDbEntity
  8
0
100
AcDbPolyline
 70
0
 90
2
 10
-598299.922
 20
-1160261.409
 10
-598298.204
 20
-1160265.536
  0
LWPOLYLINE
  5
202EA
100
AcDbEntity
  8
0
100
AcDbPolyline
 70
0
 90
2
 10
-598294.521
 20
-1160275.035
 10
-598284.262
 20
-1160283.661
  0
LWPOLYLINE
  5
202EB
100
AcDbEntity
  8
0
100
AcDbPolyline
 70
0
 90
2
 10
-598302.48
 20
-1160271.09
 10
-598312.66
 20
-1160277.623
  0
LWPOLYLINE
  5
202EC
100
AcDbEntity
  8
0
100
AcDbPolyline
 70
0
 90
2
 10
-598302.939
 20
-1160303.706
 10
-598311.136
 20
-1160291.633
  0
LWPOLYLINE
  5
202ED
100
AcDbEntity
  8
0
100
AcDbPolyline
 70
0
 90
2
 10
-598406.038
 20
-1160342.887
 10
-598399.486
 20
-1160354.176
  0
LWPOLYLINE
  5
202EE
100
AcDbEntity
  8
0
100
AcDbPolyline
 70
0
 90
2
 10
-598401.99
 20
-1160358.12
 10
-598411.35
 20
-1160361.98
  0
LWPOLYLINE
  5
202EF
100
AcDbEntity
  8
0
100
AcDbPolyline
 70
0
 90
2
 10
-598440.203
 20
-1160355.267
 10
-598434.989
 20
-1160367.85
  0
LWPOLYLINE
  5
202F0
100
AcDbEntity
  8
0
100
AcDbPolyline
 70
0
 90
2
 10
-598510.944
 20
-1160488.131
 10
-598511.908
 20
-1160480.096
  0
LWPOLYLINE
  5
202F1
100
AcDbEntity
  8
0
100
AcDbPolyline
 70
0
 90
2
 10
-598502.574
 20
-1160468.645
 10
-598494.704
 20
-1160467.666
  0
LWPOLYLINE
  5
202F2
100
AcDbEntity
  8
0
100
AcDbPolyline
 70
0
 90
2
 10
-598446.465
 20
-1160461.793
 10
-598437.152
 20
-1160460.675
  0
LWPOLYLINE
  5
202F3
100
AcDbEntity
  8
0
100
AcDbPolyline
 70
0
 90
2
 10
-598433.064
 20
-1160467.908
 10
-598431.435
 20
-1160482.088
  0
LWPOLYLINE
  5
202F4
100
AcDbEntity
  8
0
100
AcDbPolyline
 70
0
 90
2
 10
-598457.021
 20
-1160499.707
 10
-598475.684
 20
-1160501.704
  0
LWPOLYLINE
  5
202F5
100
AcDbEntity
  8
0
100
AcDbPolyline
 70
0
 90
2
 10
-598466.013
 20
-1160580.553
 10
-598448.12
 20
-1160578.482
  0
LWPOLYLINE
  5
202F6
100
AcDbEntity
  8
0
100
AcDbPolyline
 70
0
 90
2
 10
-598444.477
 20
-1160581.173
 10
-598443.388
 20
-1160592.235
  0
LWPOLYLINE
  5
202F7
100
AcDbEntity
  8
0
100
AcDbPolyline
 70
0
 90
2
 10
-598466.731
 20
-1160597.233
 10
-598468.333
 20
-1160585.182
  0
LWPOLYLINE
  5
202F8
100
AcDbEntity
  8
0
100
AcDbPolyline
 70
0
 90
2
 10
-598460.611
 20
-1160600.704
 10
-598448.679
 20
-1160599.328
  0
LWPOLYLINE
  5
202F9
100
AcDbEntity
  8
0
100
AcDbPolyline
 70
0
 90
2
 10
-598418.68
 20
-1160975.7
 10
-598418.02
 20
-1160981.7
  0
LWPOLYLINE
  5
202FA
100
AcDbEntity
  8
0
100
AcDbPolyline
 70
0
 90
2
 10
-598395.721
 20
-1161049.18
 10
-598401.598
 20
-1161051.159
  0
LWPOLYLINE
  5
202FB
100
AcDbEntity
  8
0
100
AcDbPolyline
 70
0
 90
2
 10
-598395.109
 20
-1161032.046
 10
-598393.853
 20
-1161042.471
  0
LWPOLYLINE
  5
202FC
100
AcDbEntity
  8
0
100
AcDbPolyline
 70
0
 90
2
 10
-598398.814
 20
-1161024.573
 10
-598410.09
 20
-1161025.96
  0
LWPOLYLINE
  5
202FD
100
AcDbEntity
  8
0
100
AcDbPolyline
 70
0
 90
2
 10
-600015.265
 20
-1155514.597
 10
-600011.535
 20
-1155509.342
  0
LWPOLYLINE
  5
202FE
100
AcDbEntity
  8
0
100
AcDbPolyline
 70
0
 90
2
 10
-600202.66
 20
-1154792.24
 10
-600209.33
 20
-1154793
  0
LWPOLYLINE
  5
202FF
100
AcDbEntity
  8
0
100
AcDbPolyline
 70
0
 90
2
 10
-599402.477
 20
-1155895.765
 10
-599396.106
 20
-1155894.267
  0
LWPOLYLINE
  5
20300
100
AcDbEntity
  8
0
100
AcDbPolyline
 70
0
 90
2
 10
-599643.73
 20
-1155874.92
 10
-599648.61
 20
-1155880.73
  0
LWPOLYLINE
  5
20301
100
AcDbEntity
  8
0
100
AcDbPolyline
 70
0
 90
2
 10
-599800.67
 20
-1155750.35
 10
-599795.62
 20
-1155744.59
  0
LWPOLYLINE
  5
20302
100
AcDbEntity
  8
0
100
AcDbPolyline
 70
0
 90
2
 10
-600170.22
 20
-1155419.85
 10
-600168.48
 20
-1155423.09
  0
LWPOLYLINE
  5
20303
100
AcDbEntity
  8
0
100
AcDbPolyline
 70
0
 90
2
 10
-600172.68
 20
-1155414.45
 10
-600171.06
 20
-1155418.11
  0
LWPOLYLINE
  5
20304
100
AcDbEntity
  8
0
100
AcDbPolyline
 70
0
 90
2
 10
-600139.32
 20
-1155427.86
 10
-600142.47
 20
-1155430.22
  0
LWPOLYLINE
  5
20305
100
AcDbEntity
  8
0
100
AcDbPolyline
 70
0
 90
2
 10
-600133.587
 20
-1155392.286
 10
-600129.916
 20
-1155395.173
  0
LWPOLYLINE
  5
20306
100
AcDbEntity
  8
0
100
AcDbPolyline
 70
0
 90
2
 10
-599195.452
 20
-1156135.366
 10
-599199.369
 20
-1156120.659
  0
LWPOLYLINE
  5
20307
100
AcDbEntity
  8
0
100
AcDbPolyline
 70
0
 90
2
 10
-600091.187
 20
-1155339.154
 10
-600087.248
 20
-1155347.196
  0
LWPOLYLINE
  5
20308
100
AcDbEntity
  8
0
100
AcDbPolyline
 70
0
 90
2
 10
-600107.84
 20
-1155333.53
 10
-600100.64
 20
-1155331.18
  0
LWPOLYLINE
  5
20309
100
AcDbEntity
  8
0
100
AcDbPolyline
 70
0
 90
2
 10
-600136.234
 20
-1155389.913
 10
-600138.932
 20
-1155387.335
  0
LWPOLYLINE
  5
2030A
100
AcDbEntity
  8
0
100
AcDbPolyline
 70
0
 90
2
 10
-600136.96
 20
-1155426.42
 10
-600134.11
 20
-1155424.55
  0
LWPOLYLINE
  5
2030B
100
AcDbEntity
  8
0
100
AcDbPolyline
 70
0
 90
2
 10
-599903.828
 20
-1155425.03
 10
-599902.974
 20
-1155416.555
  0
LWPOLYLINE
  5
2030C
100
AcDbEntity
  8
0
100
AcDbPolyline
 70
0
 90
2
 10
-599832.104
 20
-1155543.771
 10
-599835.95
 20
-1155549.566
  0
LWPOLYLINE
  5
2030D
100
AcDbEntity
  8
0
100
AcDbPolyline
 70
0
 90
2
 10
-599662.631
 20
-1155659.169
 10
-599666.752
 20
-1155665.24
  0
LWPOLYLINE
  5
2030E
100
AcDbEntity
  8
0
100
AcDbPolyline
 70
0
 90
2
 10
-600000.36
 20
-1155510.97
 10
-599992.97
 20
-1155516.85
  0
LWPOLYLINE
  5
2030F
100
AcDbEntity
  8
0
100
AcDbPolyline
 70
0
 90
2
 10
-599172.541
 20
-1156223.763
 10
-599167.076
 20
-1156226.621
  0
LWPOLYLINE
  5
20310
100
AcDbEntity
  8
0
100
AcDbPolyline
 70
0
 90
2
 10
-599159.635
 20
-1156248.145
 10
-599162.23
 20
-1156253.95
  0
LWPOLYLINE
  5
20311
100
AcDbEntity
  8
0
100
AcDbPolyline
 70
0
 90
2
 10
-599161.67
 20
-1156238.32
 10
-599160.03
 20
-1156244.67
  0
LWPOLYLINE
  5
20312
100
AcDbEntity
  8
0
100
AcDbPolyline
 70
0
 90
2
 10
-599164.85
 20
-1156229
 10
-599162.61
 20
-1156235.71
  0
LWPOLYLINE
  5
20313
100
AcDbEntity
  8
0
100
AcDbPolyline
 70
0
 90
2
 10
-598441.543
 20
-1153655.576
 10
-598448.914
 20
-1153654.073
  0
LWPOLYLINE
  5
20314
100
AcDbEntity
  8
0
100
AcDbPolyline
 70
0
 90
2
 10
-598439.043
 20
-1153600.748
 10
-598438.466
 20
-1153592.897
  0
LWPOLYLINE
  5
20315
100
AcDbEntity
  8
0
100
AcDbPolyline
 70
0
 90
2
 10
-601653.744
 20
-1161999.664
 10
-601660.327
 20
-1161997.94
  0
LWPOLYLINE
  5
20316
100
AcDbEntity
  8
0
100
AcDbPolyline
 70
0
 90
2
 10
-602055.18
 20
-1162626.52
 10
-602053.62
 20
-1162623.34
  0
LWPOLYLINE
  5
20317
100
AcDbEntity
  8
0
100
AcDbPolyline
 70
0
 90
2
 10
-602401.49
 20
-1162490.72
 10
-602401.08
 20
-1162487.06
  0
LWPOLYLINE
  5
20318
100
AcDbEntity
  8
0
100
AcDbPolyline
 70
0
 90
2
 10
-601511.41
 20
-1162306.35
 10
-601504.92
 20
-1162307.53
  0
LWPOLYLINE
  5
20319
100
AcDbEntity
  8
0
100
AcDbPolyline
 70
0
 90
2
 10
-601525.37
 20
-1162414.73
 10
-601531.88
 20
-1162413.67
  0
LWPOLYLINE
  5
2031A
100
AcDbEntity
  8
0
100
AcDbPolyline
 70
0
 90
2
 10
-601516.937
 20
-1162416.545
 10
-601522.977
 20
-1162415.366
  0
LWPOLYLINE
  5
2031B
100
AcDbEntity
  8
0
100
AcDbPolyline
 70
0
 90
2
 10
-601939.01
 20
-1162123.43
 10
-601944.59
 20
-1162120.13
  0
LWPOLYLINE
  5
2031C
100
AcDbEntity
  8
0
100
AcDbPolyline
 70
0
 90
2
 10
-602393.5
 20
-1162351.41
 10
-602394.24
 20
-1162357.19
  0
LWPOLYLINE
  5
2031D
100
AcDbEntity
  8
0
100
AcDbPolyline
 70
0
 90
2
 10
-602427.242
 20
-1162347.286
 10
-602427.759
 20
-1162351.938
  0
LWPOLYLINE
  5
2031E
100
AcDbEntity
  8
0
100
AcDbPolyline
 70
0
 90
2
 10
-602478.158
 20
-1162342.51
 10
-602478.703
 20
-1162347.257
  0
LWPOLYLINE
  5
2031F
100
AcDbEntity
  8
0
100
AcDbPolyline
 70
0
 90
2
 10
-602024.95
 20
-1162621.282
 10
-602030.007
 20
-1162620.773
  0
LWPOLYLINE
  5
20320
100
AcDbEntity
  8
0
100
AcDbPolyline
 70
0
 90
2
 10
-602027.598
 20
-1162651.379
 10
-602033.424
 20
-1162650.661
  0
LWPOLYLINE
  5
20321
100
AcDbEntity
  8
0
100
AcDbPolyline
 70
0
 90
2
 10
-602344.376
 20
-1162145.93
 10
-602338.506
 20
-1162146.284
  0
LWPOLYLINE
  5
20322
100
AcDbEntity
  8
0
100
AcDbPolyline
 70
0
 90
2
 10
-602662.269
 20
-1161951.037
 10
-602659.865
 20
-1161965.857
  0
LWPOLYLINE
  5
20323
100
AcDbEntity
  8
0
100
AcDbPolyline
 70
0
 90
2
 10
-601880.49
 20
-1162044.01
 10
-601875.8
 20
-1162048.12
  0
LWPOLYLINE
  5
20324
100
AcDbEntity
  8
0
100
AcDbPolyline
 70
0
 90
2
 10
-602277.99
 20
-1162292.5
 10
-602271.72
 20
-1162294.27
  0
LWPOLYLINE
  5
20325
100
AcDbEntity
  8
0
100
AcDbPolyline
 70
0
 90
2
 10
-602161.018
 20
-1162267.102
 10
-602158.463
 20
-1162262.816
  0
LWPOLYLINE
  5
20326
100
AcDbEntity
  8
0
100
AcDbPolyline
 70
0
 90
2
 10
-602308.427
 20
-1162198.288
 10
-602304.039
 20
-1162200.614
  0
LWPOLYLINE
  5
20327
100
AcDbEntity
  8
0
100
AcDbPolyline
 70
0
 90
2
 10
-601973.31
 20
-1162418.72
 10
-601974.96
 20
-1162425.52
  0
LWPOLYLINE
  5
20328
100
AcDbEntity
  8
0
100
AcDbPolyline
 70
0
 90
2
 10
-601970.62
 20
-1162408.2
 10
-601972.31
 20
-1162415.02
  0
LWPOLYLINE
  5
20329
100
AcDbEntity
  8
0
100
AcDbPolyline
 70
0
 90
2
 10
-601502.25
 20
-1162308.09
 10
-601496.32
 20
-1162308.99
  0
LWPOLYLINE
  5
2032A
100
AcDbEntity
  8
0
100
AcDbPolyline
 70
0
 90
2
 10
-601646.054
 20
-1162272.776
 10
-601646.123
 20
-1162256.019
  0
LWPOLYLINE
  5
2032B
100
AcDbEntity
  8
0
100
AcDbPolyline
 70
0
 90
2
 10
-601536.819
 20
-1161707.021
 10
-601542.569
 20
-1161702.549
  0
LWPOLYLINE
  5
2032C
100
AcDbEntity
  8
0
100
AcDbPolyline
 70
0
 90
2
 10
-601599.988
 20
-1161773.299
 10
-601597.855
 20
-1161768.691
  0
LWPOLYLINE
  5
2032D
100
AcDbEntity
  8
0
100
AcDbPolyline
 70
0
 90
2
 10
-601629.16
 20
-1161868.05
 10
-601627.75
 20
-1161862.09
  0
LWPOLYLINE
  5
2032E
100
AcDbEntity
  8
0
100
AcDbPolyline
 70
0
 90
2
 10
-601627.319
 20
-1161871.941
 10
-601619.862
 20
-1161873.738
  0
LWPOLYLINE
  5
2032F
100
AcDbEntity
  8
0
100
AcDbPolyline
 70
0
 90
2
 10
-601649.59
 20
-1161996.5
 10
-601648.13
 20
-1161990.71
  0
LWPOLYLINE
  5
20330
100
AcDbEntity
  8
0
100
AcDbPolyline
 70
0
 90
2
 10
-601662.15
 20
-1161994.32
 10
-601660.37
 20
-1161986.72
  0
LWPOLYLINE
  5
20331
100
AcDbEntity
  8
0
100
AcDbPolyline
 70
0
 90
2
 10
-601693.566
 20
-1162152.736
 10
-601694.232
 20
-1162146.685
  0
LWPOLYLINE
  5
20332
100
AcDbEntity
  8
0
100
AcDbPolyline
 70
0
 90
2
 10
-601672.635
 20
-1162244.627
 10
-601662.219
 20
-1162242.397
  0
LWPOLYLINE
  5
20333
100
AcDbEntity
  8
0
100
AcDbPolyline
 70
0
 90
2
 10
-602776.973
 20
-1162000.741
 10
-602771.979
 20
-1161999.882
  0
LWPOLYLINE
  5
20334
100
AcDbEntity
  8
0
100
AcDbPolyline
 70
0
 90
2
 10
-602649.376
 20
-1161969.771
 10
-602640.56
 20
-1161968.767
  0
LWPOLYLINE
  5
20335
100
AcDbEntity
  8
0
100
AcDbPolyline
 70
0
 90
2
 10
-602472.667
 20
-1162125.596
 10
-602467.251
 20
-1162124.83
  0
LWPOLYLINE
  5
20336
100
AcDbEntity
  8
0
100
AcDbPolyline
 70
0
 90
2
 10
-602456.174
 20
-1162142.95
 10
-602457.348
 20
-1162135.14
  0
LWPOLYLINE
  5
20337
100
AcDbEntity
  8
0
100
AcDbPolyline
 70
0
 90
2
 10
-602111.794
 20
-1162363.066
 10
-602109.567
 20
-1162358.696
  0
LWPOLYLINE
  5
20338
100
AcDbEntity
  8
0
100
AcDbPolyline
 70
0
 90
2
 10
-601804.907
 20
-1162377.877
 10
-601793.977
 20
-1162386.847
  0
LWPOLYLINE
  5
20339
100
AcDbEntity
  8
0
100
AcDbPolyline
 70
0
 90
2
 10
-601780.321
 20
-1162385.235
 10
-601777.011
 20
-1162380.985
  0
LWPOLYLINE
  5
2033A
100
AcDbEntity
  8
0
100
AcDbPolyline
 70
0
 90
2
 10
-601807.12
 20
-1162364.48
 10
-601804.14
 20
-1162360.37
  0
LWPOLYLINE
  5
2033B
100
AcDbEntity
  8
0
100
AcDbPolyline
 70
0
 90
2
 10
-601791.079
 20
-1162358.444
 10
-601779.779
 20
-1162366.47
  0
LWPOLYLINE
  5
2033C
100
AcDbEntity
  8
0
100
AcDbPolyline
 70
0
 90
2
 10
-601676.084
 20
-1162276.678
 10
-601680.5
 20
-1162258.41
  0
LWPOLYLINE
  5
2033D
100
AcDbEntity
  8
0
100
AcDbPolyline
 70
0
 90
2
 10
-601662.114
 20
-1162283.332
 10
-601650.548
 20
-1162280.859
  0
LWPOLYLINE
  5
2033E
100
AcDbEntity
  8
0
100
AcDbPolyline
 70
0
 90
2
 10
-594912.812
 20
-1157219.595
 10
-594913.867
 20
-1157226.459
  0
LWPOLYLINE
  5
2033F
100
AcDbEntity
  8
0
100
AcDbPolyline
 70
0
 90
2
 10
-594907.169
 20
-1157218.356
 10
-594900.161
 20
-1157219.521
  0
LWPOLYLINE
  5
20340
100
AcDbEntity
  8
0
100
AcDbPolyline
 70
0
 90
2
 10
-595023.107
 20
-1156531.541
 10
-595014.739
 20
-1156529.547
  0
LWPOLYLINE
  5
20341
100
AcDbEntity
  8
0
100
AcDbPolyline
 70
0
 90
2
 10
-594945.76
 20
-1156680.59
 10
-594938.249
 20
-1156675.689
  0
LWPOLYLINE
  5
20342
100
AcDbEntity
  8
0
100
AcDbPolyline
 70
0
 90
2
 10
-594757.779
 20
-1156983.998
 10
-594748.77
 20
-1156982.04
  0
LWPOLYLINE
  5
20343
100
AcDbEntity
  8
0
100
AcDbPolyline
 70
0
 90
2
 10
-594798.649
 20
-1157236.907
 10
-594790.494
 20
-1157237.583
  0
LWPOLYLINE
  5
20344
100
AcDbEntity
  8
0
100
AcDbPolyline
 70
0
 90
2
 10
-600934.325
 20
-1160694.802
 10
-600930.641
 20
-1160688.704
  0
LWPOLYLINE
  5
20345
100
AcDbEntity
  8
0
100
AcDbPolyline
 70
0
 90
2
 10
-600897.95
 20
-1161318.83
 10
-600902.09
 20
-1161324.03
  0
LWPOLYLINE
  5
20346
100
AcDbEntity
  8
0
100
AcDbPolyline
 70
0
 90
2
 10
-600892.34
 20
-1161311.91
 10
-600896.48
 20
-1161317.23
  0
LWPOLYLINE
  5
20347
100
AcDbEntity
  8
0
100
AcDbPolyline
 70
0
 90
2
 10
-600540.41
 20
-1160855.63
 10
-600537.97
 20
-1160852.84
  0
LWPOLYLINE
  5
20348
100
AcDbEntity
  8
0
100
AcDbPolyline
 70
0
 90
2
 10
-600544.75
 20
-1160860.44
 10
-600541.78
 20
-1160857.24
  0
LWPOLYLINE
  5
20349
100
AcDbEntity
  8
0
100
AcDbPolyline
 70
0
 90
2
 10
-600934.03
 20
-1160869.43
 10
-600929.02
 20
-1160858.51
  0
LWPOLYLINE
  5
2034A
100
AcDbEntity
  8
0
100
AcDbPolyline
 70
0
 90
2
 10
-601008.03
 20
-1161008.63
 10
-601001.34
 20
-1161011
  0
LWPOLYLINE
  5
2034B
100
AcDbEntity
  8
0
100
AcDbPolyline
 70
0
 90
2
 10
-600980.1
 20
-1160969.21
 10
-600975.13
 20
-1160958.17
  0
LWPOLYLINE
  5
2034C
100
AcDbEntity
  8
0
100
AcDbPolyline
 70
0
 90
2
 10
-600956.59
 20
-1160919.11
 10
-600952.3
 20
-1160909.02
  0
LWPOLYLINE
  5
2034D
100
AcDbEntity
  8
0
100
AcDbPolyline
 70
0
 90
2
 10
-600971.968
 20
-1160589.472
 10
-600962.241
 20
-1160587.08
  0
LWPOLYLINE
  5
2034E
100
AcDbEntity
  8
0
100
AcDbPolyline
 70
0
 90
2
 10
-600955.441
 20
-1160589.157
 10
-600952.012
 20
-1160592.665
  0
LWPOLYLINE
  5
2034F
100
AcDbEntity
  8
0
100
AcDbPolyline
 70
0
 90
2
 10
-601091.687
 20
-1160601.427
 10
-601084.364
 20
-1160599.089
  0
LWPOLYLINE
  5
20350
100
AcDbEntity
  8
0
100
AcDbPolyline
 70
0
 90
2
 10
-599824.73
 20
-1161190.08
 10
-599825.73
 20
-1161192.95
  0
LWPOLYLINE
  5
20351
100
AcDbEntity
  8
0
100
AcDbPolyline
 70
0
 90
2
 10
-599822.76
 20
-1161185.72
 10
-599823.73
 20
-1161188.53
  0
LWPOLYLINE
  5
20352
100
AcDbEntity
  8
0
100
AcDbPolyline
 70
0
 90
2
 10
-600057.98
 20
-1161119.87
 10
-600059.26
 20
-1161122.89
  0
LWPOLYLINE
  5
20353
100
AcDbEntity
  8
0
100
AcDbPolyline
 70
0
 90
2
 10
-600056.31
 20
-1161115.65
 10
-600057.32
 20
-1161118.25
  0
LWPOLYLINE
  5
20354
100
AcDbEntity
  8
0
100
AcDbPolyline
 70
0
 90
2
 10
-600255.01
 20
-1161041.29
 10
-600256.14
 20
-1161044.21
  0
LWPOLYLINE
  5
20355
100
AcDbEntity
  8
0
100
AcDbPolyline
 70
0
 90
2
 10
-601140.278
 20
-1159977.299
 10
-601134.862
 20
-1159979.071
  0
LWPOLYLINE
  5
20356
100
AcDbEntity
  8
0
100
AcDbPolyline
 70
0
 90
2
 10
-601179.659
 20
-1160333.92
 10
-601186.173
 20
-1160331.23
  0
LWPOLYLINE
  5
20357
100
AcDbEntity
  8
0
100
AcDbPolyline
 70
0
 90
2
 10
-601411.016
 20
-1161488.814
 10
-601408.132
 20
-1161487.46
  0
LWPOLYLINE
  5
20358
100
AcDbEntity
  8
0
100
AcDbPolyline
 70
0
 90
2
 10
-600457.996
 20
-1161765.919
 10
-600462.148
 20
-1161772.827
  0
LWPOLYLINE
  5
20359
100
AcDbEntity
  8
0
100
AcDbPolyline
 70
0
 90
2
 10
-600339.343
 20
-1161801.477
 10
-600325.725
 20
-1161801.482
  0
LWPOLYLINE
  5
2035A
100
AcDbEntity
  8
0
100
AcDbPolyline
 70
0
 90
2
 10
-600689.312
 20
-1161525.894
 10
-600683.506
 20
-1161521.087
  0
LWPOLYLINE
  5
2035B
100
AcDbEntity
  8
0
100
AcDbPolyline
 70
0
 90
2
 10
-600695.866
 20
-1161531.325
 10
-600691.559
 20
-1161527.642
  0
LWPOLYLINE
  5
2035C
100
AcDbEntity
  8
0
100
AcDbPolyline
 70
0
 90
2
 10
-601020.72
 20
-1161082.26
 10
-601019.59
 20
-1161099.77
  0
LWPOLYLINE
  5
2035D
100
AcDbEntity
  8
0
100
AcDbPolyline
 70
0
 90
2
 10
-601219.811
 20
-1160620.318
 10
-601209.342
 20
-1160616.971
  0
LWPOLYLINE
  5
2035E
100
AcDbEntity
  8
0
100
AcDbPolyline
 70
0
 90
2
 10
-601229.983
 20
-1160623.636
 10
-601222.416
 20
-1160621.173
  0
LWPOLYLINE
  5
2035F
100
AcDbEntity
  8
0
100
AcDbPolyline
 70
0
 90
2
 10
-601561.996
 20
-1160526.922
 10
-601567.389
 20
-1160535.91
  0
LWPOLYLINE
  5
20360
100
AcDbEntity
  8
0
100
AcDbPolyline
 70
0
 90
2
 10
-601953.696
 20
-1160346.952
 10
-601947.253
 20
-1160349.713
  0
LWPOLYLINE
  5
20361
100
AcDbEntity
  8
0
100
AcDbPolyline
 70
0
 90
2
 10
-599725.45
 20
-1161301.942
 10
-599725.949
 20
-1161306.806
  0
LWPOLYLINE
  5
20362
100
AcDbEntity
  8
0
100
AcDbPolyline
 70
0
 90
2
 10
-599734.533
 20
-1161340.522
 10
-599735.675
 20
-1161347.333
  0
LWPOLYLINE
  5
20363
100
AcDbEntity
  8
0
100
AcDbPolyline
 70
0
 90
2
 10
-599730.608
 20
-1161401.352
 10
-599734.621
 20
-1161409.212
  0
LWPOLYLINE
  5
20364
100
AcDbEntity
  8
0
100
AcDbPolyline
 70
0
 90
2
 10
-600329.184
 20
-1160611.965
 10
-600329.413
 20
-1160618.754
  0
LWPOLYLINE
  5
20365
100
AcDbEntity
  8
0
100
AcDbPolyline
 70
0
 90
2
 10
-600455.844
 20
-1160707.844
 10
-600458.762
 20
-1160711.9
  0
LWPOLYLINE
  5
20366
100
AcDbEntity
  8
0
100
AcDbPolyline
 70
0
 90
2
 10
-602417.937
 20
-1159981.403
 10
-602407.628
 20
-1159988.133
  0
LWPOLYLINE
  5
20367
100
AcDbEntity
  8
0
100
AcDbPolyline
 70
0
 90
2
 10
-602407.885
 20
-1159999.104
 10
-602411.219
 20
-1160004.115
  0
LWPOLYLINE
  5
20368
100
AcDbEntity
  8
0
100
AcDbPolyline
 70
0
 90
2
 10
-601942.782
 20
-1160349.262
 10
-601938.506
 20
-1160346.847
  0
LWPOLYLINE
  5
20369
100
AcDbEntity
  8
0
100
AcDbPolyline
 70
0
 90
2
 10
-601408.53
 20
-1161502.02
 10
-601405.04
 20
-1161509.21
  0
LWPOLYLINE
  5
2036A
100
AcDbEntity
  8
0
100
AcDbPolyline
 70
0
 90
2
 10
-599927.547
 20
-1161541.298
 10
-599925.337
 20
-1161544.666
  0
LWPOLYLINE
  5
2036B
100
AcDbEntity
  8
0
100
AcDbPolyline
 70
0
 90
2
 10
-600252.77
 20
-1161036.06
 10
-600254.15
 20
-1161039.37
  0
LWPOLYLINE
  5
2036C
100
AcDbEntity
  8
0
100
AcDbPolyline
 70
0
 90
2
 10
-600546.95
 20
-1160824.5
 10
-600540.48
 20
-1160828.85
  0
LWPOLYLINE
  5
2036D
100
AcDbEntity
  8
0
100
AcDbPolyline
 70
0
 90
2
 10
-600857.1
 20
-1160624.57
 10
-600850.42
 20
-1160628.93
  0
LWPOLYLINE
  5
2036E
100
AcDbEntity
  8
0
100
AcDbPolyline
 70
0
 90
2
 10
-600865.89
 20
-1160625.8
 10
-600872.31
 20
-1160635.66
  0
LWPOLYLINE
  5
2036F
100
AcDbEntity
  8
0
100
AcDbPolyline
 70
0
 90
2
 10
-598011.27
 20
-1158921.16
 10
-598000.92
 20
-1158918.29
  0
LWPOLYLINE
  5
20370
100
AcDbEntity
  8
0
100
AcDbPolyline
 70
0
 90
2
 10
-598012.45
 20
-1158917.31
 10
-598001.74
 20
-1158914.4
  0
LWPOLYLINE
  5
20371
100
AcDbEntity
  8
0
100
AcDbPolyline
 70
0
 90
2
 10
-597943.333
 20
-1158248.265
 10
-597938.22
 20
-1158258.951
  0
LWPOLYLINE
  5
20372
100
AcDbEntity
  8
0
100
AcDbPolyline
 70
0
 90
2
 10
-598247.72
 20
-1158462.19
 10
-598245.562
 20
-1158469.748
  0
LWPOLYLINE
  5
20373
100
AcDbEntity
  8
0
100
AcDbPolyline
 70
0
 90
2
 10
-598205.39
 20
-1158653.04
 10
-598198.6
 20
-1158651.22
  0
LWPOLYLINE
  5
20374
100
AcDbEntity
  8
0
100
AcDbPolyline
 70
0
 90
2
 10
-598183.28
 20
-1158667.99
 10
-598182.13
 20
-1158671.85
  0
LWPOLYLINE
  5
20375
100
AcDbEntity
  8
0
100
AcDbPolyline
 70
0
 90
2
 10
-598185.94
 20
-1158659.69
 10
-598184.26
 20
-1158665.11
  0
LWPOLYLINE
  5
20376
100
AcDbEntity
  8
0
100
AcDbPolyline
 70
0
 90
2
 10
-597772.86
 20
-1159075.96
 10
-597771.3
 20
-1159082.33
  0
LWPOLYLINE
  5
20377
100
AcDbEntity
  8
0
100
AcDbPolyline
 70
0
 90
2
 10
-597775.76
 20
-1159062.29
 10
-597773.71
 20
-1159072.84
  0
LWPOLYLINE
  5
20378
100
AcDbEntity
  8
0
100
AcDbPolyline
 70
0
 90
2
 10
-598128.34
 20
-1158352.52
 10
-598120.55
 20
-1158350.32
  0
LWPOLYLINE
  5
20379
100
AcDbEntity
  8
0
100
AcDbPolyline
 70
0
 90
2
 10
-598184.909
 20
-1158359.914
 10
-598186.171
 20
-1158353.125
  0
LWPOLYLINE
  5
2037A
100
AcDbEntity
  8
0
100
AcDbPolyline
 70
0
 90
2
 10
-598821.638
 20
-1158639.888
 10
-598820.818
 20
-1158642.686
  0
LWPOLYLINE
  5
2037B
100
AcDbEntity
  8
0
100
AcDbPolyline
 70
0
 90
2
 10
-598719.171
 20
-1159012.811
 10
-598717.482
 20
-1159019.179
  0
LWPOLYLINE
  5
2037C
100
AcDbEntity
  8
0
100
AcDbPolyline
 70
0
 90
2
 10
-598723.83
 20
-1158977.26
 10
-598715.76
 20
-1158974.86
  0
LWPOLYLINE
  5
2037D
100
AcDbEntity
  8
0
100
AcDbPolyline
 70
0
 90
2
 10
-598749.896
 20
-1158898.535
 10
-598748.474
 20
-1158904.017
  0
LWPOLYLINE
  5
2037E
100
AcDbEntity
  8
0
100
AcDbPolyline
 70
0
 90
2
 10
-598764.723
 20
-1158826.881
 10
-598756.832
 20
-1158824.791
  0
LWPOLYLINE
  5
2037F
100
AcDbEntity
  8
0
100
AcDbPolyline
 70
0
 90
2
 10
-598771.077
 20
-1158807.652
 10
-598767.175
 20
-1158806.586
  0
LWPOLYLINE
  5
20380
100
AcDbEntity
  8
0
100
AcDbPolyline
 70
0
 90
2
 10
-598774.031
 20
-1158814.248
 10
-598771.756
 20
-1158821.853
  0
LWPOLYLINE
  5
20381
100
AcDbEntity
  8
0
100
AcDbPolyline
 70
0
 90
2
 10
-598758.151
 20
-1158808.705
 10
-598755.38
 20
-1158818.277
  0
LWPOLYLINE
  5
20382
100
AcDbEntity
  8
0
100
AcDbPolyline
 70
0
 90
2
 10
-598690.553
 20
-1159099.898
 10
-598682.036
 20
-1159097.553
  0
LWPOLYLINE
  5
20383
100
AcDbEntity
  8
0
100
AcDbPolyline
 70
0
 90
2
 10
-597953.55
 20
-1159194.416
 10
-597946.511
 20
-1159194.32
  0
LWPOLYLINE
  5
20384
100
AcDbEntity
  8
0
100
AcDbPolyline
 70
0
 90
2
 10
-598844.772
 20
-1158555.192
 10
-598846.971
 20
-1158546.56
  0
LWPOLYLINE
  5
20385
100
AcDbEntity
  8
0
100
AcDbPolyline
 70
0
 90
2
 10
-598567.595
 20
-1158290.023
 10
-598565.94
 20
-1158296.926
  0
LWPOLYLINE
  5
20386
100
AcDbEntity
  8
0
100
AcDbPolyline
 70
0
 90
2
 10
-598453.87
 20
-1158725.55
 10
-598451.19
 20
-1158735.01
  0
LWPOLYLINE
  5
20387
100
AcDbEntity
  8
0
100
AcDbPolyline
 70
0
 90
2
 10
-598424.332
 20
-1158831.664
 10
-598423.517
 20
-1158834.91
  0
LWPOLYLINE
  5
20388
100
AcDbEntity
  8
0
100
AcDbPolyline
 70
0
 90
2
 10
-598402.736
 20
-1158917.605
 10
-598401.179
 20
-1158923.983
  0
LWPOLYLINE
  5
20389
100
AcDbEntity
  8
0
100
AcDbPolyline
 70
0
 90
2
 10
-598347.387
 20
-1159013.056
 10
-598346.354
 20
-1159016.952
  0
LWPOLYLINE
  5
2038A
100
AcDbEntity
  8
0
100
AcDbPolyline
 70
0
 90
2
 10
-598360.004
 20
-1158999.485
 10
-598354.872
 20
-1158998.131
  0
LWPOLYLINE
  5
2038B
100
AcDbEntity
  8
0
100
AcDbPolyline
 70
0
 90
2
 10
-598376.32
 20
-1159017.625
 10
-598374.769
 20
-1159023.584
  0
LWPOLYLINE
  5
2038C
100
AcDbEntity
  8
0
100
AcDbPolyline
 70
0
 90
2
 10
-598262.334
 20
-1159320.398
 10
-598259.872
 20
-1159329.053
  0
LWPOLYLINE
  5
2038D
100
AcDbEntity
  8
0
100
AcDbPolyline
 70
0
 90
2
 10
-598153.822
 20
-1159287.5
 10
-598151.423
 20
-1159293.128
  0
LWPOLYLINE
  5
2038E
100
AcDbEntity
  8
0
100
AcDbPolyline
 70
0
 90
2
 10
-598173.421
 20
-1159289.985
 10
-598162.929
 20
-1159286.843
  0
LWPOLYLINE
  5
2038F
100
AcDbEntity
  8
0
100
AcDbPolyline
 70
0
 90
2
 10
-598220.42
 20
-1159131.153
 10
-598219.604
 20
-1159134.293
  0
LWPOLYLINE
  5
20390
100
AcDbEntity
  8
0
100
AcDbPolyline
 70
0
 90
2
 10
-598202.986
 20
-1159126.677
 10
-598202.071
 20
-1159129.892
  0
LWPOLYLINE
  5
20391
100
AcDbEntity
  8
0
100
AcDbPolyline
 70
0
 90
2
 10
-598241.524
 20
-1158982.568
 10
-598240.205
 20
-1158987.558
  0
LWPOLYLINE
  5
20392
100
AcDbEntity
  8
0
100
AcDbPolyline
 70
0
 90
2
 10
-598257.936
 20
-1158988.693
 10
-598256.624
 20
-1158993.742
  0
LWPOLYLINE
  5
20393
100
AcDbEntity
  8
0
100
AcDbPolyline
 70
0
 90
2
 10
-598248.376
 20
-1158978.806
 10
-598256.24
 20
-1158980.943
  0
LWPOLYLINE
  5
20394
100
AcDbEntity
  8
0
100
AcDbPolyline
 70
0
 90
2
 10
-598520.53
 20
-1158449.68
 10
-598502.154
 20
-1158445.232
  0
LWPOLYLINE
  5
20395
100
AcDbEntity
  8
0
100
AcDbPolyline
 70
0
 90
2
 10
-598530.274
 20
-1158435.231
 10
-598527.364
 20
-1158445.725
  0
LWPOLYLINE
  5
20396
100
AcDbEntity
  8
0
100
AcDbPolyline
 70
0
 90
2
 10
-598501.188
 20
-1158438.991
 10
-598502.74
 20
-1158432.677
  0
LWPOLYLINE
  5
20397
100
AcDbEntity
  8
0
100
AcDbPolyline
 70
0
 90
2
 10
-598526.285
 20
-1158430.787
 10
-598508.481
 20
-1158426.129
  0
LWPOLYLINE
  5
20398
100
AcDbEntity
  8
0
100
AcDbPolyline
 70
0
 90
2
 10
-598156.72
 20
-1158375.38
 10
-598167.4
 20
-1158378.05
  0
LWPOLYLINE
  5
20399
100
AcDbEntity
  8
0
100
AcDbPolyline
 70
0
 90
2
 10
-598047.326
 20
-1159238.211
 10
-598043.43
 20
-1159236.764
  0
LWPOLYLINE
  5
2039A
100
AcDbEntity
  8
0
100
AcDbPolyline
 70
0
 90
2
 10
-597969.166
 20
-1159207.764
 10
-597963.499
 20
-1159204.59
  0
LWPOLYLINE
  5
2039B
100
AcDbEntity
  8
0
100
AcDbPolyline
 70
0
 90
2
 10
-597926.943
 20
-1159208.961
 10
-597931.477
 20
-1159201.123
  0
LWPOLYLINE
  5
2039C
100
AcDbEntity
  8
0
100
AcDbPolyline
 70
0
 90
2
 10
-597925.933
 20
-1159178.396
 10
-597934.131
 20
-1159184.812
  0
LWPOLYLINE
  5
2039D
100
AcDbEntity
  8
0
100
AcDbPolyline
 70
0
 90
2
 10
-597918.027
 20
-1159172.23
 10
-597923.501
 20
-1159176.511
  0
LWPOLYLINE
  5
2039E
100
AcDbEntity
  8
0
100
AcDbPolyline
 70
0
 90
2
 10
-597914.262
 20
-1159161.751
 10
-597914.838
 20
-1159166.742
  0
LWPOLYLINE
  5
2039F
100
AcDbEntity
  8
0
100
AcDbPolyline
 70
0
 90
2
 10
-597903.547
 20
-1159182.773
 10
-597896.929
 20
-1159190.286
  0
LWPOLYLINE
  5
203A0
100
AcDbEntity
  8
0
100
AcDbPolyline
 70
0
 90
2
 10
-597794.103
 20
-1159062.335
 10
-597782.648
 20
-1159059.148
  0
LWPOLYLINE
  5
203A1
100
AcDbEntity
  8
0
100
AcDbPolyline
 70
0
 90
2
 10
-597895.43
 20
-1166398.316
 10
-597886.723
 20
-1166400.841
  0
LWPOLYLINE
  5
203A2
100
AcDbEntity
  8
0
100
AcDbPolyline
 70
0
 90
2
 10
-599378.87
 20
-1155527.22
 10
-599377.07
 20
-1155533.12
  0
LWPOLYLINE
  5
203A3
100
AcDbEntity
  8
0
100
AcDbPolyline
 70
0
 90
2
 10
-599366.059
 20
-1155517.509
 10
-599378.37
 20
-1155521.39
  0
LWPOLYLINE
  5
203A4
100
AcDbEntity
  8
0
100
AcDbPolyline
 70
0
 90
2
 10
-599362.004
 20
-1155530.87
 10
-599374.28
 20
-1155534.73
  0
LWPOLYLINE
  5
203A5
100
AcDbEntity
  8
0
100
AcDbPolyline
 70
0
 90
2
 10
-600157.13
 20
-1154716.808
 10
-600153.004
 20
-1154721.934
  0
LWPOLYLINE
  5
203A6
100
AcDbEntity
  8
0
100
AcDbPolyline
 70
0
 90
2
 10
-599502.84
 20
-1154695.1
 10
-599510.85
 20
-1154690.88
  0
LWPOLYLINE
  5
203A7
100
AcDbEntity
  8
0
100
AcDbPolyline
 70
0
 90
2
 10
-600013.74
 20
-1153614.49
 10
-600006.55
 20
-1153611.96
  0
LWPOLYLINE
  5
203A8
100
AcDbEntity
  8
0
100
AcDbPolyline
 70
0
 90
2
 10
-599496.78
 20
-1155102.61
 10
-599508.24
 20
-1155106.14
  0
LWPOLYLINE
  5
203A9
100
AcDbEntity
  8
0
100
AcDbPolyline
 70
0
 90
2
 10
-599476.27
 20
-1155207.89
 10
-599464.74
 20
-1155204.58
  0
LWPOLYLINE
  5
203AA
100
AcDbEntity
  8
0
100
AcDbPolyline
 70
0
 90
2
 10
-599472.91
 20
-1155219.36
 10
-599461.11
 20
-1155215.9
  0
LWPOLYLINE
  5
203AB
100
AcDbEntity
  8
0
100
AcDbPolyline
 70
0
 90
2
 10
-599523.62
 20
-1155027.06
 10
-599520.7
 20
-1155026.09
  0
LWPOLYLINE
  5
203AC
100
AcDbEntity
  8
0
100
AcDbPolyline
 70
0
 90
2
 10
-599532.16
 20
-1155029.75
 10
-599528.62
 20
-1155028.53
  0
LWPOLYLINE
  5
203AD
100
AcDbEntity
  8
0
100
AcDbPolyline
 70
0
 90
2
 10
-599801.366
 20
-1154143.542
 10
-599798.08
 20
-1154151.762
  0
LWPOLYLINE
  5
203AE
100
AcDbEntity
  8
0
100
AcDbPolyline
 70
0
 90
2
 10
-599815.11
 20
-1154149.72
 10
-599812.29
 20
-1154156.26
  0
LWPOLYLINE
  5
203AF
100
AcDbEntity
  8
0
100
AcDbPolyline
 70
0
 90
2
 10
-599806.255
 20
-1154160.7
 10
-599799.089
 20
-1154158.092
  0
LWPOLYLINE
  5
203B0
100
AcDbEntity
  8
0
100
AcDbPolyline
 70
0
 90
2
 10
-599041.354
 20
-1154898.703
 10
-599050.257
 20
-1154903.165
  0
LWPOLYLINE
  5
203B1
100
AcDbEntity
  8
0
100
AcDbPolyline
 70
0
 90
2
 10
-599393.782
 20
-1154810.45
 10
-599391.963
 20
-1154816.28
  0
LWPOLYLINE
  5
203B2
100
AcDbEntity
  8
0
100
AcDbPolyline
 70
0
 90
2
 10
-599611.64
 20
-1154806.09
 10
-599604.59
 20
-1154814.4
  0
LWPOLYLINE
  5
203B3
100
AcDbEntity
  8
0
100
AcDbPolyline
 70
0
 90
2
 10
-599584.48
 20
-1154785.8
 10
-599579.3
 20
-1154792.34
  0
LWPOLYLINE
  5
203B4
100
AcDbEntity
  8
0
100
AcDbPolyline
 70
0
 90
2
 10
-599785.649
 20
-1155073.115
 10
-599778.562
 20
-1155080.202
  0
LWPOLYLINE
  5
203B5
100
AcDbEntity
  8
0
100
AcDbPolyline
 70
0
 90
2
 10
-599540.322
 20
-1154764.286
 10
-599543.989
 20
-1154767.738
  0
LWPOLYLINE
  5
203B6
100
AcDbEntity
  8
0
100
AcDbPolyline
 70
0
 90
2
 10
-599514.89
 20
-1154674.28
 10
-599517.39
 20
-1154679.13
  0
LWPOLYLINE
  5
203B7
100
AcDbEntity
  8
0
100
AcDbPolyline
 70
0
 90
2
 10
-599323.782
 20
-1154159.303
 10
-599316.798
 20
-1154158.626
  0
LWPOLYLINE
  5
203B8
100
AcDbEntity
  8
0
100
AcDbPolyline
 70
0
 90
2
 10
-599335.534
 20
-1154226.916
 10
-599329.565
 20
-1154230.7
  0
LWPOLYLINE
  5
203B9
100
AcDbEntity
  8
0
100
AcDbPolyline
 70
0
 90
2
 10
-599364.12
 20
-1154306.21
 10
-599356.78
 20
-1154306.86
  0
LWPOLYLINE
  5
203BA
100
AcDbEntity
  8
0
100
AcDbPolyline
 70
0
 90
2
 10
-599317.11
 20
-1154316.622
 10
-599315.71
 20
-1154326.15
  0
LWPOLYLINE
  5
203BB
100
AcDbEntity
  8
0
100
AcDbPolyline
 70
0
 90
2
 10
-599609.25
 20
-1154786.33
 10
-599597.08
 20
-1154782.37
  0
LWPOLYLINE
  5
203BC
100
AcDbEntity
  8
0
100
AcDbPolyline
 70
0
 90
2
 10
-599199.37
 20
-1156098.47
 10
-599195.95
 20
-1156097.41
  0
LWPOLYLINE
  5
203BD
100
AcDbEntity
  8
0
100
AcDbPolyline
 70
0
 90
2
 10
-599160.597
 20
-1156150.657
 10
-599167.37
 20
-1156152.605
  0
LWPOLYLINE
  5
203BE
100
AcDbEntity
  8
0
100
AcDbPolyline
 70
0
 90
2
 10
-599180.739
 20
-1156156.871
 10
-599170.216
 20
-1156153.506
  0
LWPOLYLINE
  5
203BF
100
AcDbEntity
  8
0
100
AcDbPolyline
 70
0
 90
2
 10
-599215.163
 20
-1155338.127
 10
-599222.067
 20
-1155340.135
  0
LWPOLYLINE
  5
203C0
100
AcDbEntity
  8
0
100
AcDbPolyline
 70
0
 90
2
 10
-599323.935
 20
-1154980.608
 10
-599330.207
 20
-1154982.415
  0
LWPOLYLINE
  5
203C1
100
AcDbEntity
  8
0
100
AcDbPolyline
 70
0
 90
2
 10
-599396.866
 20
-1154707.095
 10
-599385.852
 20
-1154706.729
  0
LWPOLYLINE
  5
203C2
100
AcDbEntity
  8
0
100
AcDbPolyline
 70
0
 90
2
 10
-599460.536
 20
-1154603.348
 10
-599453.444
 20
-1154611.469
  0
LWPOLYLINE
  5
203C3
100
AcDbEntity
  8
0
100
AcDbPolyline
 70
0
 90
2
 10
-599436.962
 20
-1154601.586
 10
-599433.338
 20
-1154593.949
  0
LWPOLYLINE
  5
203C4
100
AcDbEntity
  8
0
100
AcDbPolyline
 70
0
 90
2
 10
-599226.158
 20
-1154338.453
 10
-599224.217
 20
-1154330.776
  0
LWPOLYLINE
  5
203C5
100
AcDbEntity
  8
0
100
AcDbPolyline
 70
0
 90
2
 10
-599062.42
 20
-1155323.38
 10
-599062.29
 20
-1155317.45
  0
LWPOLYLINE
  5
203C6
100
AcDbEntity
  8
0
100
AcDbPolyline
 70
0
 90
2
 10
-598926.499
 20
-1154416.096
 10
-598918.132
 20
-1154414.32
  0
LWPOLYLINE
  5
203C7
100
AcDbEntity
  8
0
100
AcDbPolyline
 70
0
 90
2
 10
-598875.98
 20
-1154385.48
 10
-598879.905
 20
-1154379.493
  0
LWPOLYLINE
  5
203C8
100
AcDbEntity
  8
0
100
AcDbPolyline
 70
0
 90
2
 10
-598827.07
 20
-1154381.28
 10
-598818.6
 20
-1154380.04
  0
LWPOLYLINE
  5
203C9
100
AcDbEntity
  8
0
100
AcDbPolyline
 70
0
 90
2
 10
-598812.99
 20
-1154379.29
 10
-598804.14
 20
-1154378.79
  0
LWPOLYLINE
  5
203CA
100
AcDbEntity
  8
0
100
AcDbPolyline
 70
0
 90
2
 10
-599706.698
 20
-1154438.689
 10
-599716.311
 20
-1154441.597
  0
LWPOLYLINE
  5
203CB
100
AcDbEntity
  8
0
100
AcDbPolyline
 70
0
 90
2
 10
-599134.474
 20
-1155599.045
 10
-599137.51
 20
-1155583.329
  0
LWPOLYLINE
  5
203CC
100
AcDbEntity
  8
0
100
AcDbPolyline
 70
0
 90
2
 10
-599152.517
 20
-1155706.718
 10
-599145.17
 20
-1155707.82
  0
LWPOLYLINE
  5
203CD
100
AcDbEntity
  8
0
100
AcDbPolyline
 70
0
 90
2
 10
-599680.19
 20
-1154925
 10
-599684.89
 20
-1154933.58
  0
LWPOLYLINE
  5
203CE
100
AcDbEntity
  8
0
100
AcDbPolyline
 70
0
 90
2
 10
-599635.011
 20
-1154853.414
 10
-599642.533
 20
-1154848.139
  0
LWPOLYLINE
  5
203CF
100
AcDbEntity
  8
0
100
AcDbPolyline
 70
0
 90
2
 10
-599599.8
 20
-1154815.38
 10
-599588.111
 20
-1154809.53
  0
LWPOLYLINE
  5
203D0
100
AcDbEntity
  8
0
100
AcDbPolyline
 70
0
 90
2
 10
-599373.239
 20
-1154837.88
 10
-599366.469
 20
-1154836.054
  0
LWPOLYLINE
  5
203D1
100
AcDbEntity
  8
0
100
AcDbPolyline
 70
0
 90
2
 10
-599354.269
 20
-1154810.477
 10
-599356.701
 20
-1154819.094
  0
LWPOLYLINE
  5
203D2
100
AcDbEntity
  8
0
100
AcDbPolyline
 70
0
 90
2
 10
-599255.599
 20
-1154834.37
 10
-599256.072
 20
-1154844.455
  0
LWPOLYLINE
  5
203D3
100
AcDbEntity
  8
0
100
AcDbPolyline
 70
0
 90
2
 10
-599152.554
 20
-1154833.551
 10
-599153.802
 20
-1154843.233
  0
LWPOLYLINE
  5
203D4
100
AcDbEntity
  8
0
100
AcDbPolyline
 70
0
 90
2
 10
-599006.073
 20
-1155042.162
 10
-598996.251
 20
-1155041.924
  0
LWPOLYLINE
  5
203D5
100
AcDbEntity
  8
0
100
AcDbPolyline
 70
0
 90
2
 10
-599016.331
 20
-1155338.957
 10
-599007.676
 20
-1155336.632
  0
LWPOLYLINE
  5
203D6
100
AcDbEntity
  8
0
100
AcDbPolyline
 70
0
 90
2
 10
-599387.569
 20
-1154792.341
 10
-599377.701
 20
-1154790.121
  0
LWPOLYLINE
  5
203D7
100
AcDbEntity
  8
0
100
AcDbPolyline
 70
0
 90
2
 10
-599036.74
 20
-1155594.362
 10
-599037.564
 20
-1155605.247
  0
LWPOLYLINE
  5
203D8
100
AcDbEntity
  8
0
100
AcDbPolyline
 70
0
 90
2
 10
-599629.642
 20
-1154730.202
 10
-599627.73
 20
-1154735.918
  0
LWPOLYLINE
  5
203D9
100
AcDbEntity
  8
0
100
AcDbPolyline
 70
0
 90
2
 10
-599541.768
 20
-1155011.567
 10
-599539.413
 20
-1155018.445
  0
LWPOLYLINE
  5
203DA
100
AcDbEntity
  8
0
100
AcDbPolyline
 70
0
 90
2
 10
-599515.352
 20
-1155021.35
 10
-599515.55
 20
-1155014.433
  0
LWPOLYLINE
  5
203DB
100
AcDbEntity
  8
0
100
AcDbPolyline
 70
0
 90
2
 10
-599512.75
 20
-1155104.319
 10
-599514.858
 20
-1155097.501
  0
LWPOLYLINE
  5
203DC
100
AcDbEntity
  8
0
100
AcDbPolyline
 70
0
 90
2
 10
-599478.232
 20
-1155211.892
 10
-599475.926
 20
-1155218.513
  0
LWPOLYLINE
  5
203DD
100
AcDbEntity
  8
0
100
AcDbPolyline
 70
0
 90
2
 10
-599461.41
 20
-1155206.47
 10
-599459.4
 20
-1155213.28
  0
LWPOLYLINE
  5
203DE
100
AcDbEntity
  8
0
100
AcDbPolyline
 70
0
 90
2
 10
-599362.233
 20
-1155519.417
 10
-599360.159
 20
-1155525.879
  0
LWPOLYLINE
  5
203DF
100
AcDbEntity
  8
0
100
AcDbPolyline
 70
0
 90
2
 10
-599417.74
 20
-1155402.4
 10
-599415.61
 20
-1155409.31
  0
LWPOLYLINE
  5
203E0
100
AcDbEntity
  8
0
100
AcDbPolyline
 70
0
 90
2
 10
-599401.406
 20
-1155397.851
 10
-599399.253
 20
-1155404.495
  0
LWPOLYLINE
  5
203E1
100
AcDbEntity
  8
0
100
AcDbPolyline
 70
0
 90
2
 10
-599323.878
 20
-1155640.512
 10
-599321.976
 20
-1155646.407
  0
LWPOLYLINE
  5
203E2
100
AcDbEntity
  8
0
100
AcDbPolyline
 70
0
 90
2
 10
-599309.39
 20
-1155738.846
 10
-599297.542
 20
-1155735.116
  0
LWPOLYLINE
  5
203E3
100
AcDbEntity
  8
0
100
AcDbPolyline
 70
0
 90
2
 10
-592320.671
 20
-1163344.873
 10
-592317.237
 20
-1163335.459
  0
LWPOLYLINE
  5
203E4
100
AcDbEntity
  8
0
100
AcDbPolyline
 70
0
 90
2
 10
-592967.871
 20
-1163187.788
 10
-592960.716
 20
-1163184.741
  0
LWPOLYLINE
  5
203E5
100
AcDbEntity
  8
0
100
AcDbPolyline
 70
0
 90
2
 10
-593159.051
 20
-1163941.657
 10
-593154.27
 20
-1163936.68
  0
LWPOLYLINE
  5
203E6
100
AcDbEntity
  8
0
100
AcDbPolyline
 70
0
 90
2
 10
-593076.413
 20
-1163822.533
 10
-593075.165
 20
-1163816.166
  0
LWPOLYLINE
  5
203E7
100
AcDbEntity
  8
0
100
AcDbPolyline
 70
0
 90
2
 10
-593348.44
 20
-1164186.71
 10
-593357.831
 20
-1164200.381
  0
LWPOLYLINE
  5
203E8
100
AcDbEntity
  8
0
100
AcDbPolyline
 70
0
 90
2
 10
-593340.62
 20
-1164230.39
 10
-593346.68
 20
-1164226.14
  0
LWPOLYLINE
  5
203E9
100
AcDbEntity
  8
0
100
AcDbPolyline
 70
0
 90
2
 10
-593380.01
 20
-1164201.92
 10
-593376.07
 20
-1164204.89
  0
LWPOLYLINE
  5
203EA
100
AcDbEntity
  8
0
100
AcDbPolyline
 70
0
 90
2
 10
-593369.71
 20
-1164209.4
 10
-593373.56
 20
-1164206.54
  0
LWPOLYLINE
  5
203EB
100
AcDbEntity
  8
0
100
AcDbPolyline
 70
0
 90
2
 10
-593641.38
 20
-1163656.76
 10
-593637.28
 20
-1163651.05
  0
LWPOLYLINE
  5
203EC
100
AcDbEntity
  8
0
100
AcDbPolyline
 70
0
 90
2
 10
-593682.886
 20
-1163992.434
 10
-593674.326
 20
-1163989.988
  0
LWPOLYLINE
  5
203ED
100
AcDbEntity
  8
0
100
AcDbPolyline
 70
0
 90
2
 10
-592384.76
 20
-1163348.65
 10
-592384.158
 20
-1163352.175
  0
LWPOLYLINE
  5
203EE
100
AcDbEntity
  8
0
100
AcDbPolyline
 70
0
 90
2
 10
-593096.406
 20
-1162969.394
 10
-593091.424
 20
-1162963.701
  0
LWPOLYLINE
  5
203EF
100
AcDbEntity
  8
0
100
AcDbPolyline
 70
0
 90
2
 10
-593035.732
 20
-1163010.774
 10
-593030.272
 20
-1163017.33
  0
LWPOLYLINE
  5
203F0
100
AcDbEntity
  8
0
100
AcDbPolyline
 70
0
 90
2
 10
-592797.506
 20
-1163582.991
 10
-592794.121
 20
-1163587.744
  0
LWPOLYLINE
  5
203F1
100
AcDbEntity
  8
0
100
AcDbPolyline
 70
0
 90
2
 10
-592597.038
 20
-1163401.335
 10
-592600.799
 20
-1163405.954
  0
LWPOLYLINE
  5
203F2
100
AcDbEntity
  8
0
100
AcDbPolyline
 70
0
 90
2
 10
-592955.59
 20
-1163188.404
 10
-592949.776
 20
-1163204.221
  0
LWPOLYLINE
  5
203F3
100
AcDbEntity
  8
0
100
AcDbPolyline
 70
0
 90
2
 10
-592831.63
 20
-1163194.37
 10
-592843.71
 20
-1163189.56
  0
LWPOLYLINE
  5
203F4
100
AcDbEntity
  8
0
100
AcDbPolyline
 70
0
 90
2
 10
-592810.404
 20
-1163203.986
 10
-592811.405
 20
-1163207.123
  0
LWPOLYLINE
  5
203F5
100
AcDbEntity
  8
0
100
AcDbPolyline
 70
0
 90
2
 10
-592465.077
 20
-1163149.995
 10
-592459.665
 20
-1163154.171
  0
LWPOLYLINE
  5
203F6
100
AcDbEntity
  8
0
100
AcDbPolyline
 70
0
 90
2
 10
-592456.398
 20
-1163132.935
 10
-592462.781
 20
-1163141.334
  0
LWPOLYLINE
  5
203F7
100
AcDbEntity
  8
0
100
AcDbPolyline
 70
0
 90
2
 10
-592395.728
 20
-1163023.773
 10
-592399.675
 20
-1163033.061
  0
LWPOLYLINE
  5
203F8
100
AcDbEntity
  8
0
100
AcDbPolyline
 70
0
 90
2
 10
-592375.387
 20
-1162955.085
 10
-592367.769
 20
-1162956.614
  0
LWPOLYLINE
  5
203F9
100
AcDbEntity
  8
0
100
AcDbPolyline
 70
0
 90
2
 10
-592376.32
 20
-1162938.24
 10
-592377.91
 20
-1162944.75
  0
LWPOLYLINE
  5
203FA
100
AcDbEntity
  8
0
100
AcDbPolyline
 70
0
 90
2
 10
-593521.531
 20
-1163047.316
 10
-593511.81
 20
-1163037.76
  0
LWPOLYLINE
  5
203FB
100
AcDbEntity
  8
0
100
AcDbPolyline
 70
0
 90
2
 10
-593551.2
 20
-1163031.53
 10
-593541.74
 20
-1163042.15
  0
LWPOLYLINE
  5
203FC
100
AcDbEntity
  8
0
100
AcDbPolyline
 70
0
 90
2
 10
-593807.3
 20
-1162576.83
 10
-593797.47
 20
-1162578.88
  0
LWPOLYLINE
  5
203FD
100
AcDbEntity
  8
0
100
AcDbPolyline
 70
0
 90
7
 10
-593820.31
 20
-1162631.51
 10
-593819.4
 20
-1162629.68
 10
-593819.02
 20
-1162628.23
 10
-593818.33
 20
-1162626.25
 10
-593817.72
 20
-1162623.21
 10
-593816.88
 20
-1162619.63
 10
-593815.06
 20
-1162610.72
  0
LWPOLYLINE
  5
203FE
100
AcDbEntity
  8
0
100
AcDbPolyline
 70
0
 90
10
 10
-593834.63
 20
-1162648.18
 10
-593832.04
 20
-1162645.67
 10
-593829.9
 20
-1162643.54
 10
-593828
 20
-1162641.71
 10
-593826.63
 20
-1162640.42
 10
-593825.34
 20
-1162638.89
 10
-593824.27
 20
-1162637.6
 10
-593823.05
 20
-1162635.85
 10
-593821.6
 20
-1162633.94
 10
-593821
 20
-1162632.65
  0
LWPOLYLINE
  5
203FF
100
AcDbEntity
  8
0
100
AcDbPolyline
 70
0
 90
2
 10
-593843.58
 20
-1162672.33
 10
-593850.93
 20
-1162664.83
  0
LWPOLYLINE
  5
20400
100
AcDbEntity
  8
0
100
AcDbPolyline
 70
0
 90
2
 10
-592620.059
 20
-1163413.295
 10
-592612.768
 20
-1163418.382
  0
LWPOLYLINE
  5
20401
100
AcDbEntity
  8
0
100
AcDbPolyline
 70
0
 90
2
 10
-593004.771
 20
-1163778.882
 10
-593010.912
 20
-1163772.34
  0
LWPOLYLINE
  5
20402
100
AcDbEntity
  8
0
100
AcDbPolyline
 70
0
 90
2
 10
-592989.851
 20
-1163779.433
 10
-592976.643
 20
-1163770.221
  0
LWPOLYLINE
  5
20403
100
AcDbEntity
  8
0
100
AcDbPolyline
 70
0
 90
2
 10
-592984.158
 20
-1163739.461
 10
-592976.913
 20
-1163747.819
  0
LWPOLYLINE
  5
20404
100
AcDbEntity
  8
0
100
AcDbPolyline
 70
0
 90
2
 10
-593006.95
 20
-1163741.275
 10
-593001.234
 20
-1163737.165
  0
LWPOLYLINE
  5
20405
100
AcDbEntity
  8
0
100
AcDbPolyline
 70
0
 90
2
 10
-593663.354
 20
-1162877.487
 10
-593666.091
 20
-1162880.185
  0
LWPOLYLINE
  5
20406
100
AcDbEntity
  8
0
100
AcDbPolyline
 70
0
 90
2
 10
-593373.963
 20
-1162642.089
 10
-593374.62
 20
-1162645.456
  0
LWPOLYLINE
  5
20407
100
AcDbEntity
  8
0
100
AcDbPolyline
 70
0
 90
2
 10
-592366.136
 20
-1162808.24
 10
-592366.464
 20
-1162812.394
  0
LWPOLYLINE
  5
20408
100
AcDbEntity
  8
0
100
AcDbPolyline
 70
0
 90
2
 10
-594028.541
 20
-1162143.255
 10
-594023.283
 20
-1162139.977
  0
LWPOLYLINE
  5
20409
100
AcDbEntity
  8
0
100
AcDbPolyline
 70
0
 90
2
 10
-594016.583
 20
-1162180.681
 10
-594009.832
 20
-1162180.757
  0
LWPOLYLINE
  5
2040A
100
AcDbEntity
  8
0
100
AcDbPolyline
 70
0
 90
2
 10
-596825.806
 20
-1154846.138
 10
-596819.388
 20
-1154849.237
  0
LWPOLYLINE
  5
2040B
100
AcDbEntity
  8
0
100
AcDbPolyline
 70
0
 90
2
 10
-596385.659
 20
-1154060.754
 10
-596384.143
 20
-1154051.945
  0
LWPOLYLINE
  5
2040C
100
AcDbEntity
  8
0
100
AcDbPolyline
 70
0
 90
2
 10
-596361.479
 20
-1154049.011
 10
-596378.544
 20
-1154046.022
  0
LWPOLYLINE
  5
2040D
100
AcDbEntity
  8
0
100
AcDbPolyline
 70
0
 90
2
 10
-596256.314
 20
-1153777.867
 10
-596251.269
 20
-1153782.483
  0
LWPOLYLINE
  5
2040E
100
AcDbEntity
  8
0
100
AcDbPolyline
 70
0
 90
2
 10
-596363.604
 20
-1153983.67
 10
-596357.221
 20
-1153986.418
  0
LWPOLYLINE
  5
2040F
100
AcDbEntity
  8
0
100
AcDbPolyline
 70
0
 90
2
 10
-596387.961
 20
-1154166.625
 10
-596381.839
 20
-1154166.211
  0
LWPOLYLINE
  5
20410
100
AcDbEntity
  8
0
100
AcDbPolyline
 70
0
 90
2
 10
-596388.472
 20
-1154213.774
 10
-596388.283
 20
-1154219.299
  0
LWPOLYLINE
  5
20411
100
AcDbEntity
  8
0
100
AcDbPolyline
 70
0
 90
2
 10
-596376.83
 20
-1154226.07
 10
-596383
 20
-1154226.38
  0
LWPOLYLINE
  5
20412
100
AcDbEntity
  8
0
100
AcDbPolyline
 70
0
 90
2
 10
-596382.941
 20
-1154649.588
 10
-596389.349
 20
-1154651.902
  0
LWPOLYLINE
  5
20413
100
AcDbEntity
  8
0
100
AcDbPolyline
 70
0
 90
2
 10
-598379.688
 20
-1161508.568
 10
-598375.705
 20
-1161505.423
  0
LWPOLYLINE
  5
20414
100
AcDbEntity
  8
0
100
AcDbPolyline
 70
0
 90
2
 10
-598881.265
 20
-1161082.384
 10
-598882.11
 20
-1161085.688
  0
LWPOLYLINE
  5
20415
100
AcDbEntity
  8
0
100
AcDbPolyline
 70
0
 90
2
 10
-599244.143
 20
-1161497.536
 10
-599241.005
 20
-1161496.244
  0
LWPOLYLINE
  5
20416
100
AcDbEntity
  8
0
100
AcDbPolyline
 70
0
 90
2
 10
-599212.641
 20
-1161506.077
 10
-599202.941
 20
-1161514.409
  0
LWPOLYLINE
  5
20417
100
AcDbEntity
  8
0
100
AcDbPolyline
 70
0
 90
2
 10
-599601.052
 20
-1160638.423
 10
-599595.364
 20
-1160638.681
  0
LWPOLYLINE
  5
20418
100
AcDbEntity
  8
0
100
AcDbPolyline
 70
0
 90
2
 10
-598610.574
 20
-1161797.043
 10
-598605.339
 20
-1161801.53
  0
LWPOLYLINE
  5
20419
100
AcDbEntity
  8
0
100
AcDbPolyline
 70
0
 90
2
 10
-598625.138
 20
-1161784.615
 10
-598619.975
 20
-1161788.817
  0
LWPOLYLINE
  5
2041A
100
AcDbEntity
  8
0
100
AcDbPolyline
 70
0
 90
2
 10
-598614.719
 20
-1161289.4
 10
-598614.227
 20
-1161285.49
  0
LWPOLYLINE
  5
2041B
100
AcDbEntity
  8
0
100
AcDbPolyline
 70
0
 90
2
 10
-598729.16
 20
-1161575.35
 10
-598727.048
 20
-1161573.141
  0
LWPOLYLINE
  5
2041C
100
AcDbEntity
  8
0
100
AcDbPolyline
 70
0
 90
2
 10
-598907.1
 20
-1161386.85
 10
-598897.02
 20
-1161380.6
  0
LWPOLYLINE
  5
2041D
100
AcDbEntity
  8
0
100
AcDbPolyline
 70
0
 90
2
 10
-598978.66
 20
-1161402.33
 10
-598974.744
 20
-1161390.889
  0
LWPOLYLINE
  5
2041E
100
AcDbEntity
  8
0
100
AcDbPolyline
 70
0
 90
2
 10
-599902.778
 20
-1161550.507
 10
-599908.176
 20
-1161555.122
  0
LWPOLYLINE
  5
2041F
100
AcDbEntity
  8
0
100
AcDbPolyline
 70
0
 90
2
 10
-598552.562
 20
-1161379.05
 10
-598546.549
 20
-1161379.934
  0
LWPOLYLINE
  5
20420
100
AcDbEntity
  8
0
100
AcDbPolyline
 70
0
 90
2
 10
-598617.302
 20
-1161764.293
 10
-598611.805
 20
-1161758.787
  0
LWPOLYLINE
  5
20421
100
AcDbEntity
  8
0
100
AcDbPolyline
 70
0
 90
2
 10
-598597.805
 20
-1161799.619
 10
-598590.723
 20
-1161792.141
  0
LWPOLYLINE
  5
20422
100
AcDbEntity
  8
0
100
AcDbPolyline
 70
0
 90
2
 10
-598621.619
 20
-1161364.092
 10
-598619.411
 20
-1161352.341
  0
LWPOLYLINE
  5
20423
100
AcDbEntity
  8
0
100
AcDbPolyline
 70
0
 90
2
 10
-598633.77
 20
-1161344.5
 10
-598627.673
 20
-1161345.255
  0
LWPOLYLINE
  5
20424
100
AcDbEntity
  8
0
100
AcDbPolyline
 70
0
 90
2
 10
-598315.038
 20
-1161479.066
 10
-598310.59
 20
-1161484.531
  0
LWPOLYLINE
  5
20425
100
AcDbEntity
  8
0
100
AcDbPolyline
 70
0
 90
2
 10
-598327.733
 20
-1161465.158
 10
-598323.022
 20
-1161470.277
  0
LWPOLYLINE
  5
20426
100
AcDbEntity
  8
0
100
AcDbPolyline
 70
0
 90
2
 10
-598284.523
 20
-1161405.968
 10
-598286.173
 20
-1161417.742
  0
LWPOLYLINE
  5
20427
100
AcDbEntity
  8
0
100
AcDbPolyline
 70
0
 90
2
 10
-598366.42
 20
-1161394.06
 10
-598367.62
 20
-1161404.53
  0
LWPOLYLINE
  5
20428
100
AcDbEntity
  8
0
100
AcDbPolyline
 70
0
 90
2
 10
-598315.26
 20
-1161352.47
 10
-598312.25
 20
-1161346.2
  0
LWPOLYLINE
  5
20429
100
AcDbEntity
  8
0
100
AcDbPolyline
 70
0
 90
2
 10
-598343.921
 20
-1161332.553
 10
-598345.254
 20
-1161337.322
  0
LWPOLYLINE
  5
2042A
100
AcDbEntity
  8
0
100
AcDbPolyline
 70
0
 90
2
 10
-598321.674
 20
-1161327.355
 10
-598329.964
 20
-1161324.694
  0
LWPOLYLINE
  5
2042B
100
AcDbEntity
  8
0
100
AcDbPolyline
 70
0
 90
2
 10
-598295.68
 20
-1161422.59
 10
-598290.2
 20
-1161421.71
  0
LWPOLYLINE
  5
2042C
100
AcDbEntity
  8
0
100
AcDbPolyline
 70
0
 90
2
 10
-598274.019
 20
-1161424.163
 10
-598283.843
 20
-1161421.207
  0
LWPOLYLINE
  5
2042D
100
AcDbEntity
  8
0
100
AcDbPolyline
 70
0
 90
2
 10
-598231.95
 20
-1161428.255
 10
-598226.352
 20
-1161412.511
  0
LWPOLYLINE
  5
2042E
100
AcDbEntity
  8
0
100
AcDbPolyline
 70
0
 90
2
 10
-598783.33
 20
-1161104.78
 10
-598779.64
 20
-1161098.9
  0
LWPOLYLINE
  5
2042F
100
AcDbEntity
  8
0
100
AcDbPolyline
 70
0
 90
2
 10
-599225.632
 20
-1161502.316
 10
-599222.427
 20
-1161499.966
  0
LWPOLYLINE
  5
20430
100
AcDbEntity
  8
0
100
AcDbPolyline
 70
0
 90
2
 10
-598346.8
 20
-1161354.16
 10
-598333.93
 20
-1161356.03
  0
LWPOLYLINE
  5
20431
100
AcDbEntity
  8
0
100
AcDbPolyline
 70
0
 90
2
 10
-598331.621
 20
-1161332.573
 10
-598325.343
 20
-1161334.814
  0
LWPOLYLINE
  5
20432
100
AcDbEntity
  8
0
100
AcDbPolyline
 70
0
 90
2
 10
-598415.143
 20
-1161050.824
 10
-598416.461
 20
-1161039.771
  0
LWPOLYLINE
  5
20433
100
AcDbEntity
  8
0
100
AcDbPolyline
 70
0
 90
2
 10
-598589.408
 20
-1161029.189
 10
-598588.436
 20
-1161041.667
  0
LWPOLYLINE
  5
20434
100
AcDbEntity
  8
0
100
AcDbPolyline
 70
0
 90
2
 10
-598682.299
 20
-1161054.204
 10
-598684.888
 20
-1161042.801
  0
LWPOLYLINE
  5
20435
100
AcDbEntity
  8
0
100
AcDbPolyline
 70
0
 90
2
 10
-598673.21
 20
-1161054.31
 10
-598667.27
 20
-1161053.2
  0
LWPOLYLINE
  5
20436
100
AcDbEntity
  8
0
100
AcDbPolyline
 70
0
 90
2
 10
-598831.648
 20
-1161095.642
 10
-598830.938
 20
-1161090.967
  0
LWPOLYLINE
  5
20437
100
AcDbEntity
  8
0
100
AcDbPolyline
 70
0
 90
2
 10
-598828.726
 20
-1161076.175
 10
-598829.283
 20
-1161080.141
  0
LWPOLYLINE
  5
20438
100
AcDbEntity
  8
0
100
AcDbPolyline
 70
0
 90
2
 10
-598878.581
 20
-1161068.713
 10
-598879.226
 20
-1161072.893
  0
LWPOLYLINE
  5
20439
100
AcDbEntity
  8
0
100
AcDbPolyline
 70
0
 90
2
 10
-599506.67
 20
-1160528.16
 10
-599499.108
 20
-1160524.031
  0
LWPOLYLINE
  5
2043A
100
AcDbEntity
  8
0
100
AcDbPolyline
 70
0
 90
2
 10
-599269.602
 20
-1160444.183
 10
-599262.359
 20
-1160443.76
  0
LWPOLYLINE
  5
2043B
100
AcDbEntity
  8
0
100
AcDbPolyline
 70
0
 90
2
 10
-599027.955
 20
-1161058.598
 10
-599023.259
 20
-1161059.803
  0
LWPOLYLINE
  5
2043C
100
AcDbEntity
  8
0
100
AcDbPolyline
 70
0
 90
2
 10
-599074.817
 20
-1161046.584
 10
-599073.356
 20
-1161056.655
  0
LWPOLYLINE
  5
2043D
100
AcDbEntity
  8
0
100
AcDbPolyline
 70
0
 90
2
 10
-599056.675
 20
-1161142.324
 10
-599051.511
 20
-1161144.634
  0
LWPOLYLINE
  5
2043E
100
AcDbEntity
  8
0
100
AcDbPolyline
 70
0
 90
2
 10
-599106.9
 20
-1161120.62
 10
-599089.89
 20
-1161117.67
  0
LWPOLYLINE
  5
2043F
100
AcDbEntity
  8
0
100
AcDbPolyline
 70
0
 90
2
 10
-599114.6
 20
-1161117.59
 10
-599110.13
 20
-1161120.4
  0
LWPOLYLINE
  5
20440
100
AcDbEntity
  8
0
100
AcDbPolyline
 70
0
 90
2
 10
-599229.3
 20
-1161218.83
 10
-599222.36
 20
-1161234.98
  0
LWPOLYLINE
  5
20441
100
AcDbEntity
  8
0
100
AcDbPolyline
 70
0
 90
2
 10
-599245.01
 20
-1161249.31
 10
-599224.65
 20
-1161244.03
  0
LWPOLYLINE
  5
20442
100
AcDbEntity
  8
0
100
AcDbPolyline
 70
0
 90
2
 10
-599223.69
 20
-1161313.61
 10
-599203.5
 20
-1161307.95
  0
LWPOLYLINE
  5
20443
100
AcDbEntity
  8
0
100
AcDbPolyline
 70
0
 90
2
 10
-599535.411
 20
-1161337.623
 10
-599529.535
 20
-1161336.851
  0
LWPOLYLINE
  5
20444
100
AcDbEntity
  8
0
100
AcDbPolyline
 70
0
 90
2
 10
-599527.217
 20
-1161322.598
 10
-599525.258
 20
-1161329.293
  0
LWPOLYLINE
  5
20445
100
AcDbEntity
  8
0
100
AcDbPolyline
 70
0
 90
2
 10
-599186.225
 20
-1161324.33
 10
-599188.251
 20
-1161338.249
  0
LWPOLYLINE
  5
20446
100
AcDbEntity
  8
0
100
AcDbPolyline
 70
0
 90
2
 10
-599197.02
 20
-1161354.2
 10
-599193.713
 20
-1161351.681
  0
LWPOLYLINE
  5
20447
100
AcDbEntity
  8
0
100
AcDbPolyline
 70
0
 90
2
 10
-599227.53
 20
-1161339.18
 10
-599209.8
 20
-1161351.79
  0
LWPOLYLINE
  5
20448
100
AcDbEntity
  8
0
100
AcDbPolyline
 70
0
 90
2
 10
-599221.977
 20
-1161559.709
 10
-599205.165
 20
-1161556.464
  0
LWPOLYLINE
  5
20449
100
AcDbEntity
  8
0
100
AcDbPolyline
 70
0
 90
2
 10
-599230.93
 20
-1161556.11
 10
-599226.65
 20
-1161558.87
  0
LWPOLYLINE
  5
2044A
100
AcDbEntity
  8
0
100
AcDbPolyline
 70
0
 90
2
 10
-599223.61
 20
-1161564.1
 10
-599222.92
 20
-1161577.96
  0
LWPOLYLINE
  5
2044B
100
AcDbEntity
  8
0
100
AcDbPolyline
 70
0
 90
2
 10
-599198.873
 20
-1161523.586
 10
-599197.063
 20
-1161521.049
  0
LWPOLYLINE
  5
2044C
100
AcDbEntity
  8
0
100
AcDbPolyline
 70
0
 90
2
 10
-599194.21
 20
-1161563.662
 10
-599193.421
 20
-1161578.731
  0
LWPOLYLINE
  5
2044D
100
AcDbEntity
  8
0
100
AcDbPolyline
 70
0
 90
2
 10
-599142.968
 20
-1161563.994
 10
-599141.213
 20
-1161561.706
  0
LWPOLYLINE
  5
2044E
100
AcDbEntity
  8
0
100
AcDbPolyline
 70
0
 90
2
 10
-599001.897
 20
-1161634.718
 10
-598998.692
 20
-1161636.019
  0
LWPOLYLINE
  5
2044F
100
AcDbEntity
  8
0
100
AcDbPolyline
 70
0
 90
2
 10
-598712.797
 20
-1161876.564
 10
-598703.687
 20
-1161866.194
  0
LWPOLYLINE
  5
20450
100
AcDbEntity
  8
0
100
AcDbPolyline
 70
0
 90
2
 10
-598684.972
 20
-1161857.45
 10
-598679.603
 20
-1161861.703
  0
LWPOLYLINE
  5
20451
100
AcDbEntity
  8
0
100
AcDbPolyline
 70
0
 90
2
 10
-598683.394
 20
-1161911.948
 10
-598667.776
 20
-1161895.136
  0
LWPOLYLINE
  5
20452
100
AcDbEntity
  8
0
100
AcDbPolyline
 70
0
 90
2
 10
-598553.908
 20
-1162009.328
 10
-598540.04
 20
-1162013.774
  0
LWPOLYLINE
  5
20453
100
AcDbEntity
  8
0
100
AcDbPolyline
 70
0
 90
2
 10
-601583.16
 20
-1162716.69
 10
-601589.97
 20
-1162716.23
  0
LWPOLYLINE
  5
20454
100
AcDbEntity
  8
0
100
AcDbPolyline
 70
0
 90
2
 10
-601573
 20
-1162717.52
 10
-601579.847
 20
-1162717.086
  0
LWPOLYLINE
  5
20455
100
AcDbEntity
  8
0
100
AcDbPolyline
 70
0
 90
2
 10
-601566.88
 20
-1162717.39
 10
-601562.36
 20
-1162713.08
  0
LWPOLYLINE
  5
20456
100
AcDbEntity
  8
0
100
AcDbPolyline
 70
0
 90
2
 10
-601597.004
 20
-1162710.97
 10
-601594.314
 20
-1162715.304
  0
LWPOLYLINE
  5
20457
100
AcDbEntity
  8
0
100
AcDbPolyline
 70
0
 90
2
 10
-601534.3
 20
-1162480.91
 10
-601528.98
 20
-1162481.96
  0
LWPOLYLINE
  5
20458
100
AcDbEntity
  8
0
100
AcDbPolyline
 70
0
 90
2
 10
-601544.18
 20
-1162479.04
 10
-601537.81
 20
-1162480.33
  0
LWPOLYLINE
  5
20459
100
AcDbEntity
  8
0
100
AcDbPolyline
 70
0
 90
2
 10
-601343.104
 20
-1162498.543
 10
-601337.262
 20
-1162499.682
  0
LWPOLYLINE
  5
2045A
100
AcDbEntity
  8
0
100
AcDbPolyline
 70
0
 90
2
 10
-601351.976
 20
-1162496.872
 10
-601346.106
 20
-1162498.011
  0
LWPOLYLINE
  5
2045B
100
AcDbEntity
  8
0
100
AcDbPolyline
 70
0
 90
2
 10
-601484.936
 20
-1163342.746
 10
-601494.386
 20
-1163336.926
  0
LWPOLYLINE
  5
2045C
100
AcDbEntity
  8
0
100
AcDbPolyline
 70
0
 90
2
 10
-601268.86
 20
-1163137.89
 10
-601277.75
 20
-1163135.695
  0
LWPOLYLINE
  5
2045D
100
AcDbEntity
  8
0
100
AcDbPolyline
 70
0
 90
2
 10
-601645.201
 20
-1163123.948
 10
-601649.883
 20
-1163139.189
  0
LWPOLYLINE
  5
2045E
100
AcDbEntity
  8
0
100
AcDbPolyline
 70
0
 90
2
 10
-601988.28
 20
-1163230.86
 10
-601980.85
 20
-1163234.15
  0
LWPOLYLINE
  5
2045F
100
AcDbEntity
  8
0
100
AcDbPolyline
 70
0
 90
2
 10
-601968.8
 20
-1163228.18
 10
-601966.221
 20
-1163221.396
  0
LWPOLYLINE
  5
20460
100
AcDbEntity
  8
0
100
AcDbPolyline
 70
0
 90
2
 10
-601388.8
 20
-1162740.552
 10
-601379.78
 20
-1162742.19
  0
LWPOLYLINE
  5
20461
100
AcDbEntity
  8
0
100
AcDbPolyline
 70
0
 90
2
 10
-601400.111
 20
-1162738.686
 10
-601392.223
 20
-1162740.117
  0
LWPOLYLINE
  5
20462
100
AcDbEntity
  8
0
100
AcDbPolyline
 70
0
 90
2
 10
-601867.134
 20
-1163749.121
 10
-601869.617
 20
-1163756.685
  0
LWPOLYLINE
  5
20463
100
AcDbEntity
  8
0
100
AcDbPolyline
 70
0
 90
2
 10
-601867.134
 20
-1163759.922
 10
-601862.607
 20
-1163761.53
  0
LWPOLYLINE
  5
20464
100
AcDbEntity
  8
0
100
AcDbPolyline
 70
0
 90
2
 10
-601657.61
 20
-1163151.15
 10
-601664.35
 20
-1163149.54
  0
LWPOLYLINE
  5
20465
100
AcDbEntity
  8
0
100
AcDbPolyline
 70
0
 90
2
 10
-601503.5
 20
-1163466.397
 10
-601498.639
 20
-1163474.95
  0
LWPOLYLINE
  5
20466
100
AcDbEntity
  8
0
100
AcDbPolyline
 70
0
 90
2
 10
-601539.363
 20
-1162947.295
 10
-601544.809
 20
-1162944.666
  0
LWPOLYLINE
  5
20467
100
AcDbEntity
  8
0
100
AcDbPolyline
 70
0
 90
2
 10
-602356.455
 20
-1163020.652
 10
-602349.949
 20
-1163018.232
  0
LWPOLYLINE
  5
20468
100
AcDbEntity
  8
0
100
AcDbPolyline
 70
0
 90
2
 10
-601186.839
 20
-1162784.516
 10
-601188.333
 20
-1162792.511
  0
LWPOLYLINE
  5
20469
100
AcDbEntity
  8
0
100
AcDbPolyline
 70
0
 90
2
 10
-601477.807
 20
-1163801.637
 10
-601482.447
 20
-1163794.837
  0
LWPOLYLINE
  5
2046A
100
AcDbEntity
  8
0
100
AcDbPolyline
 70
0
 90
2
 10
-601642.11
 20
-1163812.67
 10
-601643.308
 20
-1163816.831
  0
LWPOLYLINE
  5
2046B
100
AcDbEntity
  8
0
100
AcDbPolyline
 70
0
 90
2
 10
-601637.28
 20
-1163829
 10
-601631.16
 20
-1163831.5
  0
LWPOLYLINE
  5
2046C
100
AcDbEntity
  8
0
100
AcDbPolyline
 70
0
 90
2
 10
-602064.468
 20
-1163682.122
 10
-602058.048
 20
-1163684.942
  0
LWPOLYLINE
  5
2046D
100
AcDbEntity
  8
0
100
AcDbPolyline
 70
0
 90
2
 10
-602106.257
 20
-1163548.255
 10
-602101.391
 20
-1163543.867
  0
LWPOLYLINE
  5
2046E
100
AcDbEntity
  8
0
100
AcDbPolyline
 70
0
 90
2
 10
-602230.771
 20
-1163309.051
 10
-602223.741
 20
-1163308.523
  0
LWPOLYLINE
  5
2046F
100
AcDbEntity
  8
0
100
AcDbPolyline
 70
0
 90
2
 10
-602263.557
 20
-1163231.512
 10
-602257.955
 20
-1163229.251
  0
LWPOLYLINE
  5
20470
100
AcDbEntity
  8
0
100
AcDbPolyline
 70
0
 90
2
 10
-600071.979
 20
-1159779.376
 10
-600068.233
 20
-1159785.689
  0
LWPOLYLINE
  5
20471
100
AcDbEntity
  8
0
100
AcDbPolyline
 70
0
 90
2
 10
-600071.202
 20
-1159775.421
 10
-600066.23
 20
-1159772.518
  0
LWPOLYLINE
  5
20472
100
AcDbEntity
  8
0
100
AcDbPolyline
 70
0
 90
2
 10
-600062.664
 20
-1159786.974
 10
-600057.702
 20
-1159784.153
  0
LWPOLYLINE
  5
20473
100
AcDbEntity
  8
0
100
AcDbPolyline
 70
0
 90
2
 10
-600012.966
 20
-1159754.619
 10
-600016.361
 20
-1159748.526
  0
LWPOLYLINE
  5
20474
100
AcDbEntity
  8
0
100
AcDbPolyline
 70
0
 90
2
 10
-600009.695
 20
-1160583.699
 10
-600012.658
 20
-1160589.361
  0
LWPOLYLINE
  5
20475
100
AcDbEntity
  8
0
100
AcDbPolyline
 70
0
 90
2
 10
-600324.458
 20
-1160347.87
 10
-600328.098
 20
-1160352.486
  0
LWPOLYLINE
  5
20476
100
AcDbEntity
  8
0
100
AcDbPolyline
 70
0
 90
2
 10
-600619.136
 20
-1160140.046
 10
-600622.311
 20
-1160145.549
  0
LWPOLYLINE
  5
20477
100
AcDbEntity
  8
0
100
AcDbPolyline
 70
0
 90
2
 10
-600838.63
 20
-1159973.28
 10
-600842.81
 20
-1159978.19
  0
LWPOLYLINE
  5
20478
100
AcDbEntity
  8
0
100
AcDbPolyline
 70
0
 90
2
 10
-599972.464
 20
-1159766.256
 10
-599978.511
 20
-1159769.299
  0
LWPOLYLINE
  5
20479
100
AcDbEntity
  8
0
100
AcDbPolyline
 70
0
 90
2
 10
-600413.546
 20
-1159842.487
 10
-600419.084
 20
-1159846.795
  0
LWPOLYLINE
  5
2047A
100
AcDbEntity
  8
0
100
AcDbPolyline
 70
0
 90
2
 10
-599625.385
 20
-1160576.333
 10
-599623.18
 20
-1160584.314
  0
LWPOLYLINE
  5
2047B
100
AcDbEntity
  8
0
100
AcDbPolyline
 70
0
 90
2
 10
-599613.273
 20
-1160566.494
 10
-599619.084
 20
-1160568.263
  0
LWPOLYLINE
  5
2047C
100
AcDbEntity
  8
0
100
AcDbPolyline
 70
0
 90
2
 10
-599508.383
 20
-1160509.527
 10
-599512.051
 20
-1160511.349
  0
LWPOLYLINE
  5
2047D
100
AcDbEntity
  8
0
100
AcDbPolyline
 70
0
 90
2
 10
-599349.004
 20
-1160441.207
 10
-599337.024
 20
-1160434.964
  0
LWPOLYLINE
  5
2047E
100
AcDbEntity
  8
0
100
AcDbPolyline
 70
0
 90
2
 10
-599317.887
 20
-1160431.128
 10
-599307.818
 20
-1160428.556
  0
LWPOLYLINE
  5
2047F
100
AcDbEntity
  8
0
100
AcDbPolyline
 70
0
 90
2
 10
-599154.617
 20
-1160417.164
 10
-599153.552
 20
-1160428.519
  0
LWPOLYLINE
  5
20480
100
AcDbEntity
  8
0
100
AcDbPolyline
 70
0
 90
2
 10
-599151.093
 20
-1160412.709
 10
-599140.435
 20
-1160411.44
  0
LWPOLYLINE
  5
20481
100
AcDbEntity
  8
0
100
AcDbPolyline
 70
0
 90
2
 10
-599163
 20
-1160303.34
 10
-599151.59
 20
-1160302.38
  0
LWPOLYLINE
  5
20482
100
AcDbEntity
  8
0
100
AcDbPolyline
 70
0
 90
2
 10
-599690.366
 20
-1163082.149
 10
-599689.725
 20
-1163078.923
  0
LWPOLYLINE
  5
20483
100
AcDbEntity
  8
0
100
AcDbPolyline
 70
0
 90
2
 10
-599120.93
 20
-1163309.14
 10
-599126.91
 20
-1163309.82
  0
LWPOLYLINE
  5
20484
100
AcDbEntity
  8
0
100
AcDbPolyline
 70
0
 90
2
 10
-598813.74
 20
-1162409.05
 10
-598807.61
 20
-1162409.62
  0
LWPOLYLINE
  5
20485
100
AcDbEntity
  8
0
100
AcDbPolyline
 70
0
 90
2
 10
-598790.94
 20
-1162395.09
 10
-598794.79
 20
-1162400.93
  0
LWPOLYLINE
  5
20486
100
AcDbEntity
  8
0
100
AcDbPolyline
 70
0
 90
2
 10
-599124.556
 20
-1163275.571
 10
-599130.442
 20
-1163276.189
  0
LWPOLYLINE
  5
20487
100
AcDbEntity
  8
0
100
AcDbPolyline
 70
0
 90
2
 10
-599203.98
 20
-1163315.73
 10
-599194.67
 20
-1163314.95
  0
LWPOLYLINE
  5
20488
100
AcDbEntity
  8
0
100
AcDbPolyline
 70
0
 90
2
 10
-599193.43
 20
-1163295.61
 10
-599192.9
 20
-1163303.94
  0
LWPOLYLINE
  5
20489
100
AcDbEntity
  8
0
100
AcDbPolyline
 70
0
 90
2
 10
-598606.715
 20
-1162199.148
 10
-598601.808
 20
-1162196.712
  0
LWPOLYLINE
  5
2048A
100
AcDbEntity
  8
0
100
AcDbPolyline
 70
0
 90
2
 10
-598609.01
 20
-1162205.61
 10
-598607.31
 20
-1162210.6
  0
LWPOLYLINE
  5
2048B
100
AcDbEntity
  8
0
100
AcDbPolyline
 70
0
 90
2
 10
-598871.2
 20
-1162018.793
 10
-598867.153
 20
-1162009.636
  0
LWPOLYLINE
  5
2048C
100
AcDbEntity
  8
0
100
AcDbPolyline
 70
0
 90
2
 10
-599213.51
 20
-1163316.63
 10
-599206.61
 20
-1163315.96
  0
LWPOLYLINE
  5
2048D
100
AcDbEntity
  8
0
100
AcDbPolyline
 70
0
 90
2
 10
-599511.555
 20
-1162243.814
 10
-599510.796
 20
-1162249.492
  0
LWPOLYLINE
  5
2048E
100
AcDbEntity
  8
0
100
AcDbPolyline
 70
0
 90
2
 10
-599512.722
 20
-1162256.526
 10
-599517.646
 20
-1162257.195
  0
LWPOLYLINE
  5
2048F
100
AcDbEntity
  8
0
100
AcDbPolyline
 70
0
 90
2
 10
-599523.616
 20
-1162244.502
 10
-599522.863
 20
-1162251.249
  0
LWPOLYLINE
  5
20490
100
AcDbEntity
  8
0
100
AcDbPolyline
 70
0
 90
2
 10
-599516.72
 20
-1162306.57
 10
-599515.914
 20
-1162313.42
  0
LWPOLYLINE
  5
20491
100
AcDbEntity
  8
0
100
AcDbPolyline
 70
0
 90
2
 10
-599508.691
 20
-1162339.834
 10
-599503.599
 20
-1162339.265
  0
LWPOLYLINE
  5
20492
100
AcDbEntity
  8
0
100
AcDbPolyline
 70
0
 90
2
 10
-598502.73
 20
-1162603.8
 10
-598504.13
 20
-1162615
  0
LWPOLYLINE
  5
20493
100
AcDbEntity
  8
0
100
AcDbPolyline
 70
0
 90
2
 10
-598706.304
 20
-1162644.216
 10
-598706.522
 20
-1162635.688
  0
LWPOLYLINE
  5
20494
100
AcDbEntity
  8
0
100
AcDbPolyline
 70
0
 90
2
 10
-598712.439
 20
-1162655.911
 10
-598717.232
 20
-1162658.276
  0
LWPOLYLINE
  5
20495
100
AcDbEntity
  8
0
100
AcDbPolyline
 70
0
 90
2
 10
-598663.391
 20
-1162632.37
 10
-598666.659
 20
-1162635.295
  0
LWPOLYLINE
  5
20496
100
AcDbEntity
  8
0
100
AcDbPolyline
 70
0
 90
2
 10
-598670.088
 20
-1162644.991
 10
-598670.659
 20
-1162657.052
  0
LWPOLYLINE
  5
20497
100
AcDbEntity
  8
0
100
AcDbPolyline
 70
0
 90
2
 10
-598671.05
 20
-1162669.91
 10
-598674.11
 20
-1162666.56
  0
LWPOLYLINE
  5
20498
100
AcDbEntity
  8
0
100
AcDbPolyline
 70
0
 90
2
 10
-598641.19
 20
-1162399.21
 10
-598637.7
 20
-1162402.75
  0
LWPOLYLINE
  5
20499
100
AcDbEntity
  8
0
100
AcDbPolyline
 70
0
 90
2
 10
-598642.14
 20
-1162391.84
 10
-598642.42
 20
-1162396.68
  0
LWPOLYLINE
  5
2049A
100
AcDbEntity
  8
0
100
AcDbPolyline
 70
0
 90
2
 10
-598641.64
 20
-1162389.71
 10
-598637.31
 20
-1162385.26
  0
LWPOLYLINE
  5
2049B
100
AcDbEntity
  8
0
100
AcDbPolyline
 70
0
 90
2
 10
-599226.863
 20
-1162843.082
 10
-599221.199
 20
-1162842.903
  0
LWPOLYLINE
  5
2049C
100
AcDbEntity
  8
0
100
AcDbPolyline
 70
0
 90
2
 10
-599230.828
 20
-1162811.887
 10
-599230.294
 20
-1162821.947
  0
LWPOLYLINE
  5
2049D
100
AcDbEntity
  8
0
100
AcDbPolyline
 70
0
 90
2
 10
-599007.196
 20
-1162792.869
 10
-599015.637
 20
-1162792.388
  0
LWPOLYLINE
  5
2049E
100
AcDbEntity
  8
0
100
AcDbPolyline
 70
0
 90
2
 10
-599218.896
 20
-1163102.268
 10
-599217.584
 20
-1163114.834
  0
LWPOLYLINE
  5
2049F
100
AcDbEntity
  8
0
100
AcDbPolyline
 70
0
 90
2
 10
-598960.281
 20
-1161884.576
 10
-598957.717
 20
-1161887.713
  0
LWPOLYLINE
  5
204A0
100
AcDbEntity
  8
0
100
AcDbPolyline
 70
0
 90
2
 10
-598811.972
 20
-1162066.009
 10
-598805.326
 20
-1162057.325
  0
LWPOLYLINE
  5
204A1
100
AcDbEntity
  8
0
100
AcDbPolyline
 70
0
 90
2
 10
-598828.771
 20
-1162060.167
 10
-598818.369
 20
-1162068.174
  0
LWPOLYLINE
  5
204A2
100
AcDbEntity
  8
0
100
AcDbPolyline
 70
0
 90
2
 10
-598835.135
 20
-1162055.049
 10
-598828.654
 20
-1162060.051
  0
LWPOLYLINE
  5
204A3
100
AcDbEntity
  8
0
100
AcDbPolyline
 70
0
 90
2
 10
-598821.585
 20
-1162046.714
 10
-598829.026
 20
-1162055.993
  0
LWPOLYLINE
  5
204A4
100
AcDbEntity
  8
0
100
AcDbPolyline
 70
0
 90
2
 10
-598803.555
 20
-1162046.795
 10
-598813.281
 20
-1162039.349
  0
LWPOLYLINE
  5
204A5
100
AcDbEntity
  8
0
100
AcDbPolyline
 70
0
 90
2
 10
-598810.393
 20
-1162014.937
 10
-598811.218
 20
-1162007.461
  0
LWPOLYLINE
  5
204A6
100
AcDbEntity
  8
0
100
AcDbPolyline
 70
0
 90
2
 10
-599225.122
 20
-1163176.583
 10
-599211.417
 20
-1163174.624
  0
LWPOLYLINE
  5
204A7
100
AcDbEntity
  8
0
100
AcDbPolyline
 70
0
 90
2
 10
-598704.2
 20
-1162657.17
 10
-598694.944
 20
-1162660.403
  0
LWPOLYLINE
  5
204A8
100
AcDbEntity
  8
0
100
AcDbPolyline
 70
0
 90
2
 10
-599204.99
 20
-1163174.03
 10
-599201.56
 20
-1163176.23
  0
LWPOLYLINE
  5
204A9
100
AcDbEntity
  8
0
100
AcDbPolyline
 70
0
 90
2
 10
-599228.22
 20
-1162919.59
 10
-599227.73
 20
-1162929.84
  0
LWPOLYLINE
  5
204AA
100
AcDbEntity
  8
0
100
AcDbPolyline
 70
0
 90
2
 10
-599250.57
 20
-1162838.78
 10
-599234.72
 20
-1162837.83
  0
LWPOLYLINE
  5
204AB
100
AcDbEntity
  8
0
100
AcDbPolyline
 70
0
 90
2
 10
-599277.21
 20
-1162029.6
 10
-599279.83
 20
-1162042.81
  0
LWPOLYLINE
  5
204AC
100
AcDbEntity
  8
0
100
AcDbPolyline
 70
0
 90
2
 10
-599252.616
 20
-1162034.17
 10
-599251.184
 20
-1162027.401
  0
LWPOLYLINE
  5
204AD
100
AcDbEntity
  8
0
100
AcDbPolyline
 70
0
 90
2
 10
-599201.44
 20
-1161789.532
 10
-599203.651
 20
-1161798.183
  0
LWPOLYLINE
  5
204AE
100
AcDbEntity
  8
0
100
AcDbPolyline
 70
0
 90
2
 10
-599217.547
 20
-1161750.174
 10
-599218.163
 20
-1161757.515
  0
LWPOLYLINE
  5
204AF
100
AcDbEntity
  8
0
100
AcDbPolyline
 70
0
 90
2
 10
-599218.754
 20
-1161777.47
 10
-599204.021
 20
-1161780.281
  0
LWPOLYLINE
  5
204B0
100
AcDbEntity
  8
0
100
AcDbPolyline
 70
0
 90
2
 10
-599216.782
 20
-1161642.502
 10
-599216.735
 20
-1161630.4
  0
LWPOLYLINE
  5
204B1
100
AcDbEntity
  8
0
100
AcDbPolyline
 70
0
 90
2
 10
-599207.684
 20
-1163156.787
 10
-599206.952
 20
-1163144.899
  0
LWPOLYLINE
  5
204B2
100
AcDbEntity
  8
0
100
AcDbPolyline
 70
0
 90
2
 10
-599207.561
 20
-1163160.198
 10
-599208.033
 20
-1163166.743
  0
LWPOLYLINE
  5
204B3
100
AcDbEntity
  8
0
100
AcDbPolyline
 70
0
 90
2
 10
-599231.762
 20
-1163129.903
 10
-599218.745
 20
-1163128.079
  0
LWPOLYLINE
  5
204B4
100
AcDbEntity
  8
0
100
AcDbPolyline
 70
0
 90
2
 10
-599244.71
 20
-1163145.52
 10
-599244.14
 20
-1163152.5
  0
LWPOLYLINE
  5
204B5
100
AcDbEntity
  8
0
100
AcDbPolyline
 70
0
 90
2
 10
-599243.912
 20
-1163155.012
 10
-599243.638
 20
-1163165.073
  0
LWPOLYLINE
  5
204B6
100
AcDbEntity
  8
0
100
AcDbPolyline
 70
0
 90
2
 10
-597788.542
 20
-1161813.056
 10
-597783.843
 20
-1161824.897
  0
LWPOLYLINE
  5
204B7
100
AcDbEntity
  8
0
100
AcDbPolyline
 70
0
 90
2
 10
-597793.38
 20
-1161800.341
 10
-597789.372
 20
-1161810.43
  0
LWPOLYLINE
  5
204B8
100
AcDbEntity
  8
0
100
AcDbPolyline
 70
0
 90
2
 10
-596928.577
 20
-1161758.399
 10
-596927.526
 20
-1161748.197
  0
LWPOLYLINE
  5
204B9
100
AcDbEntity
  8
0
100
AcDbPolyline
 70
0
 90
2
 10
-596935.929
 20
-1161761.549
 10
-596943.148
 20
-1161760.872
  0
LWPOLYLINE
  5
204BA
100
AcDbEntity
  8
0
100
AcDbPolyline
 70
0
 90
2
 10
-596939.97
 20
-1161609.25
 10
-596942.49
 20
-1161613.34
  0
LWPOLYLINE
  5
204BB
100
AcDbEntity
  8
0
100
AcDbPolyline
 70
0
 90
2
 10
-596938.27
 20
-1161593.099
 10
-596924.323
 20
-1161592.176
  0
LWPOLYLINE
  5
204BC
100
AcDbEntity
  8
0
100
AcDbPolyline
 70
0
 90
2
 10
-596963.69
 20
-1161579.88
 10
-596956.69
 20
-1161587.52
  0
LWPOLYLINE
  5
204BD
100
AcDbEntity
  8
0
100
AcDbPolyline
 70
0
 90
2
 10
-596950.171
 20
-1161537.62
 10
-596948.45
 20
-1161542.398
  0
LWPOLYLINE
  5
204BE
100
AcDbEntity
  8
0
100
AcDbPolyline
 70
0
 90
2
 10
-596940.675
 20
-1161552.309
 10
-596931.538
 20
-1161556.526
  0
LWPOLYLINE
  5
204BF
100
AcDbEntity
  8
0
100
AcDbPolyline
 70
0
 90
2
 10
-596950.705
 20
-1161553.081
 10
-596959.607
 20
-1161559.461
  0
LWPOLYLINE
  5
204C0
100
AcDbEntity
  8
0
100
AcDbPolyline
 70
0
 90
2
 10
-597805.711
 20
-1161695.244
 10
-597808.144
 20
-1161689.902
  0
LWPOLYLINE
  5
204C1
100
AcDbEntity
  8
0
100
AcDbPolyline
 70
0
 90
2
 10
-597943.804
 20
-1161484.565
 10
-597928.99
 20
-1161482.215
  0
LWPOLYLINE
  5
204C2
100
AcDbEntity
  8
0
100
AcDbPolyline
 70
0
 90
2
 10
-597900.504
 20
-1161477.341
 10
-597897.181
 20
-1161486.859
  0
LWPOLYLINE
  5
204C3
100
AcDbEntity
  8
0
100
AcDbPolyline
 70
0
 90
2
 10
-597906.877
 20
-1161510.957
 10
-597897.397
 20
-1161507.958
  0
LWPOLYLINE
  5
204C4
100
AcDbEntity
  8
0
100
AcDbPolyline
 70
0
 90
2
 10
-598071.677
 20
-1161457.138
 10
-598060.406
 20
-1161459.69
  0
LWPOLYLINE
  5
204C5
100
AcDbEntity
  8
0
100
AcDbPolyline
 70
0
 90
2
 10
-597953.53
 20
-1161874.79
 10
-597948.64
 20
-1161870.99
  0
LWPOLYLINE
  5
204C6
100
AcDbEntity
  8
0
100
AcDbPolyline
 70
0
 90
2
 10
-597999.45
 20
-1161898.01
 10
-597990.2
 20
-1161894.06
  0
LWPOLYLINE
  5
204C7
100
AcDbEntity
  8
0
100
AcDbPolyline
 70
0
 90
2
 10
-597973.69
 20
-1161919.7
 10
-597984.9
 20
-1161925.37
  0
LWPOLYLINE
  5
204C8
100
AcDbEntity
  8
0
100
AcDbPolyline
 70
0
 90
2
 10
-598032.335
 20
-1161951.208
 10
-598019.528
 20
-1161943.837
  0
LWPOLYLINE
  5
204C9
100
AcDbEntity
  8
0
100
AcDbPolyline
 70
0
 90
2
 10
-597722.557
 20
-1161212.328
 10
-597701.123
 20
-1161224.337
  0
LWPOLYLINE
  5
204CA
100
AcDbEntity
  8
0
100
AcDbPolyline
 70
0
 90
2
 10
-597467.07
 20
-1161165.29
 10
-597452.972
 20
-1161167.381
  0
LWPOLYLINE
  5
204CB
100
AcDbEntity
  8
0
100
AcDbPolyline
 70
0
 90
2
 10
-597222.993
 20
-1161301.285
 10
-597213.424
 20
-1161304.377
  0
LWPOLYLINE
  5
204CC
100
AcDbEntity
  8
0
100
AcDbPolyline
 70
0
 90
2
 10
-597678.73
 20
-1161169.896
 10
-597692.743
 20
-1161164.601
  0
LWPOLYLINE
  5
204CD
100
AcDbEntity
  8
0
100
AcDbPolyline
 70
0
 90
2
 10
-597706.21
 20
-1161166.61
 10
-597713.841
 20
-1161179.232
  0
LWPOLYLINE
  5
204CE
100
AcDbEntity
  8
0
100
AcDbPolyline
 70
0
 90
2
 10
-597665.546
 20
-1161176.704
 10
-597658.368
 20
-1161176.361
  0
LWPOLYLINE
  5
204CF
100
AcDbEntity
  8
0
100
AcDbPolyline
 70
0
 90
2
 10
-597666.628
 20
-1161183.999
 10
-597666.992
 20
-1161192.946
  0
LWPOLYLINE
  5
204D0
100
AcDbEntity
  8
0
100
AcDbPolyline
 70
0
 90
2
 10
-597362.896
 20
-1161204.105
 10
-597359.214
 20
-1161205.913
  0
LWPOLYLINE
  5
204D1
100
AcDbEntity
  8
0
100
AcDbPolyline
 70
0
 90
2
 10
-597380.165
 20
-1161195.561
 10
-597376.375
 20
-1161197.356
  0
LWPOLYLINE
  5
204D2
100
AcDbEntity
  8
0
100
AcDbPolyline
 70
0
 90
2
 10
-597344.53
 20
-1161239.14
 10
-597337.28
 20
-1161243.22
  0
LWPOLYLINE
  5
204D3
100
AcDbEntity
  8
0
100
AcDbPolyline
 70
0
 90
2
 10
-597322.761
 20
-1161222.592
 10
-597316.207
 20
-1161226.789
  0
LWPOLYLINE
  5
204D4
100
AcDbEntity
  8
0
100
AcDbPolyline
 70
0
 90
2
 10
-597203.477
 20
-1161283.379
 10
-597205.602
 20
-1161300.022
  0
LWPOLYLINE
  5
204D5
100
AcDbEntity
  8
0
100
AcDbPolyline
 70
0
 90
2
 10
-597034.805
 20
-1161296.197
 10
-597044.071
 20
-1161295.843
  0
LWPOLYLINE
  5
204D6
100
AcDbEntity
  8
0
100
AcDbPolyline
 70
0
 90
2
 10
-596909.85
 20
-1161310.92
 10
-596911.39
 20
-1161327.58
  0
LWPOLYLINE
  5
204D7
100
AcDbEntity
  8
0
100
AcDbPolyline
 70
0
 90
2
 10
-596892.39
 20
-1161309.14
 10
-596902.33
 20
-1161308.24
  0
LWPOLYLINE
  5
204D8
100
AcDbEntity
  8
0
100
AcDbPolyline
 70
0
 90
2
 10
-596904.333
 20
-1161335.349
 10
-596890.534
 20
-1161336.388
  0
LWPOLYLINE
  5
204D9
100
AcDbEntity
  8
0
100
AcDbPolyline
 70
0
 90
2
 10
-598007.479
 20
-1161492.117
 10
-598009.95
 20
-1161504.41
  0
LWPOLYLINE
  5
204DA
100
AcDbEntity
  8
0
100
AcDbPolyline
 70
0
 90
2
 10
-598039.211
 20
-1161481.996
 10
-598044.31
 20
-1161494.36
  0
LWPOLYLINE
  5
204DB
100
AcDbEntity
  8
0
100
AcDbPolyline
 70
0
 90
2
 10
-598038.212
 20
-1161506.099
 10
-598024.99
 20
-1161510.156
  0
LWPOLYLINE
  5
204DC
100
AcDbEntity
  8
0
100
AcDbPolyline
 70
0
 90
2
 10
-596903.219
 20
-1161689.227
 10
-596907.655
 20
-1161673.785
  0
LWPOLYLINE
  5
204DD
100
AcDbEntity
  8
0
100
AcDbPolyline
 70
0
 90
2
 10
-596934.411
 20
-1161672.392
 10
-596920.675
 20
-1161668.074
  0
LWPOLYLINE
  5
204DE
100
AcDbEntity
  8
0
100
AcDbPolyline
 70
0
 90
2
 10
-597033.524
 20
-1161702.547
 10
-597022.432
 20
-1161710.852
  0
LWPOLYLINE
  5
204DF
100
AcDbEntity
  8
0
100
AcDbPolyline
 70
0
 90
2
 10
-596938.051
 20
-1161710.37
 10
-596926.153
 20
-1161710.393
  0
LWPOLYLINE
  5
204E0
100
AcDbEntity
  8
0
100
AcDbPolyline
 70
0
 90
2
 10
-596946.626
 20
-1161687.55
 10
-596942.07
 20
-1161705.9
  0
LWPOLYLINE
  5
204E1
100
AcDbEntity
  8
0
100
AcDbPolyline
 70
0
 90
2
 10
-596945.232
 20
-1161714.035
 10
-596948.161
 20
-1161717.793
  0
LWPOLYLINE
  5
204E2
100
AcDbEntity
  8
0
100
AcDbPolyline
 70
0
 90
2
 10
-598287.193
 20
-1162013.722
 10
-598280.965
 20
-1162014.36
  0
LWPOLYLINE
  5
204E3
100
AcDbEntity
  8
0
100
AcDbPolyline
 70
0
 90
2
 10
-598300.4
 20
-1162004.33
 10
-598298.01
 20
-1162008.66
  0
LWPOLYLINE
  5
204E4
100
AcDbEntity
  8
0
100
AcDbPolyline
 70
0
 90
2
 10
-598258.36
 20
-1162011.89
 10
-598260.73
 20
-1162015.17
  0
LWPOLYLINE
  5
204E5
100
AcDbEntity
  8
0
100
AcDbPolyline
 70
0
 90
2
 10
-598262.47
 20
-1162042.93
 10
-598263.606
 20
-1162033.341
  0
LWPOLYLINE
  5
204E6
100
AcDbEntity
  8
0
100
AcDbPolyline
 70
0
 90
2
 10
-597780.24
 20
-1161786.82
 10
-597766.152
 20
-1161781.682
  0
LWPOLYLINE
  5
204E7
100
AcDbEntity
  8
0
100
AcDbPolyline
 70
0
 90
2
 10
-597757.306
 20
-1161786.243
 10
-597753.37
 20
-1161798.5
  0
LWPOLYLINE
  5
204E8
100
AcDbEntity
  8
0
100
AcDbPolyline
 70
0
 90
2
 10
-597752.238
 20
-1161801.953
 10
-597749.566
 20
-1161808.68
  0
LWPOLYLINE
  5
204E9
100
AcDbEntity
  8
0
100
AcDbPolyline
 70
0
 90
2
 10
-597770.159
 20
-1161829.43
 10
-597759.775
 20
-1161826.055
  0
LWPOLYLINE
  5
204EA
100
AcDbEntity
  8
0
100
AcDbPolyline
 70
0
 90
2
 10
-593458.641
 20
-1164339.567
 10
-593448.589
 20
-1164324.981
  0
LWPOLYLINE
  5
204EB
100
AcDbEntity
  8
0
100
AcDbPolyline
 70
0
 90
2
 10
-593506.99
 20
-1164393.25
 10
-593502.48
 20
-1164396.39
  0
LWPOLYLINE
  5
204EC
100
AcDbEntity
  8
0
100
AcDbPolyline
 70
0
 90
2
 10
-593513.5
 20
-1164388.88
 10
-593509.06
 20
-1164391.96
  0
LWPOLYLINE
  5
204ED
100
AcDbEntity
  8
0
100
AcDbPolyline
 70
0
 90
2
 10
-593524.59
 20
-1164396.32
 10
-593533.82
 20
-1164409.27
  0
LWPOLYLINE
  5
204EE
100
AcDbEntity
  8
0
100
AcDbPolyline
 70
0
 90
2
 10
-593672.68
 20
-1164715.59
 10
-593669.98
 20
-1164703.94
  0
LWPOLYLINE
  5
204EF
100
AcDbEntity
  8
0
100
AcDbPolyline
 70
0
 90
2
 10
-594580.743
 20
-1166725.108
 10
-594584.709
 20
-1166720.938
  0
LWPOLYLINE
  5
204F0
100
AcDbEntity
  8
0
100
AcDbPolyline
 70
0
 90
2
 10
-594589.917
 20
-1166744.879
 10
-594593.451
 20
-1166749.927
  0
LWPOLYLINE
  5
204F1
100
AcDbEntity
  8
0
100
AcDbPolyline
 70
0
 90
2
 10
-594457.806
 20
-1166590.59
 10
-594452.514
 20
-1166594.275
  0
LWPOLYLINE
  5
204F2
100
AcDbEntity
  8
0
100
AcDbPolyline
 70
0
 90
2
 10
-594407.504
 20
-1166518.429
 10
-594400.472
 20
-1166522.998
  0
LWPOLYLINE
  5
204F3
100
AcDbEntity
  8
0
100
AcDbPolyline
 70
0
 90
2
 10
-594348.942
 20
-1166459.309
 10
-594344.731
 20
-1166453.421
  0
LWPOLYLINE
  5
204F4
100
AcDbEntity
  8
0
100
AcDbPolyline
 70
0
 90
2
 10
-594352.895
 20
-1166438.443
 10
-594346.403
 20
-1166443.342
  0
LWPOLYLINE
  5
204F5
100
AcDbEntity
  8
0
100
AcDbPolyline
 70
0
 90
2
 10
-594525.948
 20
-1166433.165
 10
-594521.419
 20
-1166432.951
  0
LWPOLYLINE
  5
204F6
100
AcDbEntity
  8
0
100
AcDbPolyline
 70
0
 90
2
 10
-594922.328
 20
-1166037.617
 10
-594925.71
 20
-1166030.35
  0
LWPOLYLINE
  5
204F7
100
AcDbEntity
  8
0
100
AcDbPolyline
 70
0
 90
2
 10
-595415.002
 20
-1150496.445
 10
-595407.357
 20
-1150493.479
  0
LWPOLYLINE
  5
204F8
100
AcDbEntity
  8
0
100
AcDbPolyline
 70
0
 90
2
 10
-599061.45
 20
-1159615.93
 10
-599053.35
 20
-1159615.88
  0
LWPOLYLINE
  5
204F9
100
AcDbEntity
  8
0
100
AcDbPolyline
 70
0
 90
2
 10
-598229.084
 20
-1159550.362
 10
-598212.169
 20
-1159546.128
  0
LWPOLYLINE
  5
204FA
100
AcDbEntity
  8
0
100
AcDbPolyline
 70
0
 90
2
 10
-598619.196
 20
-1160116.175
 10
-598609.861
 20
-1160108.714
  0
LWPOLYLINE
  5
204FB
100
AcDbEntity
  8
0
100
AcDbPolyline
 70
0
 90
2
 10
-598662.546
 20
-1159745.729
 10
-598670.926
 20
-1159750.97
  0
LWPOLYLINE
  5
204FC
100
AcDbEntity
  8
0
100
AcDbPolyline
 70
0
 90
2
 10
-599132.377
 20
-1159343.421
 10
-599141.198
 20
-1159348.483
  0
LWPOLYLINE
  5
204FD
100
AcDbEntity
  8
0
100
AcDbPolyline
 70
0
 90
2
 10
-598138.82
 20
-1159845.219
 10
-598134.903
 20
-1159844.436
  0
LWPOLYLINE
  5
204FE
100
AcDbEntity
  8
0
100
AcDbPolyline
 70
0
 90
2
 10
-598152.13
 20
-1159850.06
 10
-598148.53
 20
-1159849.11
  0
LWPOLYLINE
  5
204FF
100
AcDbEntity
  8
0
100
AcDbPolyline
 70
0
 90
2
 10
-598353.767
 20
-1160163.549
 10
-598351.244
 20
-1160168.491
  0
LWPOLYLINE
  5
20500
100
AcDbEntity
  8
0
100
AcDbPolyline
 70
0
 90
2
 10
-598364.526
 20
-1160176.126
 10
-598369.807
 20
-1160170.049
  0
LWPOLYLINE
  5
20501
100
AcDbEntity
  8
0
100
AcDbPolyline
 70
0
 90
2
 10
-599174.662
 20
-1160065.939
 10
-599174.935
 20
-1160052.949
  0
LWPOLYLINE
  5
20502
100
AcDbEntity
  8
0
100
AcDbPolyline
 70
0
 90
2
 10
-599013.068
 20
-1158878.695
 10
-599010.725
 20
-1158887.143
  0
LWPOLYLINE
  5
20503
100
AcDbEntity
  8
0
100
AcDbPolyline
 70
0
 90
2
 10
-598693.143
 20
-1159108.541
 10
-598692.071
 20
-1159112.374
  0
LWPOLYLINE
  5
20504
100
AcDbEntity
  8
0
100
AcDbPolyline
 70
0
 90
2
 10
-598650.638
 20
-1159197.816
 10
-598648.699
 20
-1159205.125
  0
LWPOLYLINE
  5
20505
100
AcDbEntity
  8
0
100
AcDbPolyline
 70
0
 90
2
 10
-599170.751
 20
-1159880.506
 10
-599170.922
 20
-1159876.588
  0
LWPOLYLINE
  5
20506
100
AcDbEntity
  8
0
100
AcDbPolyline
 70
0
 90
2
 10
-598648.657
 20
-1159269.62
 10
-598645.477
 20
-1159280.081
  0
LWPOLYLINE
  5
20507
100
AcDbEntity
  8
0
100
AcDbPolyline
 70
0
 90
2
 10
-598275.059
 20
-1159943.8
 10
-598276.872
 20
-1159940.831
  0
LWPOLYLINE
  5
20508
100
AcDbEntity
  8
0
100
AcDbPolyline
 70
0
 90
2
 10
-598334.358
 20
-1160213.742
 10
-598340.305
 20
-1160204.99
  0
LWPOLYLINE
  5
20509
100
AcDbEntity
  8
0
100
AcDbPolyline
 70
0
 90
2
 10
-598450.65
 20
-1160353
 10
-598455.8
 20
-1160350.61
  0
LWPOLYLINE
  5
2050A
100
AcDbEntity
  8
0
100
AcDbPolyline
 70
0
 90
2
 10
-598681.68
 20
-1159746.19
 10
-598679.5
 20
-1159749.58
  0
LWPOLYLINE
  5
2050B
100
AcDbEntity
  8
0
100
AcDbPolyline
 70
0
 90
2
 10
-599097.576
 20
-1159424.053
 10
-599088.773
 20
-1159418.755
  0
LWPOLYLINE
  5
2050C
100
AcDbEntity
  8
0
100
AcDbPolyline
 70
0
 90
2
 10
-598325.022
 20
-1159884.24
 10
-598322.613
 20
-1159882.722
  0
LWPOLYLINE
  5
2050D
100
AcDbEntity
  8
0
100
AcDbPolyline
 70
0
 90
2
 10
-598568.367
 20
-1159486.651
 10
-598566.786
 20
-1159489.984
  0
LWPOLYLINE
  5
2050E
100
AcDbEntity
  8
0
100
AcDbPolyline
 70
0
 90
2
 10
-598500.399
 20
-1159633.525
 10
-598497.398
 20
-1159638.579
  0
LWPOLYLINE
  5
2050F
100
AcDbEntity
  8
0
100
AcDbPolyline
 70
0
 90
2
 10
-598455.039
 20
-1159611.666
 10
-598453.03
 20
-1159617.368
  0
LWPOLYLINE
  5
20510
100
AcDbEntity
  8
0
100
AcDbPolyline
 70
0
 90
2
 10
-598675.28
 20
-1159103.335
 10
-598673.722
 20
-1159109.122
  0
LWPOLYLINE
  5
20511
100
AcDbEntity
  8
0
100
AcDbPolyline
 70
0
 90
2
 10
-598908.014
 20
-1160312.555
 10
-598904.612
 20
-1160313.038
  0
LWPOLYLINE
  5
20512
100
AcDbEntity
  8
0
100
AcDbPolyline
 70
0
 90
2
 10
-598814.043
 20
-1160356.896
 10
-598824.82
 20
-1160350.466
  0
LWPOLYLINE
  5
20513
100
AcDbEntity
  8
0
100
AcDbPolyline
 70
0
 90
2
 10
-598553.721
 20
-1160168.968
 10
-598549.911
 20
-1160172.172
  0
LWPOLYLINE
  5
20514
100
AcDbEntity
  8
0
100
AcDbPolyline
 70
0
 90
2
 10
-599029.48
 20
-1159527.33
 10
-599033.38
 20
-1159533.77
  0
LWPOLYLINE
  5
20515
100
AcDbEntity
  8
0
100
AcDbPolyline
 70
0
 90
2
 10
-598875.838
 20
-1159361.986
 10
-598878.658
 20
-1159354.935
  0
LWPOLYLINE
  5
20516
100
AcDbEntity
  8
0
100
AcDbPolyline
 70
0
 90
2
 10
-599210.392
 20
-1158959.855
 10
-599213.409
 20
-1158949.024
  0
LWPOLYLINE
  5
20517
100
AcDbEntity
  8
0
100
AcDbPolyline
 70
0
 90
2
 10
-599033.845
 20
-1158909.096
 10
-599036.61
 20
-1158899.326
  0
LWPOLYLINE
  5
20518
100
AcDbEntity
  8
0
100
AcDbPolyline
 70
0
 90
2
 10
-599020.42
 20
-1158922.85
 10
-599008.75
 20
-1158919.49
  0
LWPOLYLINE
  5
20519
100
AcDbEntity
  8
0
100
AcDbPolyline
 70
0
 90
2
 10
-598151.678
 20
-1159868.928
 10
-598149.411
 20
-1159879.891
  0
LWPOLYLINE
  5
2051A
100
AcDbEntity
  8
0
100
AcDbPolyline
 70
0
 90
2
 10
-598160.574
 20
-1159791.516
 10
-598149.2
 20
-1159788.37
  0
LWPOLYLINE
  5
2051B
100
AcDbEntity
  8
0
100
AcDbPolyline
 70
0
 90
2
 10
-598174.41
 20
-1159775.244
 10
-598170.44
 20
-1159786.32
  0
LWPOLYLINE
  5
2051C
100
AcDbEntity
  8
0
100
AcDbPolyline
 70
0
 90
2
 10
-598153.723
 20
-1159740.314
 10
-598152.978
 20
-1159745.273
  0
LWPOLYLINE
  5
2051D
100
AcDbEntity
  8
0
100
AcDbPolyline
 70
0
 90
2
 10
-598181.578
 20
-1159732.885
 10
-598165.031
 20
-1159728.515
  0
LWPOLYLINE
  5
2051E
100
AcDbEntity
  8
0
100
AcDbPolyline
 70
0
 90
2
 10
-598237.662
 20
-1159535.101
 10
-598235.2
 20
-1159543.4
  0
LWPOLYLINE
  5
2051F
100
AcDbEntity
  8
0
100
AcDbPolyline
 70
0
 90
2
 10
-598259.276
 20
-1159331.412
 10
-598257.159
 20
-1159339.107
  0
LWPOLYLINE
  5
20520
100
AcDbEntity
  8
0
100
AcDbPolyline
 70
0
 90
2
 10
-598459.1
 20
-1160080.18
 10
-598468.11
 20
-1160088.6
  0
LWPOLYLINE
  5
20521
100
AcDbEntity
  8
0
100
AcDbPolyline
 70
0
 90
2
 10
-598481.212
 20
-1160082.136
 10
-598477.428
 20
-1160086.567
  0
LWPOLYLINE
  5
20522
100
AcDbEntity
  8
0
100
AcDbPolyline
 70
0
 90
2
 10
-598469.105
 20
-1160056.504
 10
-598467.074
 20
-1160059.973
  0
LWPOLYLINE
  5
20523
100
AcDbEntity
  8
0
100
AcDbPolyline
 70
0
 90
2
 10
-598477.525
 20
-1160053.301
 10
-598485.883
 20
-1160058.296
  0
LWPOLYLINE
  5
20524
100
AcDbEntity
  8
0
100
AcDbPolyline
 70
0
 90
2
 10
-598508.95
 20
-1160000.89
 10
-598517.028
 20
-1160005.571
  0
LWPOLYLINE
  5
20525
100
AcDbEntity
  8
0
100
AcDbPolyline
 70
0
 90
2
 10
-598526.795
 20
-1159996.111
 10
-598521.477
 20
-1160004.529
  0
LWPOLYLINE
  5
20526
100
AcDbEntity
  8
0
100
AcDbPolyline
 70
0
 90
2
 10
-598513.595
 20
-1159987.426
 10
-598508.774
 20
-1159995.231
  0
LWPOLYLINE
  5
20527
100
AcDbEntity
  8
0
100
AcDbPolyline
 70
0
 90
2
 10
-598518.737
 20
-1159984.779
 10
-598527.121
 20
-1159989.979
  0
LWPOLYLINE
  5
20528
100
AcDbEntity
  8
0
100
AcDbPolyline
 70
0
 90
2
 10
-598561.8
 20
-1159914.231
 10
-598569.624
 20
-1159918.817
  0
LWPOLYLINE
  5
20529
100
AcDbEntity
  8
0
100
AcDbPolyline
 70
0
 90
2
 10
-598671.703
 20
-1159732.111
 10
-598679.166
 20
-1159737.005
  0
LWPOLYLINE
  5
2052A
100
AcDbEntity
  8
0
100
AcDbPolyline
 70
0
 90
2
 10
-598749.731
 20
-1159595.993
 10
-598747.896
 20
-1159599.235
  0
LWPOLYLINE
  5
2052B
100
AcDbEntity
  8
0
100
AcDbPolyline
 70
0
 90
2
 10
-599177.168
 20
-1160190.561
 10
-599176.321
 20
-1160199.507
  0
LWPOLYLINE
  5
2052C
100
AcDbEntity
  8
0
100
AcDbPolyline
 70
0
 90
2
 10
-599193.375
 20
-1160056.828
 10
-599192.828
 20
-1160066.443
  0
LWPOLYLINE
  5
2052D
100
AcDbEntity
  8
0
100
AcDbPolyline
 70
0
 90
2
 10
-599974.972
 20
-1159717.207
 10
-599982.732
 20
-1159721.463
  0
LWPOLYLINE
  5
2052E
100
AcDbEntity
  8
0
100
AcDbPolyline
 70
0
 90
2
 10
-599166.857
 20
-1160265.082
 10
-599155.876
 20
-1160264.291
  0
LWPOLYLINE
  5
2052F
100
AcDbEntity
  8
0
100
AcDbPolyline
 70
0
 90
2
 10
-599178.12
 20
-1160282.38
 10
-599179.47
 20
-1160295.42
  0
LWPOLYLINE
  5
20530
100
AcDbEntity
  8
0
100
AcDbPolyline
 70
0
 90
2
 10
-598419.173
 20
-1160339.455
 10
-598426.539
 20
-1160345.257
  0
LWPOLYLINE
  5
20531
100
AcDbEntity
  8
0
100
AcDbPolyline
 70
0
 90
2
 10
-598437.408
 20
-1160350.676
 10
-598432.04
 20
-1160347.344
  0
LWPOLYLINE
  5
20532
100
AcDbEntity
  8
0
100
AcDbPolyline
 70
0
 90
2
 10
-598545.8
 20
-1160188.71
 10
-598554.96
 20
-1160196.41
  0
LWPOLYLINE
  5
20533
100
AcDbEntity
  8
0
100
AcDbPolyline
 70
0
 90
2
 10
-598614.271
 20
-1160133.556
 10
-598610.232
 20
-1160138.337
  0
LWPOLYLINE
  5
20534
100
AcDbEntity
  8
0
100
AcDbPolyline
 70
0
 90
2
 10
-598636.626
 20
-1160070.445
 10
-598634.297
 20
-1160073.798
  0
LWPOLYLINE
  5
20535
100
AcDbEntity
  8
0
100
AcDbPolyline
 70
0
 90
2
 10
-598711.945
 20
-1160011.688
 10
-598708.462
 20
-1160016.474
  0
LWPOLYLINE
  5
20536
100
AcDbEntity
  8
0
100
AcDbPolyline
 70
0
 90
2
 10
-598686.42
 20
-1160013.5
 10
-598697.53
 20
-1160021.96
  0
LWPOLYLINE
  5
20537
100
AcDbEntity
  8
0
100
AcDbPolyline
 70
0
 90
2
 10
-598690.416
 20
-1160000.722
 10
-598688.128
 20
-1160004.11
  0
LWPOLYLINE
  5
20538
100
AcDbEntity
  8
0
100
AcDbPolyline
 70
0
 90
2
 10
-598708.204
 20
-1160001.657
 10
-598700.816
 20
-1159996.959
  0
LWPOLYLINE
  5
20539
100
AcDbEntity
  8
0
100
AcDbPolyline
 70
0
 90
2
 10
-598820.955
 20
-1159834.393
 10
-598817.344
 20
-1159840.287
  0
LWPOLYLINE
  5
2053A
100
AcDbEntity
  8
0
100
AcDbPolyline
 70
0
 90
2
 10
-598798.15
 20
-1159838.9
 10
-598809.32
 20
-1159845.64
  0
LWPOLYLINE
  5
2053B
100
AcDbEntity
  8
0
100
AcDbPolyline
 70
0
 90
2
 10
-598803.03
 20
-1159821.09
 10
-598800.73
 20
-1159824.4
  0
LWPOLYLINE
  5
2053C
100
AcDbEntity
  8
0
100
AcDbPolyline
 70
0
 90
2
 10
-598964.689
 20
-1159635.059
 10
-598959.41
 20
-1159642.812
  0
LWPOLYLINE
  5
2053D
100
AcDbEntity
  8
0
100
AcDbPolyline
 70
0
 90
2
 10
-598947.174
 20
-1159170.523
 10
-598939.354
 20
-1159168.429
  0
LWPOLYLINE
  5
2053E
100
AcDbEntity
  8
0
100
AcDbPolyline
 70
0
 90
2
 10
-598930.185
 20
-1159175.359
 10
-598928.983
 20
-1159179.825
  0
LWPOLYLINE
  5
2053F
100
AcDbEntity
  8
0
100
AcDbPolyline
 70
0
 90
2
 10
-598958.715
 20
-1159179.77
 10
-598956.393
 20
-1159188.116
  0
LWPOLYLINE
  5
20540
100
AcDbEntity
  8
0
100
AcDbPolyline
 70
0
 90
2
 10
-598906.313
 20
-1159343.797
 10
-598892.403
 20
-1159339.655
  0
LWPOLYLINE
  5
20541
100
AcDbEntity
  8
0
100
AcDbPolyline
 70
0
 90
2
 10
-599180.424
 20
-1159252.73
 10
-599175.866
 20
-1159260.457
  0
LWPOLYLINE
  5
20542
100
AcDbEntity
  8
0
100
AcDbPolyline
 70
0
 90
2
 10
-599194.922
 20
-1159262.41
 10
-599190.016
 20
-1159271.216
  0
LWPOLYLINE
  5
20543
100
AcDbEntity
  8
0
100
AcDbPolyline
 70
0
 90
2
 10
-599184.791
 20
-1159250.354
 10
-599194.7
 20
-1159256.361
  0
LWPOLYLINE
  5
20544
100
AcDbEntity
  8
0
100
AcDbPolyline
 70
0
 90
2
 10
-599093.14
 20
-1159438.07
 10
-599090.14
 20
-1159443.27
  0
LWPOLYLINE
  5
20545
100
AcDbEntity
  8
0
100
AcDbPolyline
 70
0
 90
2
 10
-599070.23
 20
-1159436.24
 10
-599084.94
 20
-1159444.78
  0
LWPOLYLINE
  5
20546
100
AcDbEntity
  8
0
100
AcDbPolyline
 70
0
 90
2
 10
-598879.857
 20
-1159371.897
 10
-598889.149
 20
-1159377.128
  0
LWPOLYLINE
  5
20547
100
AcDbEntity
  8
0
100
AcDbPolyline
 70
0
 90
2
 10
-598913.148
 20
-1159373.694
 10
-598904.119
 20
-1159380.301
  0
LWPOLYLINE
  5
20548
100
AcDbEntity
  8
0
100
AcDbPolyline
 70
0
 90
2
 10
-599014.45
 20
-1159511.641
 10
-599007.724
 20
-1159522.421
  0
LWPOLYLINE
  5
20549
100
AcDbEntity
  8
0
100
AcDbPolyline
 70
0
 90
2
 10
-599030.005
 20
-1159527.944
 10
-599021.666
 20
-1159515.125
  0
LWPOLYLINE
  5
2054A
100
AcDbEntity
  8
0
100
AcDbPolyline
 70
0
 90
2
 10
-599033.13
 20
-1159542.46
 10
-599024.87
 20
-1159552.17
  0
LWPOLYLINE
  5
2054B
100
AcDbEntity
  8
0
100
AcDbPolyline
 70
0
 90
2
 10
-599066.861
 20
-1159588.947
 10
-599055.213
 20
-1159597.108
  0
LWPOLYLINE
  5
2054C
100
AcDbEntity
  8
0
100
AcDbPolyline
 70
0
 90
2
 10
-599079.743
 20
-1159594.949
 10
-599081.686
 20
-1159598.207
  0
LWPOLYLINE
  5
2054D
100
AcDbEntity
  8
0
100
AcDbPolyline
 70
0
 90
2
 10
-599048.359
 20
-1159602.75
 10
-599048
 20
-1159612.56
  0
LWPOLYLINE
  5
2054E
100
AcDbEntity
  8
0
100
AcDbPolyline
 70
0
 90
2
 10
-598975.25
 20
-1159584.36
 10
-598989.86
 20
-1159594.88
  0
LWPOLYLINE
  5
2054F
100
AcDbEntity
  8
0
100
AcDbPolyline
 70
0
 90
2
 10
-598991.741
 20
-1159600.31
 10
-598986.266
 20
-1159610.324
  0
LWPOLYLINE
  5
20550
100
AcDbEntity
  8
0
100
AcDbPolyline
 70
0
 90
2
 10
-598974.528
 20
-1159619.514
 10
-598969.852
 20
-1159615.999
  0
LWPOLYLINE
  5
20551
100
AcDbEntity
  8
0
100
AcDbPolyline
 70
0
 90
2
 10
-598967.31
 20
-1159587.31
 10
-598960.69
 20
-1159598.45
  0
LWPOLYLINE
  5
20552
100
AcDbEntity
  8
0
100
AcDbPolyline
 70
0
 90
2
 10
-598811.606
 20
-1159518.58
 10
-598803.565
 20
-1159514.01
  0
LWPOLYLINE
  5
20553
100
AcDbEntity
  8
0
100
AcDbPolyline
 70
0
 90
2
 10
-598814.139
 20
-1159491.023
 10
-598822.94
 20
-1159495.632
  0
LWPOLYLINE
  5
20554
100
AcDbEntity
  8
0
100
AcDbPolyline
 70
0
 90
2
 10
-598805.89
 20
-1159492.258
 10
-598799.955
 20
-1159503.891
  0
LWPOLYLINE
  5
20555
100
AcDbEntity
  8
0
100
AcDbPolyline
 70
0
 90
2
 10
-598363.671
 20
-1159035.789
 10
-598358.574
 20
-1159034.408
  0
LWPOLYLINE
  5
20556
100
AcDbEntity
  8
0
100
AcDbPolyline
 70
0
 90
2
 10
-598688.034
 20
-1159459.724
 10
-598683.337
 20
-1159457.171
  0
LWPOLYLINE
  5
20557
100
AcDbEntity
  8
0
100
AcDbPolyline
 70
0
 90
2
 10
-598693.814
 20
-1159437.326
 10
-598696.596
 20
-1159439.181
  0
LWPOLYLINE
  5
20558
100
AcDbEntity
  8
0
100
AcDbPolyline
 70
0
 90
2
 10
-598685.166
 20
-1159439.038
 10
-598680.067
 20
-1159450.993
  0
LWPOLYLINE
  5
20559
100
AcDbEntity
  8
0
100
AcDbPolyline
 70
0
 90
2
 10
-598590.651
 20
-1159416.959
 10
-598586.118
 20
-1159414.961
  0
LWPOLYLINE
  5
2055A
100
AcDbEntity
  8
0
100
AcDbPolyline
 70
0
 90
2
 10
-598585.203
 20
-1159398.482
 10
-598581.365
 20
-1159411.007
  0
LWPOLYLINE
  5
2055B
100
AcDbEntity
  8
0
100
AcDbPolyline
 70
0
 90
2
 10
-598593.422
 20
-1159396.369
 10
-598597.331
 20
-1159397.677
  0
LWPOLYLINE
  5
2055C
100
AcDbEntity
  8
0
100
AcDbPolyline
 70
0
 90
2
 10
-598472.135
 20
-1159387.635
 10
-598466.363
 20
-1159386.266
  0
LWPOLYLINE
  5
2055D
100
AcDbEntity
  8
0
100
AcDbPolyline
 70
0
 90
2
 10
-598466.755
 20
-1159369.19
 10
-598463.57
 20
-1159381.807
  0
LWPOLYLINE
  5
2055E
100
AcDbEntity
  8
0
100
AcDbPolyline
 70
0
 90
2
 10
-598477.285
 20
-1159366.106
 10
-598471.228
 20
-1159364.708
  0
LWPOLYLINE
  5
2055F
100
AcDbEntity
  8
0
100
AcDbPolyline
 70
0
 90
2
 10
-598310.1
 20
-1159155.187
 10
-598308.592
 20
-1159159.861
  0
LWPOLYLINE
  5
20560
100
AcDbEntity
  8
0
100
AcDbPolyline
 70
0
 90
2
 10
-598349.558
 20
-1159116.38
 10
-598348.091
 20
-1159122.212
  0
LWPOLYLINE
  5
20561
100
AcDbEntity
  8
0
100
AcDbPolyline
 70
0
 90
2
 10
-598278.721
 20
-1159313.623
 10
-598272.46
 20
-1159312.01
  0
LWPOLYLINE
  5
20562
100
AcDbEntity
  8
0
100
AcDbPolyline
 70
0
 90
2
 10
-598295.48
 20
-1159318.18
 10
-598286.94
 20
-1159315.93
  0
LWPOLYLINE
  5
20563
100
AcDbEntity
  8
0
100
AcDbPolyline
 70
0
 90
2
 10
-598294.873
 20
-1159336.803
 10
-598292.997
 20
-1159344.485
  0
LWPOLYLINE
  5
20564
100
AcDbEntity
  8
0
100
AcDbPolyline
 70
0
 90
2
 10
-598296.928
 20
-1159328.722
 10
-598295.397
 20
-1159334.434
  0
LWPOLYLINE
  5
20565
100
AcDbEntity
  8
0
100
AcDbPolyline
 70
0
 90
2
 10
-598265.696
 20
-1159350.198
 10
-598259.345
 20
-1159348.558
  0
LWPOLYLINE
  5
20566
100
AcDbEntity
  8
0
100
AcDbPolyline
 70
0
 90
2
 10
-598279.698
 20
-1159353.924
 10
-598275.011
 20
-1159352.696
  0
LWPOLYLINE
  5
20567
100
AcDbEntity
  8
0
100
AcDbPolyline
 70
0
 90
2
 10
-599522.178
 20
-1158904.353
 10
-599517.172
 20
-1158894.027
  0
LWPOLYLINE
  5
20568
100
AcDbEntity
  8
0
100
AcDbPolyline
 70
0
 90
2
 10
-600707.848
 20
-1158296.998
 10
-600696.947
 20
-1158300.625
  0
LWPOLYLINE
  5
20569
100
AcDbEntity
  8
0
100
AcDbPolyline
 70
0
 90
2
 10
-600773.394
 20
-1158449.518
 10
-600777.872
 20
-1158459.537
  0
LWPOLYLINE
  5
2056A
100
AcDbEntity
  8
0
100
AcDbPolyline
 70
0
 90
2
 10
-600303.599
 20
-1159214.08
 10
-600308.25
 20
-1159212.09
  0
LWPOLYLINE
  5
2056B
100
AcDbEntity
  8
0
100
AcDbPolyline
 70
0
 90
2
 10
-599574.86
 20
-1159020.44
 10
-599571.665
 20
-1159014.076
  0
LWPOLYLINE
  5
2056C
100
AcDbEntity
  8
0
100
AcDbPolyline
 70
0
 90
2
 10
-599557.71
 20
-1159016.2
 10
-599565.866
 20
-1159011.722
  0
LWPOLYLINE
  5
2056D
100
AcDbEntity
  8
0
100
AcDbPolyline
 70
0
 90
2
 10
-600156.099
 20
-1157989.602
 10
-600156.383
 20
-1157992.631
  0
LWPOLYLINE
  5
2056E
100
AcDbEntity
  8
0
100
AcDbPolyline
 70
0
 90
2
 10
-600428.374
 20
-1157761.49
 10
-600425.014
 20
-1157770.689
  0
LWPOLYLINE
  5
2056F
100
AcDbEntity
  8
0
100
AcDbPolyline
 70
0
 90
2
 10
-600386.252
 20
-1157898.173
 10
-600379.253
 20
-1157894.754
  0
LWPOLYLINE
  5
20570
100
AcDbEntity
  8
0
100
AcDbPolyline
 70
0
 90
2
 10
-601633.491
 20
-1158685.909
 10
-601641.294
 20
-1158679.577
  0
LWPOLYLINE
  5
20571
100
AcDbEntity
  8
0
100
AcDbPolyline
 70
0
 90
2
 10
-600980.95
 20
-1158142.492
 10
-600976.697
 20
-1158149.492
  0
LWPOLYLINE
  5
20572
100
AcDbEntity
  8
0
100
AcDbPolyline
 70
0
 90
2
 10
-600424.13
 20
-1159091.5
 10
-600421.035
 20
-1159094.306
  0
LWPOLYLINE
  5
20573
100
AcDbEntity
  8
0
100
AcDbPolyline
 70
0
 90
2
 10
-600409.93
 20
-1159077.31
 10
-600406.02
 20
-1159081.51
  0
LWPOLYLINE
  5
20574
100
AcDbEntity
  8
0
100
AcDbPolyline
 70
0
 90
2
 10
-600417.932
 20
-1158670.599
 10
-600413.932
 20
-1158666.087
  0
LWPOLYLINE
  5
20575
100
AcDbEntity
  8
0
100
AcDbPolyline
 70
0
 90
2
 10
-600006.686
 20
-1158389.514
 10
-600009.982
 20
-1158394.177
  0
LWPOLYLINE
  5
20576
100
AcDbEntity
  8
0
100
AcDbPolyline
 70
0
 90
2
 10
-600292.666
 20
-1158221.953
 10
-600289.08
 20
-1158224.055
  0
LWPOLYLINE
  5
20577
100
AcDbEntity
  8
0
100
AcDbPolyline
 70
0
 90
2
 10
-600155.819
 20
-1157987.504
 10
-600155.547
 20
-1157984.46
  0
LWPOLYLINE
  5
20578
100
AcDbEntity
  8
0
100
AcDbPolyline
 70
0
 90
2
 10
-600293.673
 20
-1157956.6
 10
-600298.284
 20
-1157963.156
  0
LWPOLYLINE
  5
20579
100
AcDbEntity
  8
0
100
AcDbPolyline
 70
0
 90
2
 10
-600367.221
 20
-1157923.143
 10
-600358.506
 20
-1157916.337
  0
LWPOLYLINE
  5
2057A
100
AcDbEntity
  8
0
100
AcDbPolyline
 70
0
 90
2
 10
-600266.2
 20
-1157709.67
 10
-600264.75
 20
-1157715.33
  0
LWPOLYLINE
  5
2057B
100
AcDbEntity
  8
0
100
AcDbPolyline
 70
0
 90
2
 10
-599956.006
 20
-1159470.806
 10
-599953.068
 20
-1159471.687
  0
LWPOLYLINE
  5
2057C
100
AcDbEntity
  8
0
100
AcDbPolyline
 70
0
 90
2
 10
-599838.702
 20
-1158892.124
 10
-599841.334
 20
-1158897.504
  0
LWPOLYLINE
  5
2057D
100
AcDbEntity
  8
0
100
AcDbPolyline
 70
0
 90
2
 10
-599830.921
 20
-1158893.616
 10
-599827.321
 20
-1158895.183
  0
LWPOLYLINE
  5
2057E
100
AcDbEntity
  8
0
100
AcDbPolyline
 70
0
 90
2
 10
-599866.06
 20
-1158479.42
 10
-599869.33
 20
-1158484.58
  0
LWPOLYLINE
  5
2057F
100
AcDbEntity
  8
0
100
AcDbPolyline
 70
0
 90
2
 10
-600006.66
 20
-1158411.536
 10
-599999.717
 20
-1158415.667
  0
LWPOLYLINE
  5
20580
100
AcDbEntity
  8
0
100
AcDbPolyline
 70
0
 90
2
 10
-599859.53
 20
-1157551.048
 10
-599854.509
 20
-1157534.767
  0
LWPOLYLINE
  5
20581
100
AcDbEntity
  8
0
100
AcDbPolyline
 70
0
 90
2
 10
-599921.14
 20
-1157804.14
 10
-599912.44
 20
-1157801.58
  0
LWPOLYLINE
  5
20582
100
AcDbEntity
  8
0
100
AcDbPolyline
 70
0
 90
2
 10
-599514.447
 20
-1158913.473
 10
-599504.613
 20
-1158918.041
  0
LWPOLYLINE
  5
20583
100
AcDbEntity
  8
0
100
AcDbPolyline
 70
0
 90
2
 10
-599573.688
 20
-1158690.314
 10
-599570.516
 20
-1158692.43
  0
LWPOLYLINE
  5
20584
100
AcDbEntity
  8
0
100
AcDbPolyline
 70
0
 90
2
 10
-599654.125
 20
-1158617.719
 10
-599659.25
 20
-1158625.39
  0
LWPOLYLINE
  5
20585
100
AcDbEntity
  8
0
100
AcDbPolyline
 70
0
 90
2
 10
-599798.039
 20
-1158523.155
 10
-599802.348
 20
-1158529.459
  0
LWPOLYLINE
  5
20586
100
AcDbEntity
  8
0
100
AcDbPolyline
 70
0
 90
2
 10
-599798.001
 20
-1158535.737
 10
-599790.769
 20
-1158540.514
  0
LWPOLYLINE
  5
20587
100
AcDbEntity
  8
0
100
AcDbPolyline
 70
0
 90
2
 10
-599777.681
 20
-1158536.315
 10
-599782.6
 20
-1158543.46
  0
LWPOLYLINE
  5
20588
100
AcDbEntity
  8
0
100
AcDbPolyline
 70
0
 90
2
 10
-599782.285
 20
-1158527.259
 10
-599788.57
 20
-1158523.344
  0
LWPOLYLINE
  5
20589
100
AcDbEntity
  8
0
100
AcDbPolyline
 70
0
 90
2
 10
-599181.442
 20
-1158639.582
 10
-599179.13
 20
-1158647.102
  0
LWPOLYLINE
  5
2058A
100
AcDbEntity
  8
0
100
AcDbPolyline
 70
0
 90
2
 10
-601466.634
 20
-1158513.029
 10
-601469.631
 20
-1158529.231
  0
LWPOLYLINE
  5
2058B
100
AcDbEntity
  8
0
100
AcDbPolyline
 70
0
 90
2
 10
-600772.909
 20
-1158268.03
 10
-600761.111
 20
-1158279.759
  0
LWPOLYLINE
  5
2058C
100
AcDbEntity
  8
0
100
AcDbPolyline
 70
0
 90
2
 10
-600673.062
 20
-1158287.247
 10
-600676.491
 20
-1158297.642
  0
LWPOLYLINE
  5
2058D
100
AcDbEntity
  8
0
100
AcDbPolyline
 70
0
 90
2
 10
-600696.396
 20
-1158270.365
 10
-600685.524
 20
-1158274.705
  0
LWPOLYLINE
  5
2058E
100
AcDbEntity
  8
0
100
AcDbPolyline
 70
0
 90
2
 10
-600543.827
 20
-1158057.253
 10
-600538.263
 20
-1158061.68
  0
LWPOLYLINE
  5
2058F
100
AcDbEntity
  8
0
100
AcDbPolyline
 70
0
 90
2
 10
-600523.57
 20
-1158052.458
 10
-600528.033
 20
-1158057.26
  0
LWPOLYLINE
  5
20590
100
AcDbEntity
  8
0
100
AcDbPolyline
 70
0
 90
2
 10
-600538.345
 20
-1158045
 10
-600540.88
 20
-1158048.091
  0
LWPOLYLINE
  5
20591
100
AcDbEntity
  8
0
100
AcDbPolyline
 70
0
 90
2
 10
-600428.987
 20
-1157951.833
 10
-600424.242
 20
-1157957.316
  0
LWPOLYLINE
  5
20592
100
AcDbEntity
  8
0
100
AcDbPolyline
 70
0
 90
2
 10
-600421.935
 20
-1157927.332
 10
-600425.764
 20
-1157936.562
  0
LWPOLYLINE
  5
20593
100
AcDbEntity
  8
0
100
AcDbPolyline
 70
0
 90
2
 10
-600614.967
 20
-1157978.989
 10
-600612.663
 20
-1157987.647
  0
LWPOLYLINE
  5
20594
100
AcDbEntity
  8
0
100
AcDbPolyline
 70
0
 90
2
 10
-600614.696
 20
-1157991.331
 10
-600623.797
 20
-1157995.092
  0
LWPOLYLINE
  5
20595
100
AcDbEntity
  8
0
100
AcDbPolyline
 70
0
 90
2
 10
-600706.362
 20
-1158000.005
 10
-600715.297
 20
-1158002.173
  0
LWPOLYLINE
  5
20596
100
AcDbEntity
  8
0
100
AcDbPolyline
 70
0
 90
2
 10
-600727.594
 20
-1158010.636
 10
-600725.27
 20
-1158018.348
  0
LWPOLYLINE
  5
20597
100
AcDbEntity
  8
0
100
AcDbPolyline
 70
0
 90
2
 10
-599794.968
 20
-1158818.345
 10
-599789.719
 20
-1158821.085
  0
LWPOLYLINE
  5
20598
100
AcDbEntity
  8
0
100
AcDbPolyline
 70
0
 90
2
 10
-599801.385
 20
-1158818.379
 10
-599804.017
 20
-1158823.392
  0
LWPOLYLINE
  5
20599
100
AcDbEntity
  8
0
100
AcDbPolyline
 70
0
 90
2
 10
-599032.075
 20
-1158880.333
 10
-599018.645
 20
-1158876.545
  0
LWPOLYLINE
  5
2059A
100
AcDbEntity
  8
0
100
AcDbPolyline
 70
0
 90
2
 10
-599035.748
 20
-1158782.881
 10
-599034.633
 20
-1158786.753
  0
LWPOLYLINE
  5
2059B
100
AcDbEntity
  8
0
100
AcDbPolyline
 70
0
 90
2
 10
-599047.869
 20
-1158780.978
 10
-599052.334
 20
-1158782.19
  0
LWPOLYLINE
  5
2059C
100
AcDbEntity
  8
0
100
AcDbPolyline
 70
0
 90
2
 10
-599065.695
 20
-1158792.464
 10
-599064.712
 20
-1158795.892
  0
LWPOLYLINE
  5
2059D
100
AcDbEntity
  8
0
100
AcDbPolyline
 70
0
 90
2
 10
-599057.872
 20
-1158704.347
 10
-599056.315
 20
-1158709.685
  0
LWPOLYLINE
  5
2059E
100
AcDbEntity
  8
0
100
AcDbPolyline
 70
0
 90
2
 10
-599083.51
 20
-1158612.5
 10
-599081.03
 20
-1158621.06
  0
LWPOLYLINE
  5
2059F
100
AcDbEntity
  8
0
100
AcDbPolyline
 70
0
 90
2
 10
-599087.456
 20
-1158636.854
 10
-599100.851
 20
-1158640.732
  0
LWPOLYLINE
  5
205A0
100
AcDbEntity
  8
0
100
AcDbPolyline
 70
0
 90
2
 10
-599184.105
 20
-1158573.91
 10
-599197.844
 20
-1158578.64
  0
LWPOLYLINE
  5
205A1
100
AcDbEntity
  8
0
100
AcDbPolyline
 70
0
 90
2
 10
-599662.201
 20
-1158816.973
 10
-599659.684
 20
-1158818.635
  0
LWPOLYLINE
  5
205A2
100
AcDbEntity
  8
0
100
AcDbPolyline
 70
0
 90
2
 10
-599504.296
 20
-1158889.003
 10
-599494.483
 20
-1158894.273
  0
LWPOLYLINE
  5
205A3
100
AcDbEntity
  8
0
100
AcDbPolyline
 70
0
 90
2
 10
-599488.485
 20
-1158902.5
 10
-599491.067
 20
-1158908.892
  0
LWPOLYLINE
  5
205A4
100
AcDbEntity
  8
0
100
AcDbPolyline
 70
0
 90
2
 10
-600364.475
 20
-1157894.397
 10
-600356.496
 20
-1157904.032
  0
LWPOLYLINE
  5
205A5
100
AcDbEntity
  8
0
100
AcDbPolyline
 70
0
 90
2
 10
-599919.006
 20
-1157830.091
 10
-599909.403
 20
-1157828.472
  0
LWPOLYLINE
  5
205A6
100
AcDbEntity
  8
0
100
AcDbPolyline
 70
0
 90
2
 10
-599926.382
 20
-1157810.947
 10
-599923.719
 20
-1157823.87
  0
LWPOLYLINE
  5
205A7
100
AcDbEntity
  8
0
100
AcDbPolyline
 70
0
 90
2
 10
-599348.88
 20
-1158675.118
 10
-599343.637
 20
-1158678.028
  0
LWPOLYLINE
  5
205A8
100
AcDbEntity
  8
0
100
AcDbPolyline
 70
0
 90
2
 10
-599334.665
 20
-1158680.448
 10
-599331.104
 20
-1158689.817
  0
LWPOLYLINE
  5
205A9
100
AcDbEntity
  8
0
100
AcDbPolyline
 70
0
 90
2
 10
-599340.315
 20
-1158999.528
 10
-599348.542
 20
-1159007.155
  0
LWPOLYLINE
  5
205AA
100
AcDbEntity
  8
0
100
AcDbPolyline
 70
0
 90
2
 10
-599318.09
 20
-1158697.635
 10
-599300.87
 20
-1158692.125
  0
LWPOLYLINE
  5
205AB
100
AcDbEntity
  8
0
100
AcDbPolyline
 70
0
 90
2
 10
-599243
 20
-1158944.69
 10
-599226.24
 20
-1158940.276
  0
LWPOLYLINE
  5
205AC
100
AcDbEntity
  8
0
100
AcDbPolyline
 70
0
 90
2
 10
-599333.974
 20
-1159000.319
 10
-599326.714
 20
-1159008.704
  0
LWPOLYLINE
  5
205AD
100
AcDbEntity
  8
0
100
AcDbPolyline
 70
0
 90
2
 10
-596327.24
 20
-1160426.16
 10
-596321.85
 20
-1160433.35
  0
LWPOLYLINE
  5
205AE
100
AcDbEntity
  8
0
100
AcDbPolyline
 70
0
 90
2
 10
-597269.88
 20
-1159961.982
 10
-597270.975
 20
-1159958.841
  0
LWPOLYLINE
  5
205AF
100
AcDbEntity
  8
0
100
AcDbPolyline
 70
0
 90
2
 10
-597588.165
 20
-1160515.767
 10
-597579.778
 20
-1160511.728
  0
LWPOLYLINE
  5
205B0
100
AcDbEntity
  8
0
100
AcDbPolyline
 70
0
 90
2
 10
-596537.985
 20
-1160076.694
 10
-596542.541
 20
-1160072.324
  0
LWPOLYLINE
  5
205B1
100
AcDbEntity
  8
0
100
AcDbPolyline
 70
0
 90
2
 10
-596834.345
 20
-1159671.031
 10
-596827.923
 20
-1159670.291
  0
LWPOLYLINE
  5
205B2
100
AcDbEntity
  8
0
100
AcDbPolyline
 70
0
 90
2
 10
-596749.008
 20
-1160071.815
 10
-596744.93
 20
-1160072.502
  0
LWPOLYLINE
  5
205B3
100
AcDbEntity
  8
0
100
AcDbPolyline
 70
0
 90
2
 10
-596395.18
 20
-1160495.11
 10
-596403.45
 20
-1160498.71
  0
LWPOLYLINE
  5
205B4
100
AcDbEntity
  8
0
100
AcDbPolyline
 70
0
 90
2
 10
-596349.66
 20
-1160629.66
 10
-596357.39
 20
-1160632.6
  0
LWPOLYLINE
  5
205B5
100
AcDbEntity
  8
0
100
AcDbPolyline
 70
0
 90
2
 10
-596804.04
 20
-1160381.58
 10
-596796.741
 20
-1160384.49
  0
LWPOLYLINE
  5
205B6
100
AcDbEntity
  8
0
100
AcDbPolyline
 70
0
 90
2
 10
-596819.096
 20
-1160375.073
 10
-596813.839
 20
-1160377.446
  0
LWPOLYLINE
  5
205B7
100
AcDbEntity
  8
0
100
AcDbPolyline
 70
0
 90
2
 10
-596167.271
 20
-1160265.986
 10
-596168.771
 20
-1160270.313
  0
LWPOLYLINE
  5
205B8
100
AcDbEntity
  8
0
100
AcDbPolyline
 70
0
 90
2
 10
-596180.42
 20
-1160283.83
 10
-596177.43
 20
-1160279.53
  0
LWPOLYLINE
  5
205B9
100
AcDbEntity
  8
0
100
AcDbPolyline
 70
0
 90
2
 10
-596392.41
 20
-1160386.63
 10
-596385.19
 20
-1160388.54
  0
LWPOLYLINE
  5
205BA
100
AcDbEntity
  8
0
100
AcDbPolyline
 70
0
 90
2
 10
-597016.169
 20
-1159866.965
 10
-597022.698
 20
-1159869.457
  0
LWPOLYLINE
  5
205BB
100
AcDbEntity
  8
0
100
AcDbPolyline
 70
0
 90
2
 10
-597533.708
 20
-1160677.407
 10
-597527.966
 20
-1160672.158
  0
LWPOLYLINE
  5
205BC
100
AcDbEntity
  8
0
100
AcDbPolyline
 70
0
 90
2
 10
-597584.15
 20
-1160700.091
 10
-597582.62
 20
-1160703.62
  0
LWPOLYLINE
  5
205BD
100
AcDbEntity
  8
0
100
AcDbPolyline
 70
0
 90
2
 10
-597577.621
 20
-1160709.487
 10
-597573.31
 20
-1160710.21
  0
LWPOLYLINE
  5
205BE
100
AcDbEntity
  8
0
100
AcDbPolyline
 70
0
 90
2
 10
-597341.177
 20
-1160519.281
 10
-597337.267
 20
-1160517.478
  0
LWPOLYLINE
  5
205BF
100
AcDbEntity
  8
0
100
AcDbPolyline
 70
0
 90
2
 10
-597094.805
 20
-1160450.471
 10
-597089.031
 20
-1160449.607
  0
LWPOLYLINE
  5
205C0
100
AcDbEntity
  8
0
100
AcDbPolyline
 70
0
 90
2
 10
-597051.099
 20
-1160458.556
 10
-597047.627
 20
-1160457.637
  0
LWPOLYLINE
  5
205C1
100
AcDbEntity
  8
0
100
AcDbPolyline
 70
0
 90
2
 10
-596961.292
 20
-1160439.004
 10
-596955.615
 20
-1160437.894
  0
LWPOLYLINE
  5
205C2
100
AcDbEntity
  8
0
100
AcDbPolyline
 70
0
 90
2
 10
-597002.385
 20
-1160448.07
 10
-597013.081
 20
-1160450.142
  0
LWPOLYLINE
  5
205C3
100
AcDbEntity
  8
0
100
AcDbPolyline
 70
0
 90
2
 10
-596803.493
 20
-1160401.922
 10
-596795.951
 20
-1160394.442
  0
LWPOLYLINE
  5
205C4
100
AcDbEntity
  8
0
100
AcDbPolyline
 70
0
 90
2
 10
-596794.363
 20
-1160286.712
 10
-596793.35
 20
-1160279.905
  0
LWPOLYLINE
  5
205C5
100
AcDbEntity
  8
0
100
AcDbPolyline
 70
0
 90
2
 10
-597681.54
 20
-1160455.09
 10
-597683.55
 20
-1160446.21
  0
LWPOLYLINE
  5
205C6
100
AcDbEntity
  8
0
100
AcDbPolyline
 70
0
 90
2
 10
-597610.838
 20
-1160443.107
 10
-597603.107
 20
-1160441.246
  0
LWPOLYLINE
  5
205C7
100
AcDbEntity
  8
0
100
AcDbPolyline
 70
0
 90
2
 10
-597600.527
 20
-1160428.578
 10
-597598.754
 20
-1160436.419
  0
LWPOLYLINE
  5
205C8
100
AcDbEntity
  8
0
100
AcDbPolyline
 70
0
 90
2
 10
-597613.016
 20
-1160426.855
 10
-597605.111
 20
-1160425.253
  0
LWPOLYLINE
  5
205C9
100
AcDbEntity
  8
0
100
AcDbPolyline
 70
0
 90
2
 10
-597528.843
 20
-1160110.606
 10
-597526.45
 20
-1160105.303
  0
LWPOLYLINE
  5
205CA
100
AcDbEntity
  8
0
100
AcDbPolyline
 70
0
 90
2
 10
-597538.822
 20
-1160110.656
 10
-597542.154
 20
-1160110.266
  0
LWPOLYLINE
  5
205CB
100
AcDbEntity
  8
0
100
AcDbPolyline
 70
0
 90
2
 10
-596900.87
 20
-1159873.58
 10
-596897.341
 20
-1159871.851
  0
LWPOLYLINE
  5
205CC
100
AcDbEntity
  8
0
100
AcDbPolyline
 70
0
 90
2
 10
-596947.22
 20
-1159844.648
 10
-596941.77
 20
-1159859.87
  0
LWPOLYLINE
  5
205CD
100
AcDbEntity
  8
0
100
AcDbPolyline
 70
0
 90
2
 10
-597110.285
 20
-1159900.648
 10
-597117.063
 20
-1159903.199
  0
LWPOLYLINE
  5
205CE
100
AcDbEntity
  8
0
100
AcDbPolyline
 70
0
 90
2
 10
-596894.124
 20
-1159810.982
 10
-596889.625
 20
-1159815.815
  0
LWPOLYLINE
  5
205CF
100
AcDbEntity
  8
0
100
AcDbPolyline
 70
0
 90
2
 10
-596825.11
 20
-1159652.24
 10
-596822.942
 20
-1159660.414
  0
LWPOLYLINE
  5
205D0
100
AcDbEntity
  8
0
100
AcDbPolyline
 70
0
 90
2
 10
-596840.306
 20
-1159666.44
 10
-596841.564
 20
-1159658.667
  0
LWPOLYLINE
  5
205D1
100
AcDbEntity
  8
0
100
AcDbPolyline
 70
0
 90
2
 10
-596763.795
 20
-1159832.424
 10
-596752.641
 20
-1159837.65
  0
LWPOLYLINE
  5
205D2
100
AcDbEntity
  8
0
100
AcDbPolyline
 70
0
 90
2
 10
-596778.357
 20
-1159899.049
 10
-596781.158
 20
-1159911.063
  0
LWPOLYLINE
  5
205D3
100
AcDbEntity
  8
0
100
AcDbPolyline
 70
0
 90
2
 10
-596801.55
 20
-1159912.72
 10
-596785.035
 20
-1159916.999
  0
LWPOLYLINE
  5
205D4
100
AcDbEntity
  8
0
100
AcDbPolyline
 70
0
 90
2
 10
-596815.55
 20
-1159955.08
 10
-596813.19
 20
-1159933.8
  0
LWPOLYLINE
  5
205D5
100
AcDbEntity
  8
0
100
AcDbPolyline
 70
0
 90
2
 10
-596791.17
 20
-1159976.13
 10
-596778.828
 20
-1159973.376
  0
LWPOLYLINE
  5
205D6
100
AcDbEntity
  8
0
100
AcDbPolyline
 70
0
 90
2
 10
-596767.621
 20
-1160074.932
 10
-596763.749
 20
-1160074.071
  0
LWPOLYLINE
  5
205D7
100
AcDbEntity
  8
0
100
AcDbPolyline
 70
0
 90
2
 10
-596766.508
 20
-1160098.812
 10
-596765.464
 20
-1160107.769
  0
LWPOLYLINE
  5
205D8
100
AcDbEntity
  8
0
100
AcDbPolyline
 70
0
 90
2
 10
-596732.927
 20
-1160082.288
 10
-596732.569
 20
-1160085.484
  0
LWPOLYLINE
  5
205D9
100
AcDbEntity
  8
0
100
AcDbPolyline
 70
0
 90
2
 10
-596298.661
 20
-1160263.756
 10
-596285.988
 20
-1160266.348
  0
LWPOLYLINE
  5
205DA
100
AcDbEntity
  8
0
100
AcDbPolyline
 70
0
 90
2
 10
-596177.827
 20
-1160286.868
 10
-596167.386
 20
-1160289.291
  0
LWPOLYLINE
  5
205DB
100
AcDbEntity
  8
0
100
AcDbPolyline
 70
0
 90
2
 10
-596266.944
 20
-1160255.162
 10
-596266.395
 20
-1160252.208
  0
LWPOLYLINE
  5
205DC
100
AcDbEntity
  8
0
100
AcDbPolyline
 70
0
 90
2
 10
-606764.026
 20
-1158467.473
 10
-606760.255
 20
-1158463.908
  0
LWPOLYLINE
  5
205DD
100
AcDbEntity
  8
0
100
AcDbPolyline
 70
0
 90
2
 10
-606818.076
 20
-1158725.998
 10
-606816.194
 20
-1158733.671
  0
LWPOLYLINE
  5
205DE
100
AcDbEntity
  8
0
100
AcDbPolyline
 70
0
 90
2
 10
-606800.007
 20
-1158680.087
 10
-606806.713
 20
-1158678.637
  0
LWPOLYLINE
  5
205DF
100
AcDbEntity
  8
0
100
AcDbPolyline
 70
0
 90
2
 10
-606750.01
 20
-1158544.44
 10
-606743.35
 20
-1158545.81
  0
LWPOLYLINE
  5
205E0
100
AcDbEntity
  8
0
100
AcDbPolyline
 70
0
 90
2
 10
-606744.319
 20
-1158498.534
 10
-606750.951
 20
-1158497.986
  0
LWPOLYLINE
  5
205E1
100
AcDbEntity
  8
0
100
AcDbPolyline
 70
0
 90
2
 10
-606412.626
 20
-1158473.489
 10
-606414.167
 20
-1158479.799
  0
LWPOLYLINE
  5
205E2
100
AcDbEntity
  8
0
100
AcDbPolyline
 70
0
 90
2
 10
-606729.272
 20
-1158285.612
 10
-606727.264
 20
-1158279.897
  0
LWPOLYLINE
  5
205E3
100
AcDbEntity
  8
0
100
AcDbPolyline
 70
0
 90
2
 10
-595148.96
 20
-1161030.03
 10
-595148.98
 20
-1161026.72
  0
LWPOLYLINE
  5
205E4
100
AcDbEntity
  8
0
100
AcDbPolyline
 70
0
 90
2
 10
-595094.129
 20
-1161029.172
 10
-595094.145
 20
-1161026.292
  0
LWPOLYLINE
  5
205E5
100
AcDbEntity
  8
0
100
AcDbPolyline
 70
0
 90
2
 10
-592620.446
 20
-1158949.404
 10
-592614.507
 20
-1158950.762
  0
LWPOLYLINE
  5
205E6
100
AcDbEntity
  8
0
100
AcDbPolyline
 70
0
 90
2
 10
-594617.42
 20
-1161619.381
 10
-594611.545
 20
-1161623.048
  0
LWPOLYLINE
  5
205E7
100
AcDbEntity
  8
0
100
AcDbPolyline
 70
0
 90
2
 10
-595968.605
 20
-1160902.411
 10
-595962.031
 20
-1160902.164
  0
LWPOLYLINE
  5
205E8
100
AcDbEntity
  8
0
100
AcDbPolyline
 70
0
 90
2
 10
-595961.156
 20
-1160897.487
 10
-595963.217
 20
-1160891.118
  0
LWPOLYLINE
  5
205E9
100
AcDbEntity
  8
0
100
AcDbPolyline
 70
0
 90
2
 10
-595058.436
 20
-1159242.784
 10
-595054.444
 20
-1159250.741
  0
LWPOLYLINE
  5
205EA
100
AcDbEntity
  8
0
100
AcDbPolyline
 70
0
 90
2
 10
-595399.34
 20
-1160608.71
 10
-595391.64
 20
-1160606.22
  0
LWPOLYLINE
  5
205EB
100
AcDbEntity
  8
0
100
AcDbPolyline
 70
0
 90
2
 10
-595411.31
 20
-1160612.77
 10
-595401.01
 20
-1160609.27
  0
LWPOLYLINE
  5
205EC
100
AcDbEntity
  8
0
100
AcDbPolyline
 70
0
 90
2
 10
-594440.539
 20
-1161665.325
 10
-594436.539
 20
-1161659.069
  0
LWPOLYLINE
  5
205ED
100
AcDbEntity
  8
0
100
AcDbPolyline
 70
0
 90
2
 10
-595423.01
 20
-1160193.58
 10
-595429.7
 20
-1160195.22
  0
LWPOLYLINE
  5
205EE
100
AcDbEntity
  8
0
100
AcDbPolyline
 70
0
 90
2
 10
-595429.932
 20
-1160183.04
 10
-595433.922
 20
-1160184.631
  0
LWPOLYLINE
  5
205EF
100
AcDbEntity
  8
0
100
AcDbPolyline
 70
0
 90
2
 10
-595435.88
 20
-1160187.66
 10
-595433.28
 20
-1160194.16
  0
LWPOLYLINE
  5
205F0
100
AcDbEntity
  8
0
100
AcDbPolyline
 70
0
 90
2
 10
-595423.9
 20
-1160186.436
 10
-595422.14
 20
-1160191.2
  0
LWPOLYLINE
  5
205F1
100
AcDbEntity
  8
0
100
AcDbPolyline
 70
0
 90
2
 10
-594213.66
 20
-1160439.17
 10
-594214.42
 20
-1160445.37
  0
LWPOLYLINE
  5
205F2
100
AcDbEntity
  8
0
100
AcDbPolyline
 70
0
 90
2
 10
-594193.92
 20
-1160441.27
 10
-594194.59
 20
-1160447.08
  0
LWPOLYLINE
  5
205F3
100
AcDbEntity
  8
0
100
AcDbPolyline
 70
0
 90
2
 10
-594208.22
 20
-1160451.56
 10
-594201.83
 20
-1160452.23
  0
LWPOLYLINE
  5
205F4
100
AcDbEntity
  8
0
100
AcDbPolyline
 70
0
 90
2
 10
-594113.79
 20
-1160456.57
 10
-594113.22
 20
-1160450.18
  0
LWPOLYLINE
  5
205F5
100
AcDbEntity
  8
0
100
AcDbPolyline
 70
0
 90
2
 10
-594108.78
 20
-1160462.19
 10
-594102.25
 20
-1160462.72
  0
LWPOLYLINE
  5
205F6
100
AcDbEntity
  8
0
100
AcDbPolyline
 70
0
 90
2
 10
-594255.274
 20
-1160546.44
 10
-594248.371
 20
-1160540.629
  0
LWPOLYLINE
  5
205F7
100
AcDbEntity
  8
0
100
AcDbPolyline
 70
0
 90
2
 10
-594257.974
 20
-1160545.286
 10
-594263.641
 20
-1160539.166
  0
LWPOLYLINE
  5
205F8
100
AcDbEntity
  8
0
100
AcDbPolyline
 70
0
 90
2
 10
-594384.811
 20
-1160231.009
 10
-594378.653
 20
-1160231.652
  0
LWPOLYLINE
  5
205F9
100
AcDbEntity
  8
0
100
AcDbPolyline
 70
0
 90
2
 10
-594392.79
 20
-1160218.35
 10
-594393.58
 20
-1160224.92
  0
LWPOLYLINE
  5
205FA
100
AcDbEntity
  8
0
100
AcDbPolyline
 70
0
 90
2
 10
-593965.367
 20
-1160075.063
 10
-593958.82
 20
-1160075.948
  0
LWPOLYLINE
  5
205FB
100
AcDbEntity
  8
0
100
AcDbPolyline
 70
0
 90
2
 10
-594468.75
 20
-1159997.241
 10
-594468.991
 20
-1159999.969
  0
LWPOLYLINE
  5
205FC
100
AcDbEntity
  8
0
100
AcDbPolyline
 70
0
 90
2
 10
-594370.736
 20
-1160007.883
 10
-594371.017
 20
-1160011.019
  0
LWPOLYLINE
  5
205FD
100
AcDbEntity
  8
0
100
AcDbPolyline
 70
0
 90
2
 10
-594274.48
 20
-1160021.926
 10
-594274.2
 20
-1160018.697
  0
LWPOLYLINE
  5
205FE
100
AcDbEntity
  8
0
100
AcDbPolyline
 70
0
 90
2
 10
-593984.734
 20
-1159872.79
 10
-593989.986
 20
-1159861.431
  0
LWPOLYLINE
  5
205FF
100
AcDbEntity
  8
0
100
AcDbPolyline
 70
0
 90
2
 10
-594259.963
 20
-1159949.041
 10
-594259.606
 20
-1159945.499
  0
LWPOLYLINE
  5
20600
100
AcDbEntity
  8
0
100
AcDbPolyline
 70
0
 90
2
 10
-594361.704
 20
-1159937.75
 10
-594361.24
 20
-1159933.245
  0
LWPOLYLINE
  5
20601
100
AcDbEntity
  8
0
100
AcDbPolyline
 70
0
 90
2
 10
-594473.07
 20
-1160121.55
 10
-594466.35
 20
-1160122.17
  0
LWPOLYLINE
  5
20602
100
AcDbEntity
  8
0
100
AcDbPolyline
 70
0
 90
2
 10
-594482.18
 20
-1160113.95
 10
-594481.56
 20
-1160107.85
  0
LWPOLYLINE
  5
20603
100
AcDbEntity
  8
0
100
AcDbPolyline
 70
0
 90
2
 10
-594372.225
 20
-1160115.366
 10
-594365.757
 20
-1160116.237
  0
LWPOLYLINE
  5
20604
100
AcDbEntity
  8
0
100
AcDbPolyline
 70
0
 90
2
 10
-594379.89
 20
-1160125.35
 10
-594379.18
 20
-1160119.17
  0
LWPOLYLINE
  5
20605
100
AcDbEntity
  8
0
100
AcDbPolyline
 70
0
 90
2
 10
-594062.909
 20
-1160047.684
 10
-594056.351
 20
-1160048.218
  0
LWPOLYLINE
  5
20606
100
AcDbEntity
  8
0
100
AcDbPolyline
 70
0
 90
2
 10
-594081.06
 20
-1160152.41
 10
-594081.77
 20
-1160158.07
  0
LWPOLYLINE
  5
20607
100
AcDbEntity
  8
0
100
AcDbPolyline
 70
0
 90
2
 10
-594069.39
 20
-1160166.64
 10
-594075.58
 20
-1160166.11
  0
LWPOLYLINE
  5
20608
100
AcDbEntity
  8
0
100
AcDbPolyline
 70
0
 90
2
 10
-593961.8
 20
-1159917.96
 10
-593958.61
 20
-1159924.68
  0
LWPOLYLINE
  5
20609
100
AcDbEntity
  8
0
100
AcDbPolyline
 70
0
 90
2
 10
-594151.324
 20
-1159842.854
 10
-594151.92
 20
-1159848.471
  0
LWPOLYLINE
  5
2060A
100
AcDbEntity
  8
0
100
AcDbPolyline
 70
0
 90
2
 10
-594042.886
 20
-1159760.724
 10
-594042.29
 20
-1159754.72
  0
LWPOLYLINE
  5
2060B
100
AcDbEntity
  8
0
100
AcDbPolyline
 70
0
 90
2
 10
-594226.418
 20
-1159632.614
 10
-594227.234
 20
-1159638.771
  0
LWPOLYLINE
  5
2060C
100
AcDbEntity
  8
0
100
AcDbPolyline
 70
0
 90
2
 10
-594219.354
 20
-1159539.276
 10
-594218.907
 20
-1159533.197
  0
LWPOLYLINE
  5
2060D
100
AcDbEntity
  8
0
100
AcDbPolyline
 70
0
 90
2
 10
-594093.035
 20
-1159521.346
 10
-594089.049
 20
-1159517.514
  0
LWPOLYLINE
  5
2060E
100
AcDbEntity
  8
0
100
AcDbPolyline
 70
0
 90
2
 10
-596021.14
 20
-1160100.21
 10
-596024.52
 20
-1160108.33
  0
LWPOLYLINE
  5
2060F
100
AcDbEntity
  8
0
100
AcDbPolyline
 70
0
 90
2
 10
-596036.33
 20
-1160153.4
 10
-596032.72
 20
-1160146.73
  0
LWPOLYLINE
  5
20610
100
AcDbEntity
  8
0
100
AcDbPolyline
 70
0
 90
2
 10
-596090.806
 20
-1160273.867
 10
-596081.238
 20
-1160275.312
  0
LWPOLYLINE
  5
20611
100
AcDbEntity
  8
0
100
AcDbPolyline
 70
0
 90
2
 10
-595856.96
 20
-1160008.09
 10
-595853.18
 20
-1160008.61
  0
LWPOLYLINE
  5
20612
100
AcDbEntity
  8
0
100
AcDbPolyline
 70
0
 90
2
 10
-595859.17
 20
-1160007.77
 10
-595862.81
 20
-1160007.38
  0
LWPOLYLINE
  5
20613
100
AcDbEntity
  8
0
100
AcDbPolyline
 70
0
 90
2
 10
-595886.75
 20
-1160022.41
 10
-595888.32
 20
-1160026.18
  0
LWPOLYLINE
  5
20614
100
AcDbEntity
  8
0
100
AcDbPolyline
 70
0
 90
2
 10
-595884.41
 20
-1160016.16
 10
-595885.91
 20
-1160020.13
  0
LWPOLYLINE
  5
20615
100
AcDbEntity
  8
0
100
AcDbPolyline
 70
0
 90
2
 10
-595996.368
 20
-1160039.735
 10
-595998.605
 20
-1160032.858
  0
LWPOLYLINE
  5
20616
100
AcDbEntity
  8
0
100
AcDbPolyline
 70
0
 90
2
 10
-595863.93
 20
-1160052.67
 10
-595860.42
 20
-1160053.26
  0
LWPOLYLINE
  5
20617
100
AcDbEntity
  8
0
100
AcDbPolyline
 70
0
 90
2
 10
-595870.28
 20
-1160051.67
 10
-595866.77
 20
-1160052.25
  0
LWPOLYLINE
  5
20618
100
AcDbEntity
  8
0
100
AcDbPolyline
 70
0
 90
2
 10
-595314.45
 20
-1161365.06
 10
-595306.91
 20
-1161362.71
  0
LWPOLYLINE
  5
20619
100
AcDbEntity
  8
0
100
AcDbPolyline
 70
0
 90
2
 10
-595316.5
 20
-1161365.82
 10
-595324
 20
-1161367.95
  0
LWPOLYLINE
  5
2061A
100
AcDbEntity
  8
0
100
AcDbPolyline
 70
0
 90
2
 10
-595457.251
 20
-1160413.823
 10
-595453.345
 20
-1160424.131
  0
LWPOLYLINE
  5
2061B
100
AcDbEntity
  8
0
100
AcDbPolyline
 70
0
 90
2
 10
-595391.033
 20
-1161043.857
 10
-595396.34
 20
-1161045.712
  0
LWPOLYLINE
  5
2061C
100
AcDbEntity
  8
0
100
AcDbPolyline
 70
0
 90
2
 10
-595398.69
 20
-1161016.24
 10
-595394.69
 20
-1161019.29
  0
LWPOLYLINE
  5
2061D
100
AcDbEntity
  8
0
100
AcDbPolyline
 70
0
 90
2
 10
-595786.488
 20
-1160401.041
 10
-595781.827
 20
-1160405.947
  0
LWPOLYLINE
  5
2061E
100
AcDbEntity
  8
0
100
AcDbPolyline
 70
0
 90
2
 10
-595772.6
 20
-1160383.391
 10
-595769.119
 20
-1160388.373
  0
LWPOLYLINE
  5
2061F
100
AcDbEntity
  8
0
100
AcDbPolyline
 70
0
 90
2
 10
-595780.032
 20
-1160382.628
 10
-595786.249
 20
-1160389.189
  0
LWPOLYLINE
  5
20620
100
AcDbEntity
  8
0
100
AcDbPolyline
 70
0
 90
2
 10
-594738.76
 20
-1161635.32
 10
-594737.178
 20
-1161632.781
  0
LWPOLYLINE
  5
20621
100
AcDbEntity
  8
0
100
AcDbPolyline
 70
0
 90
2
 10
-595204.405
 20
-1161538.998
 10
-595203.823
 20
-1161544.868
  0
LWPOLYLINE
  5
20622
100
AcDbEntity
  8
0
100
AcDbPolyline
 70
0
 90
2
 10
-594035.01
 20
-1159515.62
 10
-594020.603
 20
-1159504.867
  0
LWPOLYLINE
  5
20623
100
AcDbEntity
  8
0
100
AcDbPolyline
 70
0
 90
2
 10
-594057.26
 20
-1159489.47
 10
-594046.02
 20
-1159477.89
  0
LWPOLYLINE
  5
20624
100
AcDbEntity
  8
0
100
AcDbPolyline
 70
0
 90
2
 10
-594025.073
 20
-1159490.449
 10
-594031.354
 20
-1159482.542
  0
LWPOLYLINE
  5
20625
100
AcDbEntity
  8
0
100
AcDbPolyline
 70
0
 90
2
 10
-594091.67
 20
-1159530.07
 10
-594086.62
 20
-1159535
  0
LWPOLYLINE
  5
20626
100
AcDbEntity
  8
0
100
AcDbPolyline
 70
0
 90
2
 10
-594119.54
 20
-1159543.72
 10
-594120
 20
-1159550.02
  0
LWPOLYLINE
  5
20627
100
AcDbEntity
  8
0
100
AcDbPolyline
 70
0
 90
2
 10
-594158.278
 20
-1160019.317
 10
-594153.394
 20
-1160019.729
  0
LWPOLYLINE
  5
20628
100
AcDbEntity
  8
0
100
AcDbPolyline
 70
0
 90
2
 10
-594172.393
 20
-1160029.951
 10
-594172.555
 20
-1160033.429
  0
LWPOLYLINE
  5
20629
100
AcDbEntity
  8
0
100
AcDbPolyline
 70
0
 90
2
 10
-594481.93
 20
-1160202.45
 10
-594474.8
 20
-1160203.1
  0
LWPOLYLINE
  5
2062A
100
AcDbEntity
  8
0
100
AcDbPolyline
 70
0
 90
2
 10
-594492.84
 20
-1160206.77
 10
-594493.38
 20
-1160213.04
  0
LWPOLYLINE
  5
2062B
100
AcDbEntity
  8
0
100
AcDbPolyline
 70
0
 90
2
 10
-594311.706
 20
-1160428.337
 10
-594312.341
 20
-1160434.141
  0
LWPOLYLINE
  5
2062C
100
AcDbEntity
  8
0
100
AcDbPolyline
 70
0
 90
2
 10
-594304.98
 20
-1160423.14
 10
-594298.07
 20
-1160423.68
  0
LWPOLYLINE
  5
2062D
100
AcDbEntity
  8
0
100
AcDbPolyline
 70
0
 90
2
 10
-594301.42
 20
-1160328.89
 10
-594302.17
 20
-1160335.05
  0
LWPOLYLINE
  5
2062E
100
AcDbEntity
  8
0
100
AcDbPolyline
 70
0
 90
2
 10
-594394.32
 20
-1160312.9
 10
-594387.08
 20
-1160313.88
  0
LWPOLYLINE
  5
2062F
100
AcDbEntity
  8
0
100
AcDbPolyline
 70
0
 90
2
 10
-594404.36
 20
-1160317.12
 10
-594404.9
 20
-1160323.28
  0
LWPOLYLINE
  5
20630
100
AcDbEntity
  8
0
100
AcDbPolyline
 70
0
 90
2
 10
-594479.55
 20
-1160315.07
 10
-594479.01
 20
-1160309.12
  0
LWPOLYLINE
  5
20631
100
AcDbEntity
  8
0
100
AcDbPolyline
 70
0
 90
2
 10
-594506.67
 20
-1160306.21
 10
-594507.31
 20
-1160312.15
  0
LWPOLYLINE
  5
20632
100
AcDbEntity
  8
0
100
AcDbPolyline
 70
0
 90
2
 10
-594324.19
 20
-1159620.89
 10
-594325.1
 20
-1159627.27
  0
LWPOLYLINE
  5
20633
100
AcDbEntity
  8
0
100
AcDbPolyline
 70
0
 90
2
 10
-594250.935
 20
-1159831.778
 10
-594251.766
 20
-1159837.743
  0
LWPOLYLINE
  5
20634
100
AcDbEntity
  8
0
100
AcDbPolyline
 70
0
 90
2
 10
-594129.02
 20
-1159643.84
 10
-594129.73
 20
-1159650.19
  0
LWPOLYLINE
  5
20635
100
AcDbEntity
  8
0
100
AcDbPolyline
 70
0
 90
2
 10
-594140.826
 20
-1159743.447
 10
-594141.3
 20
-1159747.465
  0
LWPOLYLINE
  5
20636
100
AcDbEntity
  8
0
100
AcDbPolyline
 70
0
 90
2
 10
-594237.21
 20
-1159732.5
 10
-594237.98
 20
-1159738.83
  0
LWPOLYLINE
  5
20637
100
AcDbEntity
  8
0
100
AcDbPolyline
 70
0
 90
2
 10
-594338.934
 20
-1159722.398
 10
-594339.371
 20
-1159725.994
  0
LWPOLYLINE
  5
20638
100
AcDbEntity
  8
0
100
AcDbPolyline
 70
0
 90
2
 10
-594437.926
 20
-1159804.417
 10
-594432.071
 20
-1159805.025
  0
LWPOLYLINE
  5
20639
100
AcDbEntity
  8
0
100
AcDbPolyline
 70
0
 90
2
 10
-594349.748
 20
-1159826.79
 10
-594349.062
 20
-1159821.123
  0
LWPOLYLINE
  5
2063A
100
AcDbEntity
  8
0
100
AcDbPolyline
 70
0
 90
2
 10
-596202.141
 20
-1161220.132
 10
-596202.621
 20
-1161226.074
  0
LWPOLYLINE
  5
2063B
100
AcDbEntity
  8
0
100
AcDbPolyline
 70
0
 90
2
 10
-596267.356
 20
-1161241.277
 10
-596272.839
 20
-1161241.703
  0
LWPOLYLINE
  5
2063C
100
AcDbEntity
  8
0
100
AcDbPolyline
 70
0
 90
2
 10
-595781.975
 20
-1161117.46
 10
-595781.072
 20
-1161120.412
  0
LWPOLYLINE
  5
2063D
100
AcDbEntity
  8
0
100
AcDbPolyline
 70
0
 90
2
 10
-595743.02
 20
-1161112.37
 10
-595743.929
 20
-1161109.641
  0
LWPOLYLINE
  5
2063E
100
AcDbEntity
  8
0
100
AcDbPolyline
 70
0
 90
2
 10
-595617.035
 20
-1161068.923
 10
-595619.656
 20
-1161061.455
  0
LWPOLYLINE
  5
2063F
100
AcDbEntity
  8
0
100
AcDbPolyline
 70
0
 90
3
 10
-595149.01
 20
-1161035.15
 10
-595149.03
 20
-1161035.05
 10
-595149.03
 20
-1161031.84
  0
LWPOLYLINE
  5
20640
100
AcDbEntity
  8
0
100
AcDbPolyline
 70
0
 90
2
 10
-595410.37
 20
-1161036.01
 10
-595410.37
 20
-1161023.6
  0
LWPOLYLINE
  5
20641
100
AcDbEntity
  8
0
100
AcDbPolyline
 70
0
 90
2
 10
-595460.448
 20
-1161033.855
 10
-595460.468
 20
-1161031.59
  0
LWPOLYLINE
  5
20642
100
AcDbEntity
  8
0
100
AcDbPolyline
 70
0
 90
2
 10
-594126.742
 20
-1160571.177
 10
-594126.297
 20
-1160564.748
  0
LWPOLYLINE
  5
20643
100
AcDbEntity
  8
0
100
AcDbPolyline
 70
0
 90
2
 10
-596263.195
 20
-1161367.476
 10
-596256.129
 20
-1161366.669
  0
LWPOLYLINE
  5
20644
100
AcDbEntity
  8
0
100
AcDbPolyline
 70
0
 90
2
 10
-596341.6
 20
-1160642.72
 10
-596344.6
 20
-1160634.96
  0
LWPOLYLINE
  5
20645
100
AcDbEntity
  8
0
100
AcDbPolyline
 70
0
 90
2
 10
-596358.09
 20
-1160637.09
 10
-596355.6
 20
-1160643.7
  0
LWPOLYLINE
  5
20646
100
AcDbEntity
  8
0
100
AcDbPolyline
 70
0
 90
2
 10
-596316.527
 20
-1161378.929
 10
-596315.587
 20
-1161386.94
  0
LWPOLYLINE
  5
20647
100
AcDbEntity
  8
0
100
AcDbPolyline
 70
0
 90
2
 10
-596267.813
 20
-1161379.243
 10
-596268.564
 20
-1161372.984
  0
LWPOLYLINE
  5
20648
100
AcDbEntity
  8
0
100
AcDbPolyline
 70
0
 90
2
 10
-594945.05
 20
-1161241.96
 10
-594940.05
 20
-1161237.41
  0
LWPOLYLINE
  5
20649
100
AcDbEntity
  8
0
100
AcDbPolyline
 70
0
 90
2
 10
-594774.07
 20
-1161421.8
 10
-594779.19
 20
-1161426.68
  0
LWPOLYLINE
  5
2064A
100
AcDbEntity
  8
0
100
AcDbPolyline
 70
0
 90
2
 10
-596271.62
 20
-1161216.56
 10
-596261.72
 20
-1161216.18
  0
LWPOLYLINE
  5
2064B
100
AcDbEntity
  8
0
100
AcDbPolyline
 70
0
 90
2
 10
-596258.05
 20
-1161220.795
 10
-596257.563
 20
-1161229.39
  0
LWPOLYLINE
  5
2064C
100
AcDbEntity
  8
0
100
AcDbPolyline
 70
0
 90
2
 10
-596112.628
 20
-1161229.842
 10
-596109.883
 20
-1161238.299
  0
LWPOLYLINE
  5
2064D
100
AcDbEntity
  8
0
100
AcDbPolyline
 70
0
 90
2
 10
-596064.856
 20
-1161210.717
 10
-596070.83
 20
-1161212.58
  0
LWPOLYLINE
  5
2064E
100
AcDbEntity
  8
0
100
AcDbPolyline
 70
0
 90
2
 10
-595972.04
 20
-1161178.97
 10
-595977.81
 20
-1161180.81
  0
LWPOLYLINE
  5
2064F
100
AcDbEntity
  8
0
100
AcDbPolyline
 70
0
 90
2
 10
-595889.594
 20
-1161150.352
 10
-595897.236
 20
-1161152.478
  0
LWPOLYLINE
  5
20650
100
AcDbEntity
  8
0
100
AcDbPolyline
 70
0
 90
2
 10
-595849.324
 20
-1161152.227
 10
-595853.167
 20
-1161153.124
  0
LWPOLYLINE
  5
20651
100
AcDbEntity
  8
0
100
AcDbPolyline
 70
0
 90
2
 10
-595786.46
 20
-1161130.592
 10
-595782.358
 20
-1161129.139
  0
LWPOLYLINE
  5
20652
100
AcDbEntity
  8
0
100
AcDbPolyline
 70
0
 90
2
 10
-595222.89
 20
-1161038.888
 10
-595217.824
 20
-1161038.82
  0
LWPOLYLINE
  5
20653
100
AcDbEntity
  8
0
100
AcDbPolyline
 70
0
 90
2
 10
-595094.15
 20
-1161031.59
 10
-595094.121
 20
-1161034.808
  0
LWPOLYLINE
  5
20654
100
AcDbEntity
  8
0
100
AcDbPolyline
 70
0
 90
2
 10
-594062.498
 20
-1159895.396
 10
-594067.535
 20
-1159898.316
  0
LWPOLYLINE
  5
20655
100
AcDbEntity
  8
0
100
AcDbPolyline
 70
0
 90
2
 10
-594153.572
 20
-1159968.669
 10
-594147.74
 20
-1159969.128
  0
LWPOLYLINE
  5
20656
100
AcDbEntity
  8
0
100
AcDbPolyline
 70
0
 90
2
 10
-594159.019
 20
-1159954.374
 10
-594159.677
 20
-1159960.317
  0
LWPOLYLINE
  5
20657
100
AcDbEntity
  8
0
100
AcDbPolyline
 70
0
 90
2
 10
-594672.363
 20
-1160180.422
 10
-594675.404
 20
-1160180.173
  0
LWPOLYLINE
  5
20658
100
AcDbEntity
  8
0
100
AcDbPolyline
 70
0
 90
2
 10
-594507.951
 20
-1160428.355
 10
-594500.152
 20
-1160430.044
  0
LWPOLYLINE
  5
20659
100
AcDbEntity
  8
0
100
AcDbPolyline
 70
0
 90
2
 10
-594421.677
 20
-1160444.337
 10
-594422.226
 20
-1160448.27
  0
LWPOLYLINE
  5
2065A
100
AcDbEntity
  8
0
100
AcDbPolyline
 70
0
 90
2
 10
-594167.86
 20
-1160599.005
 10
-594169.756
 20
-1160602.487
  0
LWPOLYLINE
  5
2065B
100
AcDbEntity
  8
0
100
AcDbPolyline
 70
0
 90
2
 10
-594113.339
 20
-1160610.6
 10
-594131.793
 20
-1160608.549
  0
LWPOLYLINE
  5
2065C
100
AcDbEntity
  8
0
100
AcDbPolyline
 70
0
 90
2
 10
-594098.215
 20
-1160703.727
 10
-594096.07
 20
-1160705.91
  0
LWPOLYLINE
  5
2065D
100
AcDbEntity
  8
0
100
AcDbPolyline
 70
0
 90
2
 10
-594885.42
 20
-1161019.66
 10
-594890.65
 20
-1161021.16
  0
LWPOLYLINE
  5
2065E
100
AcDbEntity
  8
0
100
AcDbPolyline
 70
0
 90
2
 10
-594876.585
 20
-1161005.433
 10
-594889.196
 20
-1161007.376
  0
LWPOLYLINE
  5
2065F
100
AcDbEntity
  8
0
100
AcDbPolyline
 70
0
 90
2
 10
-594949.924
 20
-1161014.555
 10
-594941.366
 20
-1161013.267
  0
LWPOLYLINE
  5
20660
100
AcDbEntity
  8
0
100
AcDbPolyline
 70
0
 90
2
 10
-594963.95
 20
-1161030.77
 10
-594980.76
 20
-1161033.23
  0
LWPOLYLINE
  5
20661
100
AcDbEntity
  8
0
100
AcDbPolyline
 70
0
 90
2
 10
-595059.505
 20
-1161025.702
 10
-595058.972
 20
-1161034.542
  0
LWPOLYLINE
  5
20662
100
AcDbEntity
  8
0
100
AcDbPolyline
 70
0
 90
2
 10
-595063.713
 20
-1161039.836
 10
-595075.029
 20
-1161041.656
  0
LWPOLYLINE
  5
20663
100
AcDbEntity
  8
0
100
AcDbPolyline
 70
0
 90
2
 10
-595083.635
 20
-1161009.813
 10
-595089.62
 20
-1161014.684
  0
LWPOLYLINE
  5
20664
100
AcDbEntity
  8
0
100
AcDbPolyline
 70
0
 90
2
 10
-594289.293
 20
-1161767.696
 10
-594284.679
 20
-1161762.403
  0
LWPOLYLINE
  5
20665
100
AcDbEntity
  8
0
100
AcDbPolyline
 70
0
 90
2
 10
-595634.02
 20
-1160292.34
 10
-595641.1
 20
-1160295.37
  0
LWPOLYLINE
  5
20666
100
AcDbEntity
  8
0
100
AcDbPolyline
 70
0
 90
2
 10
-595257.042
 20
-1161653.067
 10
-595255.256
 20
-1161658.03
  0
LWPOLYLINE
  5
20667
100
AcDbEntity
  8
0
100
AcDbPolyline
 70
0
 90
2
 10
-595259.062
 20
-1161638.579
 10
-595258.547
 20
-1161645.156
  0
LWPOLYLINE
  5
20668
100
AcDbEntity
  8
0
100
AcDbPolyline
 70
0
 90
2
 10
-595260.81
 20
-1161570.58
 10
-595257.56
 20
-1161562.27
  0
LWPOLYLINE
  5
20669
100
AcDbEntity
  8
0
100
AcDbPolyline
 70
0
 90
2
 10
-595344.206
 20
-1161189.687
 10
-595343.571
 20
-1161196.348
  0
LWPOLYLINE
  5
2066A
100
AcDbEntity
  8
0
100
AcDbPolyline
 70
0
 90
2
 10
-595388.128
 20
-1161043.615
 10
-595379.957
 20
-1161043.269
  0
LWPOLYLINE
  5
2066B
100
AcDbEntity
  8
0
100
AcDbPolyline
 70
0
 90
2
 10
-595354.706
 20
-1161025.645
 10
-595354.603
 20
-1161036.385
  0
LWPOLYLINE
  5
2066C
100
AcDbEntity
  8
0
100
AcDbPolyline
 70
0
 90
2
 10
-595378.331
 20
-1161019.408
 10
-595389.5
 20
-1161019.75
  0
LWPOLYLINE
  5
2066D
100
AcDbEntity
  8
0
100
AcDbPolyline
 70
0
 90
2
 10
-595382.35
 20
-1160612.16
 10
-595380.32
 20
-1160619.16
  0
LWPOLYLINE
  5
2066E
100
AcDbEntity
  8
0
100
AcDbPolyline
 70
0
 90
2
 10
-595430.803
 20
-1160574.546
 10
-595432.617
 20
-1160568.9
  0
LWPOLYLINE
  5
2066F
100
AcDbEntity
  8
0
100
AcDbPolyline
 70
0
 90
2
 10
-595925.98
 20
-1160306.55
 10
-595929.12
 20
-1160324.71
  0
LWPOLYLINE
  5
20670
100
AcDbEntity
  8
0
100
AcDbPolyline
 70
0
 90
2
 10
-595905.392
 20
-1160304.881
 10
-595918.146
 20
-1160302.823
  0
LWPOLYLINE
  5
20671
100
AcDbEntity
  8
0
100
AcDbPolyline
 70
0
 90
2
 10
-595919.31
 20
-1160329.121
 10
-595911.09
 20
-1160330.852
  0
LWPOLYLINE
  5
20672
100
AcDbEntity
  8
0
100
AcDbPolyline
 70
0
 90
2
 10
-595798.618
 20
-1160350.88
 10
-595789.326
 20
-1160352.045
  0
LWPOLYLINE
  5
20673
100
AcDbEntity
  8
0
100
AcDbPolyline
 70
0
 90
2
 10
-595756.8
 20
-1160346.61
 10
-595757.4
 20
-1160353.79
  0
LWPOLYLINE
  5
20674
100
AcDbEntity
  8
0
100
AcDbPolyline
 70
0
 90
2
 10
-595755.245
 20
-1160333.788
 10
-595755.638
 20
-1160341.268
  0
LWPOLYLINE
  5
20675
100
AcDbEntity
  8
0
100
AcDbPolyline
 70
0
 90
2
 10
-595535.652
 20
-1159608.983
 10
-595521.881
 20
-1159611.715
  0
LWPOLYLINE
  5
20676
100
AcDbEntity
  8
0
100
AcDbPolyline
 70
0
 90
2
 10
-595545.142
 20
-1159604.39
 10
-595542.615
 20
-1159609.851
  0
LWPOLYLINE
  5
20677
100
AcDbEntity
  8
0
100
AcDbPolyline
 70
0
 90
2
 10
-595545.19
 20
-1159622.82
 10
-595547.774
 20
-1159631.851
  0
LWPOLYLINE
  5
20678
100
AcDbEntity
  8
0
100
AcDbPolyline
 70
0
 90
2
 10
-595596.175
 20
-1159848.383
 10
-595589.574
 20
-1159851.31
  0
LWPOLYLINE
  5
20679
100
AcDbEntity
  8
0
100
AcDbPolyline
 70
0
 90
2
 10
-595585.932
 20
-1159852.856
 10
-595579.755
 20
-1159855.642
  0
LWPOLYLINE
  5
2067A
100
AcDbEntity
  8
0
100
AcDbPolyline
 70
0
 90
2
 10
-595101.519
 20
-1159601.371
 10
-595088.326
 20
-1159617.834
  0
LWPOLYLINE
  5
2067B
100
AcDbEntity
  8
0
100
AcDbPolyline
 70
0
 90
2
 10
-594571.952
 20
-1161580.399
 10
-594574.563
 20
-1161584.42
  0
LWPOLYLINE
  5
2067C
100
AcDbEntity
  8
0
100
AcDbPolyline
 70
0
 90
2
 10
-593872.538
 20
-1160027.401
 10
-593862.498
 20
-1160018.294
  0
LWPOLYLINE
  5
2067D
100
AcDbEntity
  8
0
100
AcDbPolyline
 70
0
 90
2
 10
-593893.81
 20
-1160015.65
 10
-593889.09
 20
-1160022.29
  0
LWPOLYLINE
  5
2067E
100
AcDbEntity
  8
0
100
AcDbPolyline
 70
0
 90
2
 10
-593974.326
 20
-1159879.29
 10
-593962.145
 20
-1159875.189
  0
LWPOLYLINE
  5
2067F
100
AcDbEntity
  8
0
100
AcDbPolyline
 70
0
 90
2
 10
-593963.78
 20
-1159842.88
 10
-593960.504
 20
-1159862.472
  0
LWPOLYLINE
  5
20680
100
AcDbEntity
  8
0
100
AcDbPolyline
 70
0
 90
2
 10
-593983.083
 20
-1159839.868
 10
-593969.601
 20
-1159838.18
  0
LWPOLYLINE
  5
20681
100
AcDbEntity
  8
0
100
AcDbPolyline
 70
0
 90
2
 10
-593967.371
 20
-1159658.568
 10
-593967.054
 20
-1159670.474
  0
LWPOLYLINE
  5
20682
100
AcDbEntity
  8
0
100
AcDbPolyline
 70
0
 90
2
 10
-593986.295
 20
-1159680.928
 10
-593972.301
 20
-1159680.857
  0
LWPOLYLINE
  5
20683
100
AcDbEntity
  8
0
100
AcDbPolyline
 70
0
 90
2
 10
-593990.072
 20
-1159668.886
 10
-593990.707
 20
-1159657.033
  0
LWPOLYLINE
  5
20684
100
AcDbEntity
  8
0
100
AcDbPolyline
 70
0
 90
2
 10
-593987.831
 20
-1159650.662
 10
-593973.765
 20
-1159649.92
  0
LWPOLYLINE
  5
20685
100
AcDbEntity
  8
0
100
AcDbPolyline
 70
0
 90
2
 10
-594056.167
 20
-1159497.558
 10
-594049.663
 20
-1159505.055
  0
LWPOLYLINE
  5
20686
100
AcDbEntity
  8
0
100
AcDbPolyline
 70
0
 90
2
 10
-594228.4
 20
-1161811.868
 10
-594221.187
 20
-1161820.145
  0
LWPOLYLINE
  5
20687
100
AcDbEntity
  8
0
100
AcDbPolyline
 70
0
 90
2
 10
-604261.228
 20
-1157069.184
 10
-604255.247
 20
-1157069.094
  0
LWPOLYLINE
  5
20688
100
AcDbEntity
  8
0
100
AcDbPolyline
 70
0
 90
2
 10
-605110.395
 20
-1157492.069
 10
-605104.083
 20
-1157489.518
  0
LWPOLYLINE
  5
20689
100
AcDbEntity
  8
0
100
AcDbPolyline
 70
0
 90
2
 10
-600218.371
 20
-1154876.309
 10
-600213.927
 20
-1154881.921
  0
LWPOLYLINE
  5
2068A
100
AcDbEntity
  8
0
100
AcDbPolyline
 70
0
 90
2
 10
-599966.646
 20
-1156495.021
 10
-599964.103
 20
-1156494.197
  0
LWPOLYLINE
  5
2068B
100
AcDbEntity
  8
0
100
AcDbPolyline
 70
0
 90
2
 10
-599979.771
 20
-1156499.381
 10
-599982.562
 20
-1156500.224
  0
LWPOLYLINE
  5
2068C
100
AcDbEntity
  8
0
100
AcDbPolyline
 70
0
 90
2
 10
-599923.869
 20
-1156603.414
 10
-599921.121
 20
-1156600.725
  0
LWPOLYLINE
  5
2068D
100
AcDbEntity
  8
0
100
AcDbPolyline
 70
0
 90
2
 10
-599912.118
 20
-1156591.838
 10
-599909.019
 20
-1156588.739
  0
LWPOLYLINE
  5
2068E
100
AcDbEntity
  8
0
100
AcDbPolyline
 70
0
 90
2
 10
-599636.86
 20
-1156452.615
 10
-599641.005
 20
-1156454.995
  0
LWPOLYLINE
  5
2068F
100
AcDbEntity
  8
0
100
AcDbPolyline
 70
0
 90
2
 10
-599695.268
 20
-1156486.31
 10
-599700.641
 20
-1156488.919
  0
LWPOLYLINE
  5
20690
100
AcDbEntity
  8
0
100
AcDbPolyline
 70
0
 90
2
 10
-601376.673
 20
-1162562.505
 10
-601382.63
 20
-1162561.356
  0
LWPOLYLINE
  5
20691
100
AcDbEntity
  8
0
100
AcDbPolyline
 70
0
 90
2
 10
-598371.312
 20
-1161979.265
 10
-598375.487
 20
-1161981.694
  0
LWPOLYLINE
  5
20692
100
AcDbEntity
  8
0
100
AcDbPolyline
 70
0
 90
2
 10
-598382.699
 20
-1161982.909
 10
-598387.375
 20
-1161982.302
  0
LWPOLYLINE
  5
20693
100
AcDbEntity
  8
0
100
AcDbPolyline
 70
0
 90
2
 10
-597927.669
 20
-1161244.94
 10
-597926.415
 20
-1161247.814
  0
LWPOLYLINE
  5
20694
100
AcDbEntity
  8
0
100
AcDbPolyline
 70
0
 90
2
 10
-600434.494
 20
-1152738.329
 10
-600440.974
 20
-1152736.187
  0
LWPOLYLINE
  5
20695
100
AcDbEntity
  8
0
100
AcDbPolyline
 70
0
 90
2
 10
-598799.695
 20
-1162078.538
 10
-598806.332
 20
-1162079.36
  0
LWPOLYLINE
  5
20696
100
AcDbEntity
  8
0
100
AcDbPolyline
 70
0
 90
2
 10
-592509.29
 20
-1159251.736
 10
-592516.75
 20
-1159249.493
  0
LWPOLYLINE
  5
20697
100
AcDbEntity
  8
0
100
AcDbPolyline
 70
0
 90
2
 10
-599150.942
 20
-1161418.739
 10
-599147.692
 20
-1161421.109
  0
LWPOLYLINE
  5
20698
100
AcDbEntity
  8
0
100
AcDbPolyline
 70
0
 90
2
 10
-599131.676
 20
-1156238.386
 10
-599128.835
 20
-1156247.604
  0
LWPOLYLINE
  5
20699
100
AcDbEntity
  8
0
100
AcDbPolyline
 70
0
 90
2
 10
-596350.804
 20
-1158205.079
 10
-596347.911
 20
-1158199.167
  0
LWPOLYLINE
  5
2069A
100
AcDbEntity
  8
0
100
AcDbPolyline
 70
0
 90
2
 10
-598497.967
 20
-1162217.62
 10
-598498.365
 20
-1162221.066
  0
LWPOLYLINE
  5
2069B
100
AcDbEntity
  8
0
100
AcDbPolyline
 70
0
 90
2
 10
-598498.638
 20
-1162222.999
 10
-598499.024
 20
-1162226.013
  0
LWPOLYLINE
  5
2069C
100
AcDbEntity
  8
0
100
AcDbPolyline
 70
0
 90
2
 10
-598990.674
 20
-1159184.34
 10
-598981.706
 20
-1159179.186
  0
LWPOLYLINE
  5
2069D
100
AcDbEntity
  8
0
100
AcDbPolyline
 70
0
 90
2
 10
-595362.977
 20
-1150921.155
 10
-595356.777
 20
-1150920.672
  0
LWPOLYLINE
  5
2069E
100
AcDbEntity
  8
0
100
AcDbPolyline
 70
0
 90
2
 10
-599416.16
 20
-1155398.912
 10
-599404.587
 20
-1155395.293
  0
LWPOLYLINE
  5
2069F
100
AcDbEntity
  8
0
100
AcDbPolyline
 70
0
 90
2
 10
-599412.105
 20
-1155411.981
 10
-599400.439
 20
-1155408.488
  0
LWPOLYLINE
  5
206A0
100
AcDbEntity
  8
0
100
AcDbPolyline
 70
0
 90
2
 10
-600100.225
 20
-1160625.53
 10
-600100.249
 20
-1160618.606
  0
LWPOLYLINE
  5
206A1
100
AcDbEntity
  8
0
100
AcDbPolyline
 70
0
 90
2
 10
-602382.067
 20
-1163508.912
 10
-602381.761
 20
-1163502.783
  0
LWPOLYLINE
  5
206A2
100
AcDbEntity
  8
0
100
AcDbPolyline
 70
0
 90
2
 10
-598602.069
 20
-1159403.167
 10
-598596.936
 20
-1159415.362
  0
LWPOLYLINE
  5
206A3
100
AcDbEntity
  8
0
100
AcDbPolyline
 70
0
 90
2
 10
-598407.656
 20
-1161053.373
 10
-598403.818
 20
-1161051.873
  0
LWPOLYLINE
  5
206A4
100
AcDbEntity
  8
0
100
AcDbPolyline
 70
0
 90
2
 10
-601144.503
 20
-1163146.111
 10
-601143.894
 20
-1163140.2
  0
LWPOLYLINE
  5
206A5
100
AcDbEntity
  8
0
100
AcDbPolyline
 70
0
 90
2
 10
-595825.753
 20
-1160898.166
 10
-595826.047
 20
-1160889.739
  0
LWPOLYLINE
  5
206A6
100
AcDbEntity
  8
0
100
AcDbPolyline
 70
0
 90
2
 10
-596280.142
 20
-1160861.395
 10
-596280.757
 20
-1160854.932
  0
LWPOLYLINE
  5
206A7
100
AcDbEntity
  8
0
100
AcDbPolyline
 70
0
 90
2
 10
-604597.043
 20
-1162405.16
 10
-604595.175
 20
-1162399.581
  0
LWPOLYLINE
  5
206A8
100
AcDbEntity
  8
0
100
AcDbPolyline
 70
0
 90
2
 10
-604251.182
 20
-1162493.174
 10
-604251.182
 20
-1162496.21
  0
LWPOLYLINE
  5
206A9
100
AcDbEntity
  8
0
100
AcDbPolyline
 70
0
 90
2
 10
-604243.982
 20
-1162516.636
 10
-604246.605
 20
-1162510.394
  0
LWPOLYLINE
  5
206AA
100
AcDbEntity
  8
0
100
AcDbPolyline
 70
0
 90
2
 10
-604251.024
 20
-1162498.613
 10
-604251.088
 20
-1162501.996
  0
LWPOLYLINE
  5
206AB
100
AcDbEntity
  8
0
100
AcDbPolyline
 70
0
 90
2
 10
-604217.158
 20
-1162478.457
 10
-604212.241
 20
-1162475.361
  0
LWPOLYLINE
  5
206AC
100
AcDbEntity
  8
0
100
AcDbPolyline
 70
0
 90
2
 10
-604155.314
 20
-1162498.47
 10
-604155.281
 20
-1162501.344
  0
LWPOLYLINE
  5
206AD
100
AcDbEntity
  8
0
100
AcDbPolyline
 70
0
 90
2
 10
-604030.012
 20
-1162532.391
 10
-604030.934
 20
-1162535.232
  0
LWPOLYLINE
  5
206AE
100
AcDbEntity
  8
0
100
AcDbPolyline
 70
0
 90
2
 10
-603856.502
 20
-1162513.56
 10
-603855.19
 20
-1162516.511
  0
LWPOLYLINE
  5
206AF
100
AcDbEntity
  8
0
100
AcDbPolyline
 70
0
 90
2
 10
-603700.486
 20
-1162471.3
 10
-603699.717
 20
-1162475.061
  0
LWPOLYLINE
  5
206B0
100
AcDbEntity
  8
0
100
AcDbPolyline
 70
0
 90
2
 10
-601407.052
 20
-1163728.982
 10
-601400.716
 20
-1163735.51
  0
LWPOLYLINE
  5
206B1
100
AcDbEntity
  8
0
100
AcDbPolyline
 70
0
 90
2
 10
-598851.645
 20
-1160335.158
 10
-598853.497
 20
-1160338.227
  0
LWPOLYLINE
  5
206B2
100
AcDbEntity
  8
0
100
AcDbPolyline
 70
0
 90
2
 10
-598853.747
 20
-1160339.466
 10
-598858.21
 20
-1160347.515
  0
LWPOLYLINE
  5
206B3
100
AcDbEntity
  8
0
100
AcDbPolyline
 70
0
 90
2
 10
-591811.097
 20
-1160838.811
 10
-591819.088
 20
-1160839.153
  0
LWPOLYLINE
  5
206B4
100
AcDbEntity
  8
0
100
AcDbPolyline
 70
0
 90
2
 10
-602169.671
 20
-1158496.85
 10
-602173.594
 20
-1158492.176
  0
LWPOLYLINE
  5
206B5
100
AcDbEntity
  8
0
100
AcDbPolyline
 70
0
 90
2
 10
-598706.204
 20
-1157748.906
 10
-598709.041
 20
-1157749.685
  0
LWPOLYLINE
  5
206B6
100
AcDbEntity
  8
0
100
AcDbPolyline
 70
0
 90
2
 10
-598324.982
 20
-1159870.514
 10
-598323.139
 20
-1159873.551
  0
LWPOLYLINE
  5
206B7
100
AcDbEntity
  8
0
100
AcDbPolyline
 70
0
 90
2
 10
-598289.357
 20
-1159946.28
 10
-598283.385
 20
-1159942.721
  0
LWPOLYLINE
  5
206B8
100
AcDbEntity
  8
0
100
AcDbPolyline
 70
0
 90
2
 10
-598569.482
 20
-1159925.577
 10
-598567.26
 20
-1159929.167
  0
LWPOLYLINE
  5
206B9
100
AcDbEntity
  8
0
100
AcDbPolyline
 70
0
 90
2
 10
-606376.461
 20
-1158269.491
 10
-606371.009
 20
-1158273.721
  0
LWPOLYLINE
  5
206BA
100
AcDbEntity
  8
0
100
AcDbPolyline
 70
0
 90
2
 10
-606683.687
 20
-1158137.888
 10
-606681.657
 20
-1158132.306
  0
LWPOLYLINE
  5
206BB
100
AcDbEntity
  8
0
100
AcDbPolyline
 70
0
 90
2
 10
-606369.856
 20
-1158253.944
 10
-606372.638
 20
-1158259.17
  0
LWPOLYLINE
  5
206BC
100
AcDbEntity
  8
0
100
AcDbPolyline
 70
0
 90
2
 10
-606486.645
 20
-1158387.066
 10
-606482.141
 20
-1158392.272
  0
LWPOLYLINE
  5
206BD
100
AcDbEntity
  8
0
100
AcDbPolyline
 70
0
 90
2
 10
-606487.43
 20
-1158372.865
 10
-606485.108
 20
-1158366.236
  0
LWPOLYLINE
  5
206BE
100
AcDbEntity
  8
0
100
AcDbPolyline
 70
0
 90
2
 10
-598929.436
 20
-1160044.66
 10
-598925.068
 20
-1160044.28
  0
LWPOLYLINE
  5
206BF
100
AcDbEntity
  8
0
100
AcDbPolyline
 70
0
 90
2
 10
-598937.797
 20
-1160035.208
 10
-598937.156
 20
-1160040.891
  0
LWPOLYLINE
  5
206C0
100
AcDbEntity
  8
0
100
AcDbPolyline
 70
0
 90
2
 10
-598922.468
 20
-1160034.19
 10
-598921.941
 20
-1160038.921
  0
LWPOLYLINE
  5
206C1
100
AcDbEntity
  8
0
100
AcDbPolyline
 70
0
 90
2
 10
-598957.651
 20
-1159849.989
 10
-598957.128
 20
-1159854.669
  0
LWPOLYLINE
  5
206C2
100
AcDbEntity
  8
0
100
AcDbPolyline
 70
0
 90
2
 10
-598941.932
 20
-1159852.154
 10
-598941.506
 20
-1159856.043
  0
LWPOLYLINE
  5
206C3
100
AcDbEntity
  8
0
100
AcDbPolyline
 70
0
 90
2
 10
-598952.93
 20
-1159861.551
 10
-598948.978
 20
-1159861.245
  0
LWPOLYLINE
  5
206C4
100
AcDbEntity
  8
0
100
AcDbPolyline
 70
0
 90
2
 10
-596889.106
 20
-1160649.938
 10
-596894.613
 20
-1160653.569
  0
LWPOLYLINE
  5
206C5
100
AcDbEntity
  8
0
100
AcDbPolyline
 70
0
 90
2
 10
-596893.528
 20
-1160678.552
 10
-596897.591
 20
-1160672.896
  0
LWPOLYLINE
  5
206C6
100
AcDbEntity
  8
0
100
AcDbPolyline
 70
0
 90
2
 10
-598662.394
 20
-1157952.718
 10
-598661.405
 20
-1157956.438
  0
LWPOLYLINE
  5
206C7
100
AcDbEntity
  8
0
100
AcDbPolyline
 70
0
 90
2
 10
-596269.022
 20
-1160266.427
 10
-596268.421
 20
-1160263.164
  0
LWPOLYLINE
  5
206C8
100
AcDbEntity
  8
0
100
AcDbPolyline
 70
0
 90
2
 10
-596285.959
 20
-1160244.835
 10
-596280.601
 20
-1160246.078
  0
LWPOLYLINE
  5
206C9
100
AcDbEntity
  8
0
100
AcDbPolyline
 70
0
 90
2
 10
-599512.094
 20
-1160511.353
 10
-599519.306
 20
-1160514.392
  0
LWPOLYLINE
  5
206CA
100
AcDbEntity
  8
0
100
AcDbPolyline
 70
0
 90
2
 10
-596370.841
 20
-1158400.615
 10
-596366.233
 20
-1158399.108
  0
LWPOLYLINE
  5
206CB
100
AcDbEntity
  8
0
100
AcDbPolyline
 70
0
 90
2
 10
-596355.246
 20
-1158399.551
 10
-596350.461
 20
-1158398.488
  0
LWPOLYLINE
  5
206CC
100
AcDbEntity
  8
0
100
AcDbPolyline
 70
0
 90
2
 10
-596323.049
 20
-1158422.089
 10
-596321.057
 20
-1158416.46
  0
LWPOLYLINE
  5
206CD
100
AcDbEntity
  8
0
100
AcDbPolyline
 70
0
 90
2
 10
-598662.592
 20
-1159740.814
 10
-598666.655
 20
-1159734.063
  0
LWPOLYLINE
  5
206CE
100
AcDbEntity
  8
0
100
AcDbPolyline
 70
0
 90
2
 10
-597380.692
 20
-1164037.078
 10
-597381.583
 20
-1164050.228
  0
LWPOLYLINE
  5
206CF
100
AcDbEntity
  8
0
100
AcDbPolyline
 70
0
 90
2
 10
-597355.427
 20
-1164037.8
 10
-597341.89
 20
-1164038.785
  0
LWPOLYLINE
  5
206D0
100
AcDbEntity
  8
0
100
AcDbPolyline
 70
0
 90
2
 10
-600792.866
 20
-1158248.774
 10
-600795.199
 20
-1158256.445
  0
LWPOLYLINE
  5
206D1
100
AcDbEntity
  8
0
100
AcDbPolyline
 70
0
 90
2
 10
-598976.601
 20
-1153866.881
 10
-598973.473
 20
-1153873.035
  0
LWPOLYLINE
  5
206D2
100
AcDbEntity
  8
0
100
AcDbPolyline
 70
0
 90
2
 10
-598717.371
 20
-1153862.844
 10
-598723.469
 20
-1153866.799
  0
LWPOLYLINE
  5
206D3
100
AcDbEntity
  8
0
100
AcDbPolyline
 70
0
 90
2
 10
-601938.183
 20
-1162974.856
 10
-601935.25
 20
-1162981.081
  0
LWPOLYLINE
  5
206D4
100
AcDbEntity
  8
0
100
AcDbPolyline
 70
0
 90
2
 10
-600581.906
 20
-1163506.763
 10
-600573.396
 20
-1163507.404
  0
LWPOLYLINE
  5
206D5
100
AcDbEntity
  8
0
100
AcDbPolyline
 70
0
 90
2
 10
-600579.266
 20
-1163515.766
 10
-600574.261
 20
-1163516.148
  0
LWPOLYLINE
  5
206D6
100
AcDbEntity
  8
0
100
AcDbPolyline
 70
0
 90
2
 10
-602124.732
 20
-1163143.698
 10
-602118.253
 20
-1163139.139
  0
LWPOLYLINE
  5
206D7
100
AcDbEntity
  8
0
100
AcDbPolyline
 70
0
 90
2
 10
-602333.166
 20
-1163510.944
 10
-602332.836
 20
-1163504.948
  0
LWPOLYLINE
  5
206D8
100
AcDbEntity
  8
0
100
AcDbPolyline
 70
0
 90
2
 10
-601763.182
 20
-1163540.703
 10
-601761.587
 20
-1163533.76
  0
LWPOLYLINE
  5
206D9
100
AcDbEntity
  8
0
100
AcDbPolyline
 70
0
 90
2
 10
-601736.496
 20
-1163535.404
 10
-601726.029
 20
-1163538.128
  0
LWPOLYLINE
  5
206DA
100
AcDbEntity
  8
0
100
AcDbPolyline
 70
0
 90
2
 10
-601648.951
 20
-1163572.707
 10
-601655.579
 20
-1163570.21
  0
LWPOLYLINE
  5
206DB
100
AcDbEntity
  8
0
100
AcDbPolyline
 70
0
 90
2
 10
-601408.629
 20
-1163548.163
 10
-601402.449
 20
-1163539.109
  0
LWPOLYLINE
  5
206DC
100
AcDbEntity
  8
0
100
AcDbPolyline
 70
0
 90
2
 10
-601414.956
 20
-1163549.33
 10
-601422.108
 20
-1163544.485
  0
LWPOLYLINE
  5
206DD
100
AcDbEntity
  8
0
100
AcDbPolyline
 70
0
 90
2
 10
-595260.593
 20
-1167452.214
 10
-595261.453
 20
-1167446.114
  0
LWPOLYLINE
  5
206DE
100
AcDbEntity
  8
0
100
AcDbPolyline
 70
0
 90
2
 10
-594853.506
 20
-1167180.509
 10
-594846.746
 20
-1167184.734
  0
LWPOLYLINE
  5
206DF
100
AcDbEntity
  8
0
100
AcDbPolyline
 70
0
 90
2
 10
-598873.928
 20
-1154017.806
 10
-598868.99
 20
-1154024.131
  0
LWPOLYLINE
  5
206E0
100
AcDbEntity
  8
0
100
AcDbPolyline
 70
0
 90
2
 10
-603859.419
 20
-1160561.298
 10
-603865.235
 20
-1160561.731
  0
LWPOLYLINE
  5
206E1
100
AcDbEntity
  8
0
100
AcDbPolyline
 70
0
 90
2
 10
-599562.167
 20
-1158673.363
 10
-599557.479
 20
-1158676.398
  0
LWPOLYLINE
  5
206E2
100
AcDbEntity
  8
0
100
AcDbPolyline
 70
0
 90
2
 10
-599461.689
 20
-1158528.635
 10
-599457.032
 20
-1158531.37
  0
LWPOLYLINE
  5
206E3
100
AcDbEntity
  8
0
100
AcDbPolyline
 70
0
 90
2
 10
-599326.089
 20
-1164714.31
 10
-599317.122
 20
-1164714.606
  0
LWPOLYLINE
  5
206E4
100
AcDbEntity
  8
0
100
AcDbPolyline
 70
0
 90
2
 10
-606958.523
 20
-1158460.015
 10
-606956.017
 20
-1158455.628
  0
LWPOLYLINE
  5
206E5
100
AcDbEntity
  8
0
100
AcDbPolyline
 70
0
 90
2
 10
-597427.321
 20
-1161385.4
 10
-597420.535
 20
-1161389.003
  0
LWPOLYLINE
  5
206E6
100
AcDbEntity
  8
0
100
AcDbPolyline
 70
0
 90
2
 10
-601870.357
 20
-1162264.939
 10
-601868.124
 20
-1162258.347
  0
LWPOLYLINE
  5
206E7
100
AcDbEntity
  8
0
100
AcDbPolyline
 70
0
 90
2
 10
-601862.253
 20
-1162249.761
 10
-601855.874
 20
-1162251.104
  0
LWPOLYLINE
  5
206E8
100
AcDbEntity
  8
0
100
AcDbPolyline
 70
0
 90
2
 10
-597789.696
 20
-1164293.417
 10
-597783.942
 20
-1164290.232
  0
LWPOLYLINE
  5
206E9
100
AcDbEntity
  8
0
100
AcDbPolyline
 70
0
 90
2
 10
-600761.478
 20
-1160502.216
 10
-600756.734
 20
-1160505.783
  0
LWPOLYLINE
  5
206EA
100
AcDbEntity
  8
0
100
AcDbPolyline
 70
0
 90
2
 10
-600746.59
 20
-1160507.769
 10
-600742.658
 20
-1160502.551
  0
LWPOLYLINE
  5
206EB
100
AcDbEntity
  8
0
100
AcDbPolyline
 70
0
 90
2
 10
-600041.722
 20
-1157066.393
 10
-600041.07
 20
-1157072.356
  0
LWPOLYLINE
  5
206EC
100
AcDbEntity
  8
0
100
AcDbPolyline
 70
0
 90
2
 10
-603868.094
 20
-1160562.122
 10
-603872.069
 20
-1160562.497
  0
LWPOLYLINE
  5
206ED
100
AcDbEntity
  8
0
100
AcDbPolyline
 70
0
 90
2
 10
-594685.258
 20
-1167006.051
 10
-594690.258
 20
-1167002.5
  0
LWPOLYLINE
  5
206EE
100
AcDbEntity
  8
0
100
AcDbPolyline
 70
0
 90
2
 10
-594478.655
 20
-1167145.952
 10
-594474.566
 20
-1167140.347
  0
LWPOLYLINE
  5
206EF
100
AcDbEntity
  8
0
100
AcDbPolyline
 70
0
 90
2
 10
-606840.049
 20
-1158481.527
 10
-606839.823
 20
-1158487.798
  0
LWPOLYLINE
  5
206F0
100
AcDbEntity
  8
0
100
AcDbPolyline
 70
0
 90
2
 10
-598259.37
 20
-1161429.161
 10
-598246.173
 20
-1161433.282
  0
LWPOLYLINE
  5
206F1
100
AcDbEntity
  8
0
100
AcDbPolyline
 70
0
 90
2
 10
-600241.172
 20
-1155039.688
 10
-600245.906
 20
-1155033.68
  0
LWPOLYLINE
  5
206F2
100
AcDbEntity
  8
0
100
AcDbPolyline
 70
0
 90
2
 10
-600176.952
 20
-1155122.856
 10
-600181.006
 20
-1155117.789
  0
LWPOLYLINE
  5
206F3
100
AcDbEntity
  8
0
100
AcDbPolyline
 70
0
 90
2
 10
-600177.018
 20
-1155127.667
 10
-600179.364
 20
-1155129.535
  0
LWPOLYLINE
  5
206F4
100
AcDbEntity
  8
0
100
AcDbPolyline
 70
0
 90
2
 10
-601035.698
 20
-1163392.183
 10
-601030.823
 20
-1163395.64
  0
LWPOLYLINE
  5
206F5
100
AcDbEntity
  8
0
100
AcDbPolyline
 70
0
 90
2
 10
-595207.533
 20
-1161560.013
 10
-595204.405
 20
-1161553.423
  0
LWPOLYLINE
  5
206F6
100
AcDbEntity
  8
0
100
AcDbPolyline
 70
0
 90
2
 10
-601336.205
 20
-1163282.115
 10
-601331.896
 20
-1163287.1
  0
LWPOLYLINE
  5
206F7
100
AcDbEntity
  8
0
100
AcDbPolyline
 70
0
 90
2
 10
-599727.92
 20
-1161232.154
 10
-599724.085
 20
-1161228.864
  0
LWPOLYLINE
  5
206F8
100
AcDbEntity
  8
0
100
AcDbPolyline
 70
0
 90
2
 10
-599711.359
 20
-1161222.931
 10
-599705.139
 20
-1161226.316
  0
LWPOLYLINE
  5
206F9
100
AcDbEntity
  8
0
100
AcDbPolyline
 70
0
 90
2
 10
-599716.176
 20
-1161212.42
 10
-599715.947
 20
-1161216.198
  0
LWPOLYLINE
  5
206FA
100
AcDbEntity
  8
0
100
AcDbPolyline
 70
0
 90
2
 10
-599716.382
 20
-1161209.696
 10
-599716.672
 20
-1161204.988
  0
LWPOLYLINE
  5
206FB
100
AcDbEntity
  8
0
100
AcDbPolyline
 70
0
 90
2
 10
-602020.532
 20
-1163013.109
 10
-602018.024
 20
-1163019.566
  0
LWPOLYLINE
  5
206FC
100
AcDbEntity
  8
0
100
AcDbPolyline
 70
0
 90
2
 10
-603048.411
 20
-1162659.045
 10
-603054.327
 20
-1162658.552
  0
LWPOLYLINE
  5
206FD
100
AcDbEntity
  8
0
100
AcDbPolyline
 70
0
 90
2
 10
-601909.642
 20
-1162977.022
 10
-601903.966
 20
-1162973.836
  0
LWPOLYLINE
  5
206FE
100
AcDbEntity
  8
0
100
AcDbPolyline
 70
0
 90
2
 10
-602019.536
 20
-1162524.105
 10
-602013.779
 20
-1162524.914
  0
LWPOLYLINE
  5
206FF
100
AcDbEntity
  8
0
100
AcDbPolyline
 70
0
 90
2
 10
-601984.284
 20
-1162528.515
 10
-601980.865
 20
-1162523.691
  0
LWPOLYLINE
  5
20700
100
AcDbEntity
  8
0
100
AcDbPolyline
 70
0
 90
2
 10
-599156.738
 20
-1165048.157
 10
-599156.42
 20
-1165036.273
  0
LWPOLYLINE
  5
20701
100
AcDbEntity
  8
0
100
AcDbPolyline
 70
0
 90
2
 10
-599424.682
 20
-1164741.837
 10
-599414.749
 20
-1164737.901
  0
LWPOLYLINE
  5
20702
100
AcDbEntity
  8
0
100
AcDbPolyline
 70
0
 90
2
 10
-599320.838
 20
-1164165.047
 10
-599314.012
 20
-1164169.054
  0
LWPOLYLINE
  5
20703
100
AcDbEntity
  8
0
100
AcDbPolyline
 70
0
 90
2
 10
-599354.336
 20
-1164171.19
 10
-599347.543
 20
-1164158.268
  0
LWPOLYLINE
  5
20704
100
AcDbEntity
  8
0
100
AcDbPolyline
 70
0
 90
2
 10
-597660.506
 20
-1164706.111
 10
-597661.225
 20
-1164699.307
  0
LWPOLYLINE
  5
20705
100
AcDbEntity
  8
0
100
AcDbPolyline
 70
0
 90
2
 10
-601772.892
 20
-1157745.881
 10
-601769.262
 20
-1157750.373
  0
LWPOLYLINE
  5
20706
100
AcDbEntity
  8
0
100
AcDbPolyline
 70
0
 90
2
 10
-602359.523
 20
-1157571.744
 10
-602351.028
 20
-1157569.641
  0
LWPOLYLINE
  5
20707
100
AcDbEntity
  8
0
100
AcDbPolyline
 70
0
 90
2
 10
-602976.704
 20
-1157040.154
 10
-602976.777
 20
-1157054.534
  0
LWPOLYLINE
  5
20708
100
AcDbEntity
  8
0
100
AcDbPolyline
 70
0
 90
2
 10
-602947.353
 20
-1156942.663
 10
-602941.769
 20
-1156940.671
  0
LWPOLYLINE
  5
20709
100
AcDbEntity
  8
0
100
AcDbPolyline
 70
0
 90
2
 10
-596836.852
 20
-1159015.468
 10
-596830.625
 20
-1159019.868
  0
LWPOLYLINE
  5
2070A
100
AcDbEntity
  8
0
100
AcDbPolyline
 70
0
 90
2
 10
-598491.992
 20
-1161302.397
 10
-598492.801
 20
-1161307.808
  0
LWPOLYLINE
  5
2070B
100
AcDbEntity
  8
0
100
AcDbPolyline
 70
0
 90
2
 10
-596337.879
 20
-1159276.761
 10
-596332.403
 20
-1159279.714
  0
LWPOLYLINE
  5
2070C
100
AcDbEntity
  8
0
100
AcDbPolyline
 70
0
 90
2
 10
-601261.932
 20
-1163134.027
 10
-601259.335
 20
-1163128.154
  0
LWPOLYLINE
  5
2070D
100
AcDbEntity
  8
0
100
AcDbPolyline
 70
0
 90
2
 10
-605087.474
 20
-1157136.326
 10
-605087.351
 20
-1157140.359
  0
LWPOLYLINE
  5
2070E
100
AcDbEntity
  8
0
100
AcDbPolyline
 70
0
 90
2
 10
-597803.014
 20
-1161701.061
 10
-597800.105
 20
-1161707.09
  0
LWPOLYLINE
  5
2070F
100
AcDbEntity
  8
0
100
AcDbPolyline
 70
0
 90
2
 10
-599216.036
 20
-1161582.239
 10
-599200.04
 20
-1161580.561
  0
LWPOLYLINE
  5
20710
100
AcDbEntity
  8
0
100
AcDbPolyline
 70
0
 90
2
 10
-598554.068
 20
-1158254.486
 10
-598557.854
 20
-1158255.567
  0
LWPOLYLINE
  5
20711
100
AcDbEntity
  8
0
100
AcDbPolyline
 70
0
 90
2
 10
-598567.611
 20
-1158258.402
 10
-598570.404
 20
-1158259.142
  0
LWPOLYLINE
  5
20712
100
AcDbEntity
  8
0
100
AcDbPolyline
 70
0
 90
2
 10
-598464.802
 20
-1158602.958
 10
-598461.081
 20
-1158601.97
  0
LWPOLYLINE
  5
20713
100
AcDbEntity
  8
0
100
AcDbPolyline
 70
0
 90
2
 10
-598475.28
 20
-1158605.681
 10
-598477.976
 20
-1158606.431
  0
LWPOLYLINE
  5
20714
100
AcDbEntity
  8
0
100
AcDbPolyline
 70
0
 90
2
 10
-596548.516
 20
-1161857.998
 10
-596554.522
 20
-1161861.806
  0
LWPOLYLINE
  5
20715
100
AcDbEntity
  8
0
100
AcDbPolyline
 70
0
 90
2
 10
-597458.547
 20
-1164031.502
 10
-597458.831
 20
-1164035.586
  0
LWPOLYLINE
  5
20716
100
AcDbEntity
  8
0
100
AcDbPolyline
 70
0
 90
2
 10
-597459.114
 20
-1164040.634
 10
-597459.398
 20
-1164044.661
  0
LWPOLYLINE
  5
20717
100
AcDbEntity
  8
0
100
AcDbPolyline
 70
0
 90
2
 10
-599849.433
 20
-1153251.891
 10
-599846.193
 20
-1153249.838
  0
LWPOLYLINE
  5
20718
100
AcDbEntity
  8
0
100
AcDbPolyline
 70
0
 90
2
 10
-599853.73
 20
-1153251.137
 10
-599865.387
 20
-1153245.635
  0
LWPOLYLINE
  5
20719
100
AcDbEntity
  8
0
100
AcDbPolyline
 70
0
 90
2
 10
-596074.553
 20
-1157046.525
 10
-596070.482
 20
-1157046.34
  0
LWPOLYLINE
  5
2071A
100
AcDbEntity
  8
0
100
AcDbPolyline
 70
0
 90
2
 10
-596152.394
 20
-1157524.024
 10
-596148.663
 20
-1157525.48
  0
LWPOLYLINE
  5
2071B
100
AcDbEntity
  8
0
100
AcDbPolyline
 70
0
 90
2
 10
-596274.42
 20
-1157802.104
 10
-596270.662
 20
-1157803.779
  0
LWPOLYLINE
  5
2071C
100
AcDbEntity
  8
0
100
AcDbPolyline
 70
0
 90
2
 10
-598411.263
 20
-1160123.016
 10
-598409.168
 20
-1160126.231
  0
LWPOLYLINE
  5
2071D
100
AcDbEntity
  8
0
100
AcDbPolyline
 70
0
 90
2
 10
-595770.371
 20
-1160400.285
 10
-595775.963
 20
-1160405.602
  0
LWPOLYLINE
  5
2071E
100
AcDbEntity
  8
0
100
AcDbPolyline
 70
0
 90
2
 10
-594806.094
 20
-1162557.977
 10
-594802.879
 20
-1162551.025
  0
LWPOLYLINE
  5
2071F
100
AcDbEntity
  8
0
100
AcDbPolyline
 70
0
 90
2
 10
-601265.764
 20
-1162607.723
 10
-601268.593
 20
-1162613.258
  0
LWPOLYLINE
  5
20720
100
AcDbEntity
  8
0
100
AcDbPolyline
 70
0
 90
2
 10
-600935.42
 20
-1160845.648
 10
-600927.348
 20
-1160847.309
  0
LWPOLYLINE
  5
20721
100
AcDbEntity
  8
0
100
AcDbPolyline
 70
0
 90
2
 10
-597068.676
 20
-1157801.348
 10
-597066.617
 20
-1157797.554
  0
LWPOLYLINE
  5
20722
100
AcDbEntity
  8
0
100
AcDbPolyline
 70
0
 90
2
 10
-592191.309
 20
-1160087.979
 10
-592183.602
 20
-1160091.151
  0
LWPOLYLINE
  5
20723
100
AcDbEntity
  8
0
100
AcDbPolyline
 70
0
 90
2
 10
-596732.315
 20
-1160451.614
 10
-596726.276
 20
-1160457.441
  0
LWPOLYLINE
  5
20724
100
AcDbEntity
  8
0
100
AcDbPolyline
 70
0
 90
2
 10
-596688.635
 20
-1160494.595
 10
-596683.564
 20
-1160500.952
  0
LWPOLYLINE
  5
20725
100
AcDbEntity
  8
0
100
AcDbPolyline
 70
0
 90
2
 10
-597687.726
 20
-1160937.711
 10
-597683.844
 20
-1160929.599
  0
LWPOLYLINE
  5
20726
100
AcDbEntity
  8
0
100
AcDbPolyline
 70
0
 90
2
 10
-597698.621
 20
-1160936.505
 10
-597694.64
 20
-1160938.511
  0
LWPOLYLINE
  5
20727
100
AcDbEntity
  8
0
100
AcDbPolyline
 70
0
 90
2
 10
-599150.795
 20
-1164105.914
 10
-599152.576
 20
-1164110.614
  0
LWPOLYLINE
  5
20728
100
AcDbEntity
  8
0
100
AcDbPolyline
 70
0
 90
2
 10
-599152.718
 20
-1164113.961
 10
-599150.653
 20
-1164119.979
  0
LWPOLYLINE
  5
20729
100
AcDbEntity
  8
0
100
AcDbPolyline
 70
0
 90
2
 10
-597361.684
 20
-1162822.714
 10
-597362.26
 20
-1162830.623
  0
LWPOLYLINE
  5
2072A
100
AcDbEntity
  8
0
100
AcDbPolyline
 70
0
 90
2
 10
-597652.594
 20
-1159934.659
 10
-597652.723
 20
-1159940.641
  0
LWPOLYLINE
  5
2072B
100
AcDbEntity
  8
0
100
AcDbPolyline
 70
0
 90
2
 10
-599100.535
 20
-1156429.755
 10
-599097.971
 20
-1156438.386
  0
LWPOLYLINE
  5
2072C
100
AcDbEntity
  8
0
100
AcDbPolyline
 70
0
 90
2
 10
-602174.782
 20
-1157568.826
 10
-602171.778
 20
-1157574.894
  0
LWPOLYLINE
  5
2072D
100
AcDbEntity
  8
0
100
AcDbPolyline
 70
0
 90
2
 10
-602633.573
 20
-1157613.318
 10
-602635.576
 20
-1157620.329
  0
LWPOLYLINE
  5
2072E
100
AcDbEntity
  8
0
100
AcDbPolyline
 70
0
 90
2
 10
-599074.657
 20
-1158722.612
 10
-599070.778
 20
-1158721.549
  0
LWPOLYLINE
  5
2072F
100
AcDbEntity
  8
0
100
AcDbPolyline
 70
0
 90
2
 10
-599916.547
 20
-1156627.811
 10
-599913.534
 20
-1156630.534
  0
LWPOLYLINE
  5
20730
100
AcDbEntity
  8
0
100
AcDbPolyline
 70
0
 90
2
 10
-599918.967
 20
-1156625.14
 10
-599922.207
 20
-1156622.728
  0
LWPOLYLINE
  5
20731
100
AcDbEntity
  8
0
100
AcDbPolyline
 70
0
 90
2
 10
-602908.879
 20
-1156927.984
 10
-602903.157
 20
-1156925.616
  0
LWPOLYLINE
  5
20732
100
AcDbEntity
  8
0
100
AcDbPolyline
 70
0
 90
2
 10
-596928.504
 20
-1157576.396
 10
-596934.761
 20
-1157569.14
  0
LWPOLYLINE
  5
20733
100
AcDbEntity
  8
0
100
AcDbPolyline
 70
0
 90
2
 10
-594807.177
 20
-1162560.932
 10
-594808.658
 20
-1162564.408
  0
LWPOLYLINE
  5
20734
100
AcDbEntity
  8
0
100
AcDbPolyline
 70
0
 90
2
 10
-594418.711
 20
-1162859.003
 10
-594424.25
 20
-1162863.311
  0
LWPOLYLINE
  5
20735
100
AcDbEntity
  8
0
100
AcDbPolyline
 70
0
 90
2
 10
-594415.306
 20
-1162829.096
 10
-594417.957
 20
-1162825.891
  0
LWPOLYLINE
  5
20736
100
AcDbEntity
  8
0
100
AcDbPolyline
 70
0
 90
2
 10
-594423.536
 20
-1162818.689
 10
-594419.659
 20
-1162823.952
  0
LWPOLYLINE
  5
20737
100
AcDbEntity
  8
0
100
AcDbPolyline
 70
0
 90
2
 10
-594445.034
 20
-1162850.812
 10
-594447.97
 20
-1162846.742
  0
LWPOLYLINE
  5
20738
100
AcDbEntity
  8
0
100
AcDbPolyline
 70
0
 90
2
 10
-594449.415
 20
-1162844.353
 10
-594452.331
 20
-1162840.514
  0
LWPOLYLINE
  5
20739
100
AcDbEntity
  8
0
100
AcDbPolyline
 70
0
 90
2
 10
-593991.166
 20
-1163409.095
 10
-593986.319
 20
-1163404.709
  0
LWPOLYLINE
  5
2073A
100
AcDbEntity
  8
0
100
AcDbPolyline
 70
0
 90
2
 10
-593984.538
 20
-1163403.126
 10
-593981.472
 20
-1163400.258
  0
LWPOLYLINE
  5
2073B
100
AcDbEntity
  8
0
100
AcDbPolyline
 70
0
 90
2
 10
-593989.363
 20
-1163434.388
 10
-593983.607
 20
-1163440.804
  0
LWPOLYLINE
  5
2073C
100
AcDbEntity
  8
0
100
AcDbPolyline
 70
0
 90
2
 10
-593589.107
 20
-1160523.26
 10
-593589.782
 20
-1160520.424
  0
LWPOLYLINE
  5
2073D
100
AcDbEntity
  8
0
100
AcDbPolyline
 70
0
 90
2
 10
-592273.926
 20
-1163171.757
 10
-592265.26
 20
-1163174.446
  0
LWPOLYLINE
  5
2073E
100
AcDbEntity
  8
0
100
AcDbPolyline
 70
0
 90
2
 10
-598669.417
 20
-1161869.327
 10
-598664.07
 20
-1161873.53
  0
LWPOLYLINE
  5
2073F
100
AcDbEntity
  8
0
100
AcDbPolyline
 70
0
 90
2
 10
-596868.985
 20
-1160659.951
 10
-596873.02
 20
-1160654.493
  0
LWPOLYLINE
  5
20740
100
AcDbEntity
  8
0
100
AcDbPolyline
 70
0
 90
2
 10
-598676.889
 20
-1161863.966
 10
-598672.714
 20
-1161867.292
  0
LWPOLYLINE
  5
20741
100
AcDbEntity
  8
0
100
AcDbPolyline
 70
0
 90
2
 10
-599759.1
 20
-1155063.217
 10
-599764.961
 20
-1155068.88
  0
LWPOLYLINE
  5
20742
100
AcDbEntity
  8
0
100
AcDbPolyline
 70
0
 90
2
 10
-593575.308
 20
-1160773.771
 10
-593562.737
 20
-1160770.319
  0
LWPOLYLINE
  5
20743
100
AcDbEntity
  8
0
100
AcDbPolyline
 70
0
 90
2
 10
-593565.237
 20
-1160742.024
 10
-593561.962
 20
-1160753.422
  0
LWPOLYLINE
  5
20744
100
AcDbEntity
  8
0
100
AcDbPolyline
 70
0
 90
2
 10
-598553.099
 20
-1157831.407
 10
-598547.082
 20
-1157830.971
  0
LWPOLYLINE
  5
20745
100
AcDbEntity
  8
0
100
AcDbPolyline
 70
0
 90
2
 10
-600281.07
 20
-1162757.834
 10
-600274.313
 20
-1162748.124
  0
LWPOLYLINE
  5
20746
100
AcDbEntity
  8
0
100
AcDbPolyline
 70
0
 90
2
 10
-593270.059
 20
-1160216.285
 10
-593263.109
 20
-1160217.777
  0
LWPOLYLINE
  5
20747
100
AcDbEntity
  8
0
100
AcDbPolyline
 70
0
 90
2
 10
-593702.266
 20
-1160365.674
 10
-593696.574
 20
-1160364.29
  0
LWPOLYLINE
  5
20748
100
AcDbEntity
  8
0
100
AcDbPolyline
 70
0
 90
2
 10
-599314.861
 20
-1160979.189
 10
-599309.217
 20
-1160980.288
  0
LWPOLYLINE
  5
20749
100
AcDbEntity
  8
0
100
AcDbPolyline
 70
0
 90
2
 10
-600307.756
 20
-1154947.623
 10
-600303.534
 20
-1154953.161
  0
LWPOLYLINE
  5
2074A
100
AcDbEntity
  8
0
100
AcDbPolyline
 70
0
 90
2
 10
-600087.478
 20
-1156892.679
 10
-600081.94
 20
-1156886.423
  0
LWPOLYLINE
  5
2074B
100
AcDbEntity
  8
0
100
AcDbPolyline
 70
0
 90
2
 10
-602000.589
 20
-1163330.925
 10
-601992.538
 20
-1163332.775
  0
LWPOLYLINE
  5
2074C
100
AcDbEntity
  8
0
100
AcDbPolyline
 70
0
 90
2
 10
-598759.99
 20
-1153916.736
 10
-598764.197
 20
-1153912.5
  0
LWPOLYLINE
  5
2074D
100
AcDbEntity
  8
0
100
AcDbPolyline
 70
0
 90
2
 10
-596966.803
 20
-1159452.763
 10
-596959.041
 20
-1159454.377
  0
LWPOLYLINE
  5
2074E
100
AcDbEntity
  8
0
100
AcDbPolyline
 70
0
 90
2
 10
-596382.407
 20
-1159361.968
 10
-596376.128
 20
-1159364.906
  0
LWPOLYLINE
  5
2074F
100
AcDbEntity
  8
0
100
AcDbPolyline
 70
0
 90
2
 10
-598104.762
 20
-1160311.059
 10
-598097.783
 20
-1160310.987
  0
LWPOLYLINE
  5
20750
100
AcDbEntity
  8
0
100
AcDbPolyline
 70
0
 90
2
 10
-598723.905
 20
-1161571.105
 10
-598722.07
 20
-1161569.27
  0
LWPOLYLINE
  5
20751
100
AcDbEntity
  8
0
100
AcDbPolyline
 70
0
 90
2
 10
-597359.797
 20
-1159563.69
 10
-597361.83
 20
-1159558.723
  0
LWPOLYLINE
  5
20752
100
AcDbEntity
  8
0
100
AcDbPolyline
 70
0
 90
2
 10
-596983.68
 20
-1159590.664
 10
-596991.492
 20
-1159588.908
  0
LWPOLYLINE
  5
20753
100
AcDbEntity
  8
0
100
AcDbPolyline
 70
0
 90
2
 10
-594459.187
 20
-1159921.231
 10
-594459.498
 20
-1159924.236
  0
LWPOLYLINE
  5
20754
100
AcDbEntity
  8
0
100
AcDbPolyline
 70
0
 90
2
 10
-594073.619
 20
-1159909.356
 10
-594071.611
 20
-1159912.87
  0
LWPOLYLINE
  5
20755
100
AcDbEntity
  8
0
100
AcDbPolyline
 70
0
 90
2
 10
-598150.739
 20
-1159295.065
 10
-598148.591
 20
-1159300.773
  0
LWPOLYLINE
  5
20756
100
AcDbEntity
  8
0
100
AcDbPolyline
 70
0
 90
2
 10
-597932.669
 20
-1159198.919
 10
-597935.523
 20
-1159193.761
  0
LWPOLYLINE
  5
20757
100
AcDbEntity
  8
0
100
AcDbPolyline
 70
0
 90
2
 10
-592532.346
 20
-1163215.252
 10
-592522.678
 20
-1163205.508
  0
LWPOLYLINE
  5
20758
100
AcDbEntity
  8
0
100
AcDbPolyline
 70
0
 90
2
 10
-600417.022
 20
-1157794.283
 10
-600411.104
 20
-1157809.178
  0
LWPOLYLINE
  5
20759
100
AcDbEntity
  8
0
100
AcDbPolyline
 70
0
 90
2
 10
-604522.704
 20
-1156974.973
 10
-604526.411
 20
-1156980.442
  0
LWPOLYLINE
  5
2075A
100
AcDbEntity
  8
0
100
AcDbPolyline
 70
0
 90
2
 10
-594735.248
 20
-1161630.064
 10
-594733.83
 20
-1161627.72
  0
LWPOLYLINE
  5
2075B
100
AcDbEntity
  8
0
100
AcDbPolyline
 70
0
 90
2
 10
-594554.02
 20
-1166603.26
 10
-594556.956
 20
-1166600.902
  0
LWPOLYLINE
  5
2075C
100
AcDbEntity
  8
0
100
AcDbPolyline
 70
0
 90
2
 10
-601376.759
 20
-1158042.174
 10
-601376.848
 20
-1158055.868
  0
LWPOLYLINE
  5
2075D
100
AcDbEntity
  8
0
100
AcDbPolyline
 70
0
 90
2
 10
-601376.736
 20
-1158034.362
 10
-601376.708
 20
-1158027.077
  0
LWPOLYLINE
  5
2075E
100
AcDbEntity
  8
0
100
AcDbPolyline
 70
0
 90
2
 10
-597883.156
 20
-1163467.809
 10
-597880.165
 20
-1163488.819
  0
LWPOLYLINE
  5
2075F
100
AcDbEntity
  8
0
100
AcDbPolyline
 70
0
 90
2
 10
-596196.101
 20
-1159054.44
 10
-596201.339
 20
-1159051.171
  0
LWPOLYLINE
  5
20760
100
AcDbEntity
  8
0
100
AcDbPolyline
 70
0
 90
2
 10
-599514.896
 20
-1161376.148
 10
-599512.361
 20
-1161380.331
  0
LWPOLYLINE
  5
20761
100
AcDbEntity
  8
0
100
AcDbPolyline
 70
0
 90
2
 10
-599530.562
 20
-1161375.723
 10
-599525.617
 20
-1161375.129
  0
LWPOLYLINE
  5
20762
100
AcDbEntity
  8
0
100
AcDbPolyline
 70
0
 90
2
 10
-599666.894
 20
-1161471.254
 10
-599669.35
 20
-1161473.28
  0
LWPOLYLINE
  5
20763
100
AcDbEntity
  8
0
100
AcDbPolyline
 70
0
 90
2
 10
-599828.638
 20
-1161627.616
 10
-599826.245
 20
-1161630.506
  0
LWPOLYLINE
  5
20764
100
AcDbEntity
  8
0
100
AcDbPolyline
 70
0
 90
2
 10
-597978.674
 20
-1158284.504
 10
-597971.335
 20
-1158280.697
  0
LWPOLYLINE
  5
20765
100
AcDbEntity
  8
0
100
AcDbPolyline
 70
0
 90
2
 10
-604619.807
 20
-1157018.262
 10
-604625.96
 20
-1157019.386
  0
LWPOLYLINE
  5
20766
100
AcDbEntity
  8
0
100
AcDbPolyline
 70
0
 90
2
 10
-604527.304
 20
-1156997.933
 10
-604524.6
 20
-1157003.487
  0
LWPOLYLINE
  5
20767
100
AcDbEntity
  8
0
100
AcDbPolyline
 70
0
 90
2
 10
-604509.218
 20
-1157008.076
 10
-604504.557
 20
-1157006.084
  0
LWPOLYLINE
  5
20768
100
AcDbEntity
  8
0
100
AcDbPolyline
 70
0
 90
2
 10
-604489.581
 20
-1156986.698
 10
-604492.706
 20
-1156980.802
  0
LWPOLYLINE
  5
20769
100
AcDbEntity
  8
0
100
AcDbPolyline
 70
0
 90
2
 10
-597034.834
 20
-1162652.064
 10
-597040.321
 20
-1162654.373
  0
LWPOLYLINE
  5
2076A
100
AcDbEntity
  8
0
100
AcDbPolyline
 70
0
 90
2
 10
-595500.138
 20
-1160207.049
 10
-595498.713
 20
-1160212.179
  0
LWPOLYLINE
  5
2076B
100
AcDbEntity
  8
0
100
AcDbPolyline
 70
0
 90
2
 10
-593701.014
 20
-1160348.001
 10
-593707.719
 20
-1160348.093
  0
LWPOLYLINE
  5
2076C
100
AcDbEntity
  8
0
100
AcDbPolyline
 70
0
 90
2
 10
-602306.573
 20
-1163501.422
 10
-602299.291
 20
-1163501.832
  0
LWPOLYLINE
  5
2076D
100
AcDbEntity
  8
0
100
AcDbPolyline
 70
0
 90
2
 10
-595861.982
 20
-1168139.112
 10
-595860.907
 20
-1168144.979
  0
LWPOLYLINE
  5
2076E
100
AcDbEntity
  8
0
100
AcDbPolyline
 70
0
 90
2
 10
-595760.135
 20
-1158738.604
 10
-595757.329
 20
-1158728.044
  0
LWPOLYLINE
  5
2076F
100
AcDbEntity
  8
0
100
AcDbPolyline
 70
0
 90
2
 10
-595753.787
 20
-1158748.945
 10
-595759.628
 20
-1158745.356
  0
LWPOLYLINE
  5
20770
100
AcDbEntity
  8
0
100
AcDbPolyline
 70
0
 90
2
 10
-598011.858
 20
-1158301.166
 10
-598005.295
 20
-1158298.063
  0
LWPOLYLINE
  5
20771
100
AcDbEntity
  8
0
100
AcDbPolyline
 70
0
 90
2
 10
-595925.751
 20
-1165846.402
 10
-595931.602
 20
-1165846.423
  0
LWPOLYLINE
  5
20772
100
AcDbEntity
  8
0
100
AcDbPolyline
 70
0
 90
2
 10
-605575.85
 20
-1157451.64
 10
-605587.47
 20
-1157450.905
  0
LWPOLYLINE
  5
20773
100
AcDbEntity
  8
0
100
AcDbPolyline
 70
0
 90
2
 10
-601644.024
 20
-1163819.066
 10
-601645.17
 20
-1163823.06
  0
LWPOLYLINE
  5
20774
100
AcDbEntity
  8
0
100
AcDbPolyline
 70
0
 90
2
 10
-601860.518
 20
-1163762.2
 10
-601854.057
 20
-1163764.311
  0
LWPOLYLINE
  5
20775
100
AcDbEntity
  8
0
100
AcDbPolyline
 70
0
 90
2
 10
-602055.452
 20
-1163686.158
 10
-602047.187
 20
-1163689.711
  0
LWPOLYLINE
  5
20776
100
AcDbEntity
  8
0
100
AcDbPolyline
 70
0
 90
2
 10
-595460.389
 20
-1161029.384
 10
-595460.386
 20
-1161026.94
  0
LWPOLYLINE
  5
20777
100
AcDbEntity
  8
0
100
AcDbPolyline
 70
0
 90
2
 10
-595744.665
 20
-1161107.644
 10
-595745.542
 20
-1161105.119
  0
LWPOLYLINE
  5
20778
100
AcDbEntity
  8
0
100
AcDbPolyline
 70
0
 90
2
 10
-595780.216
 20
-1161122.137
 10
-595779.16
 20
-1161125.07
  0
LWPOLYLINE
  5
20779
100
AcDbEntity
  8
0
100
AcDbPolyline
 70
0
 90
2
 10
-596198.185
 20
-1161736.876
 10
-596204.568
 20
-1161737.204
  0
LWPOLYLINE
  5
2077A
100
AcDbEntity
  8
0
100
AcDbPolyline
 70
0
 90
2
 10
-593817.494
 20
-1162234.387
 10
-593822.398
 20
-1162231.446
  0
LWPOLYLINE
  5
2077B
100
AcDbEntity
  8
0
100
AcDbPolyline
 70
0
 90
2
 10
-597129.136
 20
-1162491.3
 10
-597136.825
 20
-1162485.488
  0
LWPOLYLINE
  5
2077C
100
AcDbEntity
  8
0
100
AcDbPolyline
 70
0
 90
2
 10
-597143.377
 20
-1162635.078
 10
-597148.371
 20
-1162634.73
  0
LWPOLYLINE
  5
2077D
100
AcDbEntity
  8
0
100
AcDbPolyline
 70
0
 90
2
 10
-595998.219
 20
-1165850.709
 10
-595999.417
 20
-1165857.274
  0
LWPOLYLINE
  5
2077E
100
AcDbEntity
  8
0
100
AcDbPolyline
 70
0
 90
2
 10
-596958.454
 20
-1160727.481
 10
-596970.661
 20
-1160736.286
  0
LWPOLYLINE
  5
2077F
100
AcDbEntity
  8
0
100
AcDbPolyline
 70
0
 90
2
 10
-593559.79
 20
-1160342.894
 10
-593557.795
 20
-1160351.559
  0
LWPOLYLINE
  5
20780
100
AcDbEntity
  8
0
100
AcDbPolyline
 70
0
 90
2
 10
-605893.007
 20
-1161936.018
 10
-605889.478
 20
-1161936.793
  0
LWPOLYLINE
  5
20781
100
AcDbEntity
  8
0
100
AcDbPolyline
 70
0
 90
2
 10
-605886.982
 20
-1161937.482
 10
-605882.334
 20
-1161937.654
  0
LWPOLYLINE
  5
20782
100
AcDbEntity
  8
0
100
AcDbPolyline
 70
0
 90
2
 10
-604319.229
 20
-1156728.189
 10
-604324.02
 20
-1156729.387
  0
LWPOLYLINE
  5
20783
100
AcDbEntity
  8
0
100
AcDbPolyline
 70
0
 90
2
 10
-599244.621
 20
-1161864.555
 10
-599246.119
 20
-1161870.911
  0
LWPOLYLINE
  5
20784
100
AcDbEntity
  8
0
100
AcDbPolyline
 70
0
 90
2
 10
-601406.965
 20
-1161486.65
 10
-601404.145
 20
-1161485.233
  0
LWPOLYLINE
  5
20785
100
AcDbEntity
  8
0
100
AcDbPolyline
 70
0
 90
2
 10
-600061.531
 20
-1156316.106
 10
-600063.492
 20
-1156309.325
  0
LWPOLYLINE
  5
20786
100
AcDbEntity
  8
0
100
AcDbPolyline
 70
0
 90
2
 10
-600156.902
 20
-1157042.636
 10
-600154.841
 20
-1157048.262
  0
LWPOLYLINE
  5
20787
100
AcDbEntity
  8
0
100
AcDbPolyline
 70
0
 90
2
 10
-600296.064
 20
-1156899.488
 10
-600290.64
 20
-1156897.514
  0
LWPOLYLINE
  5
20788
100
AcDbEntity
  8
0
100
AcDbPolyline
 70
0
 90
2
 10
-593668.051
 20
-1162881.927
 10
-593673.123
 20
-1162886.663
  0
LWPOLYLINE
  5
20789
100
AcDbEntity
  8
0
100
AcDbPolyline
 70
0
 90
2
 10
-593663.941
 20
-1162904.625
 10
-593668.6
 20
-1162899.515
  0
LWPOLYLINE
  5
2078A
100
AcDbEntity
  8
0
100
AcDbPolyline
 70
0
 90
2
 10
-593670.464
 20
-1162897.422
 10
-593673.862
 20
-1162893.694
  0
LWPOLYLINE
  5
2078B
100
AcDbEntity
  8
0
100
AcDbPolyline
 70
0
 90
2
 10
-596229.583
 20
-1159114.875
 10
-596227.019
 20
-1159110.744
  0
LWPOLYLINE
  5
2078C
100
AcDbEntity
  8
0
100
AcDbPolyline
 70
0
 90
2
 10
-596229.82
 20
-1159094.733
 10
-596224.791
 20
-1159097.798
  0
LWPOLYLINE
  5
2078D
100
AcDbEntity
  8
0
100
AcDbPolyline
 70
0
 90
2
 10
-598763.448
 20
-1162931.859
 10
-598768.147
 20
-1162939.154
  0
LWPOLYLINE
  5
2078E
100
AcDbEntity
  8
0
100
AcDbPolyline
 70
0
 90
2
 10
-598769.383
 20
-1162945.51
 10
-598768.023
 20
-1162950.901
  0
LWPOLYLINE
  5
2078F
100
AcDbEntity
  8
0
100
AcDbPolyline
 70
0
 90
2
 10
-598746.757
 20
-1157548.089
 10
-598749.711
 20
-1157548.841
  0
LWPOLYLINE
  5
20790
100
AcDbEntity
  8
0
100
AcDbPolyline
 70
0
 90
2
 10
-598758.406
 20
-1157525.552
 10
-598751.915
 20
-1157524.007
  0
LWPOLYLINE
  5
20791
100
AcDbEntity
  8
0
100
AcDbPolyline
 70
0
 90
2
 10
-596256.127
 20
-1159137.086
 10
-596250.722
 20
-1159140.276
  0
LWPOLYLINE
  5
20792
100
AcDbEntity
  8
0
100
AcDbPolyline
 70
0
 90
2
 10
-596239.734
 20
-1159129.466
 10
-596242.57
 20
-1159133.896
  0
LWPOLYLINE
  5
20793
100
AcDbEntity
  8
0
100
AcDbPolyline
 70
0
 90
2
 10
-599098.422
 20
-1161032.812
 10
-599086.453
 20
-1161034.215
  0
LWPOLYLINE
  5
20794
100
AcDbEntity
  8
0
100
AcDbPolyline
 70
0
 90
2
 10
-599138.874
 20
-1160430.244
 10
-599149.565
 20
-1160431.595
  0
LWPOLYLINE
  5
20795
100
AcDbEntity
  8
0
100
AcDbPolyline
 70
0
 90
2
 10
-599976.125
 20
-1158151.217
 10
-599977.982
 20
-1158153.374
  0
LWPOLYLINE
  5
20796
100
AcDbEntity
  8
0
100
AcDbPolyline
 70
0
 90
2
 10
-599972.146
 20
-1158146.619
 10
-599974.339
 20
-1158149.095
  0
LWPOLYLINE
  5
20797
100
AcDbEntity
  8
0
100
AcDbPolyline
 70
0
 90
2
 10
-599830.002
 20
-1158265.876
 10
-599832.09
 20
-1158268.448
  0
LWPOLYLINE
  5
20798
100
AcDbEntity
  8
0
100
AcDbPolyline
 70
0
 90
2
 10
-599828.296
 20
-1158263.483
 10
-599826.207
 20
-1158261.012
  0
LWPOLYLINE
  5
20799
100
AcDbEntity
  8
0
100
AcDbPolyline
 70
0
 90
2
 10
-599688.831
 20
-1157750.317
 10
-599678.937
 20
-1157746.384
  0
LWPOLYLINE
  5
2079A
100
AcDbEntity
  8
0
100
AcDbPolyline
 70
0
 90
2
 10
-599693.32
 20
-1157711.735
 10
-599703.075
 20
-1157715.635
  0
LWPOLYLINE
  5
2079B
100
AcDbEntity
  8
0
100
AcDbPolyline
 70
0
 90
2
 10
-599899.421
 20
-1157802.418
 10
-599897.302
 20
-1157808.812
  0
LWPOLYLINE
  5
2079C
100
AcDbEntity
  8
0
100
AcDbPolyline
 70
0
 90
2
 10
-599894.951
 20
-1157815.549
 10
-599896.693
 20
-1157810.737
  0
LWPOLYLINE
  5
2079D
100
AcDbEntity
  8
0
100
AcDbPolyline
 70
0
 90
2
 10
-599483.642
 20
-1157648.367
 10
-599479.796
 20
-1157660.992
  0
LWPOLYLINE
  5
2079E
100
AcDbEntity
  8
0
100
AcDbPolyline
 70
0
 90
2
 10
-599481.863
 20
-1157667.485
 10
-599493.431
 20
-1157671.365
  0
LWPOLYLINE
  5
2079F
100
AcDbEntity
  8
0
100
AcDbPolyline
 70
0
 90
2
 10
-599489.992
 20
-1157641.881
 10
-599501.56
 20
-1157645.761
  0
LWPOLYLINE
  5
207A0
100
AcDbEntity
  8
0
100
AcDbPolyline
 70
0
 90
2
 10
-599506.225
 20
-1157656.191
 10
-599501.897
 20
-1157668.658
  0
LWPOLYLINE
  5
207A1
100
AcDbEntity
  8
0
100
AcDbPolyline
 70
0
 90
2
 10
-599614.583
 20
-1157691.019
 10
-599624.339
 20
-1157694.702
  0
LWPOLYLINE
  5
207A2
100
AcDbEntity
  8
0
100
AcDbPolyline
 70
0
 90
2
 10
-599706.952
 20
-1157730.041
 10
-599705.064
 20
-1157734.791
  0
LWPOLYLINE
  5
207A3
100
AcDbEntity
  8
0
100
AcDbPolyline
 70
0
 90
2
 10
-599704.028
 20
-1157737.198
 10
-599701.614
 20
-1157743.271
  0
LWPOLYLINE
  5
207A4
100
AcDbEntity
  8
0
100
AcDbPolyline
 70
0
 90
2
 10
-599674.41
 20
-1157734.34
 10
-599676.46
 20
-1157729.19
  0
LWPOLYLINE
  5
207A5
100
AcDbEntity
  8
0
100
AcDbPolyline
 70
0
 90
2
 10
-599677.379
 20
-1157726.888
 10
-599679.819
 20
-1157720.788
  0
LWPOLYLINE
  5
207A6
100
AcDbEntity
  8
0
100
AcDbPolyline
 70
0
 90
2
 10
-598286.352
 20
-1160301.077
 10
-598294.766
 20
-1160306.589
  0
LWPOLYLINE
  5
207A7
100
AcDbEntity
  8
0
100
AcDbPolyline
 70
0
 90
2
 10
-598825.88
 20
-1159503.529
 10
-598819.791
 20
-1159514.461
  0
LWPOLYLINE
  5
207A8
100
AcDbEntity
  8
0
100
AcDbPolyline
 70
0
 90
2
 10
-600382.732
 20
-1158689.861
 10
-600378.061
 20
-1158693.238
  0
LWPOLYLINE
  5
207A9
100
AcDbEntity
  8
0
100
AcDbPolyline
 70
0
 90
2
 10
-597488.815
 20
-1151908.444
 10
-597483.01
 20
-1151909.298
  0
LWPOLYLINE
  5
207AA
100
AcDbEntity
  8
0
100
AcDbPolyline
 70
0
 90
2
 10
-597310.949
 20
-1151765.08
 10
-597308.973
 20
-1151759.052
  0
LWPOLYLINE
  5
207AB
100
AcDbEntity
  8
0
100
AcDbPolyline
 70
0
 90
2
 10
-596807.078
 20
-1160677.308
 10
-596808.463
 20
-1160684.795
  0
LWPOLYLINE
  5
207AC
100
AcDbEntity
  8
0
100
AcDbPolyline
 70
0
 90
2
 10
-596765.851
 20
-1160685.769
 10
-596767.338
 20
-1160693.512
  0
LWPOLYLINE
  5
207AD
100
AcDbEntity
  8
0
100
AcDbPolyline
 70
0
 90
2
 10
-597895.946
 20
-1161490.449
 10
-597892.349
 20
-1161500.699
  0
LWPOLYLINE
  5
207AE
100
AcDbEntity
  8
0
100
AcDbPolyline
 70
0
 90
2
 10
-597997.866
 20
-1160294.118
 10
-597994.036
 20
-1160292.741
  0
LWPOLYLINE
  5
207AF
100
AcDbEntity
  8
0
100
AcDbPolyline
 70
0
 90
2
 10
-598005.278
 20
-1160296.891
 10
-598001.814
 20
-1160295.627
  0
LWPOLYLINE
  5
207B0
100
AcDbEntity
  8
0
100
AcDbPolyline
 70
0
 90
2
 10
-593374.985
 20
-1162647.988
 10
-593375.633
 20
-1162651.308
  0
LWPOLYLINE
  5
207B1
100
AcDbEntity
  8
0
100
AcDbPolyline
 70
0
 90
2
 10
-600856.518
 20
-1163477.066
 10
-600850.492
 20
-1163477.528
  0
LWPOLYLINE
  5
207B2
100
AcDbEntity
  8
0
100
AcDbPolyline
 70
0
 90
2
 10
-600830.928
 20
-1163455.109
 10
-600830.646
 20
-1163458.929
  0
LWPOLYLINE
  5
207B3
100
AcDbEntity
  8
0
100
AcDbPolyline
 70
0
 90
2
 10
-597552.723
 20
-1161192.193
 10
-597547.453
 20
-1161191.873
  0
LWPOLYLINE
  5
207B4
100
AcDbEntity
  8
0
100
AcDbPolyline
 70
0
 90
2
 10
-593863.456
 20
-1162697.252
 10
-593866.265
 20
-1162694.444
  0
LWPOLYLINE
  5
207B5
100
AcDbEntity
  8
0
100
AcDbPolyline
 70
0
 90
2
 10
-598893.596
 20
-1154049.013
 10
-598897.805
 20
-1154045.026
  0
LWPOLYLINE
  5
207B6
100
AcDbEntity
  8
0
100
AcDbPolyline
 70
0
 90
2
 10
-601105.98
 20
-1163795.017
 10
-601101.343
 20
-1163796.418
  0
LWPOLYLINE
  5
207B7
100
AcDbEntity
  8
0
100
AcDbPolyline
 70
0
 90
2
 10
-600883.362
 20
-1163830.697
 10
-600877.299
 20
-1163831.064
  0
LWPOLYLINE
  5
207B8
100
AcDbEntity
  8
0
100
AcDbPolyline
 70
0
 90
2
 10
-601003.206
 20
-1163484.365
 10
-601002.415
 20
-1163486.937
  0
LWPOLYLINE
  5
207B9
100
AcDbEntity
  8
0
100
AcDbPolyline
 70
0
 90
2
 10
-601001.573
 20
-1163489.818
 10
-601000.62
 20
-1163492.575
  0
LWPOLYLINE
  5
207BA
100
AcDbEntity
  8
0
100
AcDbPolyline
 70
0
 90
2
 10
-600630.499
 20
-1163762.545
 10
-600628.841
 20
-1163769.331
  0
LWPOLYLINE
  5
207BB
100
AcDbEntity
  8
0
100
AcDbPolyline
 70
0
 90
2
 10
-599382.752
 20
-1155984.529
 10
-599376.109
 20
-1155983.142
  0
LWPOLYLINE
  5
207BC
100
AcDbEntity
  8
0
100
AcDbPolyline
 70
0
 90
2
 10
-599409.737
 20
-1155797.4
 10
-599413.76
 20
-1155803.893
  0
LWPOLYLINE
  5
207BD
100
AcDbEntity
  8
0
100
AcDbPolyline
 70
0
 90
2
 10
-594570.197
 20
-1166383.945
 10
-594569.172
 20
-1166380.715
  0
LWPOLYLINE
  5
207BE
100
AcDbEntity
  8
0
100
AcDbPolyline
 70
0
 90
2
 10
-594570.661
 20
-1166377.462
 10
-594574.915
 20
-1166374.049
  0
LWPOLYLINE
  5
207BF
100
AcDbEntity
  8
0
100
AcDbPolyline
 70
0
 90
2
 10
-594577.017
 20
-1166372.459
 10
-594581.868
 20
-1166369.242
  0
LWPOLYLINE
  5
207C0
100
AcDbEntity
  8
0
100
AcDbPolyline
 70
0
 90
2
 10
-599243.01
 20
-1161887.605
 10
-599239.462
 20
-1161888.393
  0
LWPOLYLINE
  5
207C1
100
AcDbEntity
  8
0
100
AcDbPolyline
 70
0
 90
2
 10
-599236.102
 20
-1161889.278
 10
-599230.553
 20
-1161890.475
  0
LWPOLYLINE
  5
207C2
100
AcDbEntity
  8
0
100
AcDbPolyline
 70
0
 90
2
 10
-599225.503
 20
-1161891.291
 10
-599228.57
 20
-1161890.682
  0
LWPOLYLINE
  5
207C3
100
AcDbEntity
  8
0
100
AcDbPolyline
 70
0
 90
2
 10
-599270.518
 20
-1162016.629
 10
-599253.945
 20
-1162020.349
  0
LWPOLYLINE
  5
207C4
100
AcDbEntity
  8
0
100
AcDbPolyline
 70
0
 90
2
 10
-599277.961
 20
-1162047.998
 10
-599260.18
 20
-1162051.818
  0
LWPOLYLINE
  5
207C5
100
AcDbEntity
  8
0
100
AcDbPolyline
 70
0
 90
2
 10
-599288.014
 20
-1162244.422
 10
-599285.212
 20
-1162244.327
  0
LWPOLYLINE
  5
207C6
100
AcDbEntity
  8
0
100
AcDbPolyline
 70
0
 90
2
 10
-599281.844
 20
-1162244.075
 10
-599275.925
 20
-1162243.792
  0
LWPOLYLINE
  5
207C7
100
AcDbEntity
  8
0
100
AcDbPolyline
 70
0
 90
2
 10
-599272.683
 20
-1162243.698
 10
-599270.007
 20
-1162243.572
  0
LWPOLYLINE
  5
207C8
100
AcDbEntity
  8
0
100
AcDbPolyline
 70
0
 90
2
 10
-599277.731
 20
-1162430.175
 10
-599274.173
 20
-1162430.018
  0
LWPOLYLINE
  5
207C9
100
AcDbEntity
  8
0
100
AcDbPolyline
 70
0
 90
2
 10
-599259.598
 20
-1162429.451
 10
-599263.187
 20
-1162429.608
  0
LWPOLYLINE
  5
207CA
100
AcDbEntity
  8
0
100
AcDbPolyline
 70
0
 90
2
 10
-598038.162
 20
-1156672.607
 10
-598039.569
 20
-1156679.72
  0
LWPOLYLINE
  5
207CB
100
AcDbEntity
  8
0
100
AcDbPolyline
 70
0
 90
2
 10
-597859.239
 20
-1156530.292
 10
-597854.845
 20
-1156534.387
  0
LWPOLYLINE
  5
207CC
100
AcDbEntity
  8
0
100
AcDbPolyline
 70
0
 90
2
 10
-597841.029
 20
-1156532.844
 10
-597845.283
 20
-1156537.868
  0
LWPOLYLINE
  5
207CD
100
AcDbEntity
  8
0
100
AcDbPolyline
 70
0
 90
2
 10
-597151.97
 20
-1157233.746
 10
-597148.882
 20
-1157232.764
  0
LWPOLYLINE
  5
207CE
100
AcDbEntity
  8
0
100
AcDbPolyline
 70
0
 90
2
 10
-593943.664
 20
-1162599.579
 10
-593937.988
 20
-1162596.054
  0
LWPOLYLINE
  5
207CF
100
AcDbEntity
  8
0
100
AcDbPolyline
 70
0
 90
2
 10
-593934.816
 20
-1162593.995
 10
-593929.059
 20
-1162590.514
  0
LWPOLYLINE
  5
207D0
100
AcDbEntity
  8
0
100
AcDbPolyline
 70
0
 90
2
 10
-593918.749
 20
-1162536.967
 10
-593920.137
 20
-1162542.319
  0
LWPOLYLINE
  5
207D1
100
AcDbEntity
  8
0
100
AcDbPolyline
 70
0
 90
2
 10
-593917.114
 20
-1162528.791
 10
-593918.105
 20
-1162533.697
  0
LWPOLYLINE
  5
207D2
100
AcDbEntity
  8
0
100
AcDbPolyline
 70
0
 90
2
 10
-593933.308
 20
-1162497.272
 10
-593940.01
 20
-1162495.877
  0
LWPOLYLINE
  5
207D3
100
AcDbEntity
  8
0
100
AcDbPolyline
 70
0
 90
2
 10
-593944.252
 20
-1162495.077
 10
-593950.967
 20
-1162493.882
  0
LWPOLYLINE
  5
207D4
100
AcDbEntity
  8
0
100
AcDbPolyline
 70
0
 90
2
 10
-593985.716
 20
-1162525.35
 10
-593984.002
 20
-1162520.823
  0
LWPOLYLINE
  5
207D5
100
AcDbEntity
  8
0
100
AcDbPolyline
 70
0
 90
2
 10
-593982.908
 20
-1162517.743
 10
-593981.428
 20
-1162513.237
  0
LWPOLYLINE
  5
207D6
100
AcDbEntity
  8
0
100
AcDbPolyline
 70
0
 90
2
 10
-595808.412
 20
-1165325.433
 10
-595802.094
 20
-1165318.012
  0
LWPOLYLINE
  5
207D7
100
AcDbEntity
  8
0
100
AcDbPolyline
 70
0
 90
2
 10
-595802.127
 20
-1165309.175
 10
-595801.116
 20
-1165314.483
  0
LWPOLYLINE
  5
207D8
100
AcDbEntity
  8
0
100
AcDbPolyline
 70
0
 90
2
 10
-595798.842
 20
-1165317.19
 10
-595790.501
 20
-1165319.718
  0
LWPOLYLINE
  5
207D9
100
AcDbEntity
  8
0
100
AcDbPolyline
 70
0
 90
2
 10
-595793.62
 20
-1165354.178
 10
-595800.408
 20
-1165354.936
  0
LWPOLYLINE
  5
207DA
100
AcDbEntity
  8
0
100
AcDbPolyline
 70
0
 90
2
 10
-597758.035
 20
-1156610.665
 10
-597752.885
 20
-1156605.655
  0
LWPOLYLINE
  5
207DB
100
AcDbEntity
  8
0
100
AcDbPolyline
 70
0
 90
2
 10
-598414.691
 20
-1156834.991
 10
-598419.688
 20
-1156837.527
  0
LWPOLYLINE
  5
207DC
100
AcDbEntity
  8
0
100
AcDbPolyline
 70
0
 90
2
 10
-594021.052
 20
-1162138.68
 10
-594012.608
 20
-1162133.331
  0
LWPOLYLINE
  5
207DD
100
AcDbEntity
  8
0
100
AcDbPolyline
 70
0
 90
2
 10
-593988.183
 20
-1162557.471
 10
-593983.267
 20
-1162562.644
  0
LWPOLYLINE
  5
207DE
100
AcDbEntity
  8
0
100
AcDbPolyline
 70
0
 90
2
 10
-599923.115
 20
-1161548.051
 10
-599920.95
 20
-1161551.407
  0
LWPOLYLINE
  5
207DF
100
AcDbEntity
  8
0
100
AcDbPolyline
 70
0
 90
2
 10
-600133.132
 20
-1161699.584
 10
-600130.345
 20
-1161703.259
  0
LWPOLYLINE
  5
207E0
100
AcDbEntity
  8
0
100
AcDbPolyline
 70
0
 90
2
 10
-600135.199
 20
-1161696.818
 10
-600137.419
 20
-1161693.858
  0
LWPOLYLINE
  5
207E1
100
AcDbEntity
  8
0
100
AcDbPolyline
 70
0
 90
2
 10
-600189.876
 20
-1161729.88
 10
-600187.792
 20
-1161733.176
  0
LWPOLYLINE
  5
207E2
100
AcDbEntity
  8
0
100
AcDbPolyline
 70
0
 90
2
 10
-600185.707
 20
-1161736.192
 10
-600182.353
 20
-1161741.504
  0
LWPOLYLINE
  5
207E3
100
AcDbEntity
  8
0
100
AcDbPolyline
 70
0
 90
2
 10
-599147.753
 20
-1159705.914
 10
-599136.163
 20
-1159711.788
  0
LWPOLYLINE
  5
207E4
100
AcDbEntity
  8
0
100
AcDbPolyline
 70
0
 90
2
 10
-599187.152
 20
-1160070.047
 10
-599182.527
 20
-1160069.646
  0
LWPOLYLINE
  5
207E5
100
AcDbEntity
  8
0
100
AcDbPolyline
 70
0
 90
2
 10
-599179.286
 20
-1160069.464
 10
-599176.554
 20
-1160069.173
  0
LWPOLYLINE
  5
207E6
100
AcDbEntity
  8
0
100
AcDbPolyline
 70
0
 90
2
 10
-599174.784
 20
-1160186.621
 10
-599169.887
 20
-1160186.105
  0
LWPOLYLINE
  5
207E7
100
AcDbEntity
  8
0
100
AcDbPolyline
 70
0
 90
2
 10
-599167.107
 20
-1160185.812
 10
-599164.186
 20
-1160185.463
  0
LWPOLYLINE
  5
207E8
100
AcDbEntity
  8
0
100
AcDbPolyline
 70
0
 90
2
 10
-597087.215
 20
-1157399.849
 10
-597083.826
 20
-1157398.248
  0
LWPOLYLINE
  5
207E9
100
AcDbEntity
  8
0
100
AcDbPolyline
 70
0
 90
2
 10
-597080.251
 20
-1157396.498
 10
-597077.831
 20
-1157395.344
  0
LWPOLYLINE
  5
207EA
100
AcDbEntity
  8
0
100
AcDbPolyline
 70
0
 90
2
 10
-601160.392
 20
-1163566.691
 10
-601158.903
 20
-1163569.525
  0
LWPOLYLINE
  5
207EB
100
AcDbEntity
  8
0
100
AcDbPolyline
 70
0
 90
2
 10
-596894.888
 20
-1159870.649
 10
-596889.963
 20
-1159868.236
  0
LWPOLYLINE
  5
207EC
100
AcDbEntity
  8
0
100
AcDbPolyline
 70
0
 90
2
 10
-596887.663
 20
-1159867.109
 10
-596882.01
 20
-1159864.34
  0
LWPOLYLINE
  5
207ED
100
AcDbEntity
  8
0
100
AcDbPolyline
 70
0
 90
2
 10
-596882.604
 20
-1159823.357
 10
-596879.949
 20
-1159826.21
  0
LWPOLYLINE
  5
207EE
100
AcDbEntity
  8
0
100
AcDbPolyline
 70
0
 90
2
 10
-598966.669
 20
-1161880.566
 10
-598970.647
 20
-1161883.612
  0
LWPOLYLINE
  5
207EF
100
AcDbEntity
  8
0
100
AcDbPolyline
 70
0
 90
2
 10
-593885.619
 20
-1160595.777
 10
-593874.083
 20
-1160598.679
  0
LWPOLYLINE
  5
207F0
100
AcDbEntity
  8
0
100
AcDbPolyline
 70
0
 90
2
 10
-593421.544
 20
-1160262.414
 10
-593425.07
 20
-1160266.353
  0
LWPOLYLINE
  5
207F1
100
AcDbEntity
  8
0
100
AcDbPolyline
 70
0
 90
2
 10
-593409.11
 20
-1160253.75
 10
-593415.544
 20
-1160257.422
  0
LWPOLYLINE
  5
207F2
100
AcDbEntity
  8
0
100
AcDbPolyline
 70
0
 90
2
 10
-605886.916
 20
-1157336.7
 10
-605880.068
 20
-1157336.254
  0
LWPOLYLINE
  5
207F3
100
AcDbEntity
  8
0
100
AcDbPolyline
 70
0
 90
2
 10
-601336.327
 20
-1163663.34
 10
-601334.605
 20
-1163665.451
  0
LWPOLYLINE
  5
207F4
100
AcDbEntity
  8
0
100
AcDbPolyline
 70
0
 90
2
 10
-601330.587
 20
-1163670.247
 10
-601332.309
 20
-1163668.154
  0
LWPOLYLINE
  5
207F5
100
AcDbEntity
  8
0
100
AcDbPolyline
 70
0
 90
2
 10
-597956.2
 20
-1156425.771
 10
-597954.586
 20
-1156422.8
  0
LWPOLYLINE
  5
207F6
100
AcDbEntity
  8
0
100
AcDbPolyline
 70
0
 90
2
 10
-597953.332
 20
-1156421.323
 10
-597951.632
 20
-1156418.404
  0
LWPOLYLINE
  5
207F7
100
AcDbEntity
  8
0
100
AcDbPolyline
 70
0
 90
2
 10
-598958.156
 20
-1161417.775
 10
-598953.876
 20
-1161419.481
  0
LWPOLYLINE
  5
207F8
100
AcDbEntity
  8
0
100
AcDbPolyline
 70
0
 90
2
 10
-598964.502
 20
-1161415.47
 10
-598961.06
 20
-1161416.697
  0
LWPOLYLINE
  5
207F9
100
AcDbEntity
  8
0
100
AcDbPolyline
 70
0
 90
2
 10
-598974.02
 20
-1161429.986
 10
-598972.583
 20
-1161436.062
  0
LWPOLYLINE
  5
207FA
100
AcDbEntity
  8
0
100
AcDbPolyline
 70
0
 90
2
 10
-598966.287
 20
-1161452.516
 10
-598962.981
 20
-1161453.184
  0
LWPOLYLINE
  5
207FB
100
AcDbEntity
  8
0
100
AcDbPolyline
 70
0
 90
2
 10
-594993.773
 20
-1165980.365
 10
-594986.952
 20
-1165983.759
  0
LWPOLYLINE
  5
207FC
100
AcDbEntity
  8
0
100
AcDbPolyline
 70
0
 90
2
 10
-594984.306
 20
-1166004.054
 10
-594991.408
 20
-1165999.992
  0
LWPOLYLINE
  5
207FD
100
AcDbEntity
  8
0
100
AcDbPolyline
 70
0
 90
2
 10
-594922.42
 20
-1166043.249
 10
-594927.124
 20
-1166048.552
  0
LWPOLYLINE
  5
207FE
100
AcDbEntity
  8
0
100
AcDbPolyline
 70
0
 90
2
 10
-594821.99
 20
-1166151.385
 10
-594815.295
 20
-1166155.535
  0
LWPOLYLINE
  5
207FF
100
AcDbEntity
  8
0
100
AcDbPolyline
 70
0
 90
2
 10
-594736.015
 20
-1166205.457
 10
-594740.659
 20
-1166210.821
  0
LWPOLYLINE
  5
20800
100
AcDbEntity
  8
0
100
AcDbPolyline
 70
0
 90
2
 10
-594610.19
 20
-1166311.28
 10
-594614.971
 20
-1166307.28
  0
LWPOLYLINE
  5
20801
100
AcDbEntity
  8
0
100
AcDbPolyline
 70
0
 90
2
 10
-594561.506
 20
-1166373.273
 10
-594567.243
 20
-1166377.73
  0
LWPOLYLINE
  5
20802
100
AcDbEntity
  8
0
100
AcDbPolyline
 70
0
 90
2
 10
-594474.66
 20
-1166429.863
 10
-594476.781
 20
-1166436.55
  0
LWPOLYLINE
  5
20803
100
AcDbEntity
  8
0
100
AcDbPolyline
 70
0
 90
2
 10
-599794.496
 20
-1160620.205
 10
-599798.583
 20
-1160615.276
  0
LWPOLYLINE
  5
20804
100
AcDbEntity
  8
0
100
AcDbPolyline
 70
0
 90
2
 10
-599793.164
 20
-1160621.479
 10
-599789.516
 20
-1160625.56
  0
LWPOLYLINE
  5
20805
100
AcDbEntity
  8
0
100
AcDbPolyline
 70
0
 90
2
 10
-599739.106
 20
-1160608.034
 10
-599741.064
 20
-1160614.34
  0
LWPOLYLINE
  5
20806
100
AcDbEntity
  8
0
100
AcDbPolyline
 70
0
 90
2
 10
-599737.293
 20
-1160601.398
 10
-599738.282
 20
-1160605.272
  0
LWPOLYLINE
  5
20807
100
AcDbEntity
  8
0
100
AcDbPolyline
 70
0
 90
2
 10
-599767.985
 20
-1160566.32
 10
-599773.576
 20
-1160566.605
  0
LWPOLYLINE
  5
20808
100
AcDbEntity
  8
0
100
AcDbPolyline
 70
0
 90
2
 10
-599811.134
 20
-1160594.883
 10
-599812.312
 20
-1160597.585
  0
LWPOLYLINE
  5
20809
100
AcDbEntity
  8
0
100
AcDbPolyline
 70
0
 90
2
 10
-599808.125
 20
-1160587.423
 10
-599810.166
 20
-1160591.916
  0
LWPOLYLINE
  5
2080A
100
AcDbEntity
  8
0
100
AcDbPolyline
 70
0
 90
2
 10
-599011.012
 20
-1157935.752
 10
-599008.585
 20
-1157935.106
  0
LWPOLYLINE
  5
2080B
100
AcDbEntity
  8
0
100
AcDbPolyline
 70
0
 90
2
 10
-599005.502
 20
-1157934.218
 10
-599001.798
 20
-1157933.156
  0
LWPOLYLINE
  5
2080C
100
AcDbEntity
  8
0
100
AcDbPolyline
 70
0
 90
2
 10
-599012.699
 20
-1157952.898
 10
-599014.897
 20
-1157945.578
  0
LWPOLYLINE
  5
2080D
100
AcDbEntity
  8
0
100
AcDbPolyline
 70
0
 90
2
 10
-599003.932
 20
-1157959.182
 10
-599000.534
 20
-1157958.256
  0
LWPOLYLINE
  5
2080E
100
AcDbEntity
  8
0
100
AcDbPolyline
 70
0
 90
2
 10
-598997.611
 20
-1157957.523
 10
-598995.218
 20
-1157956.834
  0
LWPOLYLINE
  5
2080F
100
AcDbEntity
  8
0
100
AcDbPolyline
 70
0
 90
2
 10
-598991.908
 20
-1157945.68
 10
-598993.678
 20
-1157939.01
  0
LWPOLYLINE
  5
20810
100
AcDbEntity
  8
0
100
AcDbPolyline
 70
0
 90
2
 10
-598584.285
 20
-1157531.558
 10
-598580.452
 20
-1157530.494
  0
LWPOLYLINE
  5
20811
100
AcDbEntity
  8
0
100
AcDbPolyline
 70
0
 90
2
 10
-598578.449
 20
-1157529.703
 10
-598574.183
 20
-1157528.545
  0
LWPOLYLINE
  5
20812
100
AcDbEntity
  8
0
100
AcDbPolyline
 70
0
 90
2
 10
-599332.289
 20
-1157606.992
 10
-599333.77
 20
-1157602.28
  0
LWPOLYLINE
  5
20813
100
AcDbEntity
  8
0
100
AcDbPolyline
 70
0
 90
2
 10
-603536.838
 20
-1161024.561
 10
-603540.167
 20
-1161028.045
  0
LWPOLYLINE
  5
20814
100
AcDbEntity
  8
0
100
AcDbPolyline
 70
0
 90
2
 10
-599494.098
 20
-1158916.245
 10
-599495.24
 20
-1158918.98
  0
LWPOLYLINE
  5
20815
100
AcDbEntity
  8
0
100
AcDbPolyline
 70
0
 90
2
 10
-597301.724
 20
-1159965.617
 10
-597306.068
 20
-1159967.556
  0
LWPOLYLINE
  5
20816
100
AcDbEntity
  8
0
100
AcDbPolyline
 70
0
 90
2
 10
-597306.913
 20
-1159978.728
 10
-597308.077
 20
-1159976.012
  0
LWPOLYLINE
  5
20817
100
AcDbEntity
  8
0
100
AcDbPolyline
 70
0
 90
2
 10
-597301.305
 20
-1159991.404
 10
-597302.733
 20
-1159987.928
  0
LWPOLYLINE
  5
20818
100
AcDbEntity
  8
0
100
AcDbPolyline
 70
0
 90
2
 10
-597633.61
 20
-1160124.628
 10
-597632.026
 20
-1160129.38
  0
LWPOLYLINE
  5
20819
100
AcDbEntity
  8
0
100
AcDbPolyline
 70
0
 90
2
 10
-597629.698
 20
-1160135.894
 10
-597628.702
 20
-1160138.723
  0
LWPOLYLINE
  5
2081A
100
AcDbEntity
  8
0
100
AcDbPolyline
 70
0
 90
2
 10
-597641.757
 20
-1160122.391
 10
-597655.076
 20
-1160126.755
  0
LWPOLYLINE
  5
2081B
100
AcDbEntity
  8
0
100
AcDbPolyline
 70
0
 90
2
 10
-597637.455
 20
-1160149.152
 10
-597640.929
 20
-1160150.611
  0
LWPOLYLINE
  5
2081C
100
AcDbEntity
  8
0
100
AcDbPolyline
 70
0
 90
2
 10
-597643.587
 20
-1160151.717
 10
-597652.315
 20
-1160155.248
  0
LWPOLYLINE
  5
2081D
100
AcDbEntity
  8
0
100
AcDbPolyline
 70
0
 90
2
 10
-597662.428
 20
-1160155.914
 10
-597664.238
 20
-1160151.258
  0
LWPOLYLINE
  5
2081E
100
AcDbEntity
  8
0
100
AcDbPolyline
 70
0
 90
2
 10
-597669.037
 20
-1160139.277
 10
-597667.911
 20
-1160142.087
  0
LWPOLYLINE
  5
2081F
100
AcDbEntity
  8
0
100
AcDbPolyline
 70
0
 90
2
 10
-598692.9
 20
-1162660.787
 10
-598682.79
 20
-1162664.08
  0
LWPOLYLINE
  5
20820
100
AcDbEntity
  8
0
100
AcDbPolyline
 70
0
 90
2
 10
-597924.894
 20
-1161251.524
 10
-597923.237
 20
-1161255.273
  0
LWPOLYLINE
  5
20821
100
AcDbEntity
  8
0
100
AcDbPolyline
 70
0
 90
2
 10
-601193.539
 20
-1160617.799
 10
-601190.376
 20
-1160627.969
  0
LWPOLYLINE
  5
20822
100
AcDbEntity
  8
0
100
AcDbPolyline
 70
0
 90
2
 10
-598196.095
 20
-1158685.169
 10
-598190.31
 20
-1158683.857
  0
LWPOLYLINE
  5
20823
100
AcDbEntity
  8
0
100
AcDbPolyline
 70
0
 90
2
 10
-605891.831
 20
-1157247.523
 10
-605888.176
 20
-1157247.436
  0
LWPOLYLINE
  5
20824
100
AcDbEntity
  8
0
100
AcDbPolyline
 70
0
 90
2
 10
-605882.433
 20
-1157247.392
 10
-605885.435
 20
-1157247.523
  0
LWPOLYLINE
  5
20825
100
AcDbEntity
  8
0
100
AcDbPolyline
 70
0
 90
2
 10
-605902.342
 20
-1157071.611
 10
-605903.433
 20
-1157074.784
  0
LWPOLYLINE
  5
20826
100
AcDbEntity
  8
0
100
AcDbPolyline
 70
0
 90
2
 10
-605904.353
 20
-1157077.419
 10
-605905.997
 20
-1157082.106
  0
LWPOLYLINE
  5
20827
100
AcDbEntity
  8
0
100
AcDbPolyline
 70
0
 90
2
 10
-598206.407
 20
-1164093.606
 10
-598215.401
 20
-1164094.049
  0
LWPOLYLINE
  5
20828
100
AcDbEntity
  8
0
100
AcDbPolyline
 70
0
 90
2
 10
-598682.346
 20
-1157809.958
 10
-598686.408
 20
-1157811.027
  0
LWPOLYLINE
  5
20829
100
AcDbEntity
  8
0
100
AcDbPolyline
 70
0
 90
2
 10
-598759.035
 20
-1157525.518
 10
-598762.933
 20
-1157526.514
  0
LWPOLYLINE
  5
2082A
100
AcDbEntity
  8
0
100
AcDbPolyline
 70
0
 90
2
 10
-598779.83
 20
-1157463.447
 10
-598775.777
 20
-1157462.417
  0
LWPOLYLINE
  5
2082B
100
AcDbEntity
  8
0
100
AcDbPolyline
 70
0
 90
2
 10
-598775.362
 20
-1157462.228
 10
-598768.39
 20
-1157460.356
  0
LWPOLYLINE
  5
2082C
100
AcDbEntity
  8
0
100
AcDbPolyline
 70
0
 90
2
 10
-598791.296
 20
-1157419.562
 10
-598787.528
 20
-1157418.612
  0
LWPOLYLINE
  5
2082D
100
AcDbEntity
  8
0
100
AcDbPolyline
 70
0
 90
2
 10
-598786.529
 20
-1157418.122
 10
-598780.816
 20
-1157416.589
  0
LWPOLYLINE
  5
2082E
100
AcDbEntity
  8
0
100
AcDbPolyline
 70
0
 90
2
 10
-599276.529
 20
-1155784.58
 10
-599279.274
 20
-1155775.6
  0
LWPOLYLINE
  5
2082F
100
AcDbEntity
  8
0
100
AcDbPolyline
 70
0
 90
2
 10
-599279.637
 20
-1155793.177
 10
-599290.941
 20
-1155796.87
  0
LWPOLYLINE
  5
20830
100
AcDbEntity
  8
0
100
AcDbPolyline
 70
0
 90
2
 10
-599300.272
 20
-1155782.062
 10
-599297.996
 20
-1155789.977
  0
LWPOLYLINE
  5
20831
100
AcDbEntity
  8
0
100
AcDbPolyline
 70
0
 90
2
 10
-593941.574
 20
-1162395.253
 10
-593946.675
 20
-1162399.935
  0
LWPOLYLINE
  5
20832
100
AcDbEntity
  8
0
100
AcDbPolyline
 70
0
 90
2
 10
-593939.224
 20
-1162380.344
 10
-593939.457
 20
-1162386.194
  0
LWPOLYLINE
  5
20833
100
AcDbEntity
  8
0
100
AcDbPolyline
 70
0
 90
2
 10
-593938.527
 20
-1162368.876
 10
-593938.837
 20
-1162375.927
  0
LWPOLYLINE
  5
20834
100
AcDbEntity
  8
0
100
AcDbPolyline
 70
0
 90
2
 10
-593945.617
 20
-1162361.206
 10
-593950.227
 20
-1162357.99
  0
LWPOLYLINE
  5
20835
100
AcDbEntity
  8
0
100
AcDbPolyline
 70
0
 90
2
 10
-599432.358
 20
-1154589.647
 10
-599430.014
 20
-1154586.567
  0
LWPOLYLINE
  5
20836
100
AcDbEntity
  8
0
100
AcDbPolyline
 70
0
 90
2
 10
-599421.587
 20
-1158774.819
 10
-599413.566
 20
-1158780.774
  0
LWPOLYLINE
  5
20837
100
AcDbEntity
  8
0
100
AcDbPolyline
 70
0
 90
2
 10
-599428.92
 20
-1158776.443
 10
-599433.644
 20
-1158782.915
  0
LWPOLYLINE
  5
20838
100
AcDbEntity
  8
0
100
AcDbPolyline
 70
0
 90
2
 10
-599424.269
 20
-1158795.365
 10
-599432.291
 20
-1158789.632
  0
LWPOLYLINE
  5
20839
100
AcDbEntity
  8
0
100
AcDbPolyline
 70
0
 90
2
 10
-599414.697
 20
-1158786.704
 10
-599419.25
 20
-1158793.003
  0
LWPOLYLINE
  5
2083A
100
AcDbEntity
  8
0
100
AcDbPolyline
 70
0
 90
2
 10
-598398.662
 20
-1158415.117
 10
-598406.38
 20
-1158417.01
  0
LWPOLYLINE
  5
2083B
100
AcDbEntity
  8
0
100
AcDbPolyline
 70
0
 90
2
 10
-598396.17
 20
-1158410.737
 10
-598397.665
 20
-1158404.755
  0
LWPOLYLINE
  5
2083C
100
AcDbEntity
  8
0
100
AcDbPolyline
 70
0
 90
2
 10
-598404.442
 20
-1158401.482
 10
-598409.456
 20
-1158402.821
  0
LWPOLYLINE
  5
2083D
100
AcDbEntity
  8
0
100
AcDbPolyline
 70
0
 90
2
 10
-598410.79
 20
-1158414.56
 10
-598412.459
 20
-1158407.637
  0
LWPOLYLINE
  5
2083E
100
AcDbEntity
  8
0
100
AcDbPolyline
 70
0
 90
2
 10
-600180.969
 20
-1155130.831
 10
-600183.291
 20
-1155132.642
  0
LWPOLYLINE
  5
2083F
100
AcDbEntity
  8
0
100
AcDbPolyline
 70
0
 90
2
 10
-595118.652
 20
-1162057.023
 10
-595113.691
 20
-1162056.062
  0
LWPOLYLINE
  5
20840
100
AcDbEntity
  8
0
100
AcDbPolyline
 70
0
 90
2
 10
-595108.09
 20
-1162056.419
 10
-595102.746
 20
-1162059.138
  0
LWPOLYLINE
  5
20841
100
AcDbEntity
  8
0
100
AcDbPolyline
 70
0
 90
2
 10
-595098.915
 20
-1162060.736
 10
-595093.348
 20
-1162063.298
  0
LWPOLYLINE
  5
20842
100
AcDbEntity
  8
0
100
AcDbPolyline
 70
0
 90
2
 10
-595088.345
 20
-1162066.306
 10
-595086.055
 20
-1162071.083
  0
LWPOLYLINE
  5
20843
100
AcDbEntity
  8
0
100
AcDbPolyline
 70
0
 90
2
 10
-595077.588
 20
-1162043.618
 10
-595083.701
 20
-1162057.267
  0
LWPOLYLINE
  5
20844
100
AcDbEntity
  8
0
100
AcDbPolyline
 70
0
 90
2
 10
-595084.37
 20
-1162036.43
 10
-595095.75
 20
-1162031.41
  0
LWPOLYLINE
  5
20845
100
AcDbEntity
  8
0
100
AcDbPolyline
 70
0
 90
2
 10
-597009.494
 20
-1162372.129
 10
-597011.632
 20
-1162364.196
  0
LWPOLYLINE
  5
20846
100
AcDbEntity
  8
0
100
AcDbPolyline
 70
0
 90
2
 10
-597329.635
 20
-1162351.26
 10
-597328.643
 20
-1162338.721
  0
LWPOLYLINE
  5
20847
100
AcDbEntity
  8
0
100
AcDbPolyline
 70
0
 90
2
 10
-598589.37
 20
-1157503.892
 10
-598585.729
 20
-1157503.431
  0
LWPOLYLINE
  5
20848
100
AcDbEntity
  8
0
100
AcDbPolyline
 70
0
 90
2
 10
-598580.448
 20
-1157502.508
 10
-598584.293
 20
-1157503.072
  0
LWPOLYLINE
  5
20849
100
AcDbEntity
  8
0
100
AcDbPolyline
 70
0
 90
2
 10
-598744.052
 20
-1157539.683
 10
-598744.794
 20
-1157534.531
  0
LWPOLYLINE
  5
2084A
100
AcDbEntity
  8
0
100
AcDbPolyline
 70
0
 90
2
 10
-598588.406
 20
-1157522.306
 10
-598589.059
 20
-1157516.223
  0
LWPOLYLINE
  5
2084B
100
AcDbEntity
  8
0
100
AcDbPolyline
 70
0
 90
2
 10
-593104.505
 20
-1162968.343
 10
-593111.079
 20
-1162962.413
  0
LWPOLYLINE
  5
2084C
100
AcDbEntity
  8
0
100
AcDbPolyline
 70
0
 90
2
 10
-603106.322
 20
-1160119.679
 10
-603103.63
 20
-1160124.508
  0
LWPOLYLINE
  5
2084D
100
AcDbEntity
  8
0
100
AcDbPolyline
 70
0
 90
2
 10
-596621.529
 20
-1161388.651
 10
-596624.898
 20
-1161390.661
  0
LWPOLYLINE
  5
2084E
100
AcDbEntity
  8
0
100
AcDbPolyline
 70
0
 90
2
 10
-596618.849
 20
-1161388.985
 10
-596612.357
 20
-1161391.259
  0
LWPOLYLINE
  5
2084F
100
AcDbEntity
  8
0
100
AcDbPolyline
 70
0
 90
2
 10
-596628.057
 20
-1161392.473
 10
-596629.925
 20
-1161393.56
  0
LWPOLYLINE
  5
20850
100
AcDbEntity
  8
0
100
AcDbPolyline
 70
0
 90
2
 10
-603594.016
 20
-1157224.177
 10
-603591.162
 20
-1157228.822
  0
LWPOLYLINE
  5
20851
100
AcDbEntity
  8
0
100
AcDbPolyline
 70
0
 90
2
 10
-603842.054
 20
-1157300.188
 10
-603836.733
 20
-1157301.212
  0
LWPOLYLINE
  5
20852
100
AcDbEntity
  8
0
100
AcDbPolyline
 70
0
 90
2
 10
-603854.38
 20
-1157271.961
 10
-603852.231
 20
-1157268.562
  0
LWPOLYLINE
  5
20853
100
AcDbEntity
  8
0
100
AcDbPolyline
 70
0
 90
2
 10
-596929.797
 20
-1161557.266
 10
-596922.929
 20
-1161560.499
  0
LWPOLYLINE
  5
20854
100
AcDbEntity
  8
0
100
AcDbPolyline
 70
0
 90
2
 10
-597795.674
 20
-1156807.6
 10
-597789.213
 20
-1156811.482
  0
LWPOLYLINE
  5
20855
100
AcDbEntity
  8
0
100
AcDbPolyline
 70
0
 90
2
 10
-597728.405
 20
-1156745.184
 10
-597733.398
 20
-1156740.143
  0
LWPOLYLINE
  5
20856
100
AcDbEntity
  8
0
100
AcDbPolyline
 70
0
 90
2
 10
-597687.905
 20
-1156694.741
 10
-597682.547
 20
-1156699.654
  0
LWPOLYLINE
  5
20857
100
AcDbEntity
  8
0
100
AcDbPolyline
 70
0
 90
2
 10
-597667.413
 20
-1156692.4
 10
-597671.435
 20
-1156697.375
  0
LWPOLYLINE
  5
20858
100
AcDbEntity
  8
0
100
AcDbPolyline
 70
0
 90
2
 10
-600961.196
 20
-1158473.872
 10
-600962.837
 20
-1158478.846
  0
LWPOLYLINE
  5
20859
100
AcDbEntity
  8
0
100
AcDbPolyline
 70
0
 90
2
 10
-596959.244
 20
-1161838.736
 10
-596959.881
 20
-1161846.65
  0
LWPOLYLINE
  5
2085A
100
AcDbEntity
  8
0
100
AcDbPolyline
 70
0
 90
2
 10
-599752.53
 20
-1158767.16
 10
-599757.38
 20
-1158773.58
  0
LWPOLYLINE
  5
2085B
100
AcDbEntity
  8
0
100
AcDbPolyline
 70
0
 90
2
 10
-600107.614
 20
-1158604.452
 10
-600103.651
 20
-1158598.14
  0
LWPOLYLINE
  5
2085C
100
AcDbEntity
  8
0
100
AcDbPolyline
 70
0
 90
2
 10
-600101.155
 20
-1158594.214
 10
-600102.843
 20
-1158596.966
  0
LWPOLYLINE
  5
2085D
100
AcDbEntity
  8
0
100
AcDbPolyline
 70
0
 90
2
 10
-600113.75
 20
-1158604.411
 10
-600119.245
 20
-1158600.819
  0
LWPOLYLINE
  5
2085E
100
AcDbEntity
  8
0
100
AcDbPolyline
 70
0
 90
2
 10
-600102.567
 20
-1158590.052
 10
-600109.51
 20
-1158585.839
  0
LWPOLYLINE
  5
2085F
100
AcDbEntity
  8
0
100
AcDbPolyline
 70
0
 90
2
 10
-600177.55
 20
-1158540.57
 10
-600181.513
 20
-1158538.236
  0
LWPOLYLINE
  5
20860
100
AcDbEntity
  8
0
100
AcDbPolyline
 70
0
 90
2
 10
-600184.353
 20
-1158555.966
 10
-600191.15
 20
-1158551.309
  0
LWPOLYLINE
  5
20861
100
AcDbEntity
  8
0
100
AcDbPolyline
 70
0
 90
2
 10
-600358.141
 20
-1158443.195
 10
-600355.091
 20
-1158437.445
  0
LWPOLYLINE
  5
20862
100
AcDbEntity
  8
0
100
AcDbPolyline
 70
0
 90
2
 10
-600353.865
 20
-1158435.364
 10
-600352.337
 20
-1158432.633
  0
LWPOLYLINE
  5
20863
100
AcDbEntity
  8
0
100
AcDbPolyline
 70
0
 90
2
 10
-600363.515
 20
-1158444.242
 10
-600368.77
 20
-1158441.409
  0
LWPOLYLINE
  5
20864
100
AcDbEntity
  8
0
100
AcDbPolyline
 70
0
 90
2
 10
-600395.44
 20
-1158406.641
 10
-600398.97
 20
-1158404.683
  0
LWPOLYLINE
  5
20865
100
AcDbEntity
  8
0
100
AcDbPolyline
 70
0
 90
2
 10
-600455.821
 20
-1158392.786
 10
-600462.977
 20
-1158389.066
  0
LWPOLYLINE
  5
20866
100
AcDbEntity
  8
0
100
AcDbPolyline
 70
0
 90
2
 10
-600448.908
 20
-1158378.211
 10
-600452.42
 20
-1158376.233
  0
LWPOLYLINE
  5
20867
100
AcDbEntity
  8
0
100
AcDbPolyline
 70
0
 90
2
 10
-596603.72
 20
-1161387.811
 10
-596605.472
 20
-1161391.705
  0
LWPOLYLINE
  5
20868
100
AcDbEntity
  8
0
100
AcDbPolyline
 70
0
 90
2
 10
-596599.485
 20
-1161379.293
 10
-596600.994
 20
-1161382.7
  0
LWPOLYLINE
  5
20869
100
AcDbEntity
  8
0
100
AcDbPolyline
 70
0
 90
2
 10
-596347.186
 20
-1161452.383
 10
-596343.44
 20
-1161453.228
  0
LWPOLYLINE
  5
2086A
100
AcDbEntity
  8
0
100
AcDbPolyline
 70
0
 90
2
 10
-596332.793
 20
-1161455.763
 10
-596326.624
 20
-1161456.777
  0
LWPOLYLINE
  5
2086B
100
AcDbEntity
  8
0
100
AcDbPolyline
 70
0
 90
2
 10
-596410.884
 20
-1161480.074
 10
-596409.302
 20
-1161476.439
  0
LWPOLYLINE
  5
2086C
100
AcDbEntity
  8
0
100
AcDbPolyline
 70
0
 90
2
 10
-596405.249
 20
-1161467.291
 10
-596403.981
 20
-1161464.559
  0
LWPOLYLINE
  5
2086D
100
AcDbEntity
  8
0
100
AcDbPolyline
 70
0
 90
2
 10
-602751.299
 20
-1160335.209
 10
-602744.941
 20
-1160326.492
  0
LWPOLYLINE
  5
2086E
100
AcDbEntity
  8
0
100
AcDbPolyline
 70
0
 90
2
 10
-603637.764
 20
-1160144.465
 10
-603634.504
 20
-1160141.899
  0
LWPOLYLINE
  5
2086F
100
AcDbEntity
  8
0
100
AcDbPolyline
 70
0
 90
2
 10
-603632.373
 20
-1160140.247
 10
-603628.721
 20
-1160137.247
  0
LWPOLYLINE
  5
20870
100
AcDbEntity
  8
0
100
AcDbPolyline
 70
0
 90
2
 10
-603620.149
 20
-1160032.504
 10
-603620.149
 20
-1160028.504
  0
LWPOLYLINE
  5
20871
100
AcDbEntity
  8
0
100
AcDbPolyline
 70
0
 90
2
 10
-603620.279
 20
-1160021.243
 10
-603620.279
 20
-1160025.417
  0
LWPOLYLINE
  5
20872
100
AcDbEntity
  8
0
100
AcDbPolyline
 70
0
 90
2
 10
-603651.56
 20
-1160049.672
 10
-603648.057
 20
-1160050.669
  0
LWPOLYLINE
  5
20873
100
AcDbEntity
  8
0
100
AcDbPolyline
 70
0
 90
2
 10
-603654.519
 20
-1160048.887
 10
-603658.625
 20
-1160047.71
  0
LWPOLYLINE
  5
20874
100
AcDbEntity
  8
0
100
AcDbPolyline
 70
0
 90
2
 10
-598015.847
 20
-1156799.085
 10
-598008.391
 20
-1156802.978
  0
LWPOLYLINE
  5
20875
100
AcDbEntity
  8
0
100
AcDbPolyline
 70
0
 90
2
 10
-598200.808
 20
-1161330.663
 10
-598198.808
 20
-1161325.998
  0
LWPOLYLINE
  5
20876
100
AcDbEntity
  8
0
100
AcDbPolyline
 70
0
 90
2
 10
-598197.189
 20
-1161322.451
 10
-598195.946
 20
-1161319.502
  0
LWPOLYLINE
  5
20877
100
AcDbEntity
  8
0
100
AcDbPolyline
 70
0
 90
2
 10
-594070.114
 20
-1159915.476
 10
-594068.234
 20
-1159918.945
  0
LWPOLYLINE
  5
20878
100
AcDbEntity
  8
0
100
AcDbPolyline
 70
0
 90
2
 10
-595722.533
 20
-1161787.334
 10
-595728.912
 20
-1161784.491
  0
LWPOLYLINE
  5
20879
100
AcDbEntity
  8
0
100
AcDbPolyline
 70
0
 90
2
 10
-592225.963
 20
-1162797.233
 10
-592229.74
 20
-1162797.337
  0
LWPOLYLINE
  5
2087A
100
AcDbEntity
  8
0
100
AcDbPolyline
 70
0
 90
2
 10
-592231.553
 20
-1162797.333
 10
-592235.133
 20
-1162797.351
  0
LWPOLYLINE
  5
2087B
100
AcDbEntity
  8
0
100
AcDbPolyline
 70
0
 90
2
 10
-592237.476
 20
-1162797.78
 10
-592240.402
 20
-1162797.679
  0
LWPOLYLINE
  5
2087C
100
AcDbEntity
  8
0
100
AcDbPolyline
 70
0
 90
2
 10
-598211.972
 20
-1159122.62
 10
-598217.443
 20
-1159124.007
  0
LWPOLYLINE
  5
2087D
100
AcDbEntity
  8
0
100
AcDbPolyline
 70
0
 90
2
 10
-597256.357
 20
-1160488.471
 10
-597255.422
 20
-1160491.745
  0
LWPOLYLINE
  5
2087E
100
AcDbEntity
  8
0
100
AcDbPolyline
 70
0
 90
2
 10
-597252.953
 20
-1160500.526
 10
-597251.94
 20
-1160503.54
  0
LWPOLYLINE
  5
2087F
100
AcDbEntity
  8
0
100
AcDbPolyline
 70
0
 90
2
 10
-592839.538
 20
-1160332.952
 10
-592833.661
 20
-1160336.453
  0
LWPOLYLINE
  5
20880
100
AcDbEntity
  8
0
100
AcDbPolyline
 70
0
 90
2
 10
-593666.352
 20
-1160366.645
 10
-593664.165
 20
-1160375.391
  0
LWPOLYLINE
  5
20881
100
AcDbEntity
  8
0
100
AcDbPolyline
 70
0
 90
2
 10
-597809.851
 20
-1156810.911
 10
-597810.974
 20
-1156817.873
  0
LWPOLYLINE
  5
20882
100
AcDbEntity
  8
0
100
AcDbPolyline
 70
0
 90
2
 10
-597626.816
 20
-1156927.143
 10
-597632.494
 20
-1156930.956
  0
LWPOLYLINE
  5
20883
100
AcDbEntity
  8
0
100
AcDbPolyline
 70
0
 90
2
 10
-599216.382
 20
-1157193.842
 10
-599215.258
 20
-1157197.708
  0
LWPOLYLINE
  5
20884
100
AcDbEntity
  8
0
100
AcDbPolyline
 70
0
 90
2
 10
-597850.936
 20
-1156962.449
 10
-597844.821
 20
-1156962.975
  0
LWPOLYLINE
  5
20885
100
AcDbEntity
  8
0
100
AcDbPolyline
 70
0
 90
2
 10
-598799.421
 20
-1158721.228
 10
-598798.278
 20
-1158725.149
  0
LWPOLYLINE
  5
20886
100
AcDbEntity
  8
0
100
AcDbPolyline
 70
0
 90
2
 10
-598277.111
 20
-1162014.925
 10
-598270.61
 20
-1162015.42
  0
LWPOLYLINE
  5
20887
100
AcDbEntity
  8
0
100
AcDbPolyline
 70
0
 90
2
 10
-598264.183
 20
-1162028.934
 10
-598265.02
 20
-1162022.1
  0
LWPOLYLINE
  5
20888
100
AcDbEntity
  8
0
100
AcDbPolyline
 70
0
 90
2
 10
-599722.002
 20
-1161227.438
 10
-599718.581
 20
-1161224.472
  0
LWPOLYLINE
  5
20889
100
AcDbEntity
  8
0
100
AcDbPolyline
 70
0
 90
2
 10
-592792.412
 20
-1163590.029
 10
-592790.694
 20
-1163592.481
  0
LWPOLYLINE
  5
2088A
100
AcDbEntity
  8
0
100
AcDbPolyline
 70
0
 90
2
 10
-592384.01
 20
-1163353.478
 10
-592383.171
 20
-1163357.951
  0
LWPOLYLINE
  5
2088B
100
AcDbEntity
  8
0
100
AcDbPolyline
 70
0
 90
2
 10
-599036.484
 20
-1157818.576
 10
-599043.907
 20
-1157820.619
  0
LWPOLYLINE
  5
2088C
100
AcDbEntity
  8
0
100
AcDbPolyline
 70
0
 90
2
 10
-599897.244
 20
-1157311.042
 10
-599902.962
 20
-1157313.003
  0
LWPOLYLINE
  5
2088D
100
AcDbEntity
  8
0
100
AcDbPolyline
 70
0
 90
2
 10
-599931.498
 20
-1157210.894
 10
-599937.307
 20
-1157212.981
  0
LWPOLYLINE
  5
2088E
100
AcDbEntity
  8
0
100
AcDbPolyline
 70
0
 90
2
 10
-599956.012
 20
-1157142.445
 10
-599961.834
 20
-1157144.524
  0
LWPOLYLINE
  5
2088F
100
AcDbEntity
  8
0
100
AcDbPolyline
 70
0
 90
2
 10
-605837.699
 20
-1157409.369
 10
-605833.531
 20
-1157403.944
  0
LWPOLYLINE
  5
20890
100
AcDbEntity
  8
0
100
AcDbPolyline
 70
0
 90
2
 10
-599262.996
 20
-1162265.04
 10
-599262.729
 20
-1162270.578
  0
LWPOLYLINE
  5
20891
100
AcDbEntity
  8
0
100
AcDbPolyline
 70
0
 90
2
 10
-599689.17
 20
-1163076.039
 10
-599688.401
 20
-1163072.194
  0
LWPOLYLINE
  5
20892
100
AcDbEntity
  8
0
100
AcDbPolyline
 70
0
 90
2
 10
-599053.833
 20
-1158782.713
 10
-599058.322
 20
-1158783.914
  0
LWPOLYLINE
  5
20893
100
AcDbEntity
  8
0
100
AcDbPolyline
 70
0
 90
2
 10
-599065.668
 20
-1158720.133
 10
-599069.305
 20
-1158721.129
  0
LWPOLYLINE
  5
20894
100
AcDbEntity
  8
0
100
AcDbPolyline
 70
0
 90
2
 10
-594794.523
 20
-1160997.397
 10
-594794.154
 20
-1161000.566
  0
LWPOLYLINE
  5
20895
100
AcDbEntity
  8
0
100
AcDbPolyline
 70
0
 90
2
 10
-594793.602
 20
-1161003.257
 10
-594793.38
 20
-1161005.136
  0
LWPOLYLINE
  5
20896
100
AcDbEntity
  8
0
100
AcDbPolyline
 70
0
 90
2
 10
-599687.786
 20
-1154749
 10
-599686.083
 20
-1154754.429
  0
LWPOLYLINE
  5
20897
100
AcDbEntity
  8
0
100
AcDbPolyline
 70
0
 90
2
 10
-599698.942
 20
-1154747.919
 10
-599705.563
 20
-1154750.222
  0
LWPOLYLINE
  5
20898
100
AcDbEntity
  8
0
100
AcDbPolyline
 70
0
 90
2
 10
-601935.893
 20
-1160345.292
 10
-601932.375
 20
-1160343.328
  0
LWPOLYLINE
  5
20899
100
AcDbEntity
  8
0
100
AcDbPolyline
 70
0
 90
2
 10
-598152.223
 20
-1159747.648
 10
-598151.436
 20
-1159752.631
  0
LWPOLYLINE
  5
2089A
100
AcDbEntity
  8
0
100
AcDbPolyline
 70
0
 90
2
 10
-595664.849
 20
-1166813.787
 10
-595667.639
 20
-1166808.271
  0
LWPOLYLINE
  5
2089B
100
AcDbEntity
  8
0
100
AcDbPolyline
 70
0
 90
2
 10
-606707.09
 20
-1158455.694
 10
-606708.185
 20
-1158449.001
  0
LWPOLYLINE
  5
2089C
100
AcDbEntity
  8
0
100
AcDbPolyline
 70
0
 90
2
 10
-597667.231
 20
-1161194.839
 10
-597667.686
 20
-1161208.251
  0
LWPOLYLINE
  5
2089D
100
AcDbEntity
  8
0
100
AcDbPolyline
 70
0
 90
2
 10
-597839.072
 20
-1159313.17
 10
-597835.993
 20
-1159317.963
  0
LWPOLYLINE
  5
2089E
100
AcDbEntity
  8
0
100
AcDbPolyline
 70
0
 90
2
 10
-597834.123
 20
-1159321.237
 10
-597831.083
 20
-1159325.758
  0
LWPOLYLINE
  5
2089F
100
AcDbEntity
  8
0
100
AcDbPolyline
 70
0
 90
2
 10
-597342.95
 20
-1161218.441
 10
-597344.396
 20
-1161221.333
  0
LWPOLYLINE
  5
208A0
100
AcDbEntity
  8
0
100
AcDbPolyline
 70
0
 90
2
 10
-597346.072
 20
-1161224.555
 10
-597347.88
 20
-1161228.204
  0
LWPOLYLINE
  5
208A1
100
AcDbEntity
  8
0
100
AcDbPolyline
 70
0
 90
2
 10
-597350.214
 20
-1161232.937
 10
-597348.406
 20
-1161229.255
  0
LWPOLYLINE
  5
208A2
100
AcDbEntity
  8
0
100
AcDbPolyline
 70
0
 90
2
 10
-597394.901
 20
-1161192.096
 10
-597396.518
 20
-1161195.482
  0
LWPOLYLINE
  5
208A3
100
AcDbEntity
  8
0
100
AcDbPolyline
 70
0
 90
2
 10
-597398.192
 20
-1161198.583
 10
-597400.151
 20
-1161202.673
  0
LWPOLYLINE
  5
208A4
100
AcDbEntity
  8
0
100
AcDbPolyline
 70
0
 90
2
 10
-597401.35
 20
-1161205.47
 10
-597402.624
 20
-1161208.304
  0
LWPOLYLINE
  5
208A5
100
AcDbEntity
  8
0
100
AcDbPolyline
 70
0
 90
2
 10
-597478.422
 20
-1161168.507
 10
-597479.763
 20
-1161184.562
  0
LWPOLYLINE
  5
208A6
100
AcDbEntity
  8
0
100
AcDbPolyline
 70
0
 90
2
 10
-601188.304
 20
-1162792.805
 10
-601189.574
 20
-1162799.379
  0
LWPOLYLINE
  5
208A7
100
AcDbEntity
  8
0
100
AcDbPolyline
 70
0
 90
2
 10
-601680.023
 20
-1163221.623
 10
-601677.015
 20
-1163231.579
  0
LWPOLYLINE
  5
208A8
100
AcDbEntity
  8
0
100
AcDbPolyline
 70
0
 90
2
 10
-595718.648
 20
-1162081.753
 10
-595718.353
 20
-1162088.054
  0
LWPOLYLINE
  5
208A9
100
AcDbEntity
  8
0
100
AcDbPolyline
 70
0
 90
2
 10
-602108.484
 20
-1162356.449
 10
-602106.217
 20
-1162351.967
  0
LWPOLYLINE
  5
208AA
100
AcDbEntity
  8
0
100
AcDbPolyline
 70
0
 90
2
 10
-602479.389
 20
-1162126.384
 10
-602474.546
 20
-1162125.868
  0
LWPOLYLINE
  5
208AB
100
AcDbEntity
  8
0
100
AcDbPolyline
 70
0
 90
2
 10
-595616.5
 20
-1161054.617
 10
-595610.959
 20
-1161052.687
  0
LWPOLYLINE
  5
208AC
100
AcDbEntity
  8
0
100
AcDbPolyline
 70
0
 90
2
 10
-595626.543
 20
-1160897.01
 10
-595621.384
 20
-1160896.904
  0
LWPOLYLINE
  5
208AD
100
AcDbEntity
  8
0
100
AcDbPolyline
 70
0
 90
2
 10
-596389.486
 20
-1154332.933
 10
-596394.79
 20
-1154329.869
  0
LWPOLYLINE
  5
208AE
100
AcDbEntity
  8
0
100
AcDbPolyline
 70
0
 90
2
 10
-592812.639
 20
-1163209.476
 10
-592814.13
 20
-1163213.037
  0
LWPOLYLINE
  5
208AF
100
AcDbEntity
  8
0
100
AcDbPolyline
 70
0
 90
2
 10
-606906.611
 20
-1158287.831
 10
-606900.461
 20
-1158287.916
  0
LWPOLYLINE
  5
208B0
100
AcDbEntity
  8
0
100
AcDbPolyline
 70
0
 90
2
 10
-594102.27
 20
-1160699.71
 10
-594100.225
 20
-1160701.728
  0
LWPOLYLINE
  5
208B1
100
AcDbEntity
  8
0
100
AcDbPolyline
 70
0
 90
2
 10
-592504.908
 20
-1159273.185
 10
-592503.694
 20
-1159267.982
  0
LWPOLYLINE
  5
208B2
100
AcDbEntity
  8
0
100
AcDbPolyline
 70
0
 90
2
 10
-592222.114
 20
-1159528.892
 10
-592217.319
 20
-1159528.174
  0
LWPOLYLINE
  5
208B3
100
AcDbEntity
  8
0
100
AcDbPolyline
 70
0
 90
2
 10
-592186.628
 20
-1159784.599
 10
-592181.757
 20
-1159785.214
  0
LWPOLYLINE
  5
208B4
100
AcDbEntity
  8
0
100
AcDbPolyline
 70
0
 90
2
 10
-592190.11
 20
-1159806.982
 10
-592185.445
 20
-1159807.854
  0
LWPOLYLINE
  5
208B5
100
AcDbEntity
  8
0
100
AcDbPolyline
 70
0
 90
2
 10
-592243.55
 20
-1159950.399
 10
-592240.612
 20
-1159952.58
  0
LWPOLYLINE
  5
208B6
100
AcDbEntity
  8
0
100
AcDbPolyline
 70
0
 90
2
 10
-596585.896
 20
-1156644.28
 10
-596585.171
 20
-1156647.299
  0
LWPOLYLINE
  5
208B7
100
AcDbEntity
  8
0
100
AcDbPolyline
 70
0
 90
2
 10
-596557.293
 20
-1156645.148
 10
-596556.57
 20
-1156648.166
  0
LWPOLYLINE
  5
208B8
100
AcDbEntity
  8
0
100
AcDbPolyline
 70
0
 90
2
 10
-596890.153
 20
-1156754.523
 10
-596888.112
 20
-1156756.692
  0
LWPOLYLINE
  5
208B9
100
AcDbEntity
  8
0
100
AcDbPolyline
 70
0
 90
2
 10
-603561.239
 20
-1160975.055
 10
-603556.37
 20
-1160979.837
  0
LWPOLYLINE
  5
208BA
100
AcDbEntity
  8
0
100
AcDbPolyline
 70
0
 90
2
 10
-597705.991
 20
-1160932.597
 10
-597702.552
 20
-1160934.436
  0
LWPOLYLINE
  5
208BB
100
AcDbEntity
  8
0
100
AcDbPolyline
 70
0
 90
2
 10
-597745.307
 20
-1161008.427
 10
-597739.928
 20
-1161011.166
  0
LWPOLYLINE
  5
208BC
100
AcDbEntity
  8
0
100
AcDbPolyline
 70
0
 90
2
 10
-594706.8
 20
-1160987.974
 10
-594706.214
 20
-1160992.662
  0
LWPOLYLINE
  5
208BD
100
AcDbEntity
  8
0
100
AcDbPolyline
 70
0
 90
2
 10
-594723.285
 20
-1160983.886
 10
-594718.935
 20
-1160983.322
  0
LWPOLYLINE
  5
208BE
100
AcDbEntity
  8
0
100
AcDbPolyline
 70
0
 90
2
 10
-594727.644
 20
-1160984.499
 10
-594731.565
 20
-1160984.877
  0
LWPOLYLINE
  5
208BF
100
AcDbEntity
  8
0
100
AcDbPolyline
 70
0
 90
2
 10
-604906.166
 20
-1157511.66
 10
-604908.278
 20
-1157514.923
  0
LWPOLYLINE
  5
208C0
100
AcDbEntity
  8
0
100
AcDbPolyline
 70
0
 90
2
 10
-605040.682
 20
-1157393.429
 10
-605044.481
 20
-1157396.433
  0
LWPOLYLINE
  5
208C1
100
AcDbEntity
  8
0
100
AcDbPolyline
 70
0
 90
2
 10
-605489.266
 20
-1157116.258
 10
-605488.986
 20
-1157120.152
  0
LWPOLYLINE
  5
208C2
100
AcDbEntity
  8
0
100
AcDbPolyline
 70
0
 90
2
 10
-597879.925
 20
-1163460.77
 10
-597873.157
 20
-1163459.878
  0
LWPOLYLINE
  5
208C3
100
AcDbEntity
  8
0
100
AcDbPolyline
 70
0
 90
2
 10
-595559.281
 20
-1159826.09
 10
-595563.404
 20
-1159828.88
  0
LWPOLYLINE
  5
208C4
100
AcDbEntity
  8
0
100
AcDbPolyline
 70
0
 90
2
 10
-595565.95
 20
-1159833.9
 10
-595567.85
 20
-1159841.62
  0
LWPOLYLINE
  5
208C5
100
AcDbEntity
  8
0
100
AcDbPolyline
 70
0
 90
2
 10
-595568.79
 20
-1159844.51
 10
-595573.62
 20
-1159855.44
  0
LWPOLYLINE
  5
208C6
100
AcDbEntity
  8
0
100
AcDbPolyline
 70
0
 90
2
 10
-595574.51
 20
-1159860.35
 10
-595571.36
 20
-1159864.07
  0
LWPOLYLINE
  5
208C7
100
AcDbEntity
  8
0
100
AcDbPolyline
 70
0
 90
2
 10
-593016.043
 20
-1163747.794
 10
-593008.674
 20
-1163742.551
  0
LWPOLYLINE
  5
208C8
100
AcDbEntity
  8
0
100
AcDbPolyline
 70
0
 90
2
 10
-593012.337
 20
-1163770.816
 10
-593016.411
 20
-1163766.407
  0
LWPOLYLINE
  5
208C9
100
AcDbEntity
  8
0
100
AcDbPolyline
 70
0
 90
2
 10
-603375.297
 20
-1155400.549
 10
-603376.642
 20
-1155393.484
  0
LWPOLYLINE
  5
208CA
100
AcDbEntity
  8
0
100
AcDbPolyline
 70
0
 90
2
 10
-593353.471
 20
-1162736.707
 10
-593357.833
 20
-1162742.387
  0
LWPOLYLINE
  5
208CB
100
AcDbEntity
  8
0
100
AcDbPolyline
 70
0
 90
2
 10
-603372.389
 20
-1156840.671
 10
-603369.006
 20
-1156841.567
  0
LWPOLYLINE
  5
208CC
100
AcDbEntity
  8
0
100
AcDbPolyline
 70
0
 90
2
 10
-603363.482
 20
-1156843.031
 10
-603366.591
 20
-1156842.171
  0
LWPOLYLINE
  5
208CD
100
AcDbEntity
  8
0
100
AcDbPolyline
 70
0
 90
2
 10
-598134.724
 20
-1160190.272
 10
-598132.013
 20
-1160196.779
  0
LWPOLYLINE
  5
208CE
100
AcDbEntity
  8
0
100
AcDbPolyline
 70
0
 90
2
 10
-598129.25
 20
-1160204.395
 10
-598131.471
 20
-1160198.715
  0
LWPOLYLINE
  5
208CF
100
AcDbEntity
  8
0
100
AcDbPolyline
 70
0
 90
2
 10
-598121.369
 20
-1160210.932
 10
-598116.313
 20
-1160210.716
  0
LWPOLYLINE
  5
208D0
100
AcDbEntity
  8
0
100
AcDbPolyline
 70
0
 90
2
 10
-598101.402
 20
-1160209.77
 10
-598104.307
 20
-1160209.877
  0
LWPOLYLINE
  5
208D1
100
AcDbEntity
  8
0
100
AcDbPolyline
 70
0
 90
2
 10
-598122.85
 20
-1160177.222
 10
-598116.747
 20
-1160176.819
  0
LWPOLYLINE
  5
208D2
100
AcDbEntity
  8
0
100
AcDbPolyline
 70
0
 90
2
 10
-598103.021
 20
-1160175.92
 10
-598108.009
 20
-1160176.199
  0
LWPOLYLINE
  5
208D3
100
AcDbEntity
  8
0
100
AcDbPolyline
 70
0
 90
2
 10
-598096.298
 20
-1160194.935
 10
-598096.53
 20
-1160199.092
  0
LWPOLYLINE
  5
208D4
100
AcDbEntity
  8
0
100
AcDbPolyline
 70
0
 90
2
 10
-598096.065
 20
-1160192.121
 10
-598095.187
 20
-1160184.943
  0
LWPOLYLINE
  5
208D5
100
AcDbEntity
  8
0
100
AcDbPolyline
 70
0
 90
2
 10
-597981.309
 20
-1160256.262
 10
-597977.219
 20
-1160251.652
  0
LWPOLYLINE
  5
208D6
100
AcDbEntity
  8
0
100
AcDbPolyline
 70
0
 90
2
 10
-597969.895
 20
-1160246.484
 10
-597973.799
 20
-1160251.02
  0
LWPOLYLINE
  5
208D7
100
AcDbEntity
  8
0
100
AcDbPolyline
 70
0
 90
2
 10
-597981.644
 20
-1160262.434
 10
-597976.996
 20
-1160267.602
  0
LWPOLYLINE
  5
208D8
100
AcDbEntity
  8
0
100
AcDbPolyline
 70
0
 90
2
 10
-597968.668
 20
-1160275.397
 10
-597970.081
 20
-1160272.795
  0
LWPOLYLINE
  5
208D9
100
AcDbEntity
  8
0
100
AcDbPolyline
 70
0
 90
2
 10
-597951.602
 20
-1160252.435
 10
-597949.059
 20
-1160256.807
  0
LWPOLYLINE
  5
208DA
100
AcDbEntity
  8
0
100
AcDbPolyline
 70
0
 90
2
 10
-597934.113
 20
-1160266.98
 10
-597937.549
 20
-1160263.277
  0
LWPOLYLINE
  5
208DB
100
AcDbEntity
  8
0
100
AcDbPolyline
 70
0
 90
2
 10
-597920.773
 20
-1160270.192
 10
-597915.821
 20
-1160270.549
  0
LWPOLYLINE
  5
208DC
100
AcDbEntity
  8
0
100
AcDbPolyline
 70
0
 90
2
 10
-597931.972
 20
-1160271.888
 10
-597935.704
 20
-1160276.512
  0
LWPOLYLINE
  5
208DD
100
AcDbEntity
  8
0
100
AcDbPolyline
 70
0
 90
2
 10
-597941.952
 20
-1160282.58
 10
-597938.079
 20
-1160277.855
  0
LWPOLYLINE
  5
208DE
100
AcDbEntity
  8
0
100
AcDbPolyline
 70
0
 90
2
 10
-595577.641
 20
-1167850.789
 10
-595579
 20
-1167856.378
  0
LWPOLYLINE
  5
208DF
100
AcDbEntity
  8
0
100
AcDbPolyline
 70
0
 90
2
 10
-597762.312
 20
-1162115.677
 10
-597756.193
 20
-1162119.43
  0
LWPOLYLINE
  5
208E0
100
AcDbEntity
  8
0
100
AcDbPolyline
 70
0
 90
2
 10
-606203.893
 20
-1157621.58
 10
-606200.548
 20
-1157620.571
  0
LWPOLYLINE
  5
208E1
100
AcDbEntity
  8
0
100
AcDbPolyline
 70
0
 90
2
 10
-606206.839
 20
-1157622.695
 10
-606210.099
 20
-1157623.621
  0
LWPOLYLINE
  5
208E2
100
AcDbEntity
  8
0
100
AcDbPolyline
 70
0
 90
2
 10
-602407.595
 20
-1162265.79
 10
-602405.45
 20
-1162261.509
  0
LWPOLYLINE
  5
208E3
100
AcDbEntity
  8
0
100
AcDbPolyline
 70
0
 90
2
 10
-602404.23
 20
-1162259.057
 10
-602402.013
 20
-1162254.433
  0
LWPOLYLINE
  5
208E4
100
AcDbEntity
  8
0
100
AcDbPolyline
 70
0
 90
2
 10
-602026.278
 20
-1158833.119
 10
-602033.801
 20
-1158834.238
  0
LWPOLYLINE
  5
208E5
100
AcDbEntity
  8
0
100
AcDbPolyline
 70
0
 90
2
 10
-597906.062
 20
-1156799.761
 10
-597912.552
 20
-1156798.801
  0
LWPOLYLINE
  5
208E6
100
AcDbEntity
  8
0
100
AcDbPolyline
 70
0
 90
2
 10
-597764.943
 20
-1156610.387
 10
-597770.273
 20
-1156605.327
  0
LWPOLYLINE
  5
208E7
100
AcDbEntity
  8
0
100
AcDbPolyline
 70
0
 90
2
 10
-594568.688
 20
-1161575.174
 10
-594570.721
 20
-1161578.305
  0
LWPOLYLINE
  5
208E8
100
AcDbEntity
  8
0
100
AcDbPolyline
 70
0
 90
2
 10
-599546.379
 20
-1160188.499
 10
-599549.133
 20
-1160195.896
  0
LWPOLYLINE
  5
208E9
100
AcDbEntity
  8
0
100
AcDbPolyline
 70
0
 90
2
 10
-599114.385
 20
-1157593.959
 10
-599117.699
 20
-1157594.936
  0
LWPOLYLINE
  5
208EA
100
AcDbEntity
  8
0
100
AcDbPolyline
 70
0
 90
2
 10
-599097.284
 20
-1157576.614
 10
-599096.284
 20
-1157581.46
  0
LWPOLYLINE
  5
208EB
100
AcDbEntity
  8
0
100
AcDbPolyline
 70
0
 90
2
 10
-598988.485
 20
-1157543.479
 10
-598987.075
 20
-1157548.158
  0
LWPOLYLINE
  5
208EC
100
AcDbEntity
  8
0
100
AcDbPolyline
 70
0
 90
2
 10
-598995.999
 20
-1157564.522
 10
-599003.357
 20
-1157565.342
  0
LWPOLYLINE
  5
208ED
100
AcDbEntity
  8
0
100
AcDbPolyline
 70
0
 90
2
 10
-598927.87
 20
-1157536.223
 10
-598931.642
 20
-1157537.016
  0
LWPOLYLINE
  5
208EE
100
AcDbEntity
  8
0
100
AcDbPolyline
 70
0
 90
2
 10
-598931.462
 20
-1157494.629
 10
-598929.509
 20
-1157501.022
  0
LWPOLYLINE
  5
208EF
100
AcDbEntity
  8
0
100
AcDbPolyline
 70
0
 90
2
 10
-598944.136
 20
-1157489.35
 10
-598938.436
 20
-1157487.854
  0
LWPOLYLINE
  5
208F0
100
AcDbEntity
  8
0
100
AcDbPolyline
 70
0
 90
2
 10
-598938.42
 20
-1157472.4
 10
-598936.282
 20
-1157479.261
  0
LWPOLYLINE
  5
208F1
100
AcDbEntity
  8
0
100
AcDbPolyline
 70
0
 90
2
 10
-598951.584
 20
-1157441.651
 10
-598955.763
 20
-1157442.779
  0
LWPOLYLINE
  5
208F2
100
AcDbEntity
  8
0
100
AcDbPolyline
 70
0
 90
2
 10
-599005.231
 20
-1157469.511
 10
-599006.535
 20
-1157465.388
  0
LWPOLYLINE
  5
208F3
100
AcDbEntity
  8
0
100
AcDbPolyline
 70
0
 90
2
 10
-599020.422
 20
-1157457.243
 10
-599028.831
 20
-1157460.862
  0
LWPOLYLINE
  5
208F4
100
AcDbEntity
  8
0
100
AcDbPolyline
 70
0
 90
2
 10
-599118.456
 20
-1157500.037
 10
-599117.174
 20
-1157504.043
  0
LWPOLYLINE
  5
208F5
100
AcDbEntity
  8
0
100
AcDbPolyline
 70
0
 90
2
 10
-599143.302
 20
-1157500.504
 10
-599146.654
 20
-1157501.44
  0
LWPOLYLINE
  5
208F6
100
AcDbEntity
  8
0
100
AcDbPolyline
 70
0
 90
2
 10
-599130.981
 20
-1157532.378
 10
-599137.212
 20
-1157534.233
  0
LWPOLYLINE
  5
208F7
100
AcDbEntity
  8
0
100
AcDbPolyline
 70
0
 90
2
 10
-599123
 20
-1157558.809
 10
-599129.498
 20
-1157560.886
  0
LWPOLYLINE
  5
208F8
100
AcDbEntity
  8
0
100
AcDbPolyline
 70
0
 90
2
 10
-600094.237
 20
-1155475.964
 10
-600092.611
 20
-1155473.325
  0
LWPOLYLINE
  5
208F9
100
AcDbEntity
  8
0
100
AcDbPolyline
 70
0
 90
2
 10
-600090.876
 20
-1155470.651
 10
-600089.286
 20
-1155468.121
  0
LWPOLYLINE
  5
208FA
100
AcDbEntity
  8
0
100
AcDbPolyline
 70
0
 90
2
 10
-603820.951
 20
-1157290.735
 10
-603821.858
 20
-1157295.022
  0
LWPOLYLINE
  5
208FB
100
AcDbEntity
  8
0
100
AcDbPolyline
 70
0
 90
2
 10
-603859.888
 20
-1157280.532
 10
-603856.918
 20
-1157276.64
  0
LWPOLYLINE
  5
208FC
100
AcDbEntity
  8
0
100
AcDbPolyline
 70
0
 90
2
 10
-603916.018
 20
-1157203.75
 10
-603912.632
 20
-1157201.413
  0
LWPOLYLINE
  5
208FD
100
AcDbEntity
  8
0
100
AcDbPolyline
 70
0
 90
2
 10
-604238.417
 20
-1157159.181
 10
-604242.345
 20
-1157158.172
  0
LWPOLYLINE
  5
208FE
100
AcDbEntity
  8
0
100
AcDbPolyline
 70
0
 90
2
 10
-604318.109
 20
-1157464.483
 10
-604314.634
 20
-1157468.067
  0
LWPOLYLINE
  5
208FF
100
AcDbEntity
  8
0
100
AcDbPolyline
 70
0
 90
2
 10
-604430.055
 20
-1157523.773
 10
-604428.359
 20
-1157528.515
  0
LWPOLYLINE
  5
20900
100
AcDbEntity
  8
0
100
AcDbPolyline
 70
0
 90
2
 10
-604627.299
 20
-1156651.942
 10
-604629.408
 20
-1156657.626
  0
LWPOLYLINE
  5
20901
100
AcDbEntity
  8
0
100
AcDbPolyline
 70
0
 90
2
 10
-604646.217
 20
-1156664.685
 10
-604650.957
 20
-1156661.249
  0
LWPOLYLINE
  5
20902
100
AcDbEntity
  8
0
100
AcDbPolyline
 70
0
 90
2
 10
-592151.217
 20
-1159821.961
 10
-592148.124
 20
-1159823.264
  0
LWPOLYLINE
  5
20903
100
AcDbEntity
  8
0
100
AcDbPolyline
 70
0
 90
2
 10
-592159.617
 20
-1159818.25
 10
-592154.212
 20
-1159820.594
  0
LWPOLYLINE
  5
20904
100
AcDbEntity
  8
0
100
AcDbPolyline
 70
0
 90
2
 10
-595405.164
 20
-1159754.984
 10
-595402.221
 20
-1159760.474
  0
LWPOLYLINE
  5
20905
100
AcDbEntity
  8
0
100
AcDbPolyline
 70
0
 90
2
 10
-595400.985
 20
-1159762.625
 10
-595398.017
 20
-1159768.016
  0
LWPOLYLINE
  5
20906
100
AcDbEntity
  8
0
100
AcDbPolyline
 70
0
 90
2
 10
-594294.93
 20
-1161774.03
 10
-594291.165
 20
-1161769.818
  0
LWPOLYLINE
  5
20907
100
AcDbEntity
  8
0
100
AcDbPolyline
 70
0
 90
2
 10
-595779.658
 20
-1167855.396
 10
-595778.341
 20
-1167862.41
  0
LWPOLYLINE
  5
20908
100
AcDbEntity
  8
0
100
AcDbPolyline
 70
0
 90
2
 10
-598765.027
 20
-1158806.035
 10
-598761.161
 20
-1158804.961
  0
LWPOLYLINE
  5
20909
100
AcDbEntity
  8
0
100
AcDbPolyline
 70
0
 90
2
 10
-599376.484
 20
-1154374.747
 10
-599379.532
 20
-1154373.302
  0
LWPOLYLINE
  5
2090A
100
AcDbEntity
  8
0
100
AcDbPolyline
 70
0
 90
2
 10
-599385.93
 20
-1154370.42
 10
-599382.815
 20
-1154371.928
  0
LWPOLYLINE
  5
2090B
100
AcDbEntity
  8
0
100
AcDbPolyline
 70
0
 90
2
 10
-596504.71
 20
-1160142.403
 10
-596502.489
 20
-1160140.132
  0
LWPOLYLINE
  5
2090C
100
AcDbEntity
  8
0
100
AcDbPolyline
 70
0
 90
2
 10
-596492.973
 20
-1160131.424
 10
-596495.245
 20
-1160133.771
  0
LWPOLYLINE
  5
2090D
100
AcDbEntity
  8
0
100
AcDbPolyline
 70
0
 90
2
 10
-598954.41
 20
-1159172.524
 10
-598951.418
 20
-1159171.669
  0
LWPOLYLINE
  5
2090E
100
AcDbEntity
  8
0
100
AcDbPolyline
 70
0
 90
2
 10
-592962.809
 20
-1160657.304
 10
-592967.323
 20
-1160659.5
  0
LWPOLYLINE
  5
2090F
100
AcDbEntity
  8
0
100
AcDbPolyline
 70
0
 90
2
 10
-592866.793
 20
-1160277.33
 10
-592862.017
 20
-1160281.098
  0
LWPOLYLINE
  5
20910
100
AcDbEntity
  8
0
100
AcDbPolyline
 70
0
 90
2
 10
-593199.132
 20
-1163125.014
 10
-593202.377
 20
-1163121.345
  0
LWPOLYLINE
  5
20911
100
AcDbEntity
  8
0
100
AcDbPolyline
 70
0
 90
2
 10
-593180.964
 20
-1163159.259
 10
-593185.732
 20
-1163153.875
  0
LWPOLYLINE
  5
20912
100
AcDbEntity
  8
0
100
AcDbPolyline
 70
0
 90
2
 10
-594481.592
 20
-1157386.62
 10
-594480.494
 20
-1157383.267
  0
LWPOLYLINE
  5
20913
100
AcDbEntity
  8
0
100
AcDbPolyline
 70
0
 90
2
 10
-597436.838
 20
-1161697.145
 10
-597437.849
 20
-1161700.986
  0
LWPOLYLINE
  5
20914
100
AcDbEntity
  8
0
100
AcDbPolyline
 70
0
 90
2
 10
-597440.24
 20
-1161703.681
 10
-597448.258
 20
-1161706.679
  0
LWPOLYLINE
  5
20915
100
AcDbEntity
  8
0
100
AcDbPolyline
 70
0
 90
2
 10
-597449.875
 20
-1161707.083
 10
-597459.778
 20
-1161710.62
  0
LWPOLYLINE
  5
20916
100
AcDbEntity
  8
0
100
AcDbPolyline
 70
0
 90
2
 10
-597473.623
 20
-1161710.216
 10
-597477.396
 20
-1161709.037
  0
LWPOLYLINE
  5
20917
100
AcDbEntity
  8
0
100
AcDbPolyline
 70
0
 90
2
 10
-597435.379
 20
-1161705.155
 10
-597429.679
 20
-1161713.927
  0
LWPOLYLINE
  5
20918
100
AcDbEntity
  8
0
100
AcDbPolyline
 70
0
 90
2
 10
-597428.709
 20
-1161715.665
 10
-597424.465
 20
-1161721.931
  0
LWPOLYLINE
  5
20919
100
AcDbEntity
  8
0
100
AcDbPolyline
 70
0
 90
2
 10
-597437.239
 20
-1161728.729
 10
-597426.122
 20
-1161725.36
  0
LWPOLYLINE
  5
2091A
100
AcDbEntity
  8
0
100
AcDbPolyline
 70
0
 90
2
 10
-597446.098
 20
-1161731.255
 10
-597438.856
 20
-1161729.099
  0
LWPOLYLINE
  5
2091B
100
AcDbEntity
  8
0
100
AcDbPolyline
 70
0
 90
2
 10
-597448.86
 20
-1161733.815
 10
-597450.41
 20
-1161737.386
  0
LWPOLYLINE
  5
2091C
100
AcDbEntity
  8
0
100
AcDbPolyline
 70
0
 90
2
 10
-597414.5
 20
-1161727.078
 10
-597419.284
 20
-1161725.528
  0
LWPOLYLINE
  5
2091D
100
AcDbEntity
  8
0
100
AcDbPolyline
 70
0
 90
2
 10
-597373.333
 20
-1161817.161
 10
-597371.837
 20
-1161813.523
  0
LWPOLYLINE
  5
2091E
100
AcDbEntity
  8
0
100
AcDbPolyline
 70
0
 90
2
 10
-597362.903
 20
-1161837.13
 10
-597359.144
 20
-1161838.505
  0
LWPOLYLINE
  5
2091F
100
AcDbEntity
  8
0
100
AcDbPolyline
 70
0
 90
2
 10
-597369.895
 20
-1161826.741
 10
-597365.531
 20
-1161835.311
  0
LWPOLYLINE
  5
20920
100
AcDbEntity
  8
0
100
AcDbPolyline
 70
0
 90
2
 10
-597364.529
 20
-1161906.861
 10
-597362.615
 20
-1161912.519
  0
LWPOLYLINE
  5
20921
100
AcDbEntity
  8
0
100
AcDbPolyline
 70
0
 90
2
 10
-597290.201
 20
-1161983
 10
-597286.082
 20
-1161991.02
  0
LWPOLYLINE
  5
20922
100
AcDbEntity
  8
0
100
AcDbPolyline
 70
0
 90
2
 10
-597284.505
 20
-1162001.624
 10
-597290.756
 20
-1162004.867
  0
LWPOLYLINE
  5
20923
100
AcDbEntity
  8
0
100
AcDbPolyline
 70
0
 90
2
 10
-597293.093
 20
-1162006.108
 10
-597300.236
 20
-1162009.862
  0
LWPOLYLINE
  5
20924
100
AcDbEntity
  8
0
100
AcDbPolyline
 70
0
 90
2
 10
-597297.045
 20
-1162029.498
 10
-597294.872
 20
-1162033.968
  0
LWPOLYLINE
  5
20925
100
AcDbEntity
  8
0
100
AcDbPolyline
 70
0
 90
2
 10
-597332.885
 20
-1162327.158
 10
-597347.888
 20
-1162325.385
  0
LWPOLYLINE
  5
20926
100
AcDbEntity
  8
0
100
AcDbPolyline
 70
0
 90
2
 10
-597370.109
 20
-1162573.747
 10
-597363.21
 20
-1162573.747
  0
LWPOLYLINE
  5
20927
100
AcDbEntity
  8
0
100
AcDbPolyline
 70
0
 90
2
 10
-597360.811
 20
-1162573.648
 10
-597353.714
 20
-1162573.722
  0
LWPOLYLINE
  5
20928
100
AcDbEntity
  8
0
100
AcDbPolyline
 70
0
 90
2
 10
-594664.474
 20
-1160181.09
 10
-594667.348
 20
-1160180.827
  0
LWPOLYLINE
  5
20929
100
AcDbEntity
  8
0
100
AcDbPolyline
 70
0
 90
2
 10
-594422.617
 20
-1160451.303
 10
-594423.115
 20
-1160455.287
  0
LWPOLYLINE
  5
2092A
100
AcDbEntity
  8
0
100
AcDbPolyline
 70
0
 90
2
 10
-594171.157
 20
-1160605.118
 10
-594172.6
 20
-1160607.762
  0
LWPOLYLINE
  5
2092B
100
AcDbEntity
  8
0
100
AcDbPolyline
 70
0
 90
2
 10
-601480.097
 20
-1162443.149
 10
-601473.526
 20
-1162444.315
  0
LWPOLYLINE
  5
2092C
100
AcDbEntity
  8
0
100
AcDbPolyline
 70
0
 90
2
 10
-601478.161
 20
-1162469.8
 10
-601484.72
 20
-1162468.33
  0
LWPOLYLINE
  5
2092D
100
AcDbEntity
  8
0
100
AcDbPolyline
 70
0
 90
2
 10
-599135.219
 20
-1156721.809
 10
-599137.527
 20
-1156712.392
  0
LWPOLYLINE
  5
2092E
100
AcDbEntity
  8
0
100
AcDbPolyline
 70
0
 90
2
 10
-596811.291
 20
-1159182.653
 10
-596816.896
 20
-1159180.262
  0
LWPOLYLINE
  5
2092F
100
AcDbEntity
  8
0
100
AcDbPolyline
 70
0
 90
2
 10
-596809.874
 20
-1159192.826
 10
-596808.428
 20
-1159189.146
  0
LWPOLYLINE
  5
20930
100
AcDbEntity
  8
0
100
AcDbPolyline
 70
0
 90
2
 10
-596814.693
 20
-1159204.808
 10
-596813.225
 20
-1159201.019
  0
LWPOLYLINE
  5
20931
100
AcDbEntity
  8
0
100
AcDbPolyline
 70
0
 90
2
 10
-596824.428
 20
-1159184.258
 10
-596825.74
 20
-1159187.752
  0
LWPOLYLINE
  5
20932
100
AcDbEntity
  8
0
100
AcDbPolyline
 70
0
 90
2
 10
-596828.932
 20
-1159195.958
 10
-596830.071
 20
-1159199.2
  0
LWPOLYLINE
  5
20933
100
AcDbEntity
  8
0
100
AcDbPolyline
 70
0
 90
2
 10
-596723.979
 20
-1158995.276
 10
-596729.499
 20
-1158992.694
  0
LWPOLYLINE
  5
20934
100
AcDbEntity
  8
0
100
AcDbPolyline
 70
0
 90
2
 10
-596715.185
 20
-1158990.785
 10
-596712.437
 20
-1158984.875
  0
LWPOLYLINE
  5
20935
100
AcDbEntity
  8
0
100
AcDbPolyline
 70
0
 90
2
 10
-596728.914
 20
-1158977.543
 10
-596731.478
 20
-1158982.981
  0
LWPOLYLINE
  5
20936
100
AcDbEntity
  8
0
100
AcDbPolyline
 70
0
 90
2
 10
-603787.279
 20
-1160738.743
 10
-603790.544
 20
-1160741.077
  0
LWPOLYLINE
  5
20937
100
AcDbEntity
  8
0
100
AcDbPolyline
 70
0
 90
2
 10
-603738.206
 20
-1160257.13
 10
-603734.725
 20
-1160260.707
  0
LWPOLYLINE
  5
20938
100
AcDbEntity
  8
0
100
AcDbPolyline
 70
0
 90
2
 10
-595160.603
 20
-1157842.235
 10
-595159.615
 20
-1157835.276
  0
LWPOLYLINE
  5
20939
100
AcDbEntity
  8
0
100
AcDbPolyline
 70
0
 90
2
 10
-595336.394
 20
-1158941.519
 10
-595329.799
 20
-1158943.856
  0
LWPOLYLINE
  5
2093A
100
AcDbEntity
  8
0
100
AcDbPolyline
 70
0
 90
2
 10
-601333.253
 20
-1162401.057
 10
-601327.445
 20
-1162401.96
  0
LWPOLYLINE
  5
2093B
100
AcDbEntity
  8
0
100
AcDbPolyline
 70
0
 90
2
 10
-597912.92
 20
-1159214.37
 10
-597905.451
 20
-1159207.956
  0
LWPOLYLINE
  5
2093C
100
AcDbEntity
  8
0
100
AcDbPolyline
 70
0
 90
2
 10
-596988.627
 20
-1159701.46
 10
-596987.302
 20
-1159705.135
  0
LWPOLYLINE
  5
2093D
100
AcDbEntity
  8
0
100
AcDbPolyline
 70
0
 90
2
 10
-596393.505
 20
-1158336.907
 10
-596397.774
 20
-1158344.301
  0
LWPOLYLINE
  5
2093E
100
AcDbEntity
  8
0
100
AcDbPolyline
 70
0
 90
2
 10
-597187.16
 20
-1163627.75
 10
-597180.941
 20
-1163625.479
  0
LWPOLYLINE
  5
2093F
100
AcDbEntity
  8
0
100
AcDbPolyline
 70
0
 90
2
 10
-598562.047
 20
-1158219.545
 10
-598557.788
 20
-1158234.941
  0
LWPOLYLINE
  5
20940
100
AcDbEntity
  8
0
100
AcDbPolyline
 70
0
 90
2
 10
-596765.65
 20
-1157792.22
 10
-596759.289
 20
-1157787.986
  0
LWPOLYLINE
  5
20941
100
AcDbEntity
  8
0
100
AcDbPolyline
 70
0
 90
2
 10
-598372.286
 20
-1159002.684
 10
-598366.593
 20
-1159001.196
  0
LWPOLYLINE
  5
20942
100
AcDbEntity
  8
0
100
AcDbPolyline
 70
0
 90
2
 10
-598567.614
 20
-1162004.935
 10
-598553.908
 20
-1162009.328
  0
LWPOLYLINE
  5
20943
100
AcDbEntity
  8
0
100
AcDbPolyline
 70
0
 90
2
 10
-596956.69
 20
-1161587.52
 10
-596950.02
 20
-1161594.8
  0
LWPOLYLINE
  5
20944
100
AcDbEntity
  8
0
100
AcDbPolyline
 70
0
 90
2
 10
-597713.841
 20
-1161179.232
 10
-597721.265
 20
-1161191.512
  0
LWPOLYLINE
  5
20945
100
AcDbEntity
  8
0
100
AcDbPolyline
 70
0
 90
2
 10
-598005.23
 20
-1161480.93
 10
-598007.479
 20
-1161492.117
  0
LWPOLYLINE
  5
20946
100
AcDbEntity
  8
0
100
AcDbPolyline
 70
0
 90
2
 10
-595377.143
 20
-1161043.299
 10
-595366.163
 20
-1161042.582
  0
LWPOLYLINE
  5
20947
100
AcDbEntity
  8
0
100
AcDbPolyline
 70
0
 90
2
 10
-595367.178
 20
-1161019.234
 10
-595375.268
 20
-1161019.523
  0
LWPOLYLINE
  5
20948
100
AcDbEntity
  8
0
100
AcDbPolyline
 70
0
 90
2
 10
-594237.986
 20
-1161800.784
 10
-594230.093
 20
-1161809.893
  0
LWPOLYLINE
  5
20949
100
AcDbEntity
  8
0
100
AcDbPolyline
 70
0
 90
2
 10
-598035.99
 20
-1161473.66
 10
-598039.256
 20
-1161481.785
  0
LWPOLYLINE
  5
2094A
100
AcDbEntity
  8
0
100
AcDbPolyline
 70
0
 90
2
 10
-597876.059
 20
-1159726.967
 10
-597879.913
 20
-1159726.905
  0
LWPOLYLINE
  5
2094B
100
AcDbEntity
  8
0
100
AcDbPolyline
 70
0
 90
2
 10
-597858.782
 20
-1159727.215
 10
-597854.524
 20
-1159727.338
  0
LWPOLYLINE
  5
2094C
100
AcDbEntity
  8
0
100
AcDbPolyline
 70
0
 90
2
 10
-597865.763
 20
-1159714.696
 10
-597867.334
 20
-1159720.21
  0
LWPOLYLINE
  5
2094D
100
AcDbEntity
  8
0
100
AcDbPolyline
 70
0
 90
2
 10
-597664.727
 20
-1159699.249
 10
-597664.073
 20
-1159706.569
  0
LWPOLYLINE
  5
2094E
100
AcDbEntity
  8
0
100
AcDbPolyline
 70
0
 90
2
 10
-599090.327
 20
-1164258.177
 10
-599091.032
 20
-1164267.195
  0
LWPOLYLINE
  5
2094F
100
AcDbEntity
  8
0
100
AcDbPolyline
 70
0
 90
2
 10
-599091.409
 20
-1164270.772
 10
-599091.93
 20
-1164277.51
  0
LWPOLYLINE
  5
20950
100
AcDbEntity
  8
0
100
AcDbPolyline
 70
0
 90
2
 10
-599067.709
 20
-1164249.926
 10
-599073.721
 20
-1164249.926
  0
LWPOLYLINE
  5
20951
100
AcDbEntity
  8
0
100
AcDbPolyline
 70
0
 90
2
 10
-599077.347
 20
-1164250.024
 10
-599085.45
 20
-1164249.991
  0
LWPOLYLINE
  5
20952
100
AcDbEntity
  8
0
100
AcDbPolyline
 70
0
 90
2
 10
-599059.931
 20
-1164262.517
 10
-599060.448
 20
-1164269.541
  0
LWPOLYLINE
  5
20953
100
AcDbEntity
  8
0
100
AcDbPolyline
 70
0
 90
2
 10
-599060.748
 20
-1164273.407
 10
-599061.156
 20
-1164277.736
  0
LWPOLYLINE
  5
20954
100
AcDbEntity
  8
0
100
AcDbPolyline
 70
0
 90
2
 10
-598857.465
 20
-1164275.022
 10
-598856.217
 20
-1164281.92
  0
LWPOLYLINE
  5
20955
100
AcDbEntity
  8
0
100
AcDbPolyline
 70
0
 90
2
 10
-599069.222
 20
-1156455.733
 10
-599072.341
 20
-1156456.716
  0
LWPOLYLINE
  5
20956
100
AcDbEntity
  8
0
100
AcDbPolyline
 70
0
 90
2
 10
-596026.754
 20
-1157829.237
 10
-596021.726
 20
-1157828.67
  0
LWPOLYLINE
  5
20957
100
AcDbEntity
  8
0
100
AcDbPolyline
 70
0
 90
2
 10
-596204.555
 20
-1162110.652
 10
-596199.594
 20
-1162105.782
  0
LWPOLYLINE
  5
20958
100
AcDbEntity
  8
0
100
AcDbPolyline
 70
0
 90
2
 10
-596173.84
 20
-1162104.566
 10
-596180.066
 20
-1162104.945
  0
LWPOLYLINE
  5
20959
100
AcDbEntity
  8
0
100
AcDbPolyline
 70
0
 90
2
 10
-597910.171
 20
-1159175.124
 10
-597904.437
 20
-1159181.634
  0
LWPOLYLINE
  5
2095A
100
AcDbEntity
  8
0
100
AcDbPolyline
 70
0
 90
2
 10
-601357.353
 20
-1157756.509
 10
-601362.682
 20
-1157753.662
  0
LWPOLYLINE
  5
2095B
100
AcDbEntity
  8
0
100
AcDbPolyline
 70
0
 90
2
 10
-598962.225
 20
-1159610.654
 10
-598959.563
 20
-1159608.729
  0
LWPOLYLINE
  5
2095C
100
AcDbEntity
  8
0
100
AcDbPolyline
 70
0
 90
2
 10
-598712.317
 20
-1160004.127
 10
-598709.585
 20
-1160002.344
  0
LWPOLYLINE
  5
2095D
100
AcDbEntity
  8
0
100
AcDbPolyline
 70
0
 90
2
 10
-598296.799
 20
-1160381.42
 10
-598297.796
 20
-1160372.66
  0
LWPOLYLINE
  5
2095E
100
AcDbEntity
  8
0
100
AcDbPolyline
 70
0
 90
2
 10
-596952.694
 20
-1157576.515
 10
-596947.543
 20
-1157571.817
  0
LWPOLYLINE
  5
2095F
100
AcDbEntity
  8
0
100
AcDbPolyline
 70
0
 90
2
 10
-596943.071
 20
-1157567.84
 10
-596945.317
 20
-1157569.818
  0
LWPOLYLINE
  5
20960
100
AcDbEntity
  8
0
100
AcDbPolyline
 70
0
 90
2
 10
-594940.204
 20
-1162285.028
 10
-594943.059
 20
-1162292.124
  0
LWPOLYLINE
  5
20961
100
AcDbEntity
  8
0
100
AcDbPolyline
 70
0
 90
2
 10
-594804.938
 20
-1162532.253
 10
-594809.205
 20
-1162530.415
  0
LWPOLYLINE
  5
20962
100
AcDbEntity
  8
0
100
AcDbPolyline
 70
0
 90
2
 10
-594812.045
 20
-1162529.296
 10
-594818.16
 20
-1162526.523
  0
LWPOLYLINE
  5
20963
100
AcDbEntity
  8
0
100
AcDbPolyline
 70
0
 90
2
 10
-599950.259
 20
-1159472.555
 10
-599947.31
 20
-1159473.483
  0
LWPOLYLINE
  5
20964
100
AcDbEntity
  8
0
100
AcDbPolyline
 70
0
 90
2
 10
-597473.238
 20
-1162330.278
 10
-597472.052
 20
-1162325.927
  0
LWPOLYLINE
  5
20965
100
AcDbEntity
  8
0
100
AcDbPolyline
 70
0
 90
2
 10
-597471.516
 20
-1162323.693
 10
-597470.446
 20
-1162319.249
  0
LWPOLYLINE
  5
20966
100
AcDbEntity
  8
0
100
AcDbPolyline
 70
0
 90
2
 10
-597415.434
 20
-1162319.171
 10
-597414.319
 20
-1162323.912
  0
LWPOLYLINE
  5
20967
100
AcDbEntity
  8
0
100
AcDbPolyline
 70
0
 90
2
 10
-597412.461
 20
-1162326.527
 10
-597411.125
 20
-1162331.296
  0
LWPOLYLINE
  5
20968
100
AcDbEntity
  8
0
100
AcDbPolyline
 70
0
 90
2
 10
-597355.455
 20
-1162342.102
 10
-597354.345
 20
-1162330.86
  0
LWPOLYLINE
  5
20969
100
AcDbEntity
  8
0
100
AcDbPolyline
 70
0
 90
2
 10
-597432.107
 20
-1162282.49
 10
-597428.826
 20
-1162291.753
  0
LWPOLYLINE
  5
2096A
100
AcDbEntity
  8
0
100
AcDbPolyline
 70
0
 90
2
 10
-597437.368
 20
-1162313.864
 10
-597430.212
 20
-1162311.032
  0
LWPOLYLINE
  5
2096B
100
AcDbEntity
  8
0
100
AcDbPolyline
 70
0
 90
2
 10
-597427.603
 20
-1162310.193
 10
-597424.467
 20
-1162308.987
  0
LWPOLYLINE
  5
2096C
100
AcDbEntity
  8
0
100
AcDbPolyline
 70
0
 90
2
 10
-597482.723
 20
-1162182.82
 10
-597487.99
 20
-1162179.724
  0
LWPOLYLINE
  5
2096D
100
AcDbEntity
  8
0
100
AcDbPolyline
 70
0
 90
2
 10
-597474.12
 20
-1162121.34
 10
-597475.863
 20
-1162117.855
  0
LWPOLYLINE
  5
2096E
100
AcDbEntity
  8
0
100
AcDbPolyline
 70
0
 90
2
 10
-597512.183
 20
-1161962.975
 10
-597513.328
 20
-1161957.251
  0
LWPOLYLINE
  5
2096F
100
AcDbEntity
  8
0
100
AcDbPolyline
 70
0
 90
2
 10
-597455.424
 20
-1162225.302
 10
-597451.863
 20
-1162224.324
  0
LWPOLYLINE
  5
20970
100
AcDbEntity
  8
0
100
AcDbPolyline
 70
0
 90
2
 10
-597461.031
 20
-1162217.646
 10
-597468.198
 20
-1162219.485
  0
LWPOLYLINE
  5
20971
100
AcDbEntity
  8
0
100
AcDbPolyline
 70
0
 90
2
 10
-597487.833
 20
-1162142.36
 10
-597481.084
 20
-1162140.66
  0
LWPOLYLINE
  5
20972
100
AcDbEntity
  8
0
100
AcDbPolyline
 70
0
 90
2
 10
-597490.31
 20
-1162143.273
 10
-597493.777
 20
-1162144.18
  0
LWPOLYLINE
  5
20973
100
AcDbEntity
  8
0
100
AcDbPolyline
 70
0
 90
2
 10
-597476.307
 20
-1162129.862
 10
-597479.881
 20
-1162130.756
  0
LWPOLYLINE
  5
20974
100
AcDbEntity
  8
0
100
AcDbPolyline
 70
0
 90
2
 10
-597570.944
 20
-1161768.666
 10
-597581.154
 20
-1161771.411
  0
LWPOLYLINE
  5
20975
100
AcDbEntity
  8
0
100
AcDbPolyline
 70
0
 90
2
 10
-601217.172
 20
-1158483.672
 10
-601213.033
 20
-1158488.931
  0
LWPOLYLINE
  5
20976
100
AcDbEntity
  8
0
100
AcDbPolyline
 70
0
 90
2
 10
-598350.045
 20
-1159032.248
 10
-598346.682
 20
-1159031.392
  0
LWPOLYLINE
  5
20977
100
AcDbEntity
  8
0
100
AcDbPolyline
 70
0
 90
2
 10
-594788.145
 20
-1157494.053
 10
-594784.287
 20
-1157493.261
  0
LWPOLYLINE
  5
20978
100
AcDbEntity
  8
0
100
AcDbPolyline
 70
0
 90
2
 10
-594790.148
 20
-1157494.448
 10
-594794.031
 20
-1157495.215
  0
LWPOLYLINE
  5
20979
100
AcDbEntity
  8
0
100
AcDbPolyline
 70
0
 90
2
 10
-597609.62
 20
-1160716.359
 10
-597611.425
 20
-1160711.841
  0
LWPOLYLINE
  5
2097A
100
AcDbEntity
  8
0
100
AcDbPolyline
 70
0
 90
2
 10
-597588.56
 20
-1160689.83
 10
-597586.303
 20
-1160695.071
  0
LWPOLYLINE
  5
2097B
100
AcDbEntity
  8
0
100
AcDbPolyline
 70
0
 90
2
 10
-596761.201
 20
-1160113.564
 10
-596758.398
 20
-1160113.877
  0
LWPOLYLINE
  5
2097C
100
AcDbEntity
  8
0
100
AcDbPolyline
 70
0
 90
2
 10
-596749.769
 20
-1160114.814
 10
-596745.127
 20
-1160115.394
  0
LWPOLYLINE
  5
2097D
100
AcDbEntity
  8
0
100
AcDbPolyline
 70
0
 90
2
 10
-596731.572
 20
-1160092.719
 10
-596731.122
 20
-1160096.575
  0
LWPOLYLINE
  5
2097E
100
AcDbEntity
  8
0
100
AcDbPolyline
 70
0
 90
2
 10
-596756.88
 20
-1160072.465
 10
-596754.026
 20
-1160071.722
  0
LWPOLYLINE
  5
2097F
100
AcDbEntity
  8
0
100
AcDbPolyline
 70
0
 90
2
 10
-598701.361
 20
-1161907.031
 10
-598698.141
 20
-1161909.571
  0
LWPOLYLINE
  5
20980
100
AcDbEntity
  8
0
100
AcDbPolyline
 70
0
 90
2
 10
-598710.556
 20
-1161899.625
 10
-598707.709
 20
-1161901.924
  0
LWPOLYLINE
  5
20981
100
AcDbEntity
  8
0
100
AcDbPolyline
 70
0
 90
2
 10
-601782.866
 20
-1157296.514
 10
-601787.802
 20
-1157293.011
  0
LWPOLYLINE
  5
20982
100
AcDbEntity
  8
0
100
AcDbPolyline
 70
0
 90
2
 10
-597573.3
 20
-1161748.475
 10
-597571.206
 20
-1161755.223
  0
LWPOLYLINE
  5
20983
100
AcDbEntity
  8
0
100
AcDbPolyline
 70
0
 90
2
 10
-597570.531
 20
-1161757.701
 10
-597568.437
 20
-1161764.449
  0
LWPOLYLINE
  5
20984
100
AcDbEntity
  8
0
100
AcDbPolyline
 70
0
 90
2
 10
-597589.344
 20
-1161753.251
 10
-597587.25
 20
-1161759.999
  0
LWPOLYLINE
  5
20985
100
AcDbEntity
  8
0
100
AcDbPolyline
 70
0
 90
2
 10
-597586.575
 20
-1161762.477
 10
-597584.481
 20
-1161769.225
  0
LWPOLYLINE
  5
20986
100
AcDbEntity
  8
0
100
AcDbPolyline
 70
0
 90
2
 10
-597597.031
 20
-1161747.511
 10
-597592.494
 20
-1161749.745
  0
LWPOLYLINE
  5
20987
100
AcDbEntity
  8
0
100
AcDbPolyline
 70
0
 90
2
 10
-597587.212
 20
-1161749.047
 10
-597577.718
 20
-1161746.185
  0
LWPOLYLINE
  5
20988
100
AcDbEntity
  8
0
100
AcDbPolyline
 70
0
 90
2
 10
-597584.43
 20
-1161701.869
 10
-597583.059
 20
-1161705.041
  0
LWPOLYLINE
  5
20989
100
AcDbEntity
  8
0
100
AcDbPolyline
 70
0
 90
2
 10
-597589.215
 20
-1161690.678
 10
-597587.861
 20
-1161693.705
  0
LWPOLYLINE
  5
2098A
100
AcDbEntity
  8
0
100
AcDbPolyline
 70
0
 90
2
 10
-597615.798
 20
-1161618.988
 10
-597612.028
 20
-1161622.367
  0
LWPOLYLINE
  5
2098B
100
AcDbEntity
  8
0
100
AcDbPolyline
 70
0
 90
2
 10
-597619.664
 20
-1161600.135
 10
-597621.763
 20
-1161610.882
  0
LWPOLYLINE
  5
2098C
100
AcDbEntity
  8
0
100
AcDbPolyline
 70
0
 90
2
 10
-597625.92
 20
-1161582.97
 10
-597621.832
 20
-1161576.329
  0
LWPOLYLINE
  5
2098D
100
AcDbEntity
  8
0
100
AcDbPolyline
 70
0
 90
2
 10
-597636.316
 20
-1161619.675
 10
-597630.15
 20
-1161616.767
  0
LWPOLYLINE
  5
2098E
100
AcDbEntity
  8
0
100
AcDbPolyline
 70
0
 90
2
 10
-597642.862
 20
-1161615.866
 10
-597646.179
 20
-1161618.513
  0
LWPOLYLINE
  5
2098F
100
AcDbEntity
  8
0
100
AcDbPolyline
 70
0
 90
2
 10
-597665.412
 20
-1161609.534
 10
-597662.866
 20
-1161614.828
  0
LWPOLYLINE
  5
20990
100
AcDbEntity
  8
0
100
AcDbPolyline
 70
0
 90
2
 10
-597758.702
 20
-1161435.74
 10
-597754.769
 20
-1161444.977
  0
LWPOLYLINE
  5
20991
100
AcDbEntity
  8
0
100
AcDbPolyline
 70
0
 90
2
 10
-597760.191
 20
-1161432.063
 10
-597764.1
 20
-1161422.779
  0
LWPOLYLINE
  5
20992
100
AcDbEntity
  8
0
100
AcDbPolyline
 70
0
 90
2
 10
-597696.49
 20
-1161553.663
 10
-597692.972
 20
-1161559.51
  0
LWPOLYLINE
  5
20993
100
AcDbEntity
  8
0
100
AcDbPolyline
 70
0
 90
2
 10
-597705.673
 20
-1161534.625
 10
-597709.761
 20
-1161527.321
  0
LWPOLYLINE
  5
20994
100
AcDbEntity
  8
0
100
AcDbPolyline
 70
0
 90
3
 10
-597747.31
 20
-1161396.678
 10
-597749.561
 20
-1161396.723
 10
-597757.339
 20
-1161396.941
  0
LWPOLYLINE
  5
20995
100
AcDbEntity
  8
0
100
AcDbPolyline
 70
0
 90
2
 10
-597728.299
 20
-1161395.956
 10
-597735.21
 20
-1161396.236
  0
LWPOLYLINE
  5
20996
100
AcDbEntity
  8
0
100
AcDbPolyline
 70
0
 90
2
 10
-597737.607
 20
-1161396.119
 10
-597744.704
 20
-1161396.468
  0
LWPOLYLINE
  5
20997
100
AcDbEntity
  8
0
100
AcDbPolyline
 70
0
 90
2
 10
-597662.198
 20
-1161524.505
 10
-597667.994
 20
-1161521.431
  0
LWPOLYLINE
  5
20998
100
AcDbEntity
  8
0
100
AcDbPolyline
 70
0
 90
2
 10
-597516.698
 20
-1162061.341
 10
-597518.513
 20
-1162053.802
  0
LWPOLYLINE
  5
20999
100
AcDbEntity
  8
0
100
AcDbPolyline
 70
0
 90
2
 10
-603530.355
 20
-1157176.215
 10
-603527.504
 20
-1157178.967
  0
LWPOLYLINE
  5
2099A
100
AcDbEntity
  8
0
100
AcDbPolyline
 70
0
 90
2
 10
-603535.073
 20
-1157171.627
 10
-603532.19
 20
-1157174.413
  0
LWPOLYLINE
  5
2099B
100
AcDbEntity
  8
0
100
AcDbPolyline
 70
0
 90
2
 10
-603405.857
 20
-1156973.48
 10
-603402.471
 20
-1156974.763
  0
LWPOLYLINE
  5
2099C
100
AcDbEntity
  8
0
100
AcDbPolyline
 70
0
 90
2
 10
-603408.342
 20
-1156972.715
 10
-603412.274
 20
-1156971.131
  0
LWPOLYLINE
  5
2099D
100
AcDbEntity
  8
0
100
AcDbPolyline
 70
0
 90
2
 10
-603334.834
 20
-1156719.207
 10
-603338.468
 20
-1156719.096
  0
LWPOLYLINE
  5
2099E
100
AcDbEntity
  8
0
100
AcDbPolyline
 70
0
 90
2
 10
-603341.313
 20
-1156718.938
 10
-603345.469
 20
-1156718.843
  0
LWPOLYLINE
  5
2099F
100
AcDbEntity
  8
0
100
AcDbPolyline
 70
0
 90
2
 10
-603326.054
 20
-1156719.548
 10
-603330.947
 20
-1156719.055
  0
LWPOLYLINE
  5
209A0
100
AcDbEntity
  8
0
100
AcDbPolyline
 70
0
 90
2
 10
-596412.447
 20
-1164743.158
 10
-596414.941
 20
-1164745.508
  0
LWPOLYLINE
  5
209A1
100
AcDbEntity
  8
0
100
AcDbPolyline
 70
0
 90
2
 10
-596401.093
 20
-1164750.515
 10
-596398.682
 20
-1164748.042
  0
LWPOLYLINE
  5
209A2
100
AcDbEntity
  8
0
100
AcDbPolyline
 70
0
 90
2
 10
-599532.704
 20
-1153294.734
 10
-599538.14
 20
-1153295.383
  0
LWPOLYLINE
  5
209A3
100
AcDbEntity
  8
0
100
AcDbPolyline
 70
0
 90
2
 10
-599542.522
 20
-1153294.977
 10
-599548.31
 20
-1153292.299
  0
LWPOLYLINE
  5
209A4
100
AcDbEntity
  8
0
100
AcDbPolyline
 70
0
 90
2
 10
-599586.647
 20
-1153305.428
 10
-599585.011
 20
-1153300.287
  0
LWPOLYLINE
  5
209A5
100
AcDbEntity
  8
0
100
AcDbPolyline
 70
0
 90
2
 10
-592629.147
 20
-1163378.328
 10
-592624.683
 20
-1163372.644
  0
LWPOLYLINE
  5
209A6
100
AcDbEntity
  8
0
100
AcDbPolyline
 70
0
 90
2
 10
-596154.448
 20
-1156644.323
 10
-596150.652
 20
-1156643.113
  0
LWPOLYLINE
  5
209A7
100
AcDbEntity
  8
0
100
AcDbPolyline
 70
0
 90
2
 10
-596081.477
 20
-1157046.716
 10
-596077.514
 20
-1157046.579
  0
LWPOLYLINE
  5
209A8
100
AcDbEntity
  8
0
100
AcDbPolyline
 70
0
 90
2
 10
-596160.839
 20
-1157520.875
 10
-596157.098
 20
-1157522.309
  0
LWPOLYLINE
  5
209A9
100
AcDbEntity
  8
0
100
AcDbPolyline
 70
0
 90
2
 10
-596080.122
 20
-1157233.694
 10
-596075.885
 20
-1157234.045
  0
LWPOLYLINE
  5
209AA
100
AcDbEntity
  8
0
100
AcDbPolyline
 70
0
 90
2
 10
-596564.124
 20
-1156613.615
 10
-596564.8
 20
-1156609.841
  0
LWPOLYLINE
  5
209AB
100
AcDbEntity
  8
0
100
AcDbPolyline
 70
0
 90
2
 10
-596452.202
 20
-1156584.949
 10
-596450.956
 20
-1156591.146
  0
LWPOLYLINE
  5
209AC
100
AcDbEntity
  8
0
100
AcDbPolyline
 70
0
 90
2
 10
-598767.672
 20
-1162024.739
 10
-598763.217
 20
-1162028.062
  0
LWPOLYLINE
  5
209AD
100
AcDbEntity
  8
0
100
AcDbPolyline
 70
0
 90
2
 10
-600328.313
 20
-1162728.267
 10
-600323.834
 20
-1162731.229
  0
LWPOLYLINE
  5
209AE
100
AcDbEntity
  8
0
100
AcDbPolyline
 70
0
 90
2
 10
-600321.244
 20
-1162733.204
 10
-600317.223
 20
-1162735.98
  0
LWPOLYLINE
  5
209AF
100
AcDbEntity
  8
0
100
AcDbPolyline
 70
0
 90
2
 10
-596523.253
 20
-1156587.639
 10
-596523.253
 20
-1156584.614
  0
LWPOLYLINE
  5
209B0
100
AcDbEntity
  8
0
100
AcDbPolyline
 70
0
 90
2
 10
-597707.145
 20
-1165875.946
 10
-597699.826
 20
-1165876.441
  0
LWPOLYLINE
  5
209B1
100
AcDbEntity
  8
0
100
AcDbPolyline
 70
0
 90
2
 10
-599423.362
 20
-1161572.655
 10
-599420.572
 20
-1161574.644
  0
LWPOLYLINE
  5
209B2
100
AcDbEntity
  8
0
100
AcDbPolyline
 70
0
 90
2
 10
-599409.667
 20
-1161575.225
 10
-599416.33
 20
-1161575.809
  0
LWPOLYLINE
  5
209B3
100
AcDbEntity
  8
0
100
AcDbPolyline
 70
0
 90
2
 10
-599418.665
 20
-1161578.419
 10
-599417.498
 20
-1161591.814
  0
LWPOLYLINE
  5
209B4
100
AcDbEntity
  8
0
100
AcDbPolyline
 70
0
 90
2
 10
-598166.16
 20
-1159793.01
 10
-598162.793
 20
-1159792.087
  0
LWPOLYLINE
  5
209B5
100
AcDbEntity
  8
0
100
AcDbPolyline
 70
0
 90
2
 10
-599695.316
 20
-1161276.831
 10
-599694.042
 20
-1161280.955
  0
LWPOLYLINE
  5
209B6
100
AcDbEntity
  8
0
100
AcDbPolyline
 70
0
 90
2
 10
-599695.355
 20
-1161293.228
 10
-599699.802
 20
-1161292.999
  0
LWPOLYLINE
  5
209B7
100
AcDbEntity
  8
0
100
AcDbPolyline
 70
0
 90
2
 10
-599710.829
 20
-1161292.403
 10
-599704.906
 20
-1161292.777
  0
LWPOLYLINE
  5
209B8
100
AcDbEntity
  8
0
100
AcDbPolyline
 70
0
 90
2
 10
-599705.592
 20
-1161321.365
 10
-599710.455
 20
-1161320.523
  0
LWPOLYLINE
  5
209B9
100
AcDbEntity
  8
0
100
AcDbPolyline
 70
0
 90
2
 10
-599699.232
 20
-1161322.3
 10
-599694.431
 20
-1161323.079
  0
LWPOLYLINE
  5
209BA
100
AcDbEntity
  8
0
100
AcDbPolyline
 70
0
 90
2
 10
-599683.613
 20
-1161304.405
 10
-599684.081
 20
-1161308.302
  0
LWPOLYLINE
  5
209BB
100
AcDbEntity
  8
0
100
AcDbPolyline
 70
0
 90
2
 10
-599684.579
 20
-1161310.921
 10
-599685.203
 20
-1161315.753
  0
LWPOLYLINE
  5
209BC
100
AcDbEntity
  8
0
100
AcDbPolyline
 70
0
 90
2
 10
-606770.292
 20
-1158479.984
 10
-606770.498
 20
-1158476.755
  0
LWPOLYLINE
  5
209BD
100
AcDbEntity
  8
0
100
AcDbPolyline
 70
0
 90
2
 10
-606770.138
 20
-1158482.422
 10
-606769.932
 20
-1158485.96
  0
LWPOLYLINE
  5
209BE
100
AcDbEntity
  8
0
100
AcDbPolyline
 70
0
 90
2
 10
-592578.784
 20
-1163252.558
 10
-592577.3
 20
-1163259.647
  0
LWPOLYLINE
  5
209BF
100
AcDbEntity
  8
0
100
AcDbPolyline
 70
0
 90
2
 10
-591543.725
 20
-1167242.342
 10
-591543.577
 20
-1167236.852
  0
LWPOLYLINE
  5
209C0
100
AcDbEntity
  8
0
100
AcDbPolyline
 70
0
 90
2
 10
-603819.039
 20
-1157282.42
 10
-603820.327
 20
-1157288.717
  0
LWPOLYLINE
  5
209C1
100
AcDbEntity
  8
0
100
AcDbPolyline
 70
0
 90
2
 10
-599159.54
 20
-1160192.787
 10
-599159.169
 20
-1160196.805
  0
LWPOLYLINE
  5
209C2
100
AcDbEntity
  8
0
100
AcDbPolyline
 70
0
 90
2
 10
-601360.455
 20
-1162574.756
 10
-601366.283
 20
-1162573.696
  0
LWPOLYLINE
  5
209C3
100
AcDbEntity
  8
0
100
AcDbPolyline
 70
0
 90
2
 10
-601351.623
 20
-1162576.302
 10
-601357.496
 20
-1162575.242
  0
LWPOLYLINE
  5
209C4
100
AcDbEntity
  8
0
100
AcDbPolyline
 70
0
 90
2
 10
-601330.908
 20
-1162580.296
 10
-601326.308
 20
-1162581.293
  0
LWPOLYLINE
  5
209C5
100
AcDbEntity
  8
0
100
AcDbPolyline
 70
0
 90
2
 10
-601323.881
 20
-1162581.702
 10
-601316.113
 20
-1162583.082
  0
LWPOLYLINE
  5
209C6
100
AcDbEntity
  8
0
100
AcDbPolyline
 70
0
 90
2
 10
-601320.191
 20
-1162607.445
 10
-601326.284
 20
-1162607.401
  0
LWPOLYLINE
  5
209C7
100
AcDbEntity
  8
0
100
AcDbPolyline
 70
0
 90
2
 10
-599784.258
 20
-1164983.871
 10
-599782.279
 20
-1164986.632
  0
LWPOLYLINE
  5
209C8
100
AcDbEntity
  8
0
100
AcDbPolyline
 70
0
 90
2
 10
-599787.452
 20
-1164979.327
 10
-599785.473
 20
-1164982.088
  0
LWPOLYLINE
  5
209C9
100
AcDbEntity
  8
0
100
AcDbPolyline
 70
0
 90
2
 10
-592625.305
 20
-1158948.232
 10
-592622.38
 20
-1158948.9
  0
LWPOLYLINE
  5
209CA
100
AcDbEntity
  8
0
100
AcDbPolyline
 70
0
 90
2
 10
-603854.311
 20
-1157297.766
 10
-603848.027
 20
-1157299.155
  0
LWPOLYLINE
  5
209CB
100
AcDbEntity
  8
0
100
AcDbPolyline
 70
0
 90
2
 10
-604020.179
 20
-1157085.665
 10
-604018.922
 20
-1157082.903
  0
LWPOLYLINE
  5
209CC
100
AcDbEntity
  8
0
100
AcDbPolyline
 70
0
 90
2
 10
-599807.225
 20
-1159161.234
 10
-599808.956
 20
-1159158.493
  0
LWPOLYLINE
  5
209CD
100
AcDbEntity
  8
0
100
AcDbPolyline
 70
0
 90
2
 10
-599803.948
 20
-1159165.603
 10
-599805.741
 20
-1159162.944
  0
LWPOLYLINE
  5
209CE
100
AcDbEntity
  8
0
100
AcDbPolyline
 70
0
 90
2
 10
-603186.38
 20
-1160601.914
 10
-603184.594
 20
-1160599.63
  0
LWPOLYLINE
  5
209CF
100
AcDbEntity
  8
0
100
AcDbPolyline
 70
0
 90
2
 10
-603183.494
 20
-1160597.905
 10
-603181.812
 20
-1160595.687
  0
LWPOLYLINE
  5
209D0
100
AcDbEntity
  8
0
100
AcDbPolyline
 70
0
 90
2
 10
-591160.455
 20
-1159353.413
 10
-591156.36
 20
-1159358.873
  0
LWPOLYLINE
  5
209D1
100
AcDbEntity
  8
0
100
AcDbPolyline
 70
0
 90
2
 10
-602392.734
 20
-1162876.425
 10
-602389.198
 20
-1162875.56
  0
LWPOLYLINE
  5
209D2
100
AcDbEntity
  8
0
100
AcDbPolyline
 70
0
 90
2
 10
-602395.405
 20
-1162877.39
 10
-602398.768
 20
-1162878.181
  0
LWPOLYLINE
  5
209D3
100
AcDbEntity
  8
0
100
AcDbPolyline
 70
0
 90
2
 10
-602401.433
 20
-1162899.758
 10
-602399.99
 20
-1162906.682
  0
LWPOLYLINE
  5
209D4
100
AcDbEntity
  8
0
100
AcDbPolyline
 70
0
 90
2
 10
-602402.195
 20
-1162897.12
 10
-602403.452
 20
-1162892.504
  0
LWPOLYLINE
  5
209D5
100
AcDbEntity
  8
0
100
AcDbPolyline
 70
0
 90
2
 10
-597619.128
 20
-1164024.832
 10
-597628.87
 20
-1164024.98
  0
LWPOLYLINE
  5
209D6
100
AcDbEntity
  8
0
100
AcDbPolyline
 70
0
 90
2
 10
-597628.775
 20
-1164045.268
 10
-597635.077
 20
-1164045.457
  0
LWPOLYLINE
  5
209D7
100
AcDbEntity
  8
0
100
AcDbPolyline
 70
0
 90
2
 10
-597626.392
 20
-1164045.233
 10
-597617.24
 20
-1164044.998
  0
LWPOLYLINE
  5
209D8
100
AcDbEntity
  8
0
100
AcDbPolyline
 70
0
 90
2
 10
-597644.821
 20
-1164028.896
 10
-597644.709
 20
-1164032.592
  0
LWPOLYLINE
  5
209D9
100
AcDbEntity
  8
0
100
AcDbPolyline
 70
0
 90
2
 10
-597644.624
 20
-1164035.386
 10
-597644.455
 20
-1164041.453
  0
LWPOLYLINE
  5
209DA
100
AcDbEntity
  8
0
100
AcDbPolyline
 70
0
 90
2
 10
-599326.384
 20
-1161224.691
 10
-599324.456
 20
-1161228.474
  0
LWPOLYLINE
  5
209DB
100
AcDbEntity
  8
0
100
AcDbPolyline
 70
0
 90
2
 10
-599323.442
 20
-1161230.626
 10
-599320.351
 20
-1161236.857
  0
LWPOLYLINE
  5
209DC
100
AcDbEntity
  8
0
100
AcDbPolyline
 70
0
 90
2
 10
-599253.946
 20
-1161217.839
 10
-599255.085
 20
-1161221.542
  0
LWPOLYLINE
  5
209DD
100
AcDbEntity
  8
0
100
AcDbPolyline
 70
0
 90
2
 10
-599255.263
 20
-1161224.035
 10
-599256.866
 20
-1161230.018
  0
LWPOLYLINE
  5
209DE
100
AcDbEntity
  8
0
100
AcDbPolyline
 70
0
 90
2
 10
-599238.616
 20
-1161123.294
 10
-599237.701
 20
-1161128.388
  0
LWPOLYLINE
  5
209DF
100
AcDbEntity
  8
0
100
AcDbPolyline
 70
0
 90
2
 10
-599242.647
 20
-1161137.241
 10
-599248.681
 20
-1161138.081
  0
LWPOLYLINE
  5
209E0
100
AcDbEntity
  8
0
100
AcDbPolyline
 70
0
 90
2
 10
-599315.598
 20
-1161147.35
 10
-599323.512
 20
-1161149.081
  0
LWPOLYLINE
  5
209E1
100
AcDbEntity
  8
0
100
AcDbPolyline
 70
0
 90
2
 10
-599306.512
 20
-1161135.513
 10
-599305.764
 20
-1161140.605
  0
LWPOLYLINE
  5
209E2
100
AcDbEntity
  8
0
100
AcDbPolyline
 70
0
 90
2
 10
-599302.824
 20
-1161154.875
 10
-599302.154
 20
-1161158.945
  0
LWPOLYLINE
  5
209E3
100
AcDbEntity
  8
0
100
AcDbPolyline
 70
0
 90
2
 10
-599300.849
 20
-1161166.707
 10
-599301.536
 20
-1161162.551
  0
LWPOLYLINE
  5
209E4
100
AcDbEntity
  8
0
100
AcDbPolyline
 70
0
 90
2
 10
-594582.632
 20
-1166990.53
 10
-594589.041
 20
-1166993.29
  0
LWPOLYLINE
  5
209E5
100
AcDbEntity
  8
0
100
AcDbPolyline
 70
0
 90
2
 10
-594165.887
 20
-1166527.774
 10
-594168.492
 20
-1166533.077
  0
LWPOLYLINE
  5
209E6
100
AcDbEntity
  8
0
100
AcDbPolyline
 70
0
 90
2
 10
-603218.832
 20
-1160576.199
 10
-603221.859
 20
-1160569.819
  0
LWPOLYLINE
  5
209E7
100
AcDbEntity
  8
0
100
AcDbPolyline
 70
0
 90
2
 10
-600051.143
 20
-1153443.345
 10
-600055.079
 20
-1153443.51
  0
LWPOLYLINE
  5
209E8
100
AcDbEntity
  8
0
100
AcDbPolyline
 70
0
 90
2
 10
-600049.356
 20
-1153443.241
 10
-600045.874
 20
-1153443.062
  0
LWPOLYLINE
  5
209E9
100
AcDbEntity
  8
0
100
AcDbPolyline
 70
0
 90
2
 10
-597387.633
 20
-1161862.715
 10
-597386.272
 20
-1161857.899
  0
LWPOLYLINE
  5
209EA
100
AcDbEntity
  8
0
100
AcDbPolyline
 70
0
 90
2
 10
-597397.527
 20
-1161841.409
 10
-597393.274
 20
-1161842.767
  0
LWPOLYLINE
  5
209EB
100
AcDbEntity
  8
0
100
AcDbPolyline
 70
0
 90
2
 10
-597390.533
 20
-1161845.126
 10
-597387.191
 20
-1161853.066
  0
LWPOLYLINE
  5
209EC
100
AcDbEntity
  8
0
100
AcDbPolyline
 70
0
 90
2
 10
-597940.578
 20
-1156066.682
 10
-597943.669
 20
-1156065.136
  0
LWPOLYLINE
  5
209ED
100
AcDbEntity
  8
0
100
AcDbPolyline
 70
0
 90
2
 10
-597946.056
 20
-1156063.936
 10
-597949.219
 20
-1156062.319
  0
LWPOLYLINE
  5
209EE
100
AcDbEntity
  8
0
100
AcDbPolyline
 70
0
 90
2
 10
-601598.653
 20
-1156882.776
 10
-601601.532
 20
-1156882.993
  0
LWPOLYLINE
  5
209EF
100
AcDbEntity
  8
0
100
AcDbPolyline
 70
0
 90
2
 10
-601593.391
 20
-1156882.466
 10
-601596.332
 20
-1156882.59
  0
LWPOLYLINE
  5
209F0
100
AcDbEntity
  8
0
100
AcDbPolyline
 70
0
 90
2
 10
-593540.233
 20
-1162780.791
 10
-593544.932
 20
-1162775.944
  0
LWPOLYLINE
  5
209F1
100
AcDbEntity
  8
0
100
AcDbPolyline
 70
0
 90
2
 10
-597848.639
 20
-1161662.24
 10
-597849.903
 20
-1161659.431
  0
LWPOLYLINE
  5
209F2
100
AcDbEntity
  8
0
100
AcDbPolyline
 70
0
 90
2
 10
-597847.259
 20
-1161664.909
 10
-597845.971
 20
-1161667.745
  0
LWPOLYLINE
  5
209F3
100
AcDbEntity
  8
0
100
AcDbPolyline
 70
0
 90
2
 10
-597845.956
 20
-1161621.303
 10
-597851.652
 20
-1161624.134
  0
LWPOLYLINE
  5
209F4
100
AcDbEntity
  8
0
100
AcDbPolyline
 70
0
 90
2
 10
-604173.609
 20
-1157836.158
 10
-604169.343
 20
-1157836.431
  0
LWPOLYLINE
  5
209F5
100
AcDbEntity
  8
0
100
AcDbPolyline
 70
0
 90
2
 10
-595380.223
 20
-1150788.357
 10
-595386.359
 20
-1150789.555
  0
LWPOLYLINE
  5
209F6
100
AcDbEntity
  8
0
100
AcDbPolyline
 70
0
 90
2
 10
-592442.457
 20
-1160090.271
 10
-592441.38
 20
-1160094.08
  0
LWPOLYLINE
  5
209F7
100
AcDbEntity
  8
0
100
AcDbPolyline
 70
0
 90
2
 10
-592379.582
 20
-1160066.099
 10
-592378.137
 20
-1160069.069
  0
LWPOLYLINE
  5
209F8
100
AcDbEntity
  8
0
100
AcDbPolyline
 70
0
 90
2
 10
-597669.917
 20
-1161173.771
 10
-597676.44
 20
-1161171.064
  0
LWPOLYLINE
  5
209F9
100
AcDbEntity
  8
0
100
AcDbPolyline
 70
0
 90
2
 10
-596252.973
 20
-1158549.431
 10
-596246.527
 20
-1158551.813
  0
LWPOLYLINE
  5
209FA
100
AcDbEntity
  8
0
100
AcDbPolyline
 70
0
 90
2
 10
-599350.025
 20
-1161148.012
 10
-599348.23
 20
-1161151.96
  0
LWPOLYLINE
  5
209FB
100
AcDbEntity
  8
0
100
AcDbPolyline
 70
0
 90
2
 10
-592366.79
 20
-1162816.136
 10
-592367.125
 20
-1162820.184
  0
LWPOLYLINE
  5
209FC
100
AcDbEntity
  8
0
100
AcDbPolyline
 70
0
 90
2
 10
-605050.081
 20
-1157303.627
 10
-605046.495
 20
-1157309.735
  0
LWPOLYLINE
  5
209FD
100
AcDbEntity
  8
0
100
AcDbPolyline
 70
0
 90
2
 10
-601372.762
 20
-1162595.198
 10
-601371.664
 20
-1162588.039
  0
LWPOLYLINE
  5
209FE
100
AcDbEntity
  8
0
100
AcDbPolyline
 70
0
 90
2
 10
-602833.097
 20
-1160392.288
 10
-602832.077
 20
-1160396.557
  0
LWPOLYLINE
  5
209FF
100
AcDbEntity
  8
0
100
AcDbPolyline
 70
0
 90
2
 10
-602686.13
 20
-1160140.929
 10
-602679.19
 20
-1160142.188
  0
LWPOLYLINE
  5
20A00
100
AcDbEntity
  8
0
100
AcDbPolyline
 70
0
 90
2
 10
-602403.991
 20
-1159993.577
 10
-602406.224
 20
-1159996.891
  0
LWPOLYLINE
  5
20A01
100
AcDbEntity
  8
0
100
AcDbPolyline
 70
0
 90
2
 10
-595737.112
 20
-1152657.156
 10
-595743.036
 20
-1152658.194
  0
LWPOLYLINE
  5
20A02
100
AcDbEntity
  8
0
100
AcDbPolyline
 70
0
 90
2
 10
-599279.426
 20
-1162442.847
 10
-599279.599
 20
-1162435.503
  0
LWPOLYLINE
  5
20A03
100
AcDbEntity
  8
0
100
AcDbPolyline
 70
0
 90
2
 10
-603917.524
 20
-1156404.425
 10
-603923.014
 20
-1156402.174
  0
LWPOLYLINE
  5
20A04
100
AcDbEntity
  8
0
100
AcDbPolyline
 70
0
 90
2
 10
-603887.17
 20
-1156417.204
 10
-603897.069
 20
-1156420.764
  0
LWPOLYLINE
  5
20A05
100
AcDbEntity
  8
0
100
AcDbPolyline
 70
0
 90
2
 10
-603914.24
 20
-1156407.451
 10
-603911.28
 20
-1156418.03
  0
LWPOLYLINE
  5
20A06
100
AcDbEntity
  8
0
100
AcDbPolyline
 70
0
 90
2
 10
-601223.04
 20
-1158480.81
 10
-601235.35
 20
-1158476.44
  0
LWPOLYLINE
  5
20A07
100
AcDbEntity
  8
0
100
AcDbPolyline
 70
0
 90
2
 10
-601239.189
 20
-1158477.09
 10
-601243.314
 20
-1158479.909
  0
LWPOLYLINE
  5
20A08
100
AcDbEntity
  8
0
100
AcDbPolyline
 70
0
 90
2
 10
-592864.067
 20
-1163928.474
 10
-592859.471
 20
-1163935.038
  0
LWPOLYLINE
  5
20A09
100
AcDbEntity
  8
0
100
AcDbPolyline
 70
0
 90
2
 10
-592858.149
 20
-1163937.082
 10
-592855.229
 20
-1163941.324
  0
LWPOLYLINE
  5
20A0A
100
AcDbEntity
  8
0
100
AcDbPolyline
 70
0
 90
2
 10
-592855.054
 20
-1163955.757
 10
-592863.338
 20
-1163961.424
  0
LWPOLYLINE
  5
20A0B
100
AcDbEntity
  8
0
100
AcDbPolyline
 70
0
 90
2
 10
-592879.556
 20
-1163953.366
 10
-592873.971
 20
-1163961.156
  0
LWPOLYLINE
  5
20A0C
100
AcDbEntity
  8
0
100
AcDbPolyline
 70
0
 90
2
 10
-599693.638
 20
-1158380.249
 10
-599688.83
 20
-1158383.311
  0
LWPOLYLINE
  5
20A0D
100
AcDbEntity
  8
0
100
AcDbPolyline
 70
0
 90
2
 10
-596299.355
 20
-1158138.138
 10
-596304.06
 20
-1158136.404
  0
LWPOLYLINE
  5
20A0E
100
AcDbEntity
  8
0
100
AcDbPolyline
 70
0
 90
2
 10
-596296.967
 20
-1158139.031
 10
-596292.279
 20
-1158140.714
  0
LWPOLYLINE
  5
20A0F
100
AcDbEntity
  8
0
100
AcDbPolyline
 70
0
 90
2
 10
-596325.955
 20
-1158200.107
 10
-596336.46
 20
-1158194.172
  0
LWPOLYLINE
  5
20A10
100
AcDbEntity
  8
0
100
AcDbPolyline
 70
0
 90
2
 10
-601261.083
 20
-1163003.062
 10
-601263.958
 20
-1163013.772
  0
LWPOLYLINE
  5
20A11
100
AcDbEntity
  8
0
100
AcDbPolyline
 70
0
 90
2
 10
-601250.674
 20
-1163024.923
 10
-601261.368
 20
-1163022.333
  0
LWPOLYLINE
  5
20A12
100
AcDbEntity
  8
0
100
AcDbPolyline
 70
0
 90
2
 10
-601240.58
 20
-1163019.674
 10
-601238.422
 20
-1163008.88
  0
LWPOLYLINE
  5
20A13
100
AcDbEntity
  8
0
100
AcDbPolyline
 70
0
 90
2
 10
-601363.222
 20
-1158011.425
 10
-601366.652
 20
-1158011.126
  0
LWPOLYLINE
  5
20A14
100
AcDbEntity
  8
0
100
AcDbPolyline
 70
0
 90
2
 10
-601369.228
 20
-1158011.052
 10
-601372.653
 20
-1158010.701
  0
ENDSEC
  0
SECTION
  2
OBJECTS
  0
DICTIONARY
  5
C
330
0
100
AcDbDictionary
281
     1
  3
ACAD_GROUP
350
D
  3
ACAD_LAYOUT
350
1A
  3
ACAD_MLEADERSTYLE
350
43
  3
ACAD_PLOTSETTINGS
350
19
  3
ACAD_PLOTSTYLENAME
350
E
  3
ACAD_TABLESTYLE
350
42
  0
DICTIONARY
  5
D
102
{ACAD_REACTORS
330
C
102
}
330
C
100
AcDbDictionary
281
     1
  0
DICTIONARY
  5
1A
102
{ACAD_REACTORS
330
C
102
}
330
C
100
AcDbDictionary
281
     1
  3
Layout1
350
1E
  3
Model
350
22
  0
DICTIONARY
  5
43
102
{ACAD_REACTORS
330
C
102
}
330
C
100
AcDbDictionary
281
     1
  0
DICTIONARY
  5
19
102
{ACAD_REACTORS
330
C
102
}
330
C
100
AcDbDictionary
281
     1
  0
ACDBDICTIONARYWDFLT
  5
E
102
{ACAD_REACTORS
330
C
102
}
330
C
100
AcDbDictionary
281
     1
  3
Normal
350
F
100
AcDbDictionaryWithDefault
340
F
  0
DICTIONARY
  5
42
102
{ACAD_REACTORS
330
C
102
}
330
C
100
AcDbDictionary
281
     1
  0
LAYOUT
  5
1E
102
{ACAD_REACTORS
330
1A
102
}
330
1A
100
AcDbPlotSettings
  1

  2
none_device
  4

  6

 40
0.0
 41
0.0
 42
0.0
 43
0.0
 44
0.0
 45
0.0
 46
0.0
 47
0.0
 48
0.0
 49
0.0
140
0.0
141
0.0
142
1.0
143
1.0
 70
   688
 72
     0
 73
     0
 74
     5
  7

 75
    16
 76
     0
 77
     2
 78
   300
147
1.0
148
0.0
149
0.0
100
AcDbLayout
  1
Layout1
 70
     1
 71
     1
 10
0.0
 20
0.0
 11
12.0
 21
9.0
 12
0.0
 22
0.0
 32
0.0
 14
1.000000000000000E+20
 24
1.000000000000000E+20
 34
1.000000000000000E+20
 15
-1.000000000000000E+20
 25
-1.000000000000000E+20
 35
-1.000000000000000E+20
146
0.0
 13
0.0
 23
0.0
 33
0.0
 16
1.0
 26
0.0
 36
0.0
 17
0.0
 27
1.0
 37
0.0
 76
     0
330
1B
  0
LAYOUT
  5
22
102
{ACAD_REACTORS
330
1A
102
}
330
1A
100
AcDbPlotSettings
  1

  2
none_device
  4

  6

 40
0.0
 41
0.0
 42
0.0
 43
0.0
 44
0.0
 45
0.0
 46
0.0
 47
0.0
 48
0.0
 49
0.0
140
0.0
141
0.0
142
1.0
143
1.0
 70
  1712
 72
     0
 73
     0
 74
     0
  7

 75
     0
 76
     0
 77
     2
 78
   300
147
1.0
148
0.0
149
0.0
100
AcDbLayout
  1
Model
 70
     1
 71
     0
 10
0.0
 20
0.0
 11
12.0
 21
9.0
 12
0.0
 22
0.0
 32
0.0
 14
30.0
 24
49.75
 34
0.0
 15
130.5
 25
163.1318914119703
 35
0.0
146
0.0
 13
0.0
 23
0.0
 33
0.0
 16
1.0
 26
0.0
 36
0.0
 17
0.0
 27
1.0
 37
0.0
 76
     0
330
1F
331
29
  0
ENDSEC
  0
EOF
