  0
SECTION
  2
HEADER
  9
$ACADVER
  1
AC1018
  9
$ACADMAINTVER
 70
     0
  9
$DWGCODEPAGE
  3
ANSI_1252
  9
$EXTMIN
 10
-607937.78
 20
-1169301.91
 30
0.0
  9
$EXTMAX
 10
-591004.67
 20
-1150564.52
 30
0.0
  9
$LIMMIN
 10
0.0
 20
0.0
  9
$LIMMAX
 10
12.0
 20
9.0
  9
$ORTHOMODE
 70
     0
  9
$REGENMODE
 70
     1
  9
$FILLMODE
 70
     1
  9
$QTEXTMODE
 70
     0
  9
$MIRRTEXT
 70
     1
  9
$LTSCALE
 40
1.0
  9
$ATTMODE
 70
     1
  9
$TEXTSIZE
 40
0.2
  9
$TRACEWID
 40
0.05
  9
$TEXTSTYLE
  7
Standard
  9
$CLAYER
  8
0
  9
$CELTYPE
  6
ByLayer
  9
$CECOLOR
 62
   256
  9
$CELTSCALE
 40
1.0
  9
$DISPSILH
 70
     0
  9
$LUNITS
 70
     2
  9
$LUPREC
 70
     4
  9
$SKETCHINC
 40
0.1
  9
$FILLETRAD
 40
0.5
  9
$AUNITS
 70
     0
  9
$AUPREC
 70
     0
  9
$MENU
  1
.
  9
$ELEVATION
 40
0.0
  9
$PELEVATION
 40
0.0
  9
$THICKNESS
 40
0.0
  9
$LIMCHECK
 70
     0
  9
$CHAMFERA
 40
0.5
  9
$CHAMFERB
 40
0.5
  9
$CHAMFERC
 40
1.0
  9
$CHAMFERD
 40
0.0
  9
$SKPOLY
 70
     0
  9
$ANGBASE
 50
0.0
  9
$ANGDIR
 70
     0
  9
$PDMODE
 70
     0
  9
$PDSIZE
 40
0.0
  9
$PLINEWID
 40
0.0
  9
$SPLFRAME
 70
     0
  9
$SPLINETYPE
 70
     6
  9
$SPLINESEGS
 70
     8
  9
$HANDSEED
  5
0002004B
  9
$SURFTAB1
 70
     6
  9
$SURFTAB2
 70
     6
  9
$SURFTYPE
 70
     6
  9
$SURFU
 70
     6
  9
$SURFV
 70
     6
  9
$UCSBASE
  2

  9
$UCSNAME
  2

  9
$UCSORG
 10
0.0
 20
0.0
 30
0.0
  9
$UCSXDIR
 10
1.0
 20
0.0
 30
0.0
  9
$UCSYDIR
 10
0.0
 20
1.0
 30
0.0
  9
$UCSORTHOREF
  2

  9
$UCSORTHOVIEW
 70
     0
  9
$UCSORGTOP
 10
0.0
 20
0.0
 30
0.0
  9
$UCSORGBOTTOM
 10
0.0
 20
0.0
 30
0.0
  9
$UCSORGLEFT
 10
0.0
 20
0.0
 30
0.0
  9
$UCSORGRIGHT
 10
0.0
 20
0.0
 30
0.0
  9
$UCSORGFRONT
 10
0.0
 20
0.0
 30
0.0
  9
$UCSORGBACK
 10
0.0
 20
0.0
 30
0.0
  9
$PUCSBASE
  2

  9
$PUCSNAME
  2

  9
$PUCSORG
 10
0.0
 20
0.0
 30
0.0
  9
$PUCSXDIR
 10
1.0
 20
0.0
 30
0.0
  9
$PUCSYDIR
 10
0.0
 20
1.0
 30
0.0
  9
$PUCSORTHOREF
  2

  9
$PUCSORTHOVIEW
 70
     0
  9
$PUCSORGTOP
 10
0.0
 20
0.0
 30
0.0
  9
$PUCSORGBOTTOM
 10
0.0
 20
0.0
 30
0.0
  9
$PUCSORGLEFT
 10
0.0
 20
0.0
 30
0.0
  9
$PUCSORGRIGHT
 10
0.0
 20
0.0
 30
0.0
  9
$PUCSORGFRONT
 10
0.0
 20
0.0
 30
0.0
  9
$PUCSORGBACK
 10
0.0
 20
0.0
 30
0.0
  9
$WORLDVIEW
 70
     1
  9
$SHADEDGE
 70
     3
  9
$SHADEDIF
 70
    70
  9
$TILEMODE
 70
     1
  9
$MAXACTVP
 70
    64
  9
$PINSBASE
 10
0.0
 20
0.0
 30
0.0
  9
$PLIMCHECK
 70
     0
  9
$PEXTMIN
 10
1.000000000000000E+20
 20
1.000000000000000E+20
 30
1.000000000000000E+20
  9
$PEXTMAX
 10
-1.000000000000000E+20
 20
-1.000000000000000E+20
 30
-1.000000000000000E+20
  9
$PLIMMIN
 10
0.0
 20
0.0
  9
$PLIMMAX
 10
12.0
 20
9.0
  9
$UNITMODE
 70
     0
  9
$VISRETAIN
 70
     1
  9
$PLINEGEN
 70
     0
  9
$PSLTSCALE
 70
     1
  9
$TREEDEPTH
 70
  3020
  9
$CMLSTYLE
  2
Standard
  9
$CMLJUST
 70
     0
  9
$CMLSCALE
 40
1.0
  9
$PROXYGRAPHICS
 70
     1
  9
$MEASUREMENT
 70
     0
  9
$CELWEIGHT
370
    -1
  9
$ENDCAPS
280
     0
  9
$JOINSTYLE
280
     0
  9
$LWDISPLAY
290
     0
  9
$INSUNITS
 70
     1
  9
$HYPERLINKBASE
  1

  9
$STYLESHEET
  1

  9
$XEDIT
290
     1
  9
$CEPSNTYPE
380
     0
  9
$PSTYLEMODE
290
     1
  9
$EXTNAMES
290
     1
  9
$PSVPSCALE
 40
0.0
  9
$OLESTARTUP
290
     0
  9
$SORTENTS
280
   127
  9
$INDEXCTL
280
     0
  9
$HIDETEXT
280
     1
  9
$XCLIPFRAME
290
     0
  9
$HALOGAP
280
     0
  9
$OBSCOLOR
 70
   257
  9
$OBSLTYPE
280
     0
  9
$INTERSECTIONDISPLAY
280
     0
  9
$INTERSECTIONCOLOR
 70
   257
  9
$DIMASSOC
280
     2
  9
$PROJECTNAME
  1

  0
ENDSEC
  0
SECTION
  2
CLASSES
  0
CLASS
  1
ACDBDICTIONARYWDFLT
  2
AcDbDictionaryWithDefault
  3
ObjectDBX Classes
 90
        0
 91
        4
280
     0
281
     0
  0
ENDSEC
  0
SECTION
  2
TABLES
  0
TABLE
  2
VPORT
  5
8
330
0
100
AcDbSymbolTable
 70
     1
  0
VPORT
  5
29
330
8
100
AcDbSymbolTableRecord
100
AcDbViewportTableRecord
  2
*Active
 70
     0
 10
0.0
 20
0.0
 11
1.0
 21
1.0
 12
80.25
 22
106.4409457059851
 13
0.0
 23
0.0
 14
0.5
 24
0.5
 15
0.5
 25
0.5
 16
0.0
 26
0.0
 36
1.0
 17
0.0
 27
0.0
 37
0.0
 40
113.3818914119703
 41
0.8863849310366128
 42
50.0
 43
0.0
 44
0.0
 50
0.0
 51
0.0
 71
     0
 72
  1000
 73
     1
 74
     3
 75
     0
 76
     0
 77
     0
 78
     0
281
     0
 65
     1
110
0.0
120
0.0
130
0.0
111
1.0
121
0.0
131
0.0
112
0.0
122
1.0
132
0.0
 79
     0
146
0.0
  0
ENDTAB
  0
TABLE
  2
LTYPE
  5
5
330
0
100
AcDbSymbolTable
 70
     1
  0
LTYPE
  5
14
330
5
100
AcDbSymbolTableRecord
100
AcDbLinetypeTableRecord
  2
ByBlock
 70
     0
  3

 72
    65
 73
     0
 40
0.0
  0
LTYPE
  5
15
330
5
100
AcDbSymbolTableRecord
100
AcDbLinetypeTableRecord
  2
ByLayer
 70
     0
  3

 72
    65
 73
     0
 40
0.0
  0
LTYPE
  5
16
330
5
100
AcDbSymbolTableRecord
100
AcDbLinetypeTableRecord
  2
Continuous
 70
     0
  3
Solid line
 72
    65
 73
     0
 40
0.0
  0
ENDTAB
  0
TABLE
  2
LAYER
  5
2
330
0
100
AcDbSymbolTable
 70
     1
  0
LAYER
  5
10
330
2
100
AcDbSymbolTableRecord
100
AcDbLayerTableRecord
  2
0
 70
     0
 62
     7
  6
Continuous
370
    -3
390
F
  0
ENDTAB
  0
TABLE
  2
STYLE
  5
3
330
0
100
AcDbSymbolTable
 70
     1
  0
STYLE
  5
11
330
3
100
AcDbSymbolTableRecord
100
AcDbTextStyleTableRecord
  2
Standard
 70
     0
 40
0.0
 41
1.0
 50
0.0
 71
     0
 42
0.2
  3
txt
  4

  0
ENDTAB
  0
TABLE
  2
VIEW
  5
6
330
0
100
AcDbSymbolTable
 70
     0
  0
ENDTAB
  0
TABLE
  2
UCS
  5
7
330
0
100
AcDbSymbolTable
 70
     0
  0
ENDTAB
  0
TABLE
  2
APPID
  5
9
330
0
100
AcDbSymbolTable
 70
     1
  0
APPID
  5
12
330
9
100
AcDbSymbolTableRecord
100
AcDbRegAppTableRecord
  2
ACAD
 70
     0
  0
ENDTAB
  0
TABLE
  2
DIMSTYLE
  5
A
330
0
100
AcDbSymbolTable
 70
     1
100
AcDbDimStyleTable
  0
DIMSTYLE
105
27
330
A
100
AcDbSymbolTableRecord
100
AcDbDimStyleTableRecord
  2
Standard
 70
     0
340
11
  0
ENDTAB
  0
TABLE
  2
BLOCK_RECORD
  5
1
330
0
100
AcDbSymbolTable
 70
     1
  0
BLOCK_RECORD
  5
1F
330
1
100
AcDbSymbolTableRecord
100
AcDbBlockTableRecord
  2
*Model_Space
340
22
  0
BLOCK_RECORD
  5
1B
330
1
100
AcDbSymbolTableRecord
100
AcDbBlockTableRecord
  2
*Paper_Space
340
1E
  0
ENDTAB
  0
ENDSEC
  0
SECTION
  2
BLOCKS
  0
BLOCK
  5
20
330
1F
100
AcDbEntity
  8
0
100
AcDbBlockBegin
  2
*Model_Space
 70
     0
 10
0.0
 20
0.0
 30
0.0
  3
*Model_Space
  1

  0
ENDBLK
  5
21
330
1F
100
AcDbEntity
  8
0
100
AcDbBlockEnd
  0
BLOCK
  5
1C
330
1B
100
AcDbEntity
 67
     1
  8
0
100
AcDbBlockBegin
  2
*Paper_Space
 70
     0
 10
0.0
 20
0.0
 30
0.0
  3
*Paper_Space
  1

  0
ENDBLK
  5
1D
330
1B
100
AcDbEntity
 67
     1
  8
0
100
AcDbBlockEnd
  0
ENDSEC
  0
SECTION
  2
ENTITIES
  0
HATCH
  5
20000
100
AcDbEntity
  8
0
100
AcDbHatch
 10
0
 20
0
 30
0
210
0
220
0
230
1
  2
SOLID
 70
1
 71
0
 91
1
 92
2
 72
0
 73
1
 93
39
 10
-594600.32
 20
-1158307.13
 10
-594590.67
 20
-1158359.13
 10
-594580.28
 20
-1158397.61
 10
-594577.67
 20
-1158407.29
 10
-594570.85
 20
-1158431.48
 10
-594563.42
 20
-1158455.06
 10
-594559.88
 20
-1158466.3
 10
-594555.41
 20
-1158480.06
 10
-594553.36
 20
-1158486.39
 10
-594548.38
 20
-1158501.76
 10
-594543.76
 20
-1158515.44
 10
-594541.92
 20
-1158520.88
 10
-594540.72
 20
-1158521.83
 10
-594540.46
 20
-1158522.04
 10
-594539.64
 20
-1158524.82
 10
-594537.67
 20
-1158531.54
 10
-594536.93
 20
-1158534.15
 10
-594534.5
 20
-1158542.8
 10
-594533.3
 20
-1158546.98
 10
-594531.78
 20
-1158552.3
 10
-594529.19
 20
-1158561.32
 10
-594525.24
 20
-1158573.87
 10
-594535.08
 20
-1158614.3
 10
-594535.07
 20
-1158614.6
 10
-594543.25
 20
-1158614.83
 10
-594545.31
 20
-1158597.4
 10
-594554.94
 20
-1158550.59
 10
-594566.29
 20
-1158503.71
 10
-594583.19
 20
-1158433.02
 10
-594589.24
 20
-1158405.45
 10
-594590.79
 20
-1158397.74
 10
-594596.13
 20
-1158369.67
 10
-594600.95
 20
-1158342.58
 10
-594603.66
 20
-1158323.4
 10
-594604.42
 20
-1158315.11
 10
-594603.96
 20
-1158310.42
 10
-594603.14
 20
-1158308.49
 10
-594601.66
 20
-1158307.01
 10
-594600.32
 20
-1158307.13
 97
0
 75
0
 76
1
 98
0
  0
HATCH
  5
20001
100
AcDbEntity
  8
0
100
AcDbHatch
 10
0
 20
0
 30
0
210
0
220
0
230
1
  2
SOLID
 70
1
 71
0
 91
1
 92
2
 72
0
 73
1
 93
134
 10
-605055.84
 20
-1160167
 10
-605048.3
 20
-1160168.45
 10
-605045.35
 20
-1160168.2
 10
-605045.08
 20
-1160168.18
 10
-605037.03
 20
-1160167.43
 10
-605030.02
 20
-1160166.82
 10
-605018.63
 20
-1160165.83
 10
-605002.93
 20
-1160164.47
 10
-604994.92
 20
-1160163.77
 10
-604989.86
 20
-1160163.33
 10
-604986.91
 20
-1160165.48
 10
-604980.99
 20
-1160169.79
 10
-604957.27
 20
-1160187.07
 10
-604957.16
 20
-1160187.15
 10
-604945.38
 20
-1160194.69
 10
-604931.65
 20
-1160203.47
 10
-604930.86
 20
-1160203.98
 10
-604926.03
 20
-1160207.97
 10
-604920.58
 20
-1160212.47
 10
-604915.48
 20
-1160216.68
 10
-604915.32
 20
-1160220.11
 10
-604914.87
 20
-1160230.13
 10
-604914.87
 20
-1160230.14
 10
-604914.49
 20
-1160238.46
 10
-604913.69
 20
-1160256.2
 10
-604913.68
 20
-1160256.66
 10
-604913.59
 20
-1160263.03
 10
-604913.15
 20
-1160274.12
 10
-604913.02
 20
-1160277.36
 10
-604913.41
 20
-1160282.68
 10
-604914.25
 20
-1160289.23
 10
-604914.81
 20
-1160295.17
 10
-604916.09
 20
-1160308.64
 10
-604917.11
 20
-1160319.39
 10
-604917.42
 20
-1160322.59
 10
-604915.11
 20
-1160329.09
 10
-604911.5
 20
-1160338.94
 10
-604907.83
 20
-1160348.94
 10
-604907.2
 20
-1160350.67
 10
-604905.03
 20
-1160358.14
 10
-604901.76
 20
-1160369.42
 10
-604897.71
 20
-1160383.36
 10
-604894.28
 20
-1160395.18
 10
-604893.8
 20
-1160397.13
 10
-604891.07
 20
-1160408.16
 10
-604902.29
 20
-1160413.98
 10
-604904.35
 20
-1160415.05
 10
-604917.14
 20
-1160421.68
 10
-604918.91
 20
-1160422.6
 10
-604988.92
 20
-1160458.89
 10
-605117.18
 20
-1160527.12
 10
-605120.27
 20
-1160520.07
 10
-605121.02
 20
-1160518.37
 10
-605123.44
 20
-1160512.84
 10
-605124.71
 20
-1160509.94
 10
-605125.64
 20
-1160507.81
 10
-605128.36
 20
-1160501.48
 10
-605131.15
 20
-1160495.23
 10
-605131.78
 20
-1160493.8
 10
-605134.37
 20
-1160487.87
 10
-605134.46
 20
-1160487.66
 10
-605136.65
 20
-1160482.66
 10
-605137.27
 20
-1160481.25
 10
-605139.03
 20
-1160477.32
 10
-605139.4
 20
-1160476.39
 10
-605141.38
 20
-1160471.85
 10
-605142.41
 20
-1160469.5
 10
-605143.59
 20
-1160466.8
 10
-605144.47
 20
-1160464.81
 10
-605146.24
 20
-1160460.77
 10
-605146.67
 20
-1160459.8
 10
-605148.81
 20
-1160454.91
 10
-605150.18
 20
-1160451.79
 10
-605151.94
 20
-1160447.76
 10
-605153.43
 20
-1160444.36
 10
-605155.05
 20
-1160440.66
 10
-605161.42
 20
-1160438.49
 10
-605163.56
 20
-1160437.76
 10
-605168.53
 20
-1160436.06
 10
-605170.36
 20
-1160435.42
 10
-605175.39
 20
-1160433.65
 10
-605176.52
 20
-1160433.28
 10
-605182.35
 20
-1160431.34
 10
-605183.45
 20
-1160430.96
 10
-605189.28
 20
-1160428.97
 10
-605194.01
 20
-1160427.36
 10
-605197.39
 20
-1160426.2
 10
-605200.68
 20
-1160428.98
 10
-605205.39
 20
-1160424.84
 10
-605208.87
 20
-1160421.79
 10
-605211.3
 20
-1160419.61
 10
-605211.64
 20
-1160419.19
 10
-605221.29
 20
-1160407.33
 10
-605224.66
 20
-1160403.18
 10
-605228.43
 20
-1160398.55
 10
-605231.33
 20
-1160394.98
 10
-605234.4
 20
-1160391.2
 10
-605239
 20
-1160385.55
 10
-605241.79
 20
-1160382.12
 10
-605242.8
 20
-1160380.67
 10
-605247.45
 20
-1160374
 10
-605251.98
 20
-1160367.49
 10
-605257.97
 20
-1160358.9
 10
-605201.97
 20
-1160288.69
 10
-605184.34
 20
-1160264.69
 10
-605191.36
 20
-1160257.97
 10
-605199.78
 20
-1160249.91
 10
-605209.92
 20
-1160240.2
 10
-605219.36
 20
-1160231.07
 10
-605225.6
 20
-1160225
 10
-605230.65
 20
-1160224.31
 10
-605239.08
 20
-1160223.16
 10
-605242.29
 20
-1160221.7
 10
-605244.12
 20
-1160220.93
 10
-605256.44
 20
-1160215.49
 10
-605264.72
 20
-1160211.83
 10
-605266.54
 20
-1160208.03
 10
-605231.89
 20
-1160166.42
 10
-605205.55
 20
-1160134.42
 10
-605152.18
 20
-1160070.39
 10
-605145.84
 20
-1160085.84
 10
-605137.69
 20
-1160098.45
 10
-605130.07
 20
-1160110.23
 10
-605128.99
 20
-1160111.9
 10
-605122.42
 20
-1160120.39
 10
-605113.4
 20
-1160132.06
 10
-605105.03
 20
-1160142.88
 10
-605102.71
 20
-1160145.89
 10
-605093.91
 20
-1160154.69
 10
-605076.29
 20
-1160163.17
 10
-605071.38
 20
-1160164.08
 10
-605065.77
 20
-1160165.13
 10
-605059.45
 20
-1160166.31
 10
-605055.84
 20
-1160167
 97
0
 75
0
 76
1
 98
0
  0
HATCH
  5
20002
100
AcDbEntity
  8
0
100
AcDbHatch
 10
0
 20
0
 30
0
210
0
220
0
230
1
  2
SOLID
 70
1
 71
0
 91
1
 92
2
 72
0
 73
1
 93
67
 10
-602372.37
 20
-1163798.78
 10
-602372.37
 20
-1163798.78
 10
-602375.86
 20
-1163798.46
 10
-602385.12
 20
-1163797.62
 10
-602385.31
 20
-1163797.59
 10
-602396.04
 20
-1163795.78
 10
-602398.92
 20
-1163795.24
 10
-602403.34
 20
-1163794.15
 10
-602417.78
 20
-1163789.94
 10
-602443.94
 20
-1163775.56
 10
-602462.46
 20
-1163761.44
 10
-602473.15
 20
-1163752.64
 10
-602492.01
 20
-1163737.1
 10
-602494.61
 20
-1163734.96
 10
-602502.76
 20
-1163728.18
 10
-602500.93
 20
-1163725.71
 10
-602499.35
 20
-1163723.58
 10
-602497.62
 20
-1163721.23
 10
-602500.12
 20
-1163720.76
 10
-602508.79
 20
-1163718.76
 10
-602517.41
 20
-1163714.8
 10
-602523.77
 20
-1163711.55
 10
-602525.94
 20
-1163710.21
 10
-602533.45
 20
-1163704.53
 10
-602541.13
 20
-1163698.8
 10
-602545.31
 20
-1163695.23
 10
-602548.66
 20
-1163692.45
 10
-602564.8
 20
-1163678.42
 10
-602574.38
 20
-1163670.07
 10
-602592.6
 20
-1163653.71
 10
-602600.61
 20
-1163646.64
 10
-602610.83
 20
-1163637.64
 10
-602614.91
 20
-1163634.64
 10
-602623.12
 20
-1163618.39
 10
-602633.89
 20
-1163590.85
 10
-602633.78
 20
-1163590.93
 10
-602630.02
 20
-1163593.8
 10
-602607.01
 20
-1163608.26
 10
-602614.78
 20
-1163617.1
 10
-602614.72
 20
-1163617.14
 10
-602609.14
 20
-1163621.11
 10
-602598.77
 20
-1163628.5
 10
-602579.81
 20
-1163642
 10
-602570.99
 20
-1163648.29
 10
-602495.68
 20
-1163701.7
 10
-602487.4
 20
-1163707.57
 10
-602485.71
 20
-1163708.77
 10
-602478.96
 20
-1163713.58
 10
-602475.18
 20
-1163716.27
 10
-602470.57
 20
-1163719.98
 10
-602468.44
 20
-1163721.69
 10
-602465.14
 20
-1163724.34
 10
-602462.94
 20
-1163726.11
 10
-602458.65
 20
-1163729.57
 10
-602456.92
 20
-1163730.95
 10
-602456.01
 20
-1163731.67
 10
-602452.17
 20
-1163734.77
 10
-602447.37
 20
-1163738.65
 10
-602424.78
 20
-1163756.85
 10
-602420.44
 20
-1163760.33
 10
-602416.7
 20
-1163763.33
 10
-602410.95
 20
-1163767.98
 10
-602408.48
 20
-1163769.97
 10
-602406.04
 20
-1163771.93
 10
-602393.9
 20
-1163781.68
 10
-602389.79
 20
-1163785.05
 10
-602372.37
 20
-1163798.78
 97
0
 75
0
 76
1
 98
0
  0
HATCH
  5
20003
100
AcDbEntity
  8
0
100
AcDbHatch
 10
0
 20
0
 30
0
210
0
220
0
230
1
  2
SOLID
 70
1
 71
0
 91
1
 92
2
 72
0
 73
1
 93
98
 10
-602777.78
 20
-1160942.39
 10
-602776.17
 20
-1160982.58
 10
-602773.35
 20
-1161004.53
 10
-602768.74
 20
-1161030.58
 10
-602762.77
 20
-1161062.43
 10
-602761.12
 20
-1161068.03
 10
-602758.08
 20
-1161074.46
 10
-602754.86
 20
-1161080.04
 10
-603023.12
 20
-1161081.79
 10
-603032.26
 20
-1161081.85
 10
-603080.03
 20
-1161180.45
 10
-603101.92
 20
-1161225.05
 10
-603119.2
 20
-1161256.71
 10
-603122.16
 20
-1161255.36
 10
-603142.6
 20
-1161233.41
 10
-603172.74
 20
-1161222.09
 10
-603200.03
 20
-1161208.03
 10
-603226.59
 20
-1161193.19
 10
-603253.99
 20
-1161179.14
 10
-603285.82
 20
-1161162.8
 10
-603311.42
 20
-1161149.1
 10
-603331.42
 20
-1161135.18
 10
-603356.54
 20
-1161122.12
 10
-603383.64
 20
-1161106.19
 10
-603433.02
 20
-1161074.35
 10
-603444.46
 20
-1161065.29
 10
-603387.42
 20
-1161035.94
 10
-603384.05
 20
-1161034.21
 10
-603372.22
 20
-1161028.12
 10
-603361.4
 20
-1161035.12
 10
-603340.37
 20
-1160994.76
 10
-603288.91
 20
-1160896.04
 10
-603281.4
 20
-1160881.64
 10
-603275.54
 20
-1160876.67
 10
-603264.35
 20
-1160885.48
 10
-603250.99
 20
-1160907.05
 10
-603248.43
 20
-1160912.01
 10
-603249.38
 20
-1160912.6
 10
-603236.76
 20
-1160934.57
 10
-603241.18
 20
-1160959.21
 10
-603227.3
 20
-1160962.27
 10
-603205.35
 20
-1160965.81
 10
-603191.99
 20
-1160977.26
 10
-603184.64
 20
-1160975.18
 10
-603172.52
 20
-1160973.75
 10
-603171.53
 20
-1160975.07
 10
-603169.14
 20
-1160973.35
 10
-603154.07
 20
-1160971.58
 10
-603138.78
 20
-1160972.29
 10
-603125.1
 20
-1160970.61
 10
-603108.33
 20
-1160961.37
 10
-603099.59
 20
-1160960.08
 10
-603086.34
 20
-1160953.3
 10
-603069.38
 20
-1160949.22
 10
-603060.63
 20
-1160941.4
 10
-603056.89
 20
-1160937.04
 10
-603054.49
 20
-1160934.31
 10
-603052.21
 20
-1160933.38
 10
-603047.99
 20
-1160931.6
 10
-603043.33
 20
-1160928.96
 10
-603032.16
 20
-1160924.91
 10
-603029.56
 20
-1160921.7
 10
-603026.38
 20
-1160918.21
 10
-603016.45
 20
-1160914.4
 10
-603003.62
 20
-1160904.28
 10
-602991.64
 20
-1160894.65
 10
-602985.71
 20
-1160889.77
 10
-602980.2
 20
-1160885.44
 10
-602968.78
 20
-1160879.66
 10
-602960.02
 20
-1160875.43
 10
-602950.2
 20
-1160872.98
 10
-602940.75
 20
-1160870.6
 10
-602933.35
 20
-1160869.97
 10
-602925.67
 20
-1160869.36
 10
-602917.57
 20
-1160865.98
 10
-602913.91
 20
-1160863.88
 10
-602908.11
 20
-1160862.86
 10
-602907.94
 20
-1160862.83
 10
-602897.43
 20
-1160860.07
 10
-602881.07
 20
-1160852.74
 10
-602868.91
 20
-1160846.3
 10
-602863.99
 20
-1160844.57
 10
-602858.65
 20
-1160840.82
 10
-602854.86
 20
-1160838.68
 10
-602846.75
 20
-1160833.01
 10
-602839.91
 20
-1160826.78
 10
-602831.91
 20
-1160818
 10
-602828.38
 20
-1160812.77
 10
-602826.83
 20
-1160820.05
 10
-602817.47
 20
-1160833.34
 10
-602804.74
 20
-1160841.07
 10
-602794.06
 20
-1160842.73
 10
-602793.82
 20
-1160859.56
 10
-602790.64
 20
-1160885.18
 10
-602785.92
 20
-1160889.31
 10
-602784.59
 20
-1160891.32
 10
-602779.68
 20
-1160923.98
 10
-602777.78
 20
-1160942.39
 97
0
 75
0
 76
1
 98
0
  0
HATCH
  5
20004
100
AcDbEntity
  8
0
100
AcDbHatch
 10
0
 20
0
 30
0
210
0
220
0
230
1
  2
SOLID
 70
1
 71
0
 91
1
 92
2
 72
0
 73
1
 93
13
 10
-594418.72
 20
-1158308.88
 10
-594437.9
 20
-1158304.29
 10
-594461.53
 20
-1158298.67
 10
-594451.17
 20
-1158292.21
 10
-594451.12
 20
-1158292.24
 10
-594446.5
 20
-1158295.32
 10
-594444.43
 20
-1158296.53
 10
-594444.34
 20
-1158296.54
 10
-594437.65
 20
-1158296.97
 10
-594430.93
 20
-1158297.41
 10
-594427.96
 20
-1158298.85
 10
-594420.46
 20
-1158302.48
 10
-594418.72
 20
-1158308.88
 97
0
 75
0
 76
1
 98
0
  0
HATCH
  5
20005
100
AcDbEntity
  8
0
100
AcDbHatch
 10
0
 20
0
 30
0
210
0
220
0
230
1
  2
SOLID
 70
1
 71
0
 91
1
 92
2
 72
0
 73
1
 93
15
 10
-595320.93
 20
-1163574.48
 10
-595291.93
 20
-1163568.11
 10
-595302.54
 20
-1163526.98
 10
-595305.01
 20
-1163519.62
 10
-595304.84
 20
-1163518.08
 10
-595330.34
 20
-1163419.22
 10
-595344.96
 20
-1163363.16
 10
-595349.43
 20
-1163345.59
 10
-595354.84
 20
-1163324.37
 10
-595356.63
 20
-1163317.33
 10
-595411.05
 20
-1163335.66
 10
-595390.81
 20
-1163389.28
 10
-595389.38
 20
-1163393.08
 10
-595338.86
 20
-1163527
 10
-595320.93
 20
-1163574.48
 97
0
 75
0
 76
1
 98
0
  0
HATCH
  5
20006
100
AcDbEntity
  8
0
100
AcDbHatch
 10
0
 20
0
 30
0
210
0
220
0
230
1
  2
SOLID
 70
1
 71
0
 91
1
 92
2
 72
0
 73
1
 93
111
 10
-594479.36
 20
-1158944.28
 10
-594495.6
 20
-1158956.34
 10
-594502.42
 20
-1158958.1
 10
-594515.86
 20
-1158972.74
 10
-594516.92
 20
-1158973.45
 10
-594535.39
 20
-1158974.37
 10
-594534.13
 20
-1158991.57
 10
-594549.44
 20
-1158991.85
 10
-594537.79
 20
-1159003.75
 10
-594537.83
 20
-1159003.92
 10
-594532.9
 20
-1159008.48
 10
-594532.88
 20
-1159008.71
 10
-594532.84
 20
-1159008.73
 10
-594501.04
 20
-1159022.94
 10
-594491.04
 20
-1159029.77
 10
-594489.22
 20
-1159030.89
 10
-594473.09
 20
-1159042.52
 10
-594470.59
 20
-1159042.33
 10
-594470.43
 20
-1159044.37
 10
-594466.34
 20
-1159048.52
 10
-594467.32
 20
-1159049.7
 10
-594470.35
 20
-1159052.14
 10
-594476.64
 20
-1159057.21
 10
-594480.17
 20
-1159059.78
 10
-594481.86
 20
-1159057.47
 10
-594482.25
 20
-1159057.71
 10
-594482.38
 20
-1159057.79
 10
-594486.03
 20
-1159060.05
 10
-594485.77
 20
-1159060.37
 10
-594484
 20
-1159062.56
 10
-594484.29
 20
-1159062.77
 10
-594487.89
 20
-1159065.39
 10
-594492.65
 20
-1159061.04
 10
-594495.22
 20
-1159059.39
 10
-594498
 20
-1159057.43
 10
-594500.81
 20
-1159055.43
 10
-594503.29
 20
-1159053.68
 10
-594504.5
 20
-1159052.82
 10
-594507.82
 20
-1159051.57
 10
-594510.82
 20
-1159050.45
 10
-594514.29
 20
-1159049.15
 10
-594519.01
 20
-1159047.38
 10
-594521.64
 20
-1159046.4
 10
-594524.8
 20
-1159045.21
 10
-594526.66
 20
-1159043.82
 10
-594529.77
 20
-1159041.5
 10
-594532.27
 20
-1159039.63
 10
-594534.74
 20
-1159037.79
 10
-594537.31
 20
-1159035.87
 10
-594539.95
 20
-1159033.9
 10
-594540.21
 20
-1159034.25
 10
-594546.7
 20
-1159029.23
 10
-594549.26
 20
-1159027.41
 10
-594551.67
 20
-1159025.63
 10
-594553.91
 20
-1159023.98
 10
-594556.72
 20
-1159021.91
 10
-594556.42
 20
-1159021.51
 10
-594556.43
 20
-1159021.5
 10
-594556.87
 20
-1159021.18
 10
-594559.24
 20
-1159019.44
 10
-594562.05
 20
-1159017.4
 10
-594562.4
 20
-1159017.84
 10
-594562.56
 20
-1159017.72
 10
-594565.09
 20
-1159015.84
 10
-594567.73
 20
-1159013.88
 10
-594570.3
 20
-1159011.97
 10
-594572.83
 20
-1159009.85
 10
-594575.67
 20
-1159007.97
 10
-594578.44
 20
-1159005.91
 10
-594581.21
 20
-1159003.77
 10
-594583.86
 20
-1159001.81
 10
-594586.44
 20
-1158999.9
 10
-594586.56
 20
-1158999.81
 10
-594587.38
 20
-1159000.92
 10
-594594.77
 20
-1158995.3
 10
-594591.18
 20
-1158990.86
 10
-594591.28
 20
-1158990.77
 10
-594609.73
 20
-1158975.32
 10
-594612.76
 20
-1158979.06
 10
-594612.77
 20
-1158979.05
 10
-594613.84
 20
-1158978.19
 10
-594616.25
 20
-1158981.15
 10
-594619.03
 20
-1158976.74
 10
-594608.37
 20
-1158965.46
 10
-594591.85
 20
-1158953.28
 10
-594591.72
 20
-1158953.18
 10
-594557.89
 20
-1158944.59
 10
-594557.7
 20
-1158944.62
 10
-594557.26
 20
-1158944.69
 10
-594541.37
 20
-1158947.29
 10
-594538.1
 20
-1158947.83
 10
-594535.82
 20
-1158948.2
 10
-594524.84
 20
-1158945.56
 10
-594503.13
 20
-1158934.08
 10
-594485.13
 20
-1158922.85
 10
-594468.66
 20
-1158901.02
 10
-594439.08
 20
-1158889.42
 10
-594416.41
 20
-1158874.94
 10
-594404.52
 20
-1158840.94
 10
-594404.78
 20
-1158796.82
 10
-594388.08
 20
-1158783.16
 10
-594387.09
 20
-1158783.37
 10
-594386.49
 20
-1158783.49
 10
-594393.56
 20
-1158861.46
 10
-594409.11
 20
-1158895.26
 10
-594409.23
 20
-1158895.52
 10
-594422.54
 20
-1158911.85
 10
-594426.71
 20
-1158914.85
 10
-594438.22
 20
-1158924.06
 10
-594464.82
 20
-1158939.6
 10
-594479.36
 20
-1158944.28
 97
0
 75
0
 76
1
 98
0
  0
HATCH
  5
20007
100
AcDbEntity
  8
0
100
AcDbHatch
 10
0
 20
0
 30
0
210
0
220
0
230
1
  2
SOLID
 70
1
 71
0
 91
1
 92
2
 72
0
 73
1
 93
25
 10
-591962.32
 20
-1161661.43
 10
-591968.59
 20
-1161670.16
 10
-592039.15
 20
-1161645.27
 10
-592097.12
 20
-1161622.49
 10
-592094.66
 20
-1161616.28
 10
-592093.48
 20
-1161613.29
 10
-592091.97
 20
-1161609.47
 10
-592090.14
 20
-1161604.83
 10
-592089.04
 20
-1161602.45
 10
-592086.12
 20
-1161596.11
 10
-592085.8
 20
-1161595.42
 10
-592083.36
 20
-1161590.11
 10
-592082.63
 20
-1161588.53
 10
-592079.72
 20
-1161582.21
 10
-592079.05
 20
-1161580.71
 10
-592076.54
 20
-1161575.09
 10
-592061.1
 20
-1161584.97
 10
-592047.4
 20
-1161588.56
 10
-592026.52
 20
-1161595.71
 10
-591931.12
 20
-1161620.24
 10
-591937.73
 20
-1161628.76
 10
-591944.08
 20
-1161636.94
 10
-591950.35
 20
-1161645.01
 10
-591956.38
 20
-1161653.15
 10
-591962.32
 20
-1161661.43
 97
0
 75
0
 76
1
 98
0
  0
HATCH
  5
20008
100
AcDbEntity
  8
0
100
AcDbHatch
 10
0
 20
0
 30
0
210
0
220
0
230
1
  2
SOLID
 70
1
 71
0
 91
1
 92
2
 72
0
 73
1
 93
35
 10
-602470.29
 20
-1154012.51
 10
-602644.25
 20
-1154027
 10
-602644.18
 20
-1154022.84
 10
-602642.75
 20
-1154002.12
 10
-602644.83
 20
-1153990.35
 10
-602648.28
 20
-1153976.4
 10
-602650.77
 20
-1153966.36
 10
-602653.24
 20
-1153956.72
 10
-602654.37
 20
-1153951.73
 10
-602655.83
 20
-1153944.54
 10
-602656.92
 20
-1153935.57
 10
-602660.77
 20
-1153907
 10
-602662.68
 20
-1153891.63
 10
-602663.25
 20
-1153888.32
 10
-602665.3
 20
-1153881.61
 10
-602669.67
 20
-1153872.87
 10
-602676.99
 20
-1153864.74
 10
-602686.69
 20
-1153855.12
 10
-602700.98
 20
-1153631.71
 10
-602471.43
 20
-1153631.71
 10
-602473.3
 20
-1153644.98
 10
-602474.31
 20
-1153684.66
 10
-602473.3
 20
-1153725.37
 10
-602467.47
 20
-1153759.92
 10
-602468.35
 20
-1153822.59
 10
-602470.14
 20
-1153876.98
 10
-602470.56
 20
-1153890.34
 10
-602470.73
 20
-1153895.67
 10
-602470.95
 20
-1153920.65
 10
-602471.05
 20
-1153931.65
 10
-602471.45
 20
-1153976.19
 10
-602467.22
 20
-1154004.93
 10
-602466.73
 20
-1154008.29
 10
-602466.15
 20
-1154012.27
 10
-602470.29
 20
-1154012.51
 97
0
 75
0
 76
1
 98
0
  0
HATCH
  5
20009
100
AcDbEntity
  8
0
100
AcDbHatch
 10
0
 20
0
 30
0
210
0
220
0
230
1
  2
SOLID
 70
1
 71
0
 91
1
 92
2
 72
0
 73
1
 93
78
 10
-596532.15
 20
-1154937.75
 10
-596511.73
 20
-1154953.7
 10
-596506.58
 20
-1154937.08
 10
-596497.16
 20
-1154939.06
 10
-596487.09
 20
-1154941.37
 10
-596483.84
 20
-1154935.21
 10
-596460.11
 20
-1154952.32
 10
-596455.46
 20
-1154955.67
 10
-596435.87
 20
-1155015.88
 10
-596432.95
 20
-1155015.64
 10
-596433.64
 20
-1155020.09
 10
-596440.14
 20
-1155062.07
 10
-596446.66
 20
-1155058.4
 10
-596453.21
 20
-1155054.71
 10
-596459.68
 20
-1155051.07
 10
-596467.05
 20
-1155046.92
 10
-596474.41
 20
-1155042.77
 10
-596476.89
 20
-1155041.99
 10
-596486.51
 20
-1155040
 10
-596499.28
 20
-1155037.07
 10
-596501.14
 20
-1155036.65
 10
-596511.03
 20
-1155032.06
 10
-596526.23
 20
-1155025.01
 10
-596534.57
 20
-1155021.15
 10
-596543.34
 20
-1155018.34
 10
-596549.83
 20
-1155016.25
 10
-596555.93
 20
-1155014.3
 10
-596559.7
 20
-1155025.24
 10
-596560.03
 20
-1155027.38
 10
-596585.16
 20
-1155085.35
 10
-596586.57
 20
-1155083.47
 10
-596595.84
 20
-1155071.13
 10
-596598.14
 20
-1155068.06
 10
-596599.41
 20
-1155066.38
 10
-596600.45
 20
-1155065
 10
-596600.64
 20
-1155064.74
 10
-596602.75
 20
-1155061.93
 10
-596605.05
 20
-1155058.86
 10
-596607.35
 20
-1155055.79
 10
-596608.49
 20
-1155054.28
 10
-596609.65
 20
-1155052.73
 10
-596610.18
 20
-1155052.02
 10
-596611.83
 20
-1155049.54
 10
-596613.97
 20
-1155046.32
 10
-596614.61
 20
-1155045.35
 10
-596616.11
 20
-1155043.09
 10
-596616.52
 20
-1155042.48
 10
-596618.26
 20
-1155039.87
 10
-596619.61
 20
-1155037.83
 10
-596620.76
 20
-1155036.09
 10
-596623.27
 20
-1155032.32
 10
-596626.09
 20
-1155028.07
 10
-596628.91
 20
-1155023.83
 10
-596631.42
 20
-1155020.06
 10
-596632.78
 20
-1155018.01
 10
-596636.12
 20
-1155007.02
 10
-596638.39
 20
-1154996.81
 10
-596639.52
 20
-1154991.72
 10
-596639.27
 20
-1154987.61
 10
-596639.03
 20
-1154983.49
 10
-596639.04
 20
-1154979.56
 10
-596639.06
 20
-1154974.93
 10
-596639.08
 20
-1154971.06
 10
-596639.05
 20
-1154970.68
 10
-596639.05
 20
-1154967.49
 10
-596639.09
 20
-1154967.18
 10
-596637.42
 20
-1154960.2
 10
-596634.39
 20
-1154947
 10
-596631.37
 20
-1154947.61
 10
-596630.95
 20
-1154950.69
 10
-596619.38
 20
-1154947.21
 10
-596608.32
 20
-1154944.07
 10
-596591.94
 20
-1154916.42
 10
-596570.39
 20
-1154919.99
 10
-596569.3
 20
-1154920.17
 10
-596559.97
 20
-1154924.64
 10
-596550.25
 20
-1154929.12
 10
-596532.15
 20
-1154937.75
 97
0
 75
0
 76
1
 98
0
  0
HATCH
  5
2000A
100
AcDbEntity
  8
0
100
AcDbHatch
 10
0
 20
0
 30
0
210
0
220
0
230
1
  2
SOLID
 70
1
 71
0
 91
1
 92
2
 72
0
 73
1
 93
48
 10
-601959.01
 20
-1156499.78
 10
-601945.2
 20
-1156579.12
 10
-601942.01
 20
-1156590.92
 10
-601940.59
 20
-1156595.07
 10
-601974.21
 20
-1156577.79
 10
-601986.19
 20
-1156571.64
 10
-601996.3
 20
-1156598.89
 10
-602003.54
 20
-1156618.41
 10
-602003.56
 20
-1156618.47
 10
-602010.93
 20
-1156614.8
 10
-602020.15
 20
-1156610.21
 10
-602021.65
 20
-1156608.91
 10
-602044.9
 20
-1156588.79
 10
-602056.06
 20
-1156582.72
 10
-602068.99
 20
-1156575.68
 10
-602071.37
 20
-1156574.39
 10
-602070.36
 20
-1156566.35
 10
-602070.34
 20
-1156566.19
 10
-602082.94
 20
-1156555.02
 10
-602082.85
 20
-1156554.91
 10
-602082.37
 20
-1156554.32
 10
-602081.41
 20
-1156551.83
 10
-602080.65
 20
-1156549.87
 10
-602074.34
 20
-1156533.54
 10
-602073.83
 20
-1156512.49
 10
-602073.83
 20
-1156512.49
 10
-602084.65
 20
-1156498.85
 10
-602085.48
 20
-1156495.61
 10
-602087.39
 20
-1156489.37
 10
-602087.29
 20
-1156489.26
 10
-602079.33
 20
-1156480.08
 10
-602071.13
 20
-1156470.06
 10
-602068.09
 20
-1156466.23
 10
-602056.61
 20
-1156458.66
 10
-602052.12
 20
-1156455.7
 10
-602040.09
 20
-1156444.06
 10
-602026.51
 20
-1156430.95
 10
-602021.5
 20
-1156429.45
 10
-602004.65
 20
-1156424.39
 10
-601989.22
 20
-1156419.76
 10
-601982.8
 20
-1156436.43
 10
-601978
 20
-1156445.84
 10
-601970.05
 20
-1156461.4
 10
-601963.6
 20
-1156474.04
 10
-601960.82
 20
-1156486.88
 10
-601959.9
 20
-1156494.64
 10
-601959.89
 20
-1156494.68
 10
-601959.01
 20
-1156499.78
 97
0
 75
0
 76
1
 98
0
  0
HATCH
  5
2000B
100
AcDbEntity
  8
0
100
AcDbHatch
 10
0
 20
0
 30
0
210
0
220
0
230
1
  2
SOLID
 70
1
 71
0
 91
1
 92
2
 72
0
 73
1
 93
33
 10
-591182.39
 20
-1158016.38
 10
-591187.76
 20
-1158017.31
 10
-591189.72
 20
-1158016.73
 10
-591241.9
 20
-1158001.19
 10
-591238.97
 20
-1157969.75
 10
-591238.86
 20
-1157968.57
 10
-591235.29
 20
-1157957.54
 10
-591235.04
 20
-1157957.03
 10
-591232.57
 20
-1157952.01
 10
-591231.72
 20
-1157950.3
 10
-591225.6
 20
-1157925.23
 10
-591221.39
 20
-1157899.39
 10
-591221.5
 20
-1157897.86
 10
-591223.07
 20
-1157876.15
 10
-591225.34
 20
-1157866.64
 10
-591227.62
 20
-1157859.95
 10
-591201.08
 20
-1157851.78
 10
-591165.33
 20
-1157836.03
 10
-591122.59
 20
-1157817.19
 10
-591106.14
 20
-1157825.26
 10
-591004.67
 20
-1157875.05
 10
-591022.29
 20
-1157886.05
 10
-591024.04
 20
-1157891.26
 10
-591030.86
 20
-1157911.62
 10
-591039.35
 20
-1157936.92
 10
-591059.9
 20
-1157961.61
 10
-591064.19
 20
-1157964.43
 10
-591083.72
 20
-1157974.48
 10
-591110.78
 20
-1157989.66
 10
-591128.77
 20
-1157999.44
 10
-591135.99
 20
-1158003.44
 10
-591149.42
 20
-1158010.65
 10
-591182.39
 20
-1158016.38
 97
0
 75
0
 76
1
 98
0
  0
HATCH
  5
2000C
100
AcDbEntity
  8
0
100
AcDbHatch
 10
0
 20
0
 30
0
210
0
220
0
230
1
  2
SOLID
 70
1
 71
0
 91
1
 92
2
 72
0
 73
1
 93
24
 10
-598329.83
 20
-1156958.42
 10
-598329.65
 20
-1156958.55
 10
-598323.7
 20
-1156956.51
 10
-598323.48
 20
-1156956.35
 10
-598322.74
 20
-1156955.83
 10
-598320.03
 20
-1156953.92
 10
-598318.81
 20
-1156953.04
 10
-598317.14
 20
-1156955.35
 10
-598311.02
 20
-1156964.17
 10
-598303.8
 20
-1156959.2
 10
-598312.66
 20
-1157093.52
 10
-598335.43
 20
-1157071.33
 10
-598349.67
 20
-1157077.66
 10
-598351.19
 20
-1157075.89
 10
-598346.11
 20
-1157006.17
 10
-598343.18
 20
-1157002.94
 10
-598342.21
 20
-1156993.88
 10
-598342.09
 20
-1156992.78
 10
-598345.11
 20
-1156992.46
 10
-598343.97
 20
-1156976.88
 10
-598344
 20
-1156966.64
 10
-598334.35
 20
-1156952.24
 10
-598332.39
 20
-1156954.89
 10
-598329.83
 20
-1156958.42
 97
0
 75
0
 76
1
 98
0
  0
HATCH
  5
2000D
100
AcDbEntity
  8
0
100
AcDbHatch
 10
0
 20
0
 30
0
210
0
220
0
230
1
  2
SOLID
 70
1
 71
0
 91
1
 92
2
 72
0
 73
1
 93
115
 10
-596392.76
 20
-1167371.37
 10
-596389.37
 20
-1167377.94
 10
-596386.21
 20
-1167384.05
 10
-596364.41
 20
-1167426.26
 10
-596355.44
 20
-1167443.64
 10
-596342.69
 20
-1167468.31
 10
-596331.84
 20
-1167489.32
 10
-596321.04
 20
-1167510.23
 10
-596320.26
 20
-1167511.96
 10
-596318.53
 20
-1167515.82
 10
-596316.68
 20
-1167519.91
 10
-596313.63
 20
-1167526.68
 10
-596311.48
 20
-1167531.45
 10
-596310.25
 20
-1167535.21
 10
-596307.81
 20
-1167542.67
 10
-596305.85
 20
-1167548.64
 10
-596304.23
 20
-1167553.57
 10
-596300.87
 20
-1167569.38
 10
-596299.51
 20
-1167575.75
 10
-596299.39
 20
-1167576.33
 10
-596298.75
 20
-1167582.48
 10
-596298.04
 20
-1167589.33
 10
-596297.32
 20
-1167596.26
 10
-596296.99
 20
-1167599.48
 10
-596297.01
 20
-1167604.45
 10
-596297.02
 20
-1167608.64
 10
-596297.05
 20
-1167615.72
 10
-596297.08
 20
-1167622.76
 10
-596297.46
 20
-1167626.23
 10
-596298.8
 20
-1167638.34
 10
-596299.64
 20
-1167645.89
 10
-596300
 20
-1167648.04
 10
-596301.98
 20
-1167660.07
 10
-596303.68
 20
-1167670.34
 10
-596306.33
 20
-1167686.35
 10
-596308.37
 20
-1167698.7
 10
-596309.51
 20
-1167705.63
 10
-596310.8
 20
-1167713.43
 10
-596313.08
 20
-1167727.22
 10
-596315.88
 20
-1167744.11
 10
-596317.65
 20
-1167754.84
 10
-596319.27
 20
-1167764.64
 10
-596320.83
 20
-1167774.09
 10
-596322.1
 20
-1167781.8
 10
-596323.24
 20
-1167788.65
 10
-596323.68
 20
-1167791.32
 10
-596324.06
 20
-1167794.01
 10
-596324.45
 20
-1167796.68
 10
-596325.1
 20
-1167802.06
 10
-596325.53
 20
-1167806.43
 10
-596325.64
 20
-1167807.45
 10
-596326.06
 20
-1167812.85
 10
-596326.12
 20
-1167814.01
 10
-596326.21
 20
-1167815.55
 10
-596326.39
 20
-1167818.76
 10
-596326.57
 20
-1167821.87
 10
-596342.72
 20
-1167821.04
 10
-596348.09
 20
-1167820.76
 10
-596348.09
 20
-1167820.74
 10
-596348.7
 20
-1167812.83
 10
-596349.14
 20
-1167807.04
 10
-596349.28
 20
-1167805.2
 10
-596349.41
 20
-1167802.93
 10
-596358.82
 20
-1167801.69
 10
-596382.06
 20
-1167798.61
 10
-596384.18
 20
-1167800.48
 10
-596389.38
 20
-1167800.81
 10
-596393.25
 20
-1167800.44
 10
-596391.99
 20
-1167790.15
 10
-596390.12
 20
-1167779.85
 10
-596388.93
 20
-1167774.91
 10
-596386.5
 20
-1167764.82
 10
-596382.71
 20
-1167749.12
 10
-596378.94
 20
-1167733.49
 10
-596375.49
 20
-1167717.91
 10
-596373.67
 20
-1167709.64
 10
-596372.25
 20
-1167701.67
 10
-596369.02
 20
-1167680.77
 10
-596367.69
 20
-1167669.62
 10
-596367.21
 20
-1167658.4
 10
-596367.59
 20
-1167647.18
 10
-596368.81
 20
-1167636.01
 10
-596370.66
 20
-1167621.12
 10
-596375.76
 20
-1167586.78
 10
-596380
 20
-1167558.25
 10
-596380.97
 20
-1167551.77
 10
-596385.36
 20
-1167522.18
 10
-596386.15
 20
-1167515.2
 10
-596386.46
 20
-1167508.18
 10
-596386.29
 20
-1167501.15
 10
-596385.63
 20
-1167494.16
 10
-596384.56
 20
-1167479.74
 10
-596384.18
 20
-1167474.71
 10
-596384.33
 20
-1167469.67
 10
-596385.02
 20
-1167464.67
 10
-596386.24
 20
-1167459.77
 10
-596387.97
 20
-1167455.04
 10
-596390.19
 20
-1167450.51
 10
-596396.82
 20
-1167437.03
 10
-596401.47
 20
-1167428.72
 10
-596414.01
 20
-1167406.27
 10
-596418.64
 20
-1167397.99
 10
-596420.98
 20
-1167393.06
 10
-596422.67
 20
-1167387.86
 10
-596423.66
 20
-1167382.48
 10
-596423.84
 20
-1167378.89
 10
-596423.94
 20
-1167377.02
 10
-596423.72
 20
-1167374.3
 10
-596423.74
 20
-1167372.99
 10
-596423.61
 20
-1167373.01
 10
-596419.2
 20
-1167373.59
 10
-596418.6
 20
-1167370.24
 10
-596409.75
 20
-1167370.63
 10
-596405.18
 20
-1167370.83
 10
-596392.76
 20
-1167371.37
 97
0
 75
0
 76
1
 98
0
  0
HATCH
  5
2000E
100
AcDbEntity
  8
0
100
AcDbHatch
 10
0
 20
0
 30
0
210
0
220
0
230
1
  2
SOLID
 70
1
 71
0
 91
1
 92
2
 72
0
 73
1
 93
131
 10
-595598.71
 20
-1154701.52
 10
-595589.44
 20
-1154706.89
 10
-595567.24
 20
-1154678.65
 10
-595566.04
 20
-1154677.12
 10
-595559.97
 20
-1154683.99
 10
-595543.75
 20
-1154707.2
 10
-595533.53
 20
-1154722.07
 10
-595525.31
 20
-1154734.07
 10
-595514.5
 20
-1154753.34
 10
-595510.27
 20
-1154766.31
 10
-595502.84
 20
-1154789.02
 10
-595496.16
 20
-1154801.03
 10
-595485.56
 20
-1154820.07
 10
-595481.87
 20
-1154826.7
 10
-595478.67
 20
-1154835.33
 10
-595475.21
 20
-1154842.22
 10
-595467.23
 20
-1154858.09
 10
-595464.03
 20
-1154865.66
 10
-595456.82
 20
-1154882.7
 10
-595448.06
 20
-1154898.36
 10
-595431.58
 20
-1154931.78
 10
-595427.11
 20
-1154940.86
 10
-595418.17
 20
-1154952.53
 10
-595416.94
 20
-1154952.98
 10
-595416.8
 20
-1154953.03
 10
-595410.08
 20
-1154955.51
 10
-595396.22
 20
-1154965.32
 10
-595392.98
 20
-1154969.54
 10
-595379.75
 20
-1154986.79
 10
-595377.56
 20
-1154988.57
 10
-595356.11
 20
-1155005.94
 10
-595351.25
 20
-1155009.88
 10
-595325.03
 20
-1155023.56
 10
-595312.83
 20
-1155029.93
 10
-595298.86
 20
-1155034.9
 10
-595283.38
 20
-1155040.4
 10
-595280.63
 20
-1155042.8
 10
-595268.13
 20
-1155053.68
 10
-595264.21
 20
-1155057.1
 10
-595259.33
 20
-1155061.35
 10
-595255.35
 20
-1155064.81
 10
-595239.57
 20
-1155078.01
 10
-595229.14
 20
-1155090.83
 10
-595209.32
 20
-1155109.83
 10
-595201.26
 20
-1155123.54
 10
-595183.03
 20
-1155148.16
 10
-595159.5
 20
-1155197.66
 10
-595158.32
 20
-1155201.19
 10
-595157.56
 20
-1155203.46
 10
-595163.63
 20
-1155202.63
 10
-595163.67
 20
-1155202.59
 10
-595171.6
 20
-1155193.54
 10
-595175.29
 20
-1155180.36
 10
-595177.41
 20
-1155172.78
 10
-595185.2
 20
-1155166.28
 10
-595189.94
 20
-1155162.32
 10
-595216.27
 20
-1155149.32
 10
-595220.1
 20
-1155146.37
 10
-595218.98
 20
-1155145.01
 10
-595219.89
 20
-1155143.31
 10
-595216.45
 20
-1155134.88
 10
-595231.78
 20
-1155127.25
 10
-595241.78
 20
-1155112.68
 10
-595263.67
 20
-1155101.63
 10
-595281.29
 20
-1155082.91
 10
-595284.71
 20
-1155079.28
 10
-595286.13
 20
-1155077.77
 10
-595291.2
 20
-1155072.38
 10
-595294.62
 20
-1155068.45
 10
-595298.42
 20
-1155068.14
 10
-595302.88
 20
-1155064.66
 10
-595310.14
 20
-1155058.99
 10
-595318.98
 20
-1155051.15
 10
-595323.6
 20
-1155047.06
 10
-595326.92
 20
-1155037.45
 10
-595335.25
 20
-1155036.66
 10
-595343.35
 20
-1155035.9
 10
-595355.92
 20
-1155019.36
 10
-595357.84
 20
-1155008.37
 10
-595373.89
 20
-1155030.89
 10
-595398.33
 20
-1155010.54
 10
-595398.72
 20
-1155010.95
 10
-595415.2
 20
-1154992.18
 10
-595426.97
 20
-1154978.77
 10
-595427.07
 20
-1154978.66
 10
-595433.69
 20
-1154971.36
 10
-595441.43
 20
-1154962.83
 10
-595450.43
 20
-1154946.51
 10
-595451.42
 20
-1154944.72
 10
-595454.47
 20
-1154936.42
 10
-595469.94
 20
-1154908.59
 10
-595478.74
 20
-1154893.08
 10
-595479.34
 20
-1154890.56
 10
-595484.09
 20
-1154870.56
 10
-595489.47
 20
-1154860.84
 10
-595498.77
 20
-1154851.65
 10
-595500.09
 20
-1154842.02
 10
-595510.58
 20
-1154820.78
 10
-595511.6
 20
-1154818.71
 10
-595517.68
 20
-1154805.06
 10
-595518.68
 20
-1154802.83
 10
-595523.81
 20
-1154789.87
 10
-595525.01
 20
-1154786.83
 10
-595535.12
 20
-1154771.69
 10
-595537.01
 20
-1154768.86
 10
-595543.32
 20
-1154755.87
 10
-595544.77
 20
-1154752.89
 10
-595545.56
 20
-1154744.45
 10
-595554.37
 20
-1154740.47
 10
-595557.92
 20
-1154738.87
 10
-595565.61
 20
-1154729.62
 10
-595570.03
 20
-1154724.3
 10
-595585.61
 20
-1154713.81
 10
-595592.49
 20
-1154710.78
 10
-595597.25
 20
-1154708.62
 10
-595599.66
 20
-1154706.67
 10
-595609.55
 20
-1154698.67
 10
-595612.83
 20
-1154696.8
 10
-595622.66
 20
-1154691.2
 10
-595625.78
 20
-1154689.28
 10
-595643.19
 20
-1154678.58
 10
-595651.25
 20
-1154673.62
 10
-595662.4
 20
-1154667.35
 10
-595661.37
 20
-1154666.06
 10
-595658.85
 20
-1154667.49
 10
-595647.54
 20
-1154673.62
 10
-595636.31
 20
-1154679.67
 10
-595624.37
 20
-1154686.53
 10
-595613.62
 20
-1154692.84
 10
-595607.09
 20
-1154696.67
 10
-595598.71
 20
-1154701.52
 97
0
 75
0
 76
1
 98
0
  0
HATCH
  5
2000F
100
AcDbEntity
  8
0
100
AcDbHatch
 10
0
 20
0
 30
0
210
0
220
0
230
1
  2
SOLID
 70
1
 71
0
 91
1
 92
2
 72
0
 73
1
 93
232
 10
-600636.91
 20
-1159268.69
 10
-600576.14
 20
-1159356.8
 10
-600581.29
 20
-1159383.58
 10
-600583.84
 20
-1159396.84
 10
-600586.17
 20
-1159437.5
 10
-600586.31
 20
-1159439.92
 10
-600587.09
 20
-1159453.61
 10
-600587.26
 20
-1159456.59
 10
-600587.35
 20
-1159458.23
 10
-600601.6
 20
-1159510.68
 10
-600608.3
 20
-1159544.17
 10
-600609.12
 20
-1159548.27
 10
-600609.09
 20
-1159548.79
 10
-600608.96
 20
-1159551.39
 10
-600607.77
 20
-1159575.58
 10
-600612.53
 20
-1159576.1
 10
-600627.47
 20
-1159573.15
 10
-600628.54
 20
-1159571.47
 10
-600649.88
 20
-1159548.13
 10
-600657.04
 20
-1159546.31
 10
-600679.28
 20
-1159571.08
 10
-600710.98
 20
-1159581.26
 10
-600734
 20
-1159603.17
 10
-600736.22
 20
-1159605.28
 10
-600746.02
 20
-1159618.14
 10
-600755.67
 20
-1159631.06
 10
-600761.14
 20
-1159636.5
 10
-600768.2
 20
-1159643.47
 10
-600769.94
 20
-1159645.18
 10
-600774.45
 20
-1159649.64
 10
-600775.01
 20
-1159650.19
 10
-600788.7
 20
-1159663.5
 10
-600803.69
 20
-1159681.2
 10
-600802.44
 20
-1159696.68
 10
-600802.26
 20
-1159699.07
 10
-600802.94
 20
-1159704.86
 10
-600803.95
 20
-1159713.46
 10
-600805.03
 20
-1159722.01
 10
-600810.07
 20
-1159726.43
 10
-600815.76
 20
-1159731.93
 10
-600815.78
 20
-1159731.95
 10
-600818.7
 20
-1159732.79
 10
-600828.58
 20
-1159743.16
 10
-600839.57
 20
-1159750.59
 10
-600840.38
 20
-1159751.14
 10
-600842.16
 20
-1159752.34
 10
-600851.82
 20
-1159766.79
 10
-600854.6
 20
-1159772.89
 10
-600857.55
 20
-1159778.95
 10
-600858.21
 20
-1159780.41
 10
-600861.83
 20
-1159786.76
 10
-600863.14
 20
-1159789.05
 10
-600866.79
 20
-1159795.54
 10
-600868.77
 20
-1159798.29
 10
-600871.66
 20
-1159801.73
 10
-600876.64
 20
-1159807.7
 10
-600881.22
 20
-1159813.18
 10
-600881.69
 20
-1159813.64
 10
-600887.2
 20
-1159819.14
 10
-600892.88
 20
-1159824.83
 10
-600898.49
 20
-1159830.42
 10
-600899.22
 20
-1159831.15
 10
-600906.01
 20
-1159847.28
 10
-600903.46
 20
-1159856.34
 10
-600900.9
 20
-1159865.4
 10
-600910.33
 20
-1159885.55
 10
-600911.29
 20
-1159887.6
 10
-600911.74
 20
-1159888.54
 10
-600911.98
 20
-1159889.08
 10
-600914.02
 20
-1159893.44
 10
-600914.28
 20
-1159891.75
 10
-600915.38
 20
-1159890.69
 10
-600915.85
 20
-1159890.29
 10
-600917.93
 20
-1159888.34
 10
-600923.1
 20
-1159883.3
 10
-600924.61
 20
-1159881.87
 10
-600970.15
 20
-1159838.31
 10
-600971.1
 20
-1159838.1
 10
-600971.03
 20
-1159837.64
 10
-600978.21
 20
-1159835.47
 10
-600978.66
 20
-1159835.33
 10
-600982.3
 20
-1159834.36
 10
-600992.28
 20
-1159831.7
 10
-600994.14
 20
-1159831.43
 10
-600994.14
 20
-1159831.42
 10
-600989.68
 20
-1159809.54
 10
-600985.88
 20
-1159790.14
 10
-600982.96
 20
-1159766.5
 10
-600982.95
 20
-1159765.97
 10
-600982.63
 20
-1159750.23
 10
-600982.24
 20
-1159729.73
 10
-600982.19
 20
-1159726.45
 10
-600982.08
 20
-1159716.16
 10
-600982.14
 20
-1159713.06
 10
-600983.4
 20
-1159711.36
 10
-600982.95
 20
-1159709.72
 10
-600981.68
 20
-1159710.01
 10
-600981.67
 20
-1159710.01
 10
-600981.9
 20
-1159711.03
 10
-600977.4
 20
-1159712.19
 10
-600976.03
 20
-1159706.69
 10
-600958.83
 20
-1159710.91
 10
-600940.36
 20
-1159707.7
 10
-600925.47
 20
-1159705.06
 10
-600894.26
 20
-1159698.38
 10
-600894.51
 20
-1159602.98
 10
-600909.98
 20
-1159594.52
 10
-600905.98
 20
-1159567
 10
-600933.95
 20
-1159549.06
 10
-600933.04
 20
-1159547.14
 10
-600934.55
 20
-1159544.67
 10
-600936.16
 20
-1159543.73
 10
-600917.41
 20
-1159511.06
 10
-600909.56
 20
-1159496.26
 10
-600905.12
 20
-1159491.85
 10
-600902.95
 20
-1159494.02
 10
-600898.54
 20
-1159489.63
 10
-600898.04
 20
-1159489.14
 10
-600897.98
 20
-1159489.2
 10
-600897.81
 20
-1159489.36
 10
-600893.97
 20
-1159485.42
 10
-600894.05
 20
-1159485.35
 10
-600894.08
 20
-1159485.32
 10
-600893.56
 20
-1159484.81
 10
-600889.25
 20
-1159480.52
 10
-600891.37
 20
-1159478.39
 10
-600887.04
 20
-1159474.09
 10
-600885.01
 20
-1159471.8
 10
-600884.87
 20
-1159471.59
 10
-600884.74
 20
-1159471.4
 10
-600883.87
 20
-1159469.23
 10
-600884.3
 20
-1159466.42
 10
-600884.31
 20
-1159466.34
 10
-600880.26
 20
-1159462.33
 10
-600882.43
 20
-1159460.15
 10
-600882.38
 20
-1159460.09
 10
-600878.12
 20
-1159455.51
 10
-600877.64
 20
-1159454.99
 10
-600872.64
 20
-1159449.61
 10
-600868.56
 20
-1159445.17
 10
-600864.39
 20
-1159440.86
 10
-600859.59
 20
-1159436.13
 10
-600859.74
 20
-1159435.94
 10
-600856.62
 20
-1159432.84
 10
-600854.38
 20
-1159435.13
 10
-600848.77
 20
-1159429.55
 10
-600848.71
 20
-1159429.61
 10
-600848.49
 20
-1159429.85
 10
-600848.42
 20
-1159430.05
 10
-600845.55
 20
-1159429.01
 10
-600840.26
 20
-1159426.89
 10
-600840.71
 20
-1159426.33
 10
-600840.82
 20
-1159426.19
 10
-600836.28
 20
-1159421.96
 10
-600831.9
 20
-1159417.9
 10
-600831.82
 20
-1159417.99
 10
-600831.77
 20
-1159418.05
 10
-600829.57
 20
-1159415.81
 10
-600827.91
 20
-1159414.07
 10
-600827.06
 20
-1159413.09
 10
-600825.98
 20
-1159411.86
 10
-600826.24
 20
-1159411.62
 10
-600822.34
 20
-1159407.74
 10
-600817.57
 20
-1159402.99
 10
-600817.4
 20
-1159403.16
 10
-600817.39
 20
-1159403.15
 10
-600815.85
 20
-1159401.6
 10
-600814.75
 20
-1159399.8
 10
-600814.16
 20
-1159398.07
 10
-600813.52
 20
-1159398.57
 10
-600812.27
 20
-1159397.53
 10
-600808.01
 20
-1159393.36
 10
-600809.97
 20
-1159391.49
 10
-600805.5
 20
-1159387.05
 10
-600805.39
 20
-1159387.16
 10
-600804.61
 20
-1159388.17
 10
-600802.91
 20
-1159387.79
 10
-600797.41
 20
-1159386.91
 10
-600796.18
 20
-1159386.35
 10
-600795.33
 20
-1159385.96
 10
-600795.52
 20
-1159385.77
 10
-600795.82
 20
-1159385.47
 10
-600791.8
 20
-1159381.47
 10
-600789.19
 20
-1159384.1
 10
-600784.6
 20
-1159379.48
 10
-600784.32
 20
-1159379.86
 10
-600784.26
 20
-1159379.93
 10
-600783.63
 20
-1159379.83
 10
-600778.66
 20
-1159379.85
 10
-600774.4
 20
-1159378.92
 10
-600774.37
 20
-1159378.38
 10
-600774.48
 20
-1159378.28
 10
-600774.52
 20
-1159378.24
 10
-600770.44
 20
-1159374.15
 10
-600770.27
 20
-1159374.33
 10
-600765.91
 20
-1159369.95
 10
-600765.88
 20
-1159369.98
 10
-600765.41
 20
-1159370.52
 10
-600761.37
 20
-1159369.11
 10
-600758.09
 20
-1159366.45
 10
-600758.45
 20
-1159366.03
 10
-600758.53
 20
-1159365.94
 10
-600754.48
 20
-1159361.88
 10
-600750.4
 20
-1159357.81
 10
-600750.34
 20
-1159357.86
 10
-600750.01
 20
-1159358.13
 10
-600744.47
 20
-1159351.98
 10
-600744.65
 20
-1159351.77
 10
-600744.84
 20
-1159351.55
 10
-600740.7
 20
-1159347.39
 10
-600740.45
 20
-1159347.63
 10
-600736.47
 20
-1159343.64
 10
-600736.42
 20
-1159343.7
 10
-600735.71
 20
-1159344.47
 10
-600729.32
 20
-1159340.56
 10
-600728.76
 20
-1159340.22
 10
-600723.8
 20
-1159335.24
 10
-600721.61
 20
-1159337.42
 10
-600716.74
 20
-1159332.53
 10
-600712.53
 20
-1159328.55
 10
-600707.88
 20
-1159323.92
 10
-600710.11
 20
-1159321.62
 10
-600712.3
 20
-1159319.43
 10
-600707.95
 20
-1159314.62
 10
-600707.02
 20
-1159313.71
 10
-600704.85
 20
-1159315.44
 10
-600699.44
 20
-1159319.86
 10
-600698.78
 20
-1159320.4
 10
-600696.21
 20
-1159318.27
 10
-600690.56
 20
-1159313.6
 10
-600658.79
 20
-1159286.94
 10
-600636.91
 20
-1159268.69
 97
0
 75
0
 76
1
 98
0
  0
HATCH
  5
20010
100
AcDbEntity
  8
0
100
AcDbHatch
 10
0
 20
0
 30
0
210
0
220
0
230
1
  2
SOLID
 70
1
 71
0
 91
1
 92
2
 72
0
 73
1
 93
119
 10
-597621.3
 20
-1166691.56
 10
-597619.48
 20
-1166692.95
 10
-597618.95
 20
-1166693.35
 10
-597616.25
 20
-1166704.49
 10
-597612.45
 20
-1166724.86
 10
-597607.26
 20
-1166744.08
 10
-597602.67
 20
-1166753.6
 10
-597590.42
 20
-1166770.68
 10
-597579.24
 20
-1166786.6
 10
-597576.1
 20
-1166790.97
 10
-597574.51
 20
-1166793.17
 10
-597562.63
 20
-1166809.34
 10
-597557.64
 20
-1166814.8
 10
-597548.49
 20
-1166824.8
 10
-597520.15
 20
-1166849.91
 10
-597517.26
 20
-1166852.47
 10
-597517.17
 20
-1166852.55
 10
-597504.87
 20
-1166868.22
 10
-597496.56
 20
-1166896.2
 10
-597501.55
 20
-1166899.7
 10
-597547.17
 20
-1166920.7
 10
-597555.54
 20
-1166926.45
 10
-597560.05
 20
-1166929.55
 10
-597571.7
 20
-1166938.39
 10
-597575.89
 20
-1166941.57
 10
-597596.49
 20
-1166958.25
 10
-597614.74
 20
-1166972.98
 10
-597630.05
 20
-1166985.7
 10
-597637.38
 20
-1166991.53
 10
-597644.05
 20
-1167008.78
 10
-597655.25
 20
-1167025.33
 10
-597658.13
 20
-1167033.02
 10
-597665.16
 20
-1167051.82
 10
-597668.57
 20
-1167062.21
 10
-597671.31
 20
-1167070.56
 10
-597693.83
 20
-1167110.49
 10
-597705.24
 20
-1167123.12
 10
-597711.76
 20
-1167129.01
 10
-597726.21
 20
-1167141.58
 10
-597728.95
 20
-1167147.11
 10
-597730.11
 20
-1167149.46
 10
-597730.15
 20
-1167149.53
 10
-597738.81
 20
-1167156.99
 10
-597739.35
 20
-1167157.85
 10
-597741.76
 20
-1167161.66
 10
-597745.97
 20
-1167169.23
 10
-597748.63
 20
-1167180.39
 10
-597747.29
 20
-1167191.81
 10
-597744.02
 20
-1167219.78
 10
-597742.9
 20
-1167229.58
 10
-597738.47
 20
-1167268.31
 10
-597738.83
 20
-1167268.33
 10
-597739.37
 20
-1167268.35
 10
-597744.85
 20
-1167268.58
 10
-597748.93
 20
-1167268.91
 10
-597750.35
 20
-1167269.03
 10
-597755.11
 20
-1167269.41
 10
-597759.29
 20
-1167269.75
 10
-597766.03
 20
-1167270.29
 10
-597766.11
 20
-1167270.3
 10
-597766.54
 20
-1167257.65
 10
-597777.15
 20
-1167222.4
 10
-597777.11
 20
-1167220.18
 10
-597776.37
 20
-1167174.7
 10
-597751.02
 20
-1167138.69
 10
-597724.86
 20
-1167105.5
 10
-597722.69
 20
-1167102.49
 10
-597714.52
 20
-1167091.14
 10
-597705.35
 20
-1167077
 10
-597697.11
 20
-1167055.39
 10
-597685.49
 20
-1167028.04
 10
-597676.9
 20
-1167007.61
 10
-597676.5
 20
-1167006.66
 10
-597669.22
 20
-1166997.24
 10
-597658.68
 20
-1166988.16
 10
-597642.65
 20
-1166973.92
 10
-597634.83
 20
-1166967.84
 10
-597593.77
 20
-1166931.62
 10
-597580.39
 20
-1166918.39
 10
-597578.85
 20
-1166916.92
 10
-597576.74
 20
-1166916.21
 10
-597574.44
 20
-1166915.44
 10
-597569.6
 20
-1166913.82
 10
-597551.01
 20
-1166896.8
 10
-597550.96
 20
-1166896.76
 10
-597540.7
 20
-1166892.89
 10
-597520.57
 20
-1166888.96
 10
-597516.29
 20
-1166881.95
 10
-597516.32
 20
-1166881.83
 10
-597517.37
 20
-1166878.09
 10
-597518.7
 20
-1166873.32
 10
-597518.85
 20
-1166873.16
 10
-597531.52
 20
-1166859.59
 10
-597532.11
 20
-1166858.96
 10
-597532.15
 20
-1166858.93
 10
-597538.11
 20
-1166854.13
 10
-597554.46
 20
-1166840.96
 10
-597559.25
 20
-1166837.1
 10
-597569.63
 20
-1166824.78
 10
-597577.42
 20
-1166815.54
 10
-597578.18
 20
-1166814.52
 10
-597581.48
 20
-1166810.09
 10
-597582.81
 20
-1166808.31
 10
-597582.99
 20
-1166808.05
 10
-597589.9
 20
-1166798.29
 10
-597599.51
 20
-1166784.71
 10
-597603.77
 20
-1166778.68
 10
-597611.86
 20
-1166771.03
 10
-597622.13
 20
-1166748.69
 10
-597625.32
 20
-1166735.1
 10
-597629.06
 20
-1166719.14
 10
-597631.09
 20
-1166709.67
 10
-597632.74
 20
-1166701.95
 10
-597633.65
 20
-1166699.81
 10
-597636.84
 20
-1166692.36
 10
-597636.54
 20
-1166692.38
 10
-597631.91
 20
-1166692.67
 10
-597632.4
 20
-1166691.22
 10
-597621.3
 20
-1166691.56
 97
0
 75
0
 76
1
 98
0
  0
HATCH
  5
20011
100
AcDbEntity
  8
0
100
AcDbHatch
 10
0
 20
0
 30
0
210
0
220
0
230
1
  2
SOLID
 70
1
 71
0
 91
1
 92
2
 72
0
 73
1
 93
75
 10
-595917.16
 20
-1157363.57
 10
-595916.73
 20
-1157363.79
 10
-595914.33
 20
-1157365.03
 10
-595912.23
 20
-1157366.11
 10
-595908.17
 20
-1157367.96
 10
-595904.44
 20
-1157371.5
 10
-595899.24
 20
-1157378.69
 10
-595899.11
 20
-1157378.87
 10
-595893.23
 20
-1157395.13
 10
-595896.95
 20
-1157404.57
 10
-595896.2
 20
-1157406.27
 10
-595894.58
 20
-1157409.93
 10
-595891.65
 20
-1157416.54
 10
-595883.19
 20
-1157440.23
 10
-595883.01
 20
-1157440.31
 10
-595879.57
 20
-1157441.87
 10
-595882.1
 20
-1157450.99
 10
-595883.47
 20
-1157455.92
 10
-595888.36
 20
-1157467.11
 10
-595909.56
 20
-1157492.71
 10
-595910.86
 20
-1157494.28
 10
-595917.93
 20
-1157503.19
 10
-595920.68
 20
-1157506.47
 10
-595920.78
 20
-1157506.59
 10
-595921.76
 20
-1157509.19
 10
-595922.62
 20
-1157512.83
 10
-595923.05
 20
-1157514.65
 10
-595923.13
 20
-1157515.01
 10
-595923.11
 20
-1157519.08
 10
-595923.1
 20
-1157520.59
 10
-595922.97
 20
-1157521.35
 10
-595922.11
 20
-1157526.36
 10
-595920.67
 20
-1157532.07
 10
-595917.96
 20
-1157540.63
 10
-595915.49
 20
-1157545.87
 10
-595912.39
 20
-1157550.83
 10
-595879.74
 20
-1157585.54
 10
-595877.93
 20
-1157587.98
 10
-595876.74
 20
-1157590.93
 10
-595876.44
 20
-1157593.94
 10
-595877.46
 20
-1157609.84
 10
-595877.46
 20
-1157609.84
 10
-595945.54
 20
-1157607.27
 10
-595979.06
 20
-1157610.29
 10
-595994.43
 20
-1157670.23
 10
-596025.09
 20
-1157665
 10
-596027.98
 20
-1157645.3
 10
-596043.07
 20
-1157647.74
 10
-596045.81
 20
-1157627.51
 10
-596060.46
 20
-1157519.13
 10
-596064.95
 20
-1157485.93
 10
-596066.19
 20
-1157473.98
 10
-596066.45
 20
-1157466.88
 10
-596066.67
 20
-1157460.61
 10
-596066.67
 20
-1157454.12
 10
-596065.94
 20
-1157436.13
 10
-596065.05
 20
-1157424.06
 10
-596064.39
 20
-1157418.1
 10
-596063.07
 20
-1157409.41
 10
-596061.1
 20
-1157400.59
 10
-596060.31
 20
-1157397.5
 10
-596058.88
 20
-1157391.87
 10
-596057.06
 20
-1157385.98
 10
-596049.82
 20
-1157362.2
 10
-596033.36
 20
-1157360.99
 10
-596031.59
 20
-1157361.39
 10
-596021.79
 20
-1157363.63
 10
-595975.92
 20
-1157360.81
 10
-595954.37
 20
-1157361.06
 10
-595951.36
 20
-1157361.1
 10
-595949.75
 20
-1157361.12
 10
-595947.51
 20
-1157361.15
 10
-595933.01
 20
-1157361.31
 10
-595928.78
 20
-1157361.91
 10
-595917.16
 20
-1157363.57
 97
0
 75
0
 76
1
 98
0
  0
HATCH
  5
20012
100
AcDbEntity
  8
0
100
AcDbHatch
 10
0
 20
0
 30
0
210
0
220
0
230
1
  2
SOLID
 70
1
 71
0
 91
1
 92
2
 72
0
 73
1
 93
20
 10
-595551.76
 20
-1163550.52
 10
-595552.2
 20
-1163550.72
 10
-595578.86
 20
-1163544.57
 10
-595578.82
 20
-1163544.51
 10
-595577.33
 20
-1163541.88
 10
-595577.17
 20
-1163541.6
 10
-595576.72
 20
-1163540.8
 10
-595576.76
 20
-1163540.61
 10
-595581.56
 20
-1163520.77
 10
-595560.48
 20
-1163511.23
 10
-595532.02
 20
-1163498.9
 10
-595513.58
 20
-1163509.39
 10
-595511.99
 20
-1163510.8
 10
-595511.76
 20
-1163511
 10
-595511.67
 20
-1163511.08
 10
-595504.3
 20
-1163517.64
 10
-595499.53
 20
-1163530.4
 10
-595506.23
 20
-1163532.2
 10
-595517.7
 20
-1163534.78
 10
-595551.76
 20
-1163550.52
 97
0
 75
0
 76
1
 98
0
  0
HATCH
  5
20013
100
AcDbEntity
  8
0
100
AcDbHatch
 10
0
 20
0
 30
0
210
0
220
0
230
1
  2
SOLID
 70
1
 71
0
 91
1
 92
2
 72
0
 73
1
 93
67
 10
-596042.239999998
 20
-1154246.79
 10
-596036.989999998
 20
-1154250.75
 10
-596034.969799999
 20
-1154249.1001
 10
-596031.190000001
 20
-1154246.02
 10
-596013.52
 20
-1154253.67
 10
-595986.319899999
 20
-1154264.6801
 10
-595972.140000001
 20
-1154270.42
 10
-595967.510000002
 20
-1154275.8
 10
-595954.370000001
 20
-1154291.07
 10
-595940.34
 20
-1154303.47
 10
-595933.93
 20
-1154309.14
 10
-595900.030000001
 20
-1154343.95
 10
-595898.829999998
 20
-1154345.18
 10
-595901.32
 20
-1154347.15
 10
-595903.899999999
 20
-1154349.1
 10
-595905.790199999
 20
-1154350.5298
 10
-595908.32
 20
-1154352.44
 10
-595910.879999999
 20
-1154354.37
 10
-595918.09
 20
-1154359.82
 10
-595920.52
 20
-1154361.66
 10
-595910.27
 20
-1154386.99
 10
-595898.91
 20
-1154405.69
 10
-595873.57
 20
-1154447.4
 10
-595851.18
 20
-1154476.95
 10
-595839.620000001
 20
-1154494.98
 10
-595828.800000001
 20
-1154511.87
 10
-595848.82
 20
-1154527.93
 10
-595851.920000002
 20
-1154520.05
 10
-595867.699999999
 20
-1154503.48
 10
-595893.739999998
 20
-1154479.88
 10
-595914.750100002
 20
-1154453.91
 10
-595916.32
 20
-1154451.97
 10
-595918.609999999
 20
-1154447.92
 10
-595928.579999998
 20
-1154430.3
 10
-595937.240200002
 20
-1154414.8201
 10
-595939.929200001
 20
-1154410.0176
 10
-595946.530000001
 20
-1154398.23
 10
-595950.940000001
 20
-1154390.34
 10
-595974.23
 20
-1154392.77
 10
-595975.620000001
 20
-1154392.92
 10
-595986.219999999
 20
-1154377.82
 10
-595996.780000001
 20
-1154362.78
 10
-595997.210200001
 20
-1154362.2601
 10
-596005.75
 20
-1154352.01
 10
-596011.289900001
 20
-1154348.5798
 10
-596020.199999999
 20
-1154343.06
 10
-596024.649999999
 20
-1154340.3
 10
-596044.93
 20
-1154327.74
 10
-596058.690000001
 20
-1154320.51
 10
-596060.559999999
 20
-1154319.53
 10
-596062.410100002
 20
-1154318.5502
 10
-596075.260000002
 20
-1154311.8
 10
-596075.739999998
 20
-1154311.55
 10
-596077.059999999
 20
-1154310.85
 10
-596077.989999998
 20
-1154299.84
 10
-596078.640000001
 20
-1154292.2
 10
-596079.289299998
 20
-1154284.5399
 10
-596079.829999998
 20
-1154278.16
 10
-596079.449999999
 20
-1154273.96
 10
-596078.989999998
 20
-1154268.98
 10
-596053.43
 20
-1154278.75
 10
-596031.199999999
 20
-1154293.41
 10
-596020.18
 20
-1154274
 10
-596055.18
 20
-1154251.93
 10
-596054.600000001
 20
-1154251.26
 10
-596047.420000002
 20
-1154242.88
 10
-596042.239999998
 20
-1154246.79
 97
0
 75
0
 76
1
 98
0
  0
HATCH
  5
20014
100
AcDbEntity
  8
0
100
AcDbHatch
 10
0
 20
0
 30
0
210
0
220
0
230
1
  2
SOLID
 70
1
 71
0
 91
1
 92
2
 72
0
 73
1
 93
57
 10
-593044.06
 20
-1158756.58
 10
-593039.06
 20
-1158761.38
 10
-593021.63
 20
-1158775.08
 10
-593015.58
 20
-1158777.85
 10
-593041.93
 20
-1158790.39
 10
-593048.99
 20
-1158793.02
 10
-593054.04
 20
-1158794.16
 10
-593075.04
 20
-1158804.75
 10
-593076.67
 20
-1158803.12
 10
-593115.03
 20
-1158781.05
 10
-593110.39
 20
-1158772.01
 10
-593124.39
 20
-1158756.86
 10
-593139.38
 20
-1158758.23
 10
-593153.87
 20
-1158724
 10
-593155.72
 20
-1158712.9
 10
-593164.66
 20
-1158710.13
 10
-593175.75
 20
-1158674.98
 10
-593182.33
 20
-1158645.75
 10
-593199.02
 20
-1158631.19
 10
-593201.13
 20
-1158627.98
 10
-593221.25
 20
-1158619.63
 10
-593244.67
 20
-1158605.14
 10
-593286.28
 20
-1158581.71
 10
-593319.27
 20
-1158566.29
 10
-593328.2
 20
-1158565.37
 10
-593367.96
 20
-1158541.93
 10
-593394.47
 20
-1158533.61
 10
-593415.43
 20
-1158519.43
 10
-593427.77
 20
-1158496.58
 10
-593437.22
 20
-1158487.79
 10
-593448.94
 20
-1158475.24
 10
-593465.59
 20
-1158461.12
 10
-593466.11
 20
-1158460.68
 10
-593487.45
 20
-1158437.54
 10
-593500.48
 20
-1158421.41
 10
-593509.11
 20
-1158415.23
 10
-593510.28
 20
-1158412.93
 10
-593508.32
 20
-1158408.53
 10
-593496.37
 20
-1158388.45
 10
-593471.41
 20
-1158408.18
 10
-593462.69
 20
-1158413.1
 10
-593444.73
 20
-1158428.12
 10
-593422.76
 20
-1158446.94
 10
-593395.15
 20
-1158467.6
 10
-593327.4
 20
-1158504.79
 10
-593260.81
 20
-1158543.74
 10
-593241.45
 20
-1158555.07
 10
-593223.15
 20
-1158565.77
 10
-593186.29
 20
-1158594.22
 10
-593169.86
 20
-1158608.33
 10
-593147.96
 20
-1158627.13
 10
-593141.14
 20
-1158633.98
 10
-593126.73
 20
-1158648.44
 10
-593110.05
 20
-1158669.52
 10
-593078.24
 20
-1158716.28
 10
-593059.74
 20
-1158740.57
 10
-593044.06
 20
-1158756.58
 97
0
 75
0
 76
1
 98
0
  0
HATCH
  5
20015
100
AcDbEntity
  8
0
100
AcDbHatch
 10
0
 20
0
 30
0
210
0
220
0
230
1
  2
SOLID
 70
1
 71
0
 91
1
 92
2
 72
0
 73
1
 93
32
 10
-605337.93
 20
-1153101.04
 10
-605320.82
 20
-1153103.74
 10
-605293.27
 20
-1153102.51
 10
-605272.26
 20
-1153103.26
 10
-605262.54
 20
-1153103.61
 10
-605249.72
 20
-1153107.1
 10
-605249.53
 20
-1153107.15
 10
-605245.91
 20
-1153110.01
 10
-605225.98
 20
-1153125.76
 10
-605216.68
 20
-1153133.1
 10
-605206.32
 20
-1153141.29
 10
-605170.3
 20
-1153181.93
 10
-605166.14
 20
-1153186.63
 10
-605157.36
 20
-1153196.53
 10
-605132.09
 20
-1153225.03
 10
-605131.87
 20
-1153225.28
 10
-605128.72
 20
-1153227.69
 10
-605112.8
 20
-1153239.83
 10
-605101.37
 20
-1153247.62
 10
-605112.83
 20
-1153279.82
 10
-605108.24
 20
-1153282
 10
-605060.65
 20
-1153304.65
 10
-605109.55
 20
-1153431.34
 10
-605421.02
 20
-1153259.55
 10
-605470.99
 20
-1153033.69
 10
-605470.67
 20
-1153033.77
 10
-605445.08
 20
-1153048.23
 10
-605401.17
 20
-1153073.03
 10
-605383.06
 20
-1153083.26
 10
-605370.83
 20
-1153088.08
 10
-605355.26
 20
-1153094.21
 10
-605337.93
 20
-1153101.04
 97
0
 75
0
 76
1
 98
0
  0
HATCH
  5
20016
100
AcDbEntity
  8
0
100
AcDbHatch
 10
0
 20
0
 30
0
210
0
220
0
230
1
  2
SOLID
 70
1
 71
0
 91
1
 92
2
 72
0
 73
1
 93
18
 10
-604233.3
 20
-1154764.65
 10
-604234.33
 20
-1154767.09
 10
-604238.43
 20
-1154770.03
 10
-604248.16
 20
-1154789.06
 10
-604257.98
 20
-1154785.65
 10
-604266.88
 20
-1154782.56
 10
-604305.4
 20
-1154765.85
 10
-604314.88
 20
-1154795.74
 10
-604317.02
 20
-1154787.38
 10
-604319.55
 20
-1154762.64
 10
-604322.08
 20
-1154737.9
 10
-604313.98
 20
-1154725.73
 10
-604310.99
 20
-1154722.36
 10
-604288.42
 20
-1154725.06
 10
-604281.92
 20
-1154730.04
 10
-604258.34
 20
-1154733.31
 10
-604222.16
 20
-1154738.33
 10
-604233.3
 20
-1154764.65
 97
0
 75
0
 76
1
 98
0
  0
HATCH
  5
20017
100
AcDbEntity
  8
0
100
AcDbHatch
 10
0
 20
0
 30
0
210
0
220
0
230
1
  2
SOLID
 70
1
 71
0
 91
1
 92
2
 72
0
 73
1
 93
96
 10
-602312.35
 20
-1160302.9
 10
-602313.56
 20
-1160431.24
 10
-602340.21
 20
-1160439.43
 10
-602412.95
 20
-1160456.11
 10
-602425.81
 20
-1160459.1
 10
-602432.36
 20
-1160460.23
 10
-602484.65
 20
-1160469.22
 10
-602497.05
 20
-1160469.66
 10
-602526.88
 20
-1160470.71
 10
-602540.05
 20
-1160474.28
 10
-602547.53
 20
-1160476.31
 10
-602558.65
 20
-1160479.32
 10
-602567.31
 20
-1160482.73
 10
-602598.61
 20
-1160495.04
 10
-602622.51
 20
-1160508.17
 10
-602624.31
 20
-1160511.06
 10
-602679.21
 20
-1160460.95
 10
-602690.34
 20
-1160471.76
 10
-602692.27
 20
-1160473.64
 10
-602700.94
 20
-1160440.02
 10
-602699.68
 20
-1160439.32
 10
-602700.83
 20
-1160436.61
 10
-602701.24
 20
-1160434.65
 10
-602701.02
 20
-1160432.61
 10
-602699.64
 20
-1160429.87
 10
-602693.82
 20
-1160422.72
 10
-602693.46
 20
-1160421.5
 10
-602691.02
 20
-1160401.66
 10
-602696.69
 20
-1160400.91
 10
-602696.63
 20
-1160400.42
 10
-602703.51
 20
-1160399.58
 10
-602704.23
 20
-1160406.62
 10
-602709.41
 20
-1160406.01
 10
-602724
 20
-1160350.55
 10
-602714.85
 20
-1160343.16
 10
-602711.91
 20
-1160341.12
 10
-602707.49
 20
-1160337.58
 10
-602694.93
 20
-1160327.11
 10
-602685.42
 20
-1160319.51
 10
-602679.37
 20
-1160313.12
 10
-602673.01
 20
-1160306.62
 10
-602666.94
 20
-1160300.28
 10
-602663.33
 20
-1160294.11
 10
-602659.42
 20
-1160287.3
 10
-602655.71
 20
-1160281.42
 10
-602651.52
 20
-1160274.44
 10
-602650.34
 20
-1160266.42
 10
-602649.05
 20
-1160258.37
 10
-602648.6
 20
-1160255.01
 10
-602648.06
 20
-1160251
 10
-602647.75
 20
-1160246.07
 10
-602646.83
 20
-1160237.84
 10
-602646.28
 20
-1160229.95
 10
-602645.54
 20
-1160225.81
 10
-602645.49
 20
-1160223.48
 10
-602642.5
 20
-1160212.14
 10
-602637.17
 20
-1160202.4
 10
-602634.83
 20
-1160197.82
 10
-602631.24
 20
-1160193.19
 10
-602623.72
 20
-1160186.46
 10
-602612.98
 20
-1160181.16
 10
-602603.46
 20
-1160175.42
 10
-602594.61
 20
-1160170.8
 10
-602584.08
 20
-1160164.86
 10
-602575.05
 20
-1160159.68
 10
-602565.2
 20
-1160153.81
 10
-602556.27
 20
-1160147.74
 10
-602546.99
 20
-1160141.78
 10
-602537.72
 20
-1160136.81
 10
-602528.67
 20
-1160132.05
 10
-602517.8
 20
-1160126.18
 10
-602497.96
 20
-1160116.02
 10
-602489.35
 20
-1160113.05
 10
-602480.64
 20
-1160109.92
 10
-602480.27
 20
-1160121.89
 10
-602481.57
 20
-1160124.65
 10
-602482.33
 20
-1160127.12
 10
-602482.91
 20
-1160129.52
 10
-602483.04
 20
-1160131.81
 10
-602482.92
 20
-1160134.14
 10
-602482.45
 20
-1160136.34
 10
-602481.7
 20
-1160138.41
 10
-602480.15
 20
-1160140.92
 10
-602477.5
 20
-1160144.09
 10
-602472.71
 20
-1160149.18
 10
-602454.98
 20
-1160166.89
 10
-602445.19
 20
-1160176.66
 10
-602430.17
 20
-1160191.55
 10
-602406.52
 20
-1160212.98
 10
-602394.99
 20
-1160223.69
 10
-602375.59
 20
-1160242.03
 10
-602361.83
 20
-1160255.03
 10
-602346.63
 20
-1160269.86
 10
-602333.35
 20
-1160283.22
 10
-602323.15
 20
-1160293.66
 10
-602312.35
 20
-1160302.9
 97
0
 75
0
 76
1
 98
0
  0
HATCH
  5
20018
100
AcDbEntity
  8
0
100
AcDbHatch
 10
0
 20
0
 30
0
210
0
220
0
230
1
  2
SOLID
 70
1
 71
0
 91
1
 92
2
 72
0
 73
1
 93
45
 10
-602940.34
 20
-1161445.96
 10
-602944.59
 20
-1161450.75
 10
-602950.34
 20
-1161446.72
 10
-602960.52
 20
-1161439.59
 10
-602961.63
 20
-1161438.86
 10
-602967.75
 20
-1161434.77
 10
-602974.61
 20
-1161430.19
 10
-602981
 20
-1161425.93
 10
-602986.25
 20
-1161422.43
 10
-602987.13
 20
-1161421.86
 10
-602998.58
 20
-1161414.45
 10
-603004.97
 20
-1161410.31
 10
-603012.08
 20
-1161405.72
 10
-603018.85
 20
-1161401.14
 10
-603026.82
 20
-1161395.75
 10
-603032.42
 20
-1161391.97
 10
-603038.2
 20
-1161388.06
 10
-603045.2
 20
-1161382.47
 10
-603058.38
 20
-1161371.97
 10
-603061.83
 20
-1161369.22
 10
-603071.45
 20
-1161360.02
 10
-603079.89
 20
-1161351.94
 10
-603084.44
 20
-1161347.6
 10
-603100.63
 20
-1161328.66
 10
-603106.11
 20
-1161320.03
 10
-603107.18
 20
-1161313.01
 10
-603104.3
 20
-1161305.92
 10
-603088.49
 20
-1161306.64
 10
-603034.51
 20
-1161331.15
 10
-602980.67
 20
-1161352.04
 10
-602983.6
 20
-1161357.32
 10
-602960
 20
-1161369.91
 10
-602948.97
 20
-1161378.01
 10
-602951.93
 20
-1161391.16
 10
-602952.11
 20
-1161391.94
 10
-602951.06
 20
-1161392.43
 10
-602950.16
 20
-1161392.85
 10
-602950.89
 20
-1161399.02
 10
-602946.58
 20
-1161401.68
 10
-602946.58
 20
-1161401.68
 10
-602955.86
 20
-1161424.47
 10
-602955.59
 20
-1161424.84
 10
-602946.5
 20
-1161437.44
 10
-602941.36
 20
-1161444.45
 10
-602940.34
 20
-1161445.96
 97
0
 75
0
 76
1
 98
0
  0
HATCH
  5
20019
100
AcDbEntity
  8
0
100
AcDbHatch
 10
0
 20
0
 30
0
210
0
220
0
230
1
  2
SOLID
 70
1
 71
0
 91
1
 92
2
 72
0
 73
1
 93
21
 10
-604085.32
 20
-1159919.9
 10
-604111.24
 20
-1159924.52
 10
-604115.28
 20
-1159935.31
 10
-604121.11
 20
-1159952.98
 10
-604136.26
 20
-1159960.95
 10
-604165.98
 20
-1159962.52
 10
-604180.26
 20
-1159965.26
 10
-604184.67
 20
-1159965.74
 10
-604194.09
 20
-1159955.97
 10
-604207.17
 20
-1159951.42
 10
-604206.65
 20
-1159950.48
 10
-604203.01
 20
-1159926.48
 10
-604200.94
 20
-1159916.01
 10
-604198.23
 20
-1159907.92
 10
-604190.36
 20
-1159895.4
 10
-604180.25
 20
-1159890.67
 10
-604168.74
 20
-1159887.87
 10
-604146.71
 20
-1159893.95
 10
-604127.64
 20
-1159899.21
 10
-604083.3
 20
-1159913.44
 10
-604085.32
 20
-1159919.9
 97
0
 75
0
 76
1
 98
0
  0
HATCH
  5
2001A
100
AcDbEntity
  8
0
100
AcDbHatch
 10
0
 20
0
 30
0
210
0
220
0
230
1
  2
SOLID
 70
1
 71
0
 91
1
 92
2
 72
0
 73
1
 93
38
 10
-603572.56
 20
-1162010.28
 10
-603591.39
 20
-1162047.75
 10
-603597.66
 20
-1162044.65
 10
-603610.6
 20
-1162038.14
 10
-603612.7
 20
-1162038.37
 10
-603610.28
 20
-1162032.16
 10
-603613.17
 20
-1162030.95
 10
-603615.56
 20
-1162037.28
 10
-603624.61
 20
-1162033.5
 10
-603625.55
 20
-1162029.77
 10
-603626.08
 20
-1162010.13
 10
-603642.31
 20
-1161995.32
 10
-603653.27
 20
-1161994.98
 10
-603667.4
 20
-1162005.66
 10
-603667.73
 20
-1162005.4
 10
-603662.6
 20
-1161999.31
 10
-603600.3
 20
-1161911.02
 10
-603580.92
 20
-1161921.92
 10
-603575.53
 20
-1161924.96
 10
-603558.94
 20
-1161933.44
 10
-603550.12
 20
-1161938.12
 10
-603543
 20
-1161941.9
 10
-603538.28
 20
-1161944.41
 10
-603530.91
 20
-1161948.33
 10
-603538.01
 20
-1161956.86
 10
-603541.48
 20
-1161961.03
 10
-603544.09
 20
-1161964.16
 10
-603545.85
 20
-1161966.27
 10
-603548.28
 20
-1161969.2
 10
-603550.68
 20
-1161972.09
 10
-603551.09
 20
-1161972.7
 10
-603552.78
 20
-1161975.22
 10
-603555.24
 20
-1161978.88
 10
-603556.34
 20
-1161980.53
 10
-603557.05
 20
-1161981.58
 10
-603561.6
 20
-1161988.35
 10
-603562.78
 20
-1161990.72
 10
-603572.56
 20
-1162010.28
 97
0
 75
0
 76
1
 98
0
  0
HATCH
  5
2001B
100
AcDbEntity
  8
0
100
AcDbHatch
 10
0
 20
0
 30
0
210
0
220
0
230
1
  2
SOLID
 70
1
 71
0
 91
1
 92
2
 72
0
 73
1
 93
63
 10
-599814.2
 20
-1162729.35
 10
-599814.1
 20
-1162736.05
 10
-599808.54
 20
-1162734.21
 10
-599808.49
 20
-1162734.42
 10
-599806.59
 20
-1162741.84
 10
-599806.5
 20
-1162742.18
 10
-599806.96
 20
-1162742.51
 10
-599807.07
 20
-1162742.72
 10
-599801
 20
-1162763.4
 10
-599793.04
 20
-1162794.58
 10
-599806.95
 20
-1162802.57
 10
-599813.36
 20
-1162806.26
 10
-599803.42
 20
-1162828.39
 10
-599802.21
 20
-1162831.09
 10
-599799.01
 20
-1162838.22
 10
-599802.34
 20
-1162855.09
 10
-599805.85
 20
-1162857.97
 10
-599811.15
 20
-1162861.95
 10
-599806.7
 20
-1162865.23
 10
-599804.64
 20
-1162866.74
 10
-599813.31
 20
-1162910.68
 10
-599813.51
 20
-1162910.9
 10
-599825.25
 20
-1162931.16
 10
-599844.99
 20
-1162956.94
 10
-599854.56
 20
-1162971.17
 10
-599877.77
 20
-1162985.86
 10
-599891.57
 20
-1162985.3
 10
-599904.3
 20
-1162938.22
 10
-599898.88
 20
-1162910.89
 10
-599987.85
 20
-1162884.16
 10
-599996.36
 20
-1162914.29
 10
-599999.32
 20
-1162912.65
 10
-600009.07
 20
-1162907.3
 10
-600019.94
 20
-1162901.35
 10
-600060.61
 20
-1162879.01
 10
-600068.44
 20
-1162814.92
 10
-600070.2
 20
-1162801.12
 10
-600072.58
 20
-1162781.03
 10
-600074.18
 20
-1162767.5
 10
-600076.28
 20
-1162739.84
 10
-600077.09
 20
-1162729.68
 10
-600078.34
 20
-1162713.93
 10
-600079.32
 20
-1162701.54
 10
-600080.6
 20
-1162685.38
 10
-600081.83
 20
-1162669.8
 10
-600082.9
 20
-1162656.38
 10
-600083.23
 20
-1162652.19
 10
-600079
 20
-1162651.1
 10
-600066.01
 20
-1162647.71
 10
-600052.27
 20
-1162644.12
 10
-600038.06
 20
-1162640.39
 10
-600033.8
 20
-1162639.28
 10
-600020.27
 20
-1162631.45
 10
-600013.2
 20
-1162615.06
 10
-600011.26
 20
-1162594.74
 10
-599931.76
 20
-1162571.17
 10
-599920.48
 20
-1162548.2
 10
-599862.01
 20
-1162531.17
 10
-599855.57
 20
-1162548.77
 10
-599842.77
 20
-1162578.87
 10
-599809.01
 20
-1162666.73
 10
-599813.61
 20
-1162668.37
 10
-599814.2
 20
-1162729.35
 97
0
 75
0
 76
1
 98
0
  0
HATCH
  5
2001C
100
AcDbEntity
  8
0
100
AcDbHatch
 10
0
 20
0
 30
0
210
0
220
0
230
1
  2
SOLID
 70
1
 71
0
 91
1
 92
2
 72
0
 73
1
 93
115
 10
-604268.73
 20
-1154615.78
 10
-604268.22
 20
-1154611.63
 10
-604263.95
 20
-1154599.1
 10
-604261.37
 20
-1154578.8
 10
-604256.85
 20
-1154559.33
 10
-604256.23
 20
-1154545.8
 10
-604254.19
 20
-1154529.17
 10
-604254.4
 20
-1154520.13
 10
-604253.83
 20
-1154515.71
 10
-604253.51
 20
-1154513.19
 10
-604252.58
 20
-1154500.89
 10
-604252.13
 20
-1154494.89
 10
-604251.56
 20
-1154482.6
 10
-604251.3
 20
-1154477.14
 10
-604257.39
 20
-1154467.97
 10
-604259.06
 20
-1154465.48
 10
-604260.63
 20
-1154458.08
 10
-604260.99
 20
-1154454.56
 10
-604262.17
 20
-1154443.25
 10
-604263.66
 20
-1154437.82
 10
-604267.02
 20
-1154425.63
 10
-604268.68
 20
-1154421.42
 10
-604272.35
 20
-1154412.09
 10
-604273.71
 20
-1154408.5
 10
-604278.44
 20
-1154395.91
 10
-604280.72
 20
-1154389.86
 10
-604284.34
 20
-1154386.13
 10
-604288.21
 20
-1154382.16
 10
-604289.03
 20
-1154380.71
 10
-604291.97
 20
-1154375.49
 10
-604296.05
 20
-1154368.25
 10
-604298.91
 20
-1154363.16
 10
-604304.73
 20
-1154356.16
 10
-604307.23
 20
-1154353.15
 10
-604309.2
 20
-1154350.78
 10
-604291.37
 20
-1154314.53
 10
-604291.8
 20
-1154313.45
 10
-604293.55
 20
-1154308.98
 10
-604294.4
 20
-1154306.99
 10
-604297.03
 20
-1154301.45
 10
-604302.22
 20
-1154290.54
 10
-604303.37
 20
-1154289.73
 10
-604303.75
 20
-1154289.47
 10
-604308.46
 20
-1154286.16
 10
-604312.65
 20
-1154283.23
 10
-604313.57
 20
-1154280.57
 10
-604314.62
 20
-1154277.54
 10
-604308.8
 20
-1154263.08
 10
-604300.54
 20
-1154246.64
 10
-604300.24
 20
-1154246.03
 10
-604297.36
 20
-1154237.27
 10
-604295.68
 20
-1154232.13
 10
-604294.95
 20
-1154229.03
 10
-604290.63
 20
-1154210.66
 10
-604284.03
 20
-1154200
 10
-604277.82
 20
-1154197.91
 10
-604274.18
 20
-1154196.69
 10
-604272.67
 20
-1154202.16
 10
-604270.86
 20
-1154209.15
 10
-604270.9
 20
-1154211.44
 10
-604271.02
 20
-1154218.04
 10
-604271.14
 20
-1154224.52
 10
-604271.24
 20
-1154229.86
 10
-604277.33
 20
-1154247.03
 10
-604282.01
 20
-1154259.66
 10
-604283.14
 20
-1154265.29
 10
-604283.2
 20
-1154271.09
 10
-604282.13
 20
-1154276.74
 10
-604280.08
 20
-1154283.95
 10
-604278.75
 20
-1154288.65
 10
-604277.71
 20
-1154290.67
 10
-604274.29
 20
-1154297.85
 10
-604270.57
 20
-1154302.37
 10
-604266.76
 20
-1154307.51
 10
-604264.5
 20
-1154310.69
 10
-604263.07
 20
-1154313.43
 10
-604261.71
 20
-1154316.48
 10
-604260.81
 20
-1154321.8
 10
-604259.11
 20
-1154331.85
 10
-604256.51
 20
-1154346.31
 10
-604255.8
 20
-1154347.72
 10
-604251.89
 20
-1154354.62
 10
-604248.45
 20
-1154358.34
 10
-604239.94
 20
-1154366.27
 10
-604237.88
 20
-1154368.17
 10
-604233.14
 20
-1154373.16
 10
-604231.41
 20
-1154376.25
 10
-604229.4
 20
-1154379.23
 10
-604227.01
 20
-1154385.4
 10
-604225.72
 20
-1154391.66
 10
-604222.76
 20
-1154406.66
 10
-604220.55
 20
-1154414.56
 10
-604217.01
 20
-1154421.61
 10
-604215.8
 20
-1154423.32
 10
-604212.26
 20
-1154428.77
 10
-604207.74
 20
-1154434.32
 10
-604204.85
 20
-1154438.27
 10
-604203.24
 20
-1154439.52
 10
-604199.76
 20
-1154442.42
 10
-604200.23
 20
-1154444.45
 10
-604205.08
 20
-1154465.79
 10
-604213.9
 20
-1154496.32
 10
-604224.48
 20
-1154531.88
 10
-604228.89
 20
-1154553.98
 10
-604235.56
 20
-1154582.19
 10
-604245.11
 20
-1154623.06
 10
-604242.84
 20
-1154630.16
 10
-604254.04
 20
-1154645.77
 10
-604255.2
 20
-1154647.38
 10
-604263.42
 20
-1154645.95
 10
-604261.88
 20
-1154640.91
 10
-604261.66
 20
-1154639.07
 10
-604259.87
 20
-1154624.04
 10
-604259.37
 20
-1154619.86
 10
-604268.73
 20
-1154615.78
 97
0
 75
0
 76
1
 98
0
  0
HATCH
  5
2001D
100
AcDbEntity
  8
0
100
AcDbHatch
 10
0
 20
0
 30
0
210
0
220
0
230
1
  2
SOLID
 70
1
 71
0
 91
1
 92
2
 72
0
 73
1
 93
135
 10
-594505.77
 20
-1168940.2
 10
-594506.27
 20
-1168949.17
 10
-594511.04
 20
-1168960.27
 10
-594512.75
 20
-1168964.25
 10
-594513.09
 20
-1168968.4
 10
-594513.37
 20
-1168971.75
 10
-594514.96
 20
-1168990.48
 10
-594544.83
 20
-1168991.88
 10
-594555.85
 20
-1168992.4
 10
-594559.56
 20
-1168992.58
 10
-594563.67
 20
-1168993.28
 10
-594571.12
 20
-1168994.55
 10
-594581.17
 20
-1168996.27
 10
-594582.93
 20
-1168996.57
 10
-594596.26
 20
-1169004.02
 10
-594599.63
 20
-1169005.9
 10
-594605.33
 20
-1169009.09
 10
-594608.03
 20
-1169010.6
 10
-594612.27
 20
-1169012.97
 10
-594617.16
 20
-1169015.69
 10
-594621.19
 20
-1169017.95
 10
-594621.55
 20
-1169018.15
 10
-594623.53
 20
-1169019.25
 10
-594632.93
 20
-1169024.51
 10
-594633.1
 20
-1169024.66
 10
-594643.05
 20
-1169033.7
 10
-594661.63
 20
-1169050.6
 10
-594662.13
 20
-1169051.05
 10
-594665.78
 20
-1169055.14
 10
-594668.55
 20
-1169058.25
 10
-594682.48
 20
-1169073.88
 10
-594684.54
 20
-1169087.24
 10
-594685.11
 20
-1169090.94
 10
-594684.7
 20
-1169110.52
 10
-594690.35
 20
-1169110.52
 10
-594697.46
 20
-1169108.26
 10
-594709.19
 20
-1169104.54
 10
-594717.8
 20
-1169101.81
 10
-594722.22
 20
-1169100.41
 10
-594726.35
 20
-1169118.26
 10
-594729.13
 20
-1169119.61
 10
-594743.9
 20
-1169117.95
 10
-594744.58
 20
-1169117.87
 10
-594745.24
 20
-1169117.92
 10
-594759.93
 20
-1169119.11
 10
-594769.96
 20
-1169119.92
 10
-594785.21
 20
-1169122.03
 10
-594813.94
 20
-1169127.35
 10
-594834.51
 20
-1169130.14
 10
-594847.58
 20
-1169130.5
 10
-594867.21
 20
-1169129.03
 10
-594878.89
 20
-1169126.3
 10
-594879.51
 20
-1169126.16
 10
-594893.72
 20
-1169121.24
 10
-594939.78
 20
-1169103.67
 10
-594963.99
 20
-1169094.92
 10
-595003.31
 20
-1169080.68
 10
-595031.88
 20
-1169069.84
 10
-595040.39
 20
-1169066.84
 10
-595044.28
 20
-1169064.77
 10
-595047.84
 20
-1169061.31
 10
-595050.59
 20
-1169056.84
 10
-595050.38
 20
-1169054.67
 10
-595048.4
 20
-1169047.02
 10
-595048.37
 20
-1169046.9
 10
-595051.45
 20
-1169045.3
 10
-595053.71
 20
-1169044.12
 10
-595059.26
 20
-1169042.53
 10
-595059.35
 20
-1169042.5
 10
-595054.49
 20
-1169038.72
 10
-595054.47
 20
-1169038.73
 10
-595052.42
 20
-1169039.49
 10
-595049.82
 20
-1169040.13
 10
-595046.81
 20
-1169040.87
 10
-595046.57
 20
-1169040.26
 10
-595041.72
 20
-1169027.65
 10
-595040.84
 20
-1169025.39
 10
-595037.76
 20
-1169022.1
 10
-595034.83
 20
-1169018.97
 10
-595030.96
 20
-1169020.97
 10
-595023.39
 20
-1169024.89
 10
-595010.46
 20
-1169029.13
 10
-594999.99
 20
-1169032.56
 10
-594912.12
 20
-1169061.22
 10
-594871.86
 20
-1169073.98
 10
-594851.86
 20
-1169080.29
 10
-594814.91
 20
-1169091.42
 10
-594797.71
 20
-1169096.6
 10
-594762.38
 20
-1169107.39
 10
-594759.46
 20
-1169105.53
 10
-594754.64
 20
-1169101.81
 10
-594754.2
 20
-1169100.02
 10
-594753.78
 20
-1169098.36
 10
-594751.98
 20
-1169090.91
 10
-594750.68
 20
-1169091.33
 10
-594750.7
 20
-1169089.51
 10
-594750.72
 20
-1169087.05
 10
-594750.93
 20
-1169063.43
 10
-594736.43
 20
-1169058.96
 10
-594732.91
 20
-1169057.87
 10
-594726.75
 20
-1169055.97
 10
-594724.21
 20
-1169055.19
 10
-594718.25
 20
-1169050.57
 10
-594716.58
 20
-1169049.28
 10
-594709.72
 20
-1169043.96
 10
-594698.1
 20
-1169034.96
 10
-594695.97
 20
-1169033.31
 10
-594689.64
 20
-1169028.41
 10
-594669.03
 20
-1169012.43
 10
-594643.31
 20
-1168992.51
 10
-594643.21
 20
-1168992.43
 10
-594643.02
 20
-1168992.28
 10
-594633.39
 20
-1168984.82
 10
-594632.51
 20
-1168984.14
 10
-594625.04
 20
-1168970.39
 10
-594622.34
 20
-1168954.24
 10
-594623.44
 20
-1168946.58
 10
-594621.57
 20
-1168946.09
 10
-594617.69
 20
-1168944.07
 10
-594612.76
 20
-1168941.51
 10
-594612.04
 20
-1168941.13
 10
-594608.49
 20
-1168941.03
 10
-594605.78
 20
-1168940.95
 10
-594593.01
 20
-1168940.57
 10
-594579.85
 20
-1168940.41
 10
-594575.37
 20
-1168940.36
 10
-594569.84
 20
-1168940.3
 10
-594566.03
 20
-1168940.25
 10
-594562.43
 20
-1168940.27
 10
-594554.68
 20
-1168940.31
 10
-594545.81
 20
-1168940.35
 10
-594543.67
 20
-1168940.34
 10
-594510.74
 20
-1168940.22
 10
-594505.98
 20
-1168940.2
 10
-594505.77
 20
-1168940.2
 97
0
 75
0
 76
1
 98
0
  0
HATCH
  5
2001E
100
AcDbEntity
  8
0
100
AcDbHatch
 10
0
 20
0
 30
0
210
0
220
0
230
1
  2
SOLID
 70
1
 71
0
 91
1
 92
2
 72
0
 73
1
 93
41
 10
-596394.96
 20
-1169174.88
 10
-596393.53
 20
-1169176.06
 10
-596371.89
 20
-1169157.99
 10
-596357.42
 20
-1169185.96
 10
-596341.2
 20
-1169241.69
 10
-596350.35
 20
-1169248.68
 10
-596401.41
 20
-1169259.05
 10
-596489.09
 20
-1169295.51
 10
-596493.25
 20
-1169296.08
 10
-596494.41
 20
-1169293.24
 10
-596496.55
 20
-1169288.01
 10
-596503.15
 20
-1169294.55
 10
-596510.59
 20
-1169301.91
 10
-596513.61
 20
-1169288.74
 10
-596509.62
 20
-1169280.86
 10
-596500.56
 20
-1169252.7
 10
-596489.57
 20
-1169218.47
 10
-596489.42
 20
-1169218.17
 10
-596462.62
 20
-1169163.26
 10
-596456.77
 20
-1169151.27
 10
-596449.49
 20
-1169136.35
 10
-596450.3
 20
-1169135.79
 10
-596441.78
 20
-1169116.53
 10
-596431.46
 20
-1169096.77
 10
-596423.94
 20
-1169085.34
 10
-596419.75
 20
-1169078.97
 10
-596416.58
 20
-1169075.29
 10
-596406.45
 20
-1169057.17
 10
-596402.04
 20
-1169043.27
 10
-596399.03
 20
-1169043.63
 10
-596400.06
 20
-1169048.13
 10
-596402.36
 20
-1169058.17
 10
-596407.15
 20
-1169079.02
 10
-596403.64
 20
-1169093.92
 10
-596394.17
 20
-1169134.05
 10
-596393
 20
-1169139
 10
-596393.04
 20
-1169139.15
 10
-596397.5
 20
-1169153.93
 10
-596408.51
 20
-1169163.75
 10
-596408.41
 20
-1169163.83
 10
-596394.96
 20
-1169174.88
 97
0
 75
0
 76
1
 98
0
  0
HATCH
  5
2001F
100
AcDbEntity
  8
0
100
AcDbHatch
 10
0
 20
0
 30
0
210
0
220
0
230
1
  2
SOLID
 70
1
 71
0
 91
1
 92
2
 72
0
 73
1
 93
55
 10
-593182.19
 20
-1167892.14
 10
-593275.7
 20
-1167991.52
 10
-593283.95
 20
-1167981.15
 10
-593285.09
 20
-1167985.32
 10
-593296.71
 20
-1167995.71
 10
-593320.69
 20
-1168017.75
 10
-593326.4
 20
-1168023
 10
-593333.13
 20
-1168029.75
 10
-593351.58
 20
-1168048.24
 10
-593353.06
 20
-1168049.92
 10
-593363.59
 20
-1168061.92
 10
-593374.29
 20
-1168074.1
 10
-593378.46
 20
-1168079.14
 10
-593393.83
 20
-1168097.74
 10
-593404.53
 20
-1168121.62
 10
-593405.37
 20
-1168123.49
 10
-593415.74
 20
-1168152.72
 10
-593427.12
 20
-1168186.43
 10
-593428.06
 20
-1168189.99
 10
-593436.69
 20
-1168222.77
 10
-593440.48
 20
-1168250.41
 10
-593443.46
 20
-1168311.33
 10
-593486.11
 20
-1168266.61
 10
-593489.78
 20
-1168262.76
 10
-593504.15
 20
-1168247.69
 10
-593529
 20
-1168214.31
 10
-593554.95
 20
-1168180.03
 10
-593558.33
 20
-1168175.58
 10
-593525.45
 20
-1168147.18
 10
-593517.45
 20
-1168140.27
 10
-593512.2
 20
-1168135.73
 10
-593504.51
 20
-1168129.09
 10
-593495.98
 20
-1168121.72
 10
-593465.92
 20
-1168095.76
 10
-593443.76
 20
-1168076.62
 10
-593431
 20
-1168065.6
 10
-593424.88
 20
-1168060.31
 10
-593415.26
 20
-1168052
 10
-593404.23
 20
-1168042.47
 10
-593397.22
 20
-1168036.42
 10
-593379.68
 20
-1168021.27
 10
-593368.93
 20
-1168011.99
 10
-593352.07
 20
-1167997.42
 10
-593329.31
 20
-1167977.77
 10
-593323.01
 20
-1167972.32
 10
-593320.68
 20
-1167967.78
 10
-593316.2
 20
-1167959.09
 10
-593315.09
 20
-1167948.6
 10
-593314.77
 20
-1167945.61
 10
-593332.79
 20
-1167921.41
 10
-593330.06
 20
-1167919.21
 10
-593233.64
 20
-1167840.68
 10
-593208.38
 20
-1167858.44
 10
-593193.67
 20
-1167875.91
 10
-593182.19
 20
-1167892.14
 97
0
 75
0
 76
1
 98
0
  0
HATCH
  5
20020
100
AcDbEntity
  8
0
100
AcDbHatch
 10
0
 20
0
 30
0
210
0
220
0
230
1
  2
SOLID
 70
1
 71
0
 91
1
 92
2
 72
0
 73
1
 93
25
 10
-602285.24
 20
-1155822.04
 10
-602264.13
 20
-1155816.5
 10
-602260.66
 20
-1155830.16
 10
-602264.42
 20
-1155830.91
 10
-602262.19
 20
-1155837.6
 10
-602355.25
 20
-1155890.02
 10
-602363.93
 20
-1155851.99
 10
-602374.15
 20
-1155855.87
 10
-602382.25
 20
-1155819.85
 10
-602384.53
 20
-1155811.9
 10
-602385.34
 20
-1155809.6
 10
-602380.92
 20
-1155762.57
 10
-602393.36
 20
-1155722.31
 10
-602363.27
 20
-1155710.26
 10
-602329.63
 20
-1155703.63
 10
-602325.89
 20
-1155714.19
 10
-602322.54
 20
-1155723.65
 10
-602315.18
 20
-1155744.46
 10
-602313.71
 20
-1155748.62
 10
-602312.32
 20
-1155752.6
 10
-602306.98
 20
-1155767.72
 10
-602305.17
 20
-1155773.01
 10
-602300.18
 20
-1155785.25
 10
-602292.32
 20
-1155804.52
 10
-602285.24
 20
-1155822.04
 97
0
 75
0
 76
1
 98
0
  0
HATCH
  5
20021
100
AcDbEntity
  8
0
100
AcDbHatch
 10
0
 20
0
 30
0
210
0
220
0
230
1
  2
SOLID
 70
1
 71
0
 91
1
 92
2
 72
0
 73
1
 93
7
 10
-595240.1
 20
-1166728.14
 10
-595219.88
 20
-1166749.39
 10
-595233.14
 20
-1166761.76
 10
-595266.02
 20
-1166725.38
 10
-595259.98
 20
-1166720.5
 10
-595251.96
 20
-1166714.13
 10
-595240.1
 20
-1166728.14
 97
0
 75
0
 76
1
 98
0
  0
HATCH
  5
20022
100
AcDbEntity
  8
0
100
AcDbHatch
 10
0
 20
0
 30
0
210
0
220
0
230
1
  2
SOLID
 70
1
 71
0
 91
1
 92
2
 72
0
 73
1
 93
26
 10
-605199.3
 20
-1152544.86
 10
-605126.56
 20
-1152616.92
 10
-605124.03
 20
-1152619.43
 10
-605119.46
 20
-1152624.5
 10
-605093.31
 20
-1152653.48
 10
-605132.31
 20
-1152689.05
 10
-605166.54
 20
-1152668.02
 10
-605171.27
 20
-1152665.11
 10
-605198.8
 20
-1152648.19
 10
-605255.12
 20
-1152614.42
 10
-605258.41
 20
-1152602.9
 10
-605262.81
 20
-1152587.83
 10
-605276.01
 20
-1152573.07
 10
-605295.55
 20
-1152563.82
 10
-605313.86
 20
-1152558.61
 10
-605329.01
 20
-1152559.07
 10
-605378.05
 20
-1152511.29
 10
-605392.53
 20
-1152498.02
 10
-605535.62
 20
-1152366.9
 10
-605534.29
 20
-1152327.54
 10
-605534.11
 20
-1152322.29
 10
-605526.41
 20
-1152322.92
 10
-605479.48
 20
-1152326.77
 10
-605398.06
 20
-1152397.04
 10
-605316.69
 20
-1152465.6
 10
-605199.3
 20
-1152544.86
 97
0
 75
0
 76
1
 98
0
  0
HATCH
  5
20023
100
AcDbEntity
  8
0
100
AcDbHatch
 10
0
 20
0
 30
0
210
0
220
0
230
1
  2
SOLID
 70
1
 71
0
 91
1
 92
2
 72
0
 73
1
 93
25
 10
-598147.83
 20
-1161303.65
 10
-598168.16
 20
-1161311.9
 10
-598178.71
 20
-1161316.1
 10
-598181.58
 20
-1161316.62
 10
-598184.57
 20
-1161317.16
 10
-598188.34
 20
-1161317.38
 10
-598196.83
 20
-1161315.1
 10
-598206.42
 20
-1161310.76
 10
-598206.15
 20
-1161310.23
 10
-598205.82
 20
-1161309.44
 10
-598205.33
 20
-1161309.72
 10
-598204.39
 20
-1161310.16
 10
-598204.17
 20
-1161308.07
 10
-598193.99
 20
-1161308.57
 10
-598187.27
 20
-1161308.93
 10
-598178.48
 20
-1161308.74
 10
-598172.38
 20
-1161307.68
 10
-598165.11
 20
-1161304.34
 10
-598158.65
 20
-1161298.8
 10
-598150.87
 20
-1161292.97
 10
-598148.06
 20
-1161295.93
 10
-598146.74
 20
-1161300.23
 10
-598146.73
 20
-1161301.69
 10
-598146.95
 20
-1161302.37
 10
-598147.83
 20
-1161303.65
 97
0
 75
0
 76
1
 98
0
  0
HATCH
  5
20024
100
AcDbEntity
  8
0
100
AcDbHatch
 10
0
 20
0
 30
0
210
0
220
0
230
1
  2
SOLID
 70
1
 71
0
 91
1
 92
2
 72
0
 73
1
 93
11
 10
-607931.44
 20
-1151911.64
 10
-607932.79
 20
-1151923.71
 10
-607937.78
 20
-1151947.83
 10
-607936.16
 20
-1151959.24
 10
-607929.94
 20
-1151965.93
 10
-607922.03
 20
-1151971.06
 10
-607904.05
 20
-1151977.82
 10
-607895.33
 20
-1151983
 10
-607891.35
 20
-1151967.29
 10
-607923.86
 20
-1151913.91
 10
-607931.44
 20
-1151911.64
 97
0
 75
0
 76
1
 98
0
  0
HATCH
  5
20025
100
AcDbEntity
  8
0
100
AcDbHatch
 10
0
 20
0
 30
0
210
0
220
0
230
1
  2
SOLID
 70
1
 71
0
 91
1
 92
2
 72
0
 73
1
 93
38
 10
-593845.69
 20
-1157970.18
 10
-593841.99
 20
-1157973.39
 10
-593841.35
 20
-1157973.94
 10
-593835.88
 20
-1157978.68
 10
-593829.7
 20
-1157982
 10
-593844.54
 20
-1158016.57
 10
-593844.83
 20
-1158016.46
 10
-593870.17
 20
-1158006.83
 10
-593873.84
 20
-1158006.99
 10
-593888.39
 20
-1158005.88
 10
-593889.96
 20
-1158006.09
 10
-593909.1
 20
-1158008.68
 10
-593917.83
 20
-1158006.38
 10
-593916.02
 20
-1158001.95
 10
-593914.45
 20
-1157998.14
 10
-593912.77
 20
-1157993.98
 10
-593911.43
 20
-1157990.53
 10
-593908.88
 20
-1157982.82
 10
-593911.28
 20
-1157977.33
 10
-593913.55
 20
-1157972.29
 10
-593946.22
 20
-1157973.33
 10
-593946.12
 20
-1157963.89
 10
-593946.45
 20
-1157959.4
 10
-593946.18
 20
-1157954.63
 10
-593946.09
 20
-1157945.74
 10
-593945.73
 20
-1157932.24
 10
-593945.53
 20
-1157928.14
 10
-593920.64
 20
-1157918.31
 10
-593888.74
 20
-1157914.48
 10
-593887.46
 20
-1157914.32
 10
-593887.2
 20
-1157914.29
 10
-593887.02
 20
-1157914.27
 10
-593884.74
 20
-1157918.09
 10
-593868.76
 20
-1157937.49
 10
-593865.86
 20
-1157941.81
 10
-593865.42
 20
-1157942.47
 10
-593860.91
 20
-1157948.81
 10
-593845.69
 20
-1157970.18
 97
0
 75
0
 76
1
 98
0
  0
HATCH
  5
20026
100
AcDbEntity
  8
0
100
AcDbHatch
 10
0
 20
0
 30
0
210
0
220
0
230
1
  2
SOLID
 70
1
 71
0
 91
1
 92
2
 72
0
 73
1
 93
26
 10
-603384.46
 20
-1161631.3
 10
-603385.81
 20
-1161638.38
 10
-603387.27
 20
-1161646.13
 10
-603388.03
 20
-1161650.11
 10
-603389.76
 20
-1161659.22
 10
-603391.36
 20
-1161667.66
 10
-603466.64
 20
-1161637.22
 10
-603475.53
 20
-1161645.5
 10
-603472.32
 20
-1161636.18
 10
-603471.02
 20
-1161631.75
 10
-603466.13
 20
-1161615.11
 10
-603463.11
 20
-1161604.85
 10
-603460.96
 20
-1161598.41
 10
-603455.52
 20
-1161582.13
 10
-603451.01
 20
-1161568.62
 10
-603444.13
 20
-1161570.14
 10
-603441.84
 20
-1161575.02
 10
-603440.64
 20
-1161580.46
 10
-603442.02
 20
-1161585.49
 10
-603426.7
 20
-1161589.99
 10
-603406.33
 20
-1161595.98
 10
-603379.14
 20
-1161603.25
 10
-603380.53
 20
-1161610.57
 10
-603381.28
 20
-1161614.54
 10
-603383.59
 20
-1161626.71
 10
-603384.46
 20
-1161631.3
 97
0
 75
0
 76
1
 98
0
  0
HATCH
  5
20027
100
AcDbEntity
  8
0
100
AcDbHatch
 10
0
 20
0
 30
0
210
0
220
0
230
1
  2
SOLID
 70
1
 71
0
 91
1
 92
2
 72
0
 73
1
 93
17
 10
-601222.370000001
 20
-1156527.83
 10
-601256
 20
-1156528.26
 10
-601288.359999999
 20
-1156526.78
 10
-601327.690000001
 20
-1156526.14
 10
-601327.414000001
 20
-1156524.7231
 10
-601324.280400001
 20
-1156508.4842
 10
-601232.239999998
 20
-1156505.62
 10
-601230.5755
 20
-1156505.5681
 10
-601169.561500002
 20
-1156503.6653
 10
-601079.609999999
 20
-1156500.86
 10
-601079.629999999
 20
-1156501.82
 10
-601080.280000001
 20
-1156506.86
 10
-601081.460000001
 20
-1156511.81
 10
-601082.579999998
 20
-1156517.09
 10
-601083.539999999
 20
-1156521.64
 10
-601162.73
 20
-1156523.39
 10
-601222.370000001
 20
-1156527.83
 97
0
 75
0
 76
1
 98
0
  0
HATCH
  5
20028
100
AcDbEntity
  8
0
100
AcDbHatch
 10
0
 20
0
 30
0
210
0
220
0
230
1
  2
SOLID
 70
1
 71
0
 91
1
 92
2
 72
0
 73
1
 93
10
 10
-601093.18
 20
-1156414.32
 10
-601089.969999999
 20
-1156426.03
 10
-601088.43
 20
-1156432.06
 10
-601087.129999999
 20
-1156437.89
 10
-601223.8136
 20
-1156442.1556
 10
-601228.760000002
 20
-1156442.31
 10
-601290.107700001
 20
-1156444.2244
 10
-601274.437399998
 20
-1156421.9168
 10
-601228.199999999
 20
-1156419.98
 10
-601093.18
 20
-1156414.32
 97
0
 75
0
 76
1
 98
0
  0
HATCH
  5
20029
100
AcDbEntity
  8
0
100
AcDbHatch
 10
0
 20
0
 30
0
210
0
220
0
230
1
  2
SOLID
 70
1
 71
0
 91
1
 92
2
 72
0
 73
1
 93
16
 10
-603805.32
 20
-1161402.58
 10
-603818.24
 20
-1161413.13
 10
-603851.27
 20
-1161453.67
 10
-603858.27
 20
-1161471.92
 10
-603867.89
 20
-1161474.07
 10
-603908.38
 20
-1161418.37
 10
-603907.56
 20
-1161417.83
 10
-603898.83
 20
-1161412.14
 10
-603856.09
 20
-1161412.52
 10
-603837.89
 20
-1161405.37
 10
-603823
 20
-1161398
 10
-603801.04
 20
-1161379.69
 10
-603779.94
 20
-1161362.41
 10
-603773.81
 20
-1161365.91
 10
-603771.99
 20
-1161366.94
 10
-603805.32
 20
-1161402.58
 97
0
 75
0
 76
1
 98
0
  0
HATCH
  5
2002A
100
AcDbEntity
  8
0
100
AcDbHatch
 10
0
 20
0
 30
0
210
0
220
0
230
1
  2
SOLID
 70
1
 71
0
 91
1
 92
2
 72
0
 73
1
 93
17
 10
-591156.55
 20
-1161732.44
 10
-591148.69
 20
-1161730.2
 10
-591136.47
 20
-1161726.73
 10
-591126.25
 20
-1161723.82
 10
-591123.22
 20
-1161722.96
 10
-591117.98
 20
-1161721.47
 10
-591109.67
 20
-1161719.11
 10
-591102.88
 20
-1161753.21
 10
-591105.85
 20
-1161758.3
 10
-591109.36
 20
-1161764.33
 10
-591114.45
 20
-1161773.05
 10
-591115.94
 20
-1161775.61
 10
-591128.99
 20
-1161783.12
 10
-591140.47
 20
-1161789.72
 10
-591142.06
 20
-1161790.64
 10
-591154.8
 20
-1161745.11
 10
-591156.55
 20
-1161732.44
 97
0
 75
0
 76
1
 98
0
  0
HATCH
  5
2002B
100
AcDbEntity
  8
0
100
AcDbHatch
 10
0
 20
0
 30
0
210
0
220
0
230
1
  2
SOLID
 70
1
 71
0
 91
1
 92
2
 72
0
 73
1
 93
34
 10
-599192.45
 20
-1160046.63
 10
-599192.63
 20
-1160047.74
 10
-599192.72
 20
-1160048.48
 10
-599192.86
 20
-1160049.25
 10
-599193.04
 20
-1160050.02
 10
-599193.24
 20
-1160050.77
 10
-599193.5
 20
-1160051.51
 10
-599193.8
 20
-1160052.21
 10
-599194.13
 20
-1160052.74
 10
-599194.65
 20
-1160053.51
 10
-599195.25
 20
-1160054.2
 10
-599195.97
 20
-1160054.89
 10
-599196.71
 20
-1160055.47
 10
-599197.52
 20
-1160055.95
 10
-599198.15
 20
-1160056.27
 10
-599198.87
 20
-1160056.59
 10
-599199.76
 20
-1160056.96
 10
-599200.85
 20
-1160057.39
 10
-599201.57
 20
-1160057.55
 10
-599202.29
 20
-1160057.71
 10
-599225.05
 20
-1160059.64
 10
-599244
 20
-1160061.7
 10
-599245.99
 20
-1160036.33
 10
-599224.58
 20
-1160034.86
 10
-599222.2
 20
-1160033.98
 10
-599219.82
 20
-1160033.1
 10
-599219.06
 20
-1160032.62
 10
-599218.46
 20
-1160031.91
 10
-599217.46
 20
-1160030.25
 10
-599216.5
 20
-1160028.69
 10
-599215.71
 20
-1160027.03
 10
-599215.16
 20
-1160025.12
 10
-599193.23
 20
-1160024.49
 10
-599192.45
 20
-1160046.63
 97
0
 75
0
 76
1
 98
0
  0
HATCH
  5
2002C
100
AcDbEntity
  8
0
100
AcDbHatch
 10
0
 20
0
 30
0
210
0
220
0
230
1
  2
SOLID
 70
1
 71
0
 91
1
 92
2
 72
0
 73
1
 93
16
 10
-604627.72
 20
-1161559.88
 10
-604628.44
 20
-1161560.68
 10
-604667.42
 20
-1161495.13
 10
-604666.85
 20
-1161494.12
 10
-604664.39
 20
-1161489.75
 10
-604659.01
 20
-1161483.12
 10
-604658.5
 20
-1161481.98
 10
-604652.18
 20
-1161467.72
 10
-604651.27
 20
-1161469.55
 10
-604634.98
 20
-1161502.31
 10
-604627.37
 20
-1161508.67
 10
-604628.79
 20
-1161512.01
 10
-604618.91
 20
-1161515.52
 10
-604613.02
 20
-1161520.04
 10
-604602.82
 20
-1161528.87
 10
-604627.72
 20
-1161559.88
 97
0
 75
0
 76
1
 98
0
  0
HATCH
  5
2002D
100
AcDbEntity
  8
0
100
AcDbHatch
 10
0
 20
0
 30
0
210
0
220
0
230
1
  2
SOLID
 70
1
 71
0
 91
1
 92
2
 72
0
 73
1
 93
86
 10
-593320.53
 20
-1159318.1
 10
-593423.4
 20
-1159332.07
 10
-593425.83
 20
-1159346.79
 10
-593432.46
 20
-1159388.39
 10
-593432.89
 20
-1159388.45
 10
-593447.18
 20
-1159390.49
 10
-593452.52
 20
-1159357
 10
-593475.83
 20
-1159326.8
 10
-593478.21
 20
-1159323.72
 10
-593516.77
 20
-1159324.02
 10
-593522.69
 20
-1159317.53
 10
-593537.43
 20
-1159305.25
 10
-593551.12
 20
-1159295.84
 10
-593565.63
 20
-1159286.81
 10
-593574.56
 20
-1159282.88
 10
-593570.88
 20
-1159278.18
 10
-593566.8
 20
-1159272.95
 10
-593561.39
 20
-1159266.03
 10
-593558.21
 20
-1159261.96
 10
-593555.27
 20
-1159258.2
 10
-593552.76
 20
-1159254.99
 10
-593551.66
 20
-1159253.58
 10
-593551.12
 20
-1159250.46
 10
-593550.32
 20
-1159246.28
 10
-593549.53
 20
-1159242.15
 10
-593548.55
 20
-1159237.04
 10
-593547.72
 20
-1159232.46
 10
-593546.87
 20
-1159227.82
 10
-593546.05
 20
-1159223.79
 10
-593544.85
 20
-1159217.18
 10
-593543.87
 20
-1159212.94
 10
-593542.26
 20
-1159204.16
 10
-593542.26
 20
-1159204.13
 10
-593541.53
 20
-1159199.73
 10
-593540.05
 20
-1159191.72
 10
-593539.36
 20
-1159187.76
 10
-593536.95
 20
-1159176.42
 10
-593536.73
 20
-1159174.3
 10
-593536.3
 20
-1159170.07
 10
-593535.51
 20
-1159165.55
 10
-593534.81
 20
-1159161.56
 10
-593534.48
 20
-1159157.67
 10
-593533.42
 20
-1159149.56
 10
-593532.82
 20
-1159144.77
 10
-593531.42
 20
-1159133.65
 10
-593529.14
 20
-1159116.2
 10
-593527.3
 20
-1159104.11
 10
-593527.69
 20
-1159103.13
 10
-593534.2
 20
-1159078.22
 10
-593547.35
 20
-1159031.93
 10
-593542.23
 20
-1159025.23
 10
-593515.72
 20
-1159036.01
 10
-593486.24
 20
-1159060.42
 10
-593440.19
 20
-1159080.63
 10
-593410.37
 20
-1159083.95
 10
-593417.55
 20
-1159087.79
 10
-593426.47
 20
-1159101.92
 10
-593429.33
 20
-1159123
 10
-593441.42
 20
-1159147.24
 10
-593443.25
 20
-1159158.39
 10
-593443.02
 20
-1159166.81
 10
-593442.98
 20
-1159168.21
 10
-593437.6
 20
-1159182.35
 10
-593430.87
 20
-1159197.27
 10
-593427.54
 20
-1159204.65
 10
-593424.21
 20
-1159212.84
 10
-593421.2
 20
-1159220.22
 10
-593417.6
 20
-1159225.74
 10
-593414.71
 20
-1159230.18
 10
-593412.14
 20
-1159234.11
 10
-593409.63
 20
-1159237.96
 10
-593403.04
 20
-1159242.38
 10
-593397.16
 20
-1159246.32
 10
-593388.1
 20
-1159252.39
 10
-593375.86
 20
-1159265.21
 10
-593372.65
 20
-1159268.57
 10
-593368.06
 20
-1159273.37
 10
-593364.9
 20
-1159276.68
 10
-593361.65
 20
-1159280.08
 10
-593358.33
 20
-1159283.55
 10
-593358.05
 20
-1159283.84
 10
-593352.49
 20
-1159290.6
 10
-593349.38
 20
-1159294.37
 10
-593341.17
 20
-1159304.57
 10
-593336.24
 20
-1159307.8
 10
-593320.53
 20
-1159318.1
 97
0
 75
0
 76
1
 98
0
  0
HATCH
  5
2002E
100
AcDbEntity
  8
0
100
AcDbHatch
 10
0
 20
0
 30
0
210
0
220
0
230
1
  2
SOLID
 70
1
 71
0
 91
1
 92
2
 72
0
 73
1
 93
18
 10
-605417.4
 20
-1157092.13
 10
-605380.87
 20
-1157078.31
 10
-605348.79
 20
-1157078.26
 10
-605308.99
 20
-1157087.49
 10
-605307.69
 20
-1157088.09
 10
-605303.89
 20
-1157089.85
 10
-605301.03
 20
-1157090.18
 10
-605300.7
 20
-1157090.66
 10
-605293.63
 20
-1157100.66
 10
-605297.62
 20
-1157099.79
 10
-605314.08
 20
-1157097.32
 10
-605326
 20
-1157096.16
 10
-605341.24
 20
-1157095.5
 10
-605357.54
 20
-1157095.41
 10
-605372.96
 20
-1157095.97
 10
-605388.31
 20
-1157097.07
 10
-605417.3
 20
-1157099.43
 10
-605417.4
 20
-1157092.13
 97
0
 75
0
 76
1
 98
0
  0
HATCH
  5
2002F
100
AcDbEntity
  8
0
100
AcDbHatch
 10
0
 20
0
 30
0
210
0
220
0
230
1
  2
SOLID
 70
1
 71
0
 91
1
 92
2
 72
0
 73
1
 93
50
 10
-597779.059999999
 20
-1151520.26
 10
-597777.75
 20
-1151522.96
 10
-597772.640000001
 20
-1151518.78
 10
-597758.170000002
 20
-1151537.87
 10
-597753.149999999
 20
-1151544.85
 10
-597738.280000001
 20
-1151565.53
 10
-597737.690000001
 20
-1151569.77
 10
-597752.460000001
 20
-1151576.25
 10
-597762.899999999
 20
-1151580.84
 10
-597768.370000001
 20
-1151570.91
 10
-597775.239999998
 20
-1151561.87
 10
-597776.969999999
 20
-1151555.97
 10
-597783.940000001
 20
-1151548.55
 10
-597787.280000001
 20
-1151539.01
 10
-597791.599800002
 20
-1151531.9299
 10
-597795.489999998
 20
-1151525.55
 10
-597797.289999999
 20
-1151521.73
 10
-597802.489999998
 20
-1151494.73
 10
-597799.420000002
 20
-1151471.04
 10
-597786.899999999
 20
-1151442.57
 10
-597782.329599999
 20
-1151433.6402
 10
-597752.440000001
 20
-1151375.24
 10
-597700.239999998
 20
-1151317.96
 10
-597684.699999999
 20
-1151305.93
 10
-597667.739999998
 20
-1151269.02
 10
-597650.469999999
 20
-1151267.59
 10
-597655.920000002
 20
-1151305.17
 10
-597643.440000001
 20
-1151309.29
 10
-597623.210000001
 20
-1151320.62
 10
-597607.079999998
 20
-1151333
 10
-597604.129999999
 20
-1151333.42
 10
-597615.190000001
 20
-1151345.7
 10
-597626.550000001
 20
-1151363.2
 10
-597630.390000001
 20
-1151366.64
 10
-597655.010000002
 20
-1151376.91
 10
-597676.210000001
 20
-1151390.58
 10
-597684.75
 20
-1151395.77
 10
-597698.300000001
 20
-1151403.99
 10
-597702.140000001
 20
-1151404.77
 10
-597712.949999999
 20
-1151406.95
 10
-597718.98
 20
-1151413.49
 10
-597722.190000001
 20
-1151416.96
 10
-597729.100000001
 20
-1151428.86
 10
-597747.41
 20
-1151447.69
 10
-597766.25
 20
-1151467.06
 10
-597786
 20
-1151487.37
 10
-597786.850000001
 20
-1151488.37
 10
-597789.359999999
 20
-1151496.69
 10
-597788.949999999
 20
-1151499.86
 10
-597779.059999999
 20
-1151520.26
 97
0
 75
0
 76
1
 98
0
  0
HATCH
  5
20030
100
AcDbEntity
  8
0
100
AcDbHatch
 10
0
 20
0
 30
0
210
0
220
0
230
1
  2
SOLID
 70
1
 71
0
 91
1
 92
2
 72
0
 73
1
 93
52
 10
-595858.99
 20
-1154215.98
 10
-595854.84
 20
-1154221.97
 10
-595844.14
 20
-1154237.4
 10
-595839.66
 20
-1154243.87
 10
-595834
 20
-1154254.69
 10
-595832.72
 20
-1154257.13
 10
-595828.13
 20
-1154266
 10
-595825.95
 20
-1154277.96
 10
-595827.2
 20
-1154278.87
 10
-595827.87
 20
-1154279.36
 10
-595832.8
 20
-1154267.4
 10
-595846.75
 20
-1154247.11
 10
-595866.53
 20
-1154219.06
 10
-595872.52
 20
-1154224.85
 10
-595868.02
 20
-1154234.7
 10
-595879.13
 20
-1154238.42
 10
-595892.03
 20
-1154238.24
 10
-595893.59
 20
-1154236
 10
-595911.02
 20
-1154213.9
 10
-595917.58
 20
-1154204.01
 10
-595919.12
 20
-1154188.36
 10
-595923.05
 20
-1154185.65
 10
-595957.74
 20
-1154161.7
 10
-596015.82
 20
-1154132.42
 10
-596045.65
 20
-1154113.51
 10
-596066.7
 20
-1154094.46
 10
-596099.24
 20
-1154073.21
 10
-596098.14
 20
-1154070.9
 10
-596093.43
 20
-1154061.03
 10
-596087.46
 20
-1154048.52
 10
-596082.65
 20
-1154038.43
 10
-596078.62
 20
-1154029.99
 10
-596077.99
 20
-1154028.66
 10
-596057.88
 20
-1154039.68
 10
-596051.7
 20
-1154045.33
 10
-596036.75
 20
-1154061.45
 10
-596027.14
 20
-1154067.57
 10
-595997.54
 20
-1154080.64
 10
-595975
 20
-1154087.15
 10
-595957.79
 20
-1154089.88
 10
-595946.99
 20
-1154091.6
 10
-595932.56
 20
-1154100.55
 10
-595921.24
 20
-1154110.94
 10
-595908.7
 20
-1154122.45
 10
-595854.09
 20
-1154146.73
 10
-595857.33
 20
-1154148.87
 10
-595872.43
 20
-1154155.05
 10
-595883.04
 20
-1154159.39
 10
-595878.53
 20
-1154173.62
 10
-595873.38
 20
-1154184.79
 10
-595864.35
 20
-1154204.37
 10
-595858.99
 20
-1154215.98
 97
0
 75
0
 76
1
 98
0
  0
HATCH
  5
20031
100
AcDbEntity
  8
0
100
AcDbHatch
 10
0
 20
0
 30
0
210
0
220
0
230
1
  2
SOLID
 70
1
 71
0
 91
1
 92
2
 72
0
 73
1
 93
22
 10
-594718.54
 20
-1154110.96
 10
-594764.5
 20
-1154183.75
 10
-595131.98
 20
-1154145.86
 10
-595145.83
 20
-1154101.44
 10
-595174.83
 20
-1153999.91
 10
-595188.85
 20
-1153951.1
 10
-595181.62
 20
-1153948.67
 10
-595165.48
 20
-1153942.97
 10
-594808.68
 20
-1153818.42
 10
-594790.46
 20
-1153863.89
 10
-594788.79
 20
-1153869.51
 10
-594781.12
 20
-1153894.01
 10
-594772.87
 20
-1153914.36
 10
-594765.39
 20
-1153929.33
 10
-594758.01
 20
-1153945.98
 10
-594747.91
 20
-1153961.86
 10
-594747.9
 20
-1153961.88
 10
-594746.68
 20
-1153964.64
 10
-594716.35
 20
-1154025.82
 10
-594713.04
 20
-1154032.5
 10
-594714.32
 20
-1154050.74
 10
-594718.54
 20
-1154110.96
 97
0
 75
0
 76
1
 98
0
  0
HATCH
  5
20032
100
AcDbEntity
  8
0
100
AcDbHatch
 10
0
 20
0
 30
0
210
0
220
0
230
1
  2
SOLID
 70
1
 71
0
 91
1
 92
2
 72
0
 73
1
 93
18
 10
-605152.85
 20
-1152358.56
 10
-605100.26
 20
-1152311.59
 10
-605057.3
 20
-1152271.89
 10
-604993.87
 20
-1152221.57
 10
-604991.44
 20
-1152223.6
 10
-604956.68
 20
-1152240.31
 10
-604912.01
 20
-1152256.39
 10
-604793.09
 20
-1152388.34
 10
-604811.51
 20
-1152411.37
 10
-604889.45
 20
-1152469.22
 10
-604930.99
 20
-1152506.7
 10
-604965.2
 20
-1152567.81
 10
-604996.69
 20
-1152603.47
 10
-605156
 20
-1152425.2
 10
-605145.87
 20
-1152410.45
 10
-605138.96
 20
-1152393.41
 10
-605144.95
 20
-1152373.14
 10
-605152.85
 20
-1152358.56
 97
0
 75
0
 76
1
 98
0
  0
HATCH
  5
20033
100
AcDbEntity
  8
0
100
AcDbHatch
 10
0
 20
0
 30
0
210
0
220
0
230
1
  2
SOLID
 70
1
 71
0
 91
1
 92
2
 72
0
 73
1
 93
25
 10
-595920.17
 20
-1155701.2
 10
-595915.46
 20
-1155703.59
 10
-595884.17
 20
-1155697.25
 10
-595883.85
 20
-1155697.39
 10
-595883.42
 20
-1155697.57
 10
-595883.89
 20
-1155761.06
 10
-595966.67
 20
-1155758.33
 10
-595984.32
 20
-1155751.75
 10
-596020.4
 20
-1155740.23
 10
-596071.45
 20
-1155735.23
 10
-596089.32
 20
-1155738
 10
-596101.07
 20
-1155741.87
 10
-596118.07
 20
-1155764.49
 10
-596138.15
 20
-1155746.06
 10
-596148.66
 20
-1155732.02
 10
-596162.3
 20
-1155694
 10
-596166.48
 20
-1155682.33
 10
-596167.31
 20
-1155680.02
 10
-596167.32
 20
-1155679.94
 10
-596171.9
 20
-1155646.6
 10
-596171.91
 20
-1155646.54
 10
-596095.35
 20
-1155631.02
 10
-596087.11
 20
-1155629.35
 10
-596018.1
 20
-1155651.66
 10
-595920.17
 20
-1155701.2
 97
0
 75
0
 76
1
 98
0
  0
HATCH
  5
20034
100
AcDbEntity
  8
0
100
AcDbHatch
 10
0
 20
0
 30
0
210
0
220
0
230
1
  2
SOLID
 70
1
 71
0
 91
1
 92
2
 72
0
 73
1
 93
122
 10
-604110
 20
-1155095.4
 10
-604114.53
 20
-1155094.25
 10
-604176.64
 20
-1155067.4
 10
-604170.26
 20
-1155057.73
 10
-604168.24
 20
-1155052.87
 10
-604164.84
 20
-1155045.01
 10
-604176.9
 20
-1155031.55
 10
-604179.29
 20
-1155015.61
 10
-604174.63
 20
-1155001.36
 10
-604167.15
 20
-1154996.34
 10
-604156.5
 20
-1154979.14
 10
-604169.24
 20
-1154982.63
 10
-604165.91
 20
-1154980.5
 10
-604156.73
 20
-1154969.91
 10
-604160.52
 20
-1154960.43
 10
-604176.16
 20
-1154969.88
 10
-604179.89
 20
-1154965.37
 10
-604168.99
 20
-1154952.78
 10
-604157.67
 20
-1154945.31
 10
-604155.77
 20
-1154944.05
 10
-604152.99
 20
-1154918.48
 10
-604153.61
 20
-1154900.57
 10
-604157.12
 20
-1154890.04
 10
-604161.39
 20
-1154888.73
 10
-604170.93
 20
-1154886.27
 10
-604172.97
 20
-1154868.21
 10
-604173.57
 20
-1154862.86
 10
-604179
 20
-1154848.5
 10
-604180.26
 20
-1154844.81
 10
-604201.8
 20
-1154841.41
 10
-604211.61
 20
-1154839.63
 10
-604239.34
 20
-1154832.06
 10
-604246
 20
-1154831.52
 10
-604247.07
 20
-1154831.43
 10
-604246.71
 20
-1154829.02
 10
-604246.57
 20
-1154828.06
 10
-604246.3
 20
-1154826.21
 10
-604246.03
 20
-1154824.4
 10
-604245.95
 20
-1154823.09
 10
-604188.22
 20
-1154831.68
 10
-604160.32
 20
-1154835.83
 10
-604157.95
 20
-1154836.18
 10
-604143.62
 20
-1154846.73
 10
-604137.98
 20
-1154854.88
 10
-604133.73
 20
-1154861.04
 10
-604126.72
 20
-1154860.66
 10
-604125.73
 20
-1154861.15
 10
-604098.82
 20
-1154864.84
 10
-604072.6
 20
-1154848.01
 10
-604068.42
 20
-1154844.78
 10
-604044.94
 20
-1154844.78
 10
-604001.05
 20
-1154846.72
 10
-603968.71
 20
-1154857.24
 10
-603967.83
 20
-1154857.41
 10
-603964.34
 20
-1154859.3
 10
-603965.74
 20
-1154863.68
 10
-603965.56
 20
-1154865.4
 10
-603961.81
 20
-1154866.2
 10
-603958.92
 20
-1154867.02
 10
-603958.12
 20
-1154867.27
 10
-603956.91
 20
-1154867.69
 10
-603955.72
 20
-1154868.14
 10
-603928.33
 20
-1154878.76
 10
-603912.19
 20
-1154885.02
 10
-603907.55
 20
-1154886.82
 10
-603903.36
 20
-1154888.44
 10
-603898.53
 20
-1154890.32
 10
-603873.34
 20
-1154900.08
 10
-603860.87
 20
-1154904.92
 10
-603842.31
 20
-1154912.12
 10
-603823.73
 20
-1154919.32
 10
-603805.01
 20
-1154926.58
 10
-603783.5
 20
-1154934.92
 10
-603759.38
 20
-1154944.28
 10
-603756.15
 20
-1154945.53
 10
-603737.89
 20
-1154952.61
 10
-603721.84
 20
-1154963.13
 10
-603738.93
 20
-1154963.4
 10
-603743.1
 20
-1154977.99
 10
-603752.82
 20
-1154974.52
 10
-603764.75
 20
-1155015.86
 10
-603768.3
 20
-1155033.77
 10
-603769.34
 20
-1155036.19
 10
-603770.96
 20
-1155047
 10
-603772.61
 20
-1155055.05
 10
-603762.97
 20
-1155059.47
 10
-603765.2
 20
-1155076.36
 10
-603767.98
 20
-1155083.11
 10
-603768.63
 20
-1155087.1
 10
-603771.64
 20
-1155090.6
 10
-603853.62
 20
-1155052.77
 10
-603858.77
 20
-1155052.44
 10
-603865.65
 20
-1155053.47
 10
-603868.86
 20
-1155055.19
 10
-603873.85
 20
-1155057.87
 10
-603874.88
 20
-1155059.14
 10
-603881.31
 20
-1155067.01
 10
-603883.52
 20
-1155069.71
 10
-603892.81
 20
-1155081.07
 10
-603894.62
 20
-1155083.28
 10
-603899.35
 20
-1155089.06
 10
-603909.89
 20
-1155101.94
 10
-603913.53
 20
-1155106.39
 10
-603913.85
 20
-1155106.78
 10
-603920.02
 20
-1155114.33
 10
-603924.81
 20
-1155118.8
 10
-603926.16
 20
-1155119.93
 10
-603926.83
 20
-1155119.63
 10
-603946.03
 20
-1155136.51
 10
-603955.19
 20
-1155145.81
 10
-603962.5
 20
-1155141.72
 10
-603977.17
 20
-1155138.51
 10
-603988.15
 20
-1155133.71
 10
-603999.17
 20
-1155128.97
 10
-604019.53
 20
-1155120.41
 10
-604037.1
 20
-1155116.22
 10
-604049.7
 20
-1155110.1
 10
-604065.14
 20
-1155106.14
 10
-604079.71
 20
-1155102.43
 10
-604089.48
 20
-1155100.32
 10
-604097.15
 20
-1155098.67
 10
-604110
 20
-1155095.4
 97
0
 75
0
 76
1
 98
0
  0
HATCH
  5
20035
100
AcDbEntity
  8
0
100
AcDbHatch
 10
0
 20
0
 30
0
210
0
220
0
230
1
  2
SOLID
 70
1
 71
0
 91
1
 92
2
 72
0
 73
1
 93
72
 10
-594939.539999999
 20
-1150886.17
 10
-594897.530000001
 20
-1150905.01
 10
-594861.73
 20
-1150922.67
 10
-594826.030000001
 20
-1150938.33
 10
-594819.600000001
 20
-1150942.03
 10
-594796.859999999
 20
-1150968.24
 10
-594781.719999999
 20
-1150985.24
 10
-594777.07
 20
-1150990.34
 10
-594748.329999998
 20
-1151022.67
 10
-594717.800000001
 20
-1151057.32
 10
-594670.760000002
 20
-1151100.23
 10
-594666.16
 20
-1151108.29
 10
-594655.739999998
 20
-1151120.61
 10
-594653.899999999
 20
-1151128.04
 10
-594650.530000001
 20
-1151131.63
 10
-594619.719999999
 20
-1151163.47
 10
-594616.309999999
 20
-1151167
 10
-594639.350000001
 20
-1151169.68
 10
-594643.84
 20
-1151164.74
 10
-594650.350000001
 20
-1151159.73
 10
-594654.579999998
 20
-1151157.51
 10
-594657.07
 20
-1151150.19
 10
-594697.559999999
 20
-1151097.05
 10
-594703.079999998
 20
-1151091.37
 10
-594708.91
 20
-1151086.83
 10
-594714.120000001
 20
-1151081.16
 10
-594709.52
 20
-1151077.47
 10
-594713.809999999
 20
-1151071.22
 10
-594723.629999999
 20
-1151066.68
 10
-594733.440000001
 20
-1151054.2
 10
-594741.719999999
 20
-1151052.21
 10
-594743.859999999
 20
-1151045.11
 10
-594747.559999999
 20
-1151038.73
 10
-594753.039999999
 20
-1151033.61
 10
-594790.300000001
 20
-1150992.48
 10
-594813.940000001
 20
-1150964.05
 10
-594834.640000001
 20
-1150948.45
 10
-594848.600000001
 20
-1150938.7
 10
-594884.050000001
 20
-1150922.3
 10
-594937.32
 20
-1150903.89
 10
-594938.190000001
 20
-1150903.21
 10
-594941.579999998
 20
-1150900.57
 10
-594950.629999999
 20
-1150893.49
 10
-594957.960000001
 20
-1150887.33
 10
-594977.059999999
 20
-1150898.42
 10
-595016.059999999
 20
-1150937.58
 10
-595041.440000001
 20
-1150960.15
 10
-595038.120000001
 20
-1150965.33
 10
-595041.59
 20
-1150967.89
 10
-595067.530000001
 20
-1150990.02
 10
-595067.059999999
 20
-1150994.88
 10
-595087.329999998
 20
-1150994
 10
-595095.870000001
 20
-1150994.31
 10
-595109.780000001
 20
-1150988.98
 10
-595109.786800001
 20
-1150988.9745
 10
-595114.489999998
 20
-1150985.18
 10
-595114.620000001
 20
-1150985.08
 10
-595115.149799999
 20
-1150984.6401
 10
-595077.300000001
 20
-1150966.4
 10
-595074.18
 20
-1150964.9
 10
-595065.719999999
 20
-1150960.98
 10
-595062.350000001
 20
-1150959.2
 10
-595038.940000001
 20
-1150944.47
 10
-595029.859999999
 20
-1150937.49
 10
-595020.460000001
 20
-1150927.25
 10
-595004.629999999
 20
-1150908.4
 10
-595001.91
 20
-1150904.76
 10
-594994.93
 20
-1150895.43
 10
-594991.66
 20
-1150889.45
 10
-594977.18
 20
-1150872.94
 10
-594961.699999999
 20
-1150866.45
 10
-594939.539999999
 20
-1150886.17
 97
0
 75
0
 76
1
 98
0
  0
HATCH
  5
20036
100
AcDbEntity
  8
0
100
AcDbHatch
 10
0
 20
0
 30
0
210
0
220
0
230
1
  2
SOLID
 70
1
 71
0
 91
1
 92
2
 72
0
 73
1
 93
40
 10
-594748.23
 20
-1150770.59
 10
-594748.23
 20
-1150783.8482
 10
-594748.23
 20
-1150787.3
 10
-594757.91
 20
-1150805.01
 10
-594777.960000001
 20
-1150827.06
 10
-594798.129999999
 20
-1150845.87
 10
-594804.870000001
 20
-1150867.27
 10
-594808.609999999
 20
-1150879.14
 10
-594814.100000001
 20
-1150898.54
 10
-594819.41
 20
-1150915.79
 10
-594822.079999998
 20
-1150924.54
 10
-594834.109999999
 20
-1150920.34
 10
-594839.100000001
 20
-1150918.6
 10
-594836.260000002
 20
-1150915.78
 10
-594832.870000001
 20
-1150878.11
 10
-594829.109999999
 20
-1150864.73
 10
-594826.399999999
 20
-1150855.27
 10
-594818.27
 20
-1150835.14
 10
-594814.370000001
 20
-1150830.2
 10
-594799.77
 20
-1150813.95
 10
-594792.739999998
 20
-1150799.78
 10
-594790.379999999
 20
-1150788.76
 10
-594789.710000001
 20
-1150774.72
 10
-594782.23
 20
-1150775.29
 10
-594787.98
 20
-1150723.26
 10
-594793
 20
-1150687.84
 10
-594794
 20
-1150645.73
 10
-594795.329999998
 20
-1150623.01
 10
-594793.66
 20
-1150609.64
 10
-594794.670000002
 20
-1150585.91
 10
-594797.34
 20
-1150568.87
 10
-594790.66
 20
-1150564.52
 10
-594782.300000001
 20
-1150575.55
 10
-594779.300000001
 20
-1150588.25
 10
-594779.300000001
 20
-1150616.66
 10
-594767.600000001
 20
-1150643.73
 10
-594766.27
 20
-1150660.97
 10
-594765.600000001
 20
-1150701.41
 10
-594755.579999998
 20
-1150741.85
 10
-594748.23
 20
-1150770.59
 97
0
 75
0
 76
1
 98
0
  0
HATCH
  5
20037
100
AcDbEntity
  8
0
100
AcDbHatch
 10
0
 20
0
 30
0
210
0
220
0
230
1
  2
SOLID
 70
1
 71
0
 91
1
 92
2
 72
0
 73
1
 93
11
 10
-593522.08
 20
-1158456.99
 10
-593557.61
 20
-1158563.86
 10
-593566.25
 20
-1158560.88
 10
-593586.6
 20
-1158530.49
 10
-593638.4
 20
-1158533.51
 10
-593674.23
 20
-1158520.72
 10
-593674.27
 20
-1158520.7
 10
-593677.21
 20
-1158507.87
 10
-593680.06
 20
-1158495.45
 10
-593688.51
 20
-1158453.62
 10
-593522.08
 20
-1158456.99
 97
0
 75
0
 76
1
 98
0
  0
HATCH
  5
20038
100
AcDbEntity
  8
0
100
AcDbHatch
 10
0
 20
0
 30
0
210
0
220
0
230
1
  2
SOLID
 70
1
 71
0
 91
1
 92
2
 72
0
 73
1
 93
15
 10
-592615.17
 20
-1159659.04
 10
-592622.37
 20
-1159644.24
 10
-592582.6
 20
-1159617.22
 10
-592523.61
 20
-1159610.78
 10
-592499.6
 20
-1159612.18
 10
-592422.89
 20
-1159644.4
 10
-592429.63
 20
-1159659.32
 10
-592443.64
 20
-1159653.36
 10
-592458.1
 20
-1159648.53
 10
-592478.79
 20
-1159644.01
 10
-592499.75
 20
-1159641.81
 10
-592539.89
 20
-1159639.29
 10
-592574.7
 20
-1159644.94
 10
-592608.41
 20
-1159656.87
 10
-592615.17
 20
-1159659.04
 97
0
 75
0
 76
1
 98
0
  0
HATCH
  5
20039
100
AcDbEntity
  8
0
100
AcDbHatch
 10
0
 20
0
 30
0
210
0
220
0
230
1
  2
SOLID
 70
1
 71
0
 91
1
 92
2
 72
0
 73
1
 93
120
 10
-602118.52
 20
-1164704.68
 10
-602108.42
 20
-1164708
 10
-602108.01
 20
-1164707.72
 10
-602106.17
 20
-1164706.48
 10
-602105.61
 20
-1164706.71
 10
-602105.26
 20
-1164711.6
 10
-602105.13
 20
-1164713.34
 10
-602104.9
 20
-1164716.4
 10
-602104.74
 20
-1164718.63
 10
-602102.54
 20
-1164723.56
 10
-602102.28
 20
-1164724.15
 10
-602098.45
 20
-1164726.58
 10
-602086.1
 20
-1164735.04
 10
-602078.47
 20
-1164740.26
 10
-602063.68
 20
-1164750.38
 10
-602051.7
 20
-1164758.58
 10
-602043.69
 20
-1164764.06
 10
-602040.19
 20
-1164766.6
 10
-602038.67
 20
-1164767.7
 10
-602031.38
 20
-1164773.27
 10
-602022.1
 20
-1164780.35
 10
-602015.19
 20
-1164785.63
 10
-602009.26
 20
-1164790.15
 10
-602002.78
 20
-1164795.09
 10
-602000.04
 20
-1164797.47
 10
-601982.08
 20
-1164813.03
 10
-601969.69
 20
-1164823.77
 10
-601961.06
 20
-1164831.24
 10
-601953.26
 20
-1164838
 10
-601952.28
 20
-1164838.81
 10
-601938.99
 20
-1164849.82
 10
-601932.27
 20
-1164854.18
 10
-601920.84
 20
-1164861.58
 10
-601911.81
 20
-1164867.42
 10
-601900.39
 20
-1164874.81
 10
-601897.89
 20
-1164876.43
 10
-601890.03
 20
-1164881.52
 10
-601887.98
 20
-1164882.85
 10
-601883.72
 20
-1164885.61
 10
-601874.7
 20
-1164891.45
 10
-601873.18
 20
-1164892.43
 10
-601869.53
 20
-1164894.76
 10
-601865.5
 20
-1164897.36
 10
-601863.78
 20
-1164898.45
 10
-601855.85
 20
-1164903.46
 10
-601841.91
 20
-1164907.36
 10
-601842.8
 20
-1164951.72
 10
-601842.66
 20
-1164983.87
 10
-601842.46
 20
-1164987.04
 10
-601849.71
 20
-1164987.9
 10
-601850.66
 20
-1164988.01
 10
-601852.62
 20
-1164988.37
 10
-601854.97
 20
-1164988.81
 10
-601860.46
 20
-1164988.01
 10
-601863.04
 20
-1164986.8
 10
-601865.19
 20
-1164985.54
 10
-601868.94
 20
-1164983.33
 10
-601882.58
 20
-1164979.54
 10
-601897.07
 20
-1164975.67
 10
-601905.96
 20
-1164971.26
 10
-601908.09
 20
-1164970.2
 10
-601918.97
 20
-1164964.19
 10
-601931.88
 20
-1164960.38
 10
-601933.65
 20
-1164959.8
 10
-601944.72
 20
-1164956.16
 10
-601956.88
 20
-1164952.74
 10
-601968.83
 20
-1164948.96
 10
-601974.27
 20
-1164947.12
 10
-601979.66
 20
-1164943.97
 10
-601993.09
 20
-1164966.54
 10
-601999.35
 20
-1164960.49
 10
-602003.88
 20
-1164956.13
 10
-602006.86
 20
-1164953.25
 10
-602006.38
 20
-1164948.38
 10
-602005.16
 20
-1164936.1
 10
-602008.31
 20
-1164934.24
 10
-602019.66
 20
-1164927.57
 10
-602025.66
 20
-1164924.05
 10
-602033.37
 20
-1164919.5
 10
-602039.97
 20
-1164915.61
 10
-602055.7
 20
-1164907.14
 10
-602068.56
 20
-1164897.72
 10
-602073.02
 20
-1164894.44
 10
-602075.82
 20
-1164892.87
 10
-602083.39
 20
-1164888.71
 10
-602090.57
 20
-1164883.99
 10
-602100.07
 20
-1164876.45
 10
-602106.81
 20
-1164871.11
 10
-602119.18
 20
-1164861.92
 10
-602124.79
 20
-1164857.22
 10
-602128.68
 20
-1164853.96
 10
-602130.09
 20
-1164852.1
 10
-602137.73
 20
-1164842.03
 10
-602139.27
 20
-1164840.82
 10
-602144.62
 20
-1164836.57
 10
-602163.3
 20
-1164822.99
 10
-602172.05
 20
-1164816.62
 10
-602176.04
 20
-1164814.58
 10
-602179.32
 20
-1164814.12
 10
-602204.77
 20
-1164810.58
 10
-602226.51
 20
-1164807.56
 10
-602239.17
 20
-1164805.79
 10
-602240.07
 20
-1164805.67
 10
-602247.74
 20
-1164797.57
 10
-602255.5
 20
-1164789.39
 10
-602258.68
 20
-1164786.03
 10
-602252.92
 20
-1164763.36
 10
-602262.89
 20
-1164750.48
 10
-602272.02
 20
-1164738.7
 10
-602268.67
 20
-1164737.02
 10
-602273.6
 20
-1164731.6
 10
-602273.5
 20
-1164731.43
 10
-602259.45
 20
-1164707.56
 10
-602254.14
 20
-1164690
 10
-602247.89
 20
-1164669.33
 10
-602247.55
 20
-1164668.29
 10
-602246.9
 20
-1164666.32
 10
-602237.75
 20
-1164668.61
 10
-602168.12
 20
-1164688
 10
-602118.52
 20
-1164704.68
 97
0
 75
0
 76
1
 98
0
  0
HATCH
  5
2003A
100
AcDbEntity
  8
0
100
AcDbHatch
 10
0
 20
0
 30
0
210
0
220
0
230
1
  2
SOLID
 70
1
 71
0
 91
1
 92
2
 72
0
 73
1
 93
41
 10
-597011.13
 20
-1151481.06
 10
-597010.04
 20
-1151489.84
 10
-597008.49
 20
-1151497.69
 10
-597006.72
 20
-1151506.7
 10
-597007.73
 20
-1151508.77
 10
-597019.18
 20
-1151532.24
 10
-597019.54
 20
-1151535.06
 10
-597020.15
 20
-1151539.82
 10
-597021.66
 20
-1151539.3
 10
-597025.6
 20
-1151537.96
 10
-597054.93
 20
-1151526.96
 10
-597059.81
 20
-1151526.36
 10
-597070.73
 20
-1151525.03
 10
-597077.04
 20
-1151522.88
 10
-597076.01
 20
-1151522.99
 10
-597075.05
 20
-1151522.55
 10
-597074.49
 20
-1151521.8
 10
-597074.34
 20
-1151520.66
 10
-597089.96
 20
-1151435.6
 10
-597090.29
 20
-1151430.95
 10
-597089.66
 20
-1151425.99
 10
-597088.02
 20
-1151421.28
 10
-597068.77
 20
-1151387.47
 10
-597065.86
 20
-1151381.41
 10
-597063.9
 20
-1151375.79
 10
-597041.65
 20
-1151296.13
 10
-597037.99
 20
-1151286.77
 10
-597037.07
 20
-1151282.04
 10
-597036.84
 20
-1151277.87
 10
-597033.92
 20
-1151284.75
 10
-597027.95
 20
-1151298.92
 10
-597017.22
 20
-1151323.18
 10
-597005.96
 20
-1151350.67
 10
-597000.82
 20
-1151364.8
 10
-596994.44
 20
-1151385.67
 10
-596986.9
 20
-1151410.34
 10
-596978.91
 20
-1151438.23
 10
-596975.27
 20
-1151470.8
 10
-596974.62
 20
-1151476.66
 10
-596986.42
 20
-1151477.41
 10
-597011.13
 20
-1151481.06
 97
0
 75
0
 76
1
 98
0
  0
HATCH
  5
2003B
100
AcDbEntity
  8
0
100
AcDbHatch
 10
0
 20
0
 30
0
210
0
220
0
230
1
  2
SOLID
 70
1
 71
0
 91
1
 92
2
 72
0
 73
1
 93
8
 10
-595558.73
 20
-1151069.93
 10
-595558.190000001
 20
-1151079.72
 10
-595583.550000001
 20
-1151063.32
 10
-595633.02
 20
-1151042.7
 10
-595630.829999998
 20
-1151024.76
 10
-595605.260000002
 20
-1151029.63
 10
-595562.059999999
 20
-1151033.04
 10
-595558.73
 20
-1151069.93
 97
0
 75
0
 76
1
 98
0
  0
HATCH
  5
2003C
100
AcDbEntity
  8
0
100
AcDbHatch
 10
0
 20
0
 30
0
210
0
220
0
230
1
  2
SOLID
 70
1
 71
0
 91
1
 92
2
 72
0
 73
1
 93
22
 10
-599690.62
 20
-1161974.62
 10
-599698.45
 20
-1161977.84
 10
-599699.11
 20
-1161978.14
 10
-599700.59
 20
-1161979.53
 10
-599716.64
 20
-1161994.64
 10
-599718.2
 20
-1161994.79
 10
-599719.94
 20
-1161994.36
 10
-599721.47
 20
-1161993.48
 10
-599722.53
 20
-1161992.37
 10
-599724.12
 20
-1161989.18
 10
-599727.25
 20
-1161976.34
 10
-599733.63
 20
-1161967.65
 10
-599727.77
 20
-1161970.85
 10
-599714.46
 20
-1161976.85
 10
-599710.34
 20
-1161971.91
 10
-599708.55
 20
-1161969.76
 10
-599706.75
 20
-1161967.61
 10
-599696.03
 20
-1161954.77
 10
-599695.23
 20
-1161951.22
 10
-599688.31
 20
-1161957.06
 10
-599685.43
 20
-1161963.94
 10
-599690.62
 20
-1161974.62
 97
0
 75
0
 76
1
 98
0
  0
HATCH
  5
2003D
100
AcDbEntity
  8
0
100
AcDbHatch
 10
0
 20
0
 30
0
210
0
220
0
230
1
  2
SOLID
 70
1
 71
0
 91
1
 92
2
 72
0
 73
1
 93
215
 10
-596756.85
 20
-1151360.42
 10
-596744.83
 20
-1151388.86
 10
-596734.86
 20
-1151384.55
 10
-596739.59
 20
-1151374.84
 10
-596748.26
 20
-1151356.67
 10
-596751.42
 20
-1151349.94
 10
-596742.11
 20
-1151344.27
 10
-596724.97
 20
-1151333.7
 10
-596693.1
 20
-1151405.19
 10
-596690.83
 20
-1151410.28
 10
-596681.03
 20
-1151432.76
 10
-596671.67
 20
-1151454.25
 10
-596660.21
 20
-1151489.45
 10
-596656.58
 20
-1151500.61
 10
-596652.24
 20
-1151517.06
 10
-596660.59
 20
-1151554.08
 10
-596664.45
 20
-1151573.62
 10
-596670.25
 20
-1151572.76
 10
-596682.19
 20
-1151572.54
 10
-596705.79
 20
-1151571.92
 10
-596708.11
 20
-1151594.13
 10
-596707.1
 20
-1151594.18
 10
-596706.13
 20
-1151616.88
 10
-596708.43
 20
-1151616.64
 10
-596704.5
 20
-1151642.64
 10
-596703.45
 20
-1151649.59
 10
-596707.43
 20
-1151655.74
 10
-596712.35
 20
-1151663.35
 10
-596719.03
 20
-1151671.99
 10
-596732.84
 20
-1151690.04
 10
-596742.81
 20
-1151702.97
 10
-596770.42
 20
-1151716.95
 10
-596768.67
 20
-1151718.28
 10
-596768.38
 20
-1151718.65
 10
-596766.35
 20
-1151720.25
 10
-596776.44
 20
-1151720.64
 10
-596785.05
 20
-1151732.59
 10
-596791.01
 20
-1151750.43
 10
-596791.26
 20
-1151750.69
 10
-596809.19
 20
-1151787.18
 10
-596809.26
 20
-1151787.26
 10
-596814.61
 20
-1151793.4
 10
-596815.99
 20
-1151799.78
 10
-596824.3
 20
-1151815.19
 10
-596886.46
 20
-1151899.52
 10
-596897.23
 20
-1151914.32
 10
-596903.69
 20
-1151924.63
 10
-596910.32
 20
-1151935.06
 10
-596937.27
 20
-1151980.54
 10
-596943.75
 20
-1151987.9
 10
-596959.5
 20
-1152005.79
 10
-596968.2
 20
-1152015.67
 10
-596984.15
 20
-1152026.6
 10
-596984.15
 20
-1152026.6
 10
-596984.29
 20
-1152026.84
 10
-596989.6
 20
-1152036.15
 10
-596989.48
 20
-1152033.43
 10
-596989.48
 20
-1152033.42
 10
-597005.85
 20
-1152044.48
 10
-597017.35
 20
-1152044.65
 10
-597020.96
 20
-1152044.7
 10
-597042.45
 20
-1152041.73
 10
-597057.1
 20
-1152041.11
 10
-597068.69
 20
-1152043.82
 10
-597072.27
 20
-1152044.06
 10
-597074.81
 20
-1152045.67
 10
-597083.11
 20
-1152048.17
 10
-597092.02
 20
-1152050.96
 10
-597093.95
 20
-1152051.44
 10
-597109.44
 20
-1152056.11
 10
-597122.83
 20
-1152059.73
 10
-597128.21
 20
-1152062.77
 10
-597162.77
 20
-1152082.89
 10
-597168.82
 20
-1152084.07
 10
-597174.22
 20
-1152085.13
 10
-597189.24
 20
-1152088.85
 10
-597196.24
 20
-1152089.78
 10
-597197.55
 20
-1152090.39
 10
-597210.32
 20
-1152096.32
 10
-597242.31
 20
-1152113
 10
-597253.17
 20
-1152115.89
 10
-597257.43
 20
-1152117.6
 10
-597258.04
 20
-1152117.85
 10
-597282.82
 20
-1152127.76
 10
-597279.74
 20
-1152122.56
 10
-597258.44
 20
-1152107.75
 10
-597250.94
 20
-1152104.7
 10
-597210.42
 20
-1152088.26
 10
-597190.09
 20
-1152081.6
 10
-597171.36
 20
-1152075.66
 10
-597162.3
 20
-1152069.74
 10
-597153.23
 20
-1152063.81
 10
-597143.6
 20
-1152057.57
 10
-597131.62
 20
-1152049.81
 10
-597123.02
 20
-1152045.51
 10
-597109.63
 20
-1152040.21
 10
-597099.55
 20
-1152034.83
 10
-597088.05
 20
-1152028.69
 10
-597089.97
 20
-1152036.97
 10
-597086.12
 20
-1152036.31
 10
-597076.4
 20
-1152034.64
 10
-597064.98
 20
-1152032.69
 10
-597045.85
 20
-1152029.4
 10
-597039.99
 20
-1152028.4
 10
-597037.04
 20
-1152028.96
 10
-597020
 20
-1152032.21
 10
-597014.02
 20
-1152031.72
 10
-597007.14
 20
-1152031.16
 10
-596998.37
 20
-1152026.53
 10
-596988.81
 20
-1152018.35
 10
-596987.71
 20
-1152017.41
 10
-596982.4
 20
-1152012.85
 10
-596979.36
 20
-1152010.25
 10
-596975.55
 20
-1152006.14
 10
-596966.48
 20
-1151996.36
 10
-596951.6
 20
-1151977.59
 10
-596938.55
 20
-1151956.72
 10
-596929.44
 20
-1151936.89
 10
-596920.53
 20
-1151915.64
 10
-596912.77
 20
-1151898.15
 10
-596903.24
 20
-1151886.13
 10
-596900.39
 20
-1151882.53
 10
-596894.18
 20
-1151872.78
 10
-596874.77
 20
-1151860.89
 10
-596867.93
 20
-1151849.27
 10
-596852.14
 20
-1151827.76
 10
-596835.56
 20
-1151804.55
 10
-596831.47
 20
-1151790.6
 10
-596813.18
 20
-1151764.63
 10
-596806.82
 20
-1151747.17
 10
-596806.32
 20
-1151745.33
 10
-596800.43
 20
-1151731.33
 10
-596793.01
 20
-1151717.94
 10
-596783.34
 20
-1151707.07
 10
-596780.02
 20
-1151699.5
 10
-596772.54
 20
-1151691.06
 10
-596760.93
 20
-1151687
 10
-596749.27
 20
-1151677.67
 10
-596744.49
 20
-1151672.27
 10
-596737.09
 20
-1151663.9
 10
-596735.99
 20
-1151661.84
 10
-596731.48
 20
-1151656
 10
-596727.39
 20
-1151646.24
 10
-596727.15
 20
-1151632.91
 10
-596728.46
 20
-1151621.94
 10
-596728.66
 20
-1151615.75
 10
-596730.8
 20
-1151594.78
 10
-596729.21
 20
-1151570.13
 10
-596729.25
 20
-1151549.41
 10
-596732.6
 20
-1151529.46
 10
-596737.56
 20
-1151505.27
 10
-596750.34
 20
-1151460.38
 10
-596756.06
 20
-1151440.14
 10
-596766.13
 20
-1151412.97
 10
-596773.38
 20
-1151397.21
 10
-596786.62
 20
-1151369.7
 10
-596791.47
 20
-1151356.35
 10
-596795.34
 20
-1151345.68
 10
-596802.98
 20
-1151321.48
 10
-596804.54
 20
-1151308.6
 10
-596807.17
 20
-1151282.07
 10
-596807.57
 20
-1151276.59
 10
-596808.64
 20
-1151262.14
 10
-596810.24
 20
-1151252.36
 10
-596813.54
 20
-1151232.23
 10
-596818.13
 20
-1151215.39
 10
-596819.82
 20
-1151210.1
 10
-596832.9
 20
-1151169.22
 10
-596839.24
 20
-1151148.9
 10
-596844.13
 20
-1151135.08
 10
-596851.37
 20
-1151114.6
 10
-596851.77
 20
-1151113.46
 10
-596856.98
 20
-1151106.16
 10
-596863.54
 20
-1151096.96
 10
-596869.07
 20
-1151090.24
 10
-596867.97
 20
-1151088.45
 10
-596858.63
 20
-1151073.29
 10
-596843.45
 20
-1151078.27
 10
-596823.04
 20
-1151095.09
 10
-596820.71
 20
-1151096.73
 10
-596819.37
 20
-1151098.77
 10
-596813.16
 20
-1151108.25
 10
-596807.46
 20
-1151116.93
 10
-596806.03
 20
-1151119.11
 10
-596805.64
 20
-1151119.84
 10
-596798.89
 20
-1151132.58
 10
-596794.71
 20
-1151140.48
 10
-596792.23
 20
-1151146.06
 10
-596787.98
 20
-1151155.6
 10
-596785.6
 20
-1151165.8
 10
-596784.64
 20
-1151169.89
 10
-596786.6
 20
-1151180.17
 10
-596780.89
 20
-1151190.09
 10
-596780.56
 20
-1151190.67
 10
-596778.28
 20
-1151194.63
 10
-596769.98
 20
-1151212.22
 10
-596761.65
 20
-1151228.31
 10
-596759.47
 20
-1151232.52
 10
-596753.46
 20
-1151243.33
 10
-596751.9
 20
-1151246.9
 10
-596753.89
 20
-1151247.34
 10
-596762.52
 20
-1151249.25
 10
-596773.26
 20
-1151252.81
 10
-596783.29
 20
-1151256.17
 10
-596783.77
 20
-1151264.81
 10
-596784.03
 20
-1151269.42
 10
-596784.67
 20
-1151280.92
 10
-596783.02
 20
-1151292.23
 10
-596780.54
 20
-1151309.32
 10
-596779.9
 20
-1151313.7
 10
-596775.04
 20
-1151323.46
 10
-596767.51
 20
-1151338.59
 10
-596765.15
 20
-1151343.33
 10
-596759.37
 20
-1151354.94
 10
-596756.85
 20
-1151360.42
 97
0
 75
0
 76
1
 98
0
  0
HATCH
  5
2003E
100
AcDbEntity
  8
0
100
AcDbHatch
 10
0
 20
0
 30
0
210
0
220
0
230
1
  2
SOLID
 70
1
 71
0
 91
1
 92
2
 72
0
 73
1
 93
109
 10
-600189.35
 20
-1155466.05
 10
-600180.87
 20
-1155474.46
 10
-600168.45
 20
-1155461.61
 10
-600161.48
 20
-1155463.59
 10
-600146.41
 20
-1155449.85
 10
-600146.75
 20
-1155450.72
 10
-600148.83
 20
-1155456.05
 10
-600148.86
 20
-1155456.13
 10
-600149.16
 20
-1155456.9
 10
-600158.61
 20
-1155481.11
 10
-600121.23
 20
-1155495.78
 10
-600123.75
 20
-1155502.28
 10
-600127.4
 20
-1155511.65
 10
-600103.36
 20
-1155520.93
 10
-600103.3
 20
-1155520.77
 10
-600102.74
 20
-1155519.37
 10
-600099.68
 20
-1155511.63
 10
-600094.57
 20
-1155498.72
 10
-600094.53
 20
-1155498.61
 10
-600087.79
 20
-1155501.15
 10
-600074.22
 20
-1155506.46
 10
-600068.71
 20
-1155508.62
 10
-600067.28
 20
-1155509.18
 10
-600066.85
 20
-1155509.35
 10
-600056.16
 20
-1155513.56
 10
-600051.97
 20
-1155502.79
 10
-600051.91
 20
-1155502.64
 10
-600031.67
 20
-1155511.37
 10
-600026.28
 20
-1155514.05
 10
-600021.22
 20
-1155516.02
 10
-600017.24
 20
-1155518.82
 10
-600014.34
 20
-1155522.75
 10
-600012.81
 20
-1155527.33
 10
-600012.45
 20
-1155530.55
 10
-600012.22
 20
-1155532.67
 10
-600012.13
 20
-1155536.38
 10
-600012.15
 20
-1155536.49
 10
-600012.21
 20
-1155536.92
 10
-600012.73
 20
-1155540.71
 10
-600014.03
 20
-1155546.26
 10
-600014.78
 20
-1155549.44
 10
-600014.83
 20
-1155549.65
 10
-600016.57
 20
-1155555.29
 10
-600018.3
 20
-1155559.97
 10
-600022.61
 20
-1155571.66
 10
-600028.73
 20
-1155588.26
 10
-600029.56
 20
-1155590.61
 10
-600034.22
 20
-1155603.73
 10
-600040.25
 20
-1155619.15
 10
-600044.62
 20
-1155630.66
 10
-600046.9
 20
-1155634.23
 10
-600049.74
 20
-1155637.12
 10
-600052.43
 20
-1155639.88
 10
-600063.9
 20
-1155645.59
 10
-600083.89
 20
-1155653.28
 10
-600089.36
 20
-1155655.38
 10
-600097.75
 20
-1155659.08
 10
-600104.19
 20
-1155661.83
 10
-600106.17
 20
-1155662.61
 10
-600113.26
 20
-1155665.42
 10
-600113.58
 20
-1155665.55
 10
-600121.03
 20
-1155668.98
 10
-600123.53
 20
-1155670.2
 10
-600124.48
 20
-1155670.66
 10
-600127.6
 20
-1155672.04
 10
-600127.91
 20
-1155672.18
 10
-600128.27
 20
-1155672.34
 10
-600132.17
 20
-1155673.77
 10
-600138.21
 20
-1155675.11
 10
-600142.38
 20
-1155665.85
 10
-600144.95
 20
-1155659.56
 10
-600145.78
 20
-1155657.21
 10
-600146.76
 20
-1155654.41
 10
-600150.46
 20
-1155643.9
 10
-600155.01
 20
-1155630.61
 10
-600155.59
 20
-1155628.8
 10
-600159.5
 20
-1155616.49
 10
-600161.46
 20
-1155610.33
 10
-600167.01
 20
-1155592.59
 10
-600173.31
 20
-1155574.6
 10
-600177.21
 20
-1155568.72
 10
-600180.92
 20
-1155563.66
 10
-600186.38
 20
-1155555.5
 10
-600189.76
 20
-1155552.06
 10
-600199.46
 20
-1155543.2
 10
-600217.75
 20
-1155528.35
 10
-600221.08
 20
-1155525.65
 10
-600223.26
 20
-1155523.64
 10
-600223.95
 20
-1155523
 10
-600227.91
 20
-1155519.36
 10
-600232.51
 20
-1155514.22
 10
-600239.84
 20
-1155504.91
 10
-600248.98
 20
-1155491.06
 10
-600260.7
 20
-1155473.3
 10
-600261.43
 20
-1155464.97
 10
-600262.02
 20
-1155455.38
 10
-600258.08
 20
-1155443.58
 10
-600258.04
 20
-1155443.46
 10
-600250.83
 20
-1155441.77
 10
-600247.02
 20
-1155441.53
 10
-600237.25
 20
-1155440.92
 10
-600237.24
 20
-1155440.92
 10
-600237.43
 20
-1155441.34
 10
-600238.21
 20
-1155443.01
 10
-600239.92
 20
-1155446.7
 10
-600235.72
 20
-1155447.59
 10
-600201.91
 20
-1155454.73
 10
-600193.69
 20
-1155462.15
 10
-600189.35
 20
-1155466.05
 97
0
 75
0
 76
1
 98
0
  0
HATCH
  5
2003F
100
AcDbEntity
  8
0
100
AcDbHatch
 10
0
 20
0
 30
0
210
0
220
0
230
1
  2
SOLID
 70
1
 71
0
 91
1
 92
2
 72
0
 73
1
 93
115
 10
-596771.52
 20
-1152089.45
 10
-596764.16
 20
-1152090.53
 10
-596757.8
 20
-1152090.15
 10
-596744.12
 20
-1152092.46
 10
-596726.42
 20
-1152096.33
 10
-596693.07
 20
-1152105.23
 10
-596674.56
 20
-1152112.26
 10
-596657.32
 20
-1152119.88
 10
-596643.27
 20
-1152121.84
 10
-596635.05
 20
-1152120.36
 10
-596624.17
 20
-1152118.39
 10
-596601.37
 20
-1152113.57
 10
-596587.92
 20
-1152110.19
 10
-596561
 20
-1152108.89
 10
-596532.53
 20
-1152114
 10
-596490.93
 20
-1152118.38
 10
-596446.41
 20
-1152115.46
 10
-596368.32
 20
-1152079.69
 10
-596373.78
 20
-1152088.11
 10
-596386.55
 20
-1152098.94
 10
-596398.48
 20
-1152107.26
 10
-596400.21
 20
-1152107.8
 10
-596419.16
 20
-1152113.71
 10
-596433.5
 20
-1152118.7
 10
-596440.83
 20
-1152122.37
 10
-596465.17
 20
-1152132.7
 10
-596478.5
 20
-1152133.69
 10
-596492.5
 20
-1152133.69
 10
-596507.16
 20
-1152130.02
 10
-596523.49
 20
-1152125.02
 10
-596533.82
 20
-1152122.68
 10
-596542.82
 20
-1152122.34
 10
-596551.49
 20
-1152119.68
 10
-596559.15
 20
-1152116.01
 10
-596585.1
 20
-1152148.46
 10
-596589.09
 20
-1152150.04
 10
-596610.33
 20
-1152158.44
 10
-596615.23
 20
-1152160.38
 10
-596617.65
 20
-1152160.67
 10
-596620.33
 20
-1152160.99
 10
-596637.72
 20
-1152163.07
 10
-596641.74
 20
-1152163.55
 10
-596642.92
 20
-1152163.69
 10
-596666.4
 20
-1152166.5
 10
-596674.96
 20
-1152160.87
 10
-596689.79
 20
-1152151.13
 10
-596698.71
 20
-1152145.27
 10
-596715.34
 20
-1152134.34
 10
-596726.06
 20
-1152126.59
 10
-596731.06
 20
-1152123.01
 10
-596752.44
 20
-1152107.55
 10
-596753.5
 20
-1152107.53
 10
-596780.08
 20
-1152106.25
 10
-596785.33
 20
-1152104.95
 10
-596792.17
 20
-1152103.25
 10
-596792.72
 20
-1152103.11
 10
-596810.5
 20
-1152098.7
 10
-596816.32
 20
-1152097.27
 10
-596828.26
 20
-1152094.32
 10
-596833.46
 20
-1152093.04
 10
-596854.54
 20
-1152091.91
 10
-596864.07
 20
-1152090.88
 10
-596873.94
 20
-1152096.99
 10
-596880.79
 20
-1152094.92
 10
-596902.41
 20
-1152096.62
 10
-596920.2
 20
-1152096.61
 10
-596960.18
 20
-1152113.37
 10
-596975.42
 20
-1152121.08
 10
-596981.97
 20
-1152130.66
 10
-596994.29
 20
-1152135
 10
-597017.77
 20
-1152142
 10
-597022.49
 20
-1152143.09
 10
-597031.77
 20
-1152146.37
 10
-597041.15
 20
-1152149.93
 10
-597048.18
 20
-1152153.12
 10
-597054.36
 20
-1152157.53
 10
-597063.74
 20
-1152166.62
 10
-597073.21
 20
-1152176.19
 10
-597076.21
 20
-1152183.78
 10
-597078.36
 20
-1152193.35
 10
-597077.87
 20
-1152200.69
 10
-597077.57
 20
-1152205.29
 10
-597076.55
 20
-1152220.58
 10
-597075.71
 20
-1152236.52
 10
-597078.71
 20
-1152246.93
 10
-597085.18
 20
-1152248.71
 10
-597097.93
 20
-1152248.14
 10
-597144.77
 20
-1152264.02
 10
-597157.9
 20
-1152259.3
 10
-597187.29
 20
-1152253.83
 10
-597197.89
 20
-1152253.2
 10
-597197.87
 20
-1152252.68
 10
-597196.75
 20
-1152227.55
 10
-597173.74
 20
-1152234.01
 10
-597155.38
 20
-1152238.76
 10
-597137.77
 20
-1152240.34
 10
-597123.76
 20
-1152236.44
 10
-597115.63
 20
-1152229.01
 10
-597108.9
 20
-1152220.56
 10
-597103.82
 20
-1152211.42
 10
-597098.54
 20
-1152197.91
 10
-597086.78
 20
-1152181.31
 10
-597070.81
 20
-1152163.85
 10
-597055.28
 20
-1152152.35
 10
-597049.75
 20
-1152148.13
 10
-596999.63
 20
-1152128.73
 10
-596966.24
 20
-1152109.16
 10
-596911.33
 20
-1152090.85
 10
-596851.5
 20
-1152079.52
 10
-596844.86
 20
-1152079.74
 10
-596826.06
 20
-1152082.8
 10
-596807.4
 20
-1152085.52
 10
-596805.77
 20
-1152085.76
 10
-596787.49
 20
-1152086.77
 10
-596771.52
 20
-1152089.45
 97
0
 75
0
 76
1
 98
0
  0
HATCH
  5
20040
100
AcDbEntity
  8
0
100
AcDbHatch
 10
0
 20
0
 30
0
210
0
220
0
230
1
  2
SOLID
 70
1
 71
0
 91
1
 92
2
 72
0
 73
1
 93
19
 10
-602791.24
 20
-1157311.3
 10
-602792.06
 20
-1157350.59
 10
-602798.74
 20
-1157350.29
 10
-602806.06
 20
-1157349.96
 10
-602814.07
 20
-1157349.55
 10
-602821.58
 20
-1157349.17
 10
-602821.79
 20
-1157349.54
 10
-602843.65
 20
-1157388.57
 10
-602864.63
 20
-1157387.34
 10
-602869.18
 20
-1157387.07
 10
-602874.88
 20
-1157386.74
 10
-602867.72
 20
-1157379.02
 10
-602867.36
 20
-1157379.01
 10
-602849.65
 20
-1157300.46
 10
-602844.43
 20
-1157301.55
 10
-602814.65
 20
-1157305.95
 10
-602802.44
 20
-1157308.1
 10
-602796.12
 20
-1157309.14
 10
-602791.24
 20
-1157311.3
 97
0
 75
0
 76
1
 98
0
  0
HATCH
  5
20041
100
AcDbEntity
  8
0
100
AcDbHatch
 10
0
 20
0
 30
0
210
0
220
0
230
1
  2
SOLID
 70
1
 71
0
 91
1
 92
2
 72
0
 73
1
 93
18
 10
-603144.64
 20
-1162287.9
 10
-603151.36
 20
-1162296.19
 10
-603172.05
 20
-1162305.41
 10
-603180.03
 20
-1162298.88
 10
-603151.35
 20
-1162248.62
 10
-603146.96
 20
-1162252.57
 10
-603146.28
 20
-1162253.18
 10
-603146.19
 20
-1162253.26
 10
-603141.29
 20
-1162259.8
 10
-603138.67
 20
-1162262.26
 10
-603135.52
 20
-1162265.21
 10
-603129.36
 20
-1162269.01
 10
-603118.6
 20
-1162277.03
 10
-603120.93
 20
-1162280.72
 10
-603125.63
 20
-1162279.7
 10
-603127.11
 20
-1162281.51
 10
-603129.19
 20
-1162281.62
 10
-603144.64
 20
-1162287.9
 97
0
 75
0
 76
1
 98
0
  0
HATCH
  5
20042
100
AcDbEntity
  8
0
100
AcDbHatch
 10
0
 20
0
 30
0
210
0
220
0
230
1
  2
SOLID
 70
1
 71
0
 91
1
 92
2
 72
0
 73
1
 93
47
 10
-597573.99
 20
-1152039.39
 10
-597543.82
 20
-1152052.47
 10
-597523.99
 20
-1152058.32
 10
-597517.32
 20
-1152060.51
 10
-597510.66
 20
-1152062.69
 10
-597505.91
 20
-1152064.24
 10
-597504.15
 20
-1152064.82
 10
-597499.95
 20
-1152065.22
 10
-597488.51
 20
-1152066.32
 10
-597475.54
 20
-1152068.02
 10
-597440.85
 20
-1152076.18
 10
-597430.38
 20
-1152078.64
 10
-597418.01
 20
-1152082.3
 10
-597419.51
 20
-1152103.23
 10
-597425.51
 20
-1152102.13
 10
-597433.37
 20
-1152100.7
 10
-597443.67
 20
-1152097.77
 10
-597491.5
 20
-1152084.14
 10
-597504.24
 20
-1152080.59
 10
-597510.02
 20
-1152078.97
 10
-597522.25
 20
-1152075.56
 10
-597550.9
 20
-1152067.57
 10
-597575.77
 20
-1152054.76
 10
-597598.82
 20
-1152047.8
 10
-597603.84
 20
-1152047.21
 10
-597619.2
 20
-1152045.4
 10
-597634.1
 20
-1152056.66
 10
-597637.94
 20
-1152055.22
 10
-597638.98
 20
-1152054.83
 10
-597639.71
 20
-1152054.55
 10
-597641.36
 20
-1152051.08
 10
-597642.07
 20
-1152049.6
 10
-597660.74
 20
-1152010.46
 10
-597674.99
 20
-1151977.7
 10
-597690.65
 20
-1151932.66
 10
-597685.86
 20
-1151930.58
 10
-597682.33
 20
-1151929.04
 10
-597659.89
 20
-1151919.3
 10
-597651.09
 20
-1151969.87
 10
-597647.51
 20
-1151985.04
 10
-597646.68
 20
-1151988.29
 10
-597644.53
 20
-1151996.65
 10
-597635.57
 20
-1152007.83
 10
-597607.53
 20
-1152024.59
 10
-597599.94
 20
-1152028
 10
-597591.42
 20
-1152031.83
 10
-597573.99
 20
-1152039.39
 97
0
 75
0
 76
1
 98
0
  0
HATCH
  5
20043
100
AcDbEntity
  8
0
100
AcDbHatch
 10
0
 20
0
 30
0
210
0
220
0
230
1
  2
SOLID
 70
1
 71
0
 91
1
 92
2
 72
0
 73
1
 93
203
 10
-601523.85
 20
-1155430.48
 10
-601520.21
 20
-1155438.89
 10
-601469.38
 20
-1155429.63
 10
-601459.32
 20
-1155427.8
 10
-601453.51
 20
-1155426.69
 10
-601438.13
 20
-1155423.76
 10
-601425.49
 20
-1155421.35
 10
-601393.64
 20
-1155415.67
 10
-601376.97
 20
-1155412.69
 10
-601371.47
 20
-1155411.71
 10
-601360.66
 20
-1155409.72
 10
-601344.25
 20
-1155406.7
 10
-601325.48
 20
-1155403.24
 10
-601316.54
 20
-1155401.69
 10
-601314.9
 20
-1155400.84
 10
-601291.23
 20
-1155388.6
 10
-601279.2
 20
-1155382.37
 10
-601269.42
 20
-1155377.31
 10
-601256.66
 20
-1155370.7
 10
-601253.1
 20
-1155368.86
 10
-601240.9
 20
-1155389.9
 10
-601238.58
 20
-1155393.91
 10
-601235.18
 20
-1155399.79
 10
-601233.6
 20
-1155402.51
 10
-601228.81
 20
-1155410.77
 10
-601223.85
 20
-1155419.33
 10
-601223.43
 20
-1155430.96
 10
-601223
 20
-1155442.85
 10
-601222.58
 20
-1155454.69
 10
-601221.77
 20
-1155477.03
 10
-601221.51
 20
-1155484.45
 10
-601221.13
 20
-1155495
 10
-601220.99
 20
-1155498.89
 10
-601219.84
 20
-1155530.69
 10
-601218.94
 20
-1155555.72
 10
-601218.04
 20
-1155580.85
 10
-601217.58
 20
-1155593.55
 10
-601217.06
 20
-1155608.05
 10
-601216.76
 20
-1155616.38
 10
-601216.12
 20
-1155625.23
 10
-601212.61
 20
-1155674.12
 10
-601208.82
 20
-1155726.83
 10
-601203.88
 20
-1155795.68
 10
-601203.75
 20
-1155797.41
 10
-601203.38
 20
-1155802.62
 10
-601202.86
 20
-1155809.83
 10
-601202.22
 20
-1155818.66
 10
-601201.52
 20
-1155828.43
 10
-601201.21
 20
-1155832.77
 10
-601203.65
 20
-1155843.47
 10
-601206.42
 20
-1155855.56
 10
-601207.67
 20
-1155861.02
 10
-601210.75
 20
-1155874.51
 10
-601212.52
 20
-1155882.27
 10
-601212.59
 20
-1155882.97
 10
-601213.18
 20
-1155889.14
 10
-601214.36
 20
-1155901.36
 10
-601216.15
 20
-1155919.86
 10
-601217.04
 20
-1155929.08
 10
-601217.95
 20
-1155938.54
 10
-601218.77
 20
-1155947.01
 10
-601219.43
 20
-1155953.87
 10
-601220.97
 20
-1155969.81
 10
-601222.55
 20
-1155986.23
 10
-601225.51
 20
-1156016.93
 10
-601227.34
 20
-1156035.87
 10
-601228.96
 20
-1156052.7
 10
-601231.33
 20
-1156077.23
 10
-601233.2
 20
-1156096.56
 10
-601235.43
 20
-1156119.72
 10
-601236.41
 20
-1156129.9
 10
-601236.85
 20
-1156134.38
 10
-601238.83
 20
-1156154.93
 10
-601239.59
 20
-1156162.83
 10
-601240.9
 20
-1156176.36
 10
-601242.62
 20
-1156194.21
 10
-601242.75
 20
-1156195.57
 10
-601323
 20
-1156201.24
 10
-601328.56
 20
-1156201.63
 10
-601358.92
 20
-1156203.84
 10
-601370.63
 20
-1156204.69
 10
-601377.1
 20
-1156205.16
 10
-601429.06
 20
-1156208.95
 10
-601429.41
 20
-1156205.19
 10
-601430.62
 20
-1156192.07
 10
-601431.92
 20
-1156178.02
 10
-601433.33
 20
-1156162.79
 10
-601435.19
 20
-1156142.74
 10
-601436.54
 20
-1156128.13
 10
-601437
 20
-1156123.21
 10
-601437.41
 20
-1156118.74
 10
-601438.05
 20
-1156111.95
 10
-601438.12
 20
-1156111.15
 10
-601442.79
 20
-1156102.7
 10
-601446.1
 20
-1156096.72
 10
-601453.14
 20
-1156083.98
 10
-601458.23
 20
-1156074.77
 10
-601463.84
 20
-1156064.64
 10
-601468.22
 20
-1156056.71
 10
-601475.4
 20
-1156043.73
 10
-601483.67
 20
-1156028.77
 10
-601492.27
 20
-1156013.21
 10
-601497.63
 20
-1156003.53
 10
-601501.62
 20
-1155996.31
 10
-601504.71
 20
-1155990.76
 10
-601506.74
 20
-1155987.11
 10
-601511.05
 20
-1155979.35
 10
-601513.79
 20
-1155974.42
 10
-601520.2
 20
-1155962.89
 10
-601526.36
 20
-1155951.79
 10
-601535.49
 20
-1155935.38
 10
-601538.79
 20
-1155929.43
 10
-601541.04
 20
-1155925.38
 10
-601541.92
 20
-1155923.8
 10
-601544.9
 20
-1155918.45
 10
-601547.71
 20
-1155913.38
 10
-601553.58
 20
-1155902.83
 10
-601560.22
 20
-1155890.9
 10
-601560.8
 20
-1155889.85
 10
-601566.39
 20
-1155879.76
 10
-601572.3
 20
-1155869.08
 10
-601577.05
 20
-1155860.49
 10
-601582.07
 20
-1155851.41
 10
-601587.15
 20
-1155842.23
 10
-601591.52
 20
-1155834.34
 10
-601593.51
 20
-1155830.74
 10
-601596.27
 20
-1155825.72
 10
-601604.15
 20
-1155811.37
 10
-601612.04
 20
-1155797
 10
-601621.5
 20
-1155779.78
 10
-601624.33
 20
-1155774.64
 10
-601625.69
 20
-1155772.18
 10
-601627.12
 20
-1155769.58
 10
-601633.6
 20
-1155757.84
 10
-601641.56
 20
-1155743.4
 10
-601644.71
 20
-1155737.7
 10
-601654.3
 20
-1155720.31
 10
-601654.92
 20
-1155719.18
 10
-601668.45
 20
-1155694.44
 10
-601675.7
 20
-1155681.17
 10
-601680.67
 20
-1155672.08
 10
-601683.72
 20
-1155666.51
 10
-601685.27
 20
-1155663.68
 10
-601686.82
 20
-1155660.84
 10
-601690.2
 20
-1155654.66
 10
-601690.94
 20
-1155651.24
 10
-601694.66
 20
-1155633.92
 10
-601699.81
 20
-1155609.96
 10
-601702.94
 20
-1155595.4
 10
-601704
 20
-1155590.49
 10
-601707.32
 20
-1155575.06
 10
-601708.53
 20
-1155569.43
 10
-601709.21
 20
-1155566.26
 10
-601711.25
 20
-1155556.75
 10
-601711.92
 20
-1155553.63
 10
-601715.13
 20
-1155538.72
 10
-601718.5
 20
-1155523.03
 10
-601718.52
 20
-1155522.92
 10
-601723.03
 20
-1155501.83
 10
-601726.16
 20
-1155487.14
 10
-601734.54
 20
-1155447.9
 10
-601737.94
 20
-1155431.96
 10
-601740.7
 20
-1155419.04
 10
-601743.64
 20
-1155405.28
 10
-601745.18
 20
-1155398.22
 10
-601746.15
 20
-1155393.78
 10
-601747.98
 20
-1155385.38
 10
-601750.74
 20
-1155372.77
 10
-601751.81
 20
-1155367.87
 10
-601755.53
 20
-1155350.8
 10
-601756.8
 20
-1155344.99
 10
-601758.07
 20
-1155339.19
 10
-601763.52
 20
-1155314.22
 10
-601766.06
 20
-1155302.57
 10
-601769.09
 20
-1155288.7
 10
-601771.06
 20
-1155279.7
 10
-601775.4
 20
-1155259.81
 10
-601771.68
 20
-1155259.42
 10
-601768.04
 20
-1155259.03
 10
-601725.86
 20
-1155254.56
 10
-601722.78
 20
-1155254.23
 10
-601692.37
 20
-1155251
 10
-601687.33
 20
-1155250.47
 10
-601606.13
 20
-1155240.99
 10
-601603.19
 20
-1155240.65
 10
-601601.09
 20
-1155245.68
 10
-601597.21
 20
-1155254.98
 10
-601590.07
 20
-1155272.09
 10
-601575.26
 20
-1155307.64
 10
-601566.29
 20
-1155329.19
 10
-601554.18
 20
-1155358.07
 10
-601544.96
 20
-1155380.11
 10
-601539.65
 20
-1155392.78
 10
-601539.07
 20
-1155394.14
 10
-601538.66
 20
-1155395.09
 10
-601537.81
 20
-1155397.11
 10
-601535.74
 20
-1155401.94
 10
-601533.47
 20
-1155407.27
 10
-601530.37
 20
-1155414.61
 10
-601529.04
 20
-1155417.76
 10
-601527.85
 20
-1155420.69
 10
-601524.28
 20
-1155429.49
 10
-601523.85
 20
-1155430.48
 97
0
 75
0
 76
1
 98
0
  0
HATCH
  5
20044
100
AcDbEntity
  8
0
100
AcDbHatch
 10
0
 20
0
 30
0
210
0
220
0
230
1
  2
SOLID
 70
1
 71
0
 91
1
 92
2
 72
0
 73
1
 93
7
 10
-599705.41
 20
-1160711.85
 10
-599733.57
 20
-1160721.74
 10
-599731.88
 20
-1160692.05
 10
-599714.86
 20
-1160689.63
 10
-599702.93
 20
-1160694.4
 10
-599700.21
 20
-1160700.22
 10
-599705.41
 20
-1160711.85
 97
0
 75
0
 76
1
 98
0
  0
HATCH
  5
20045
100
AcDbEntity
  8
0
100
AcDbHatch
 10
0
 20
0
 30
0
210
0
220
0
230
1
  2
SOLID
 70
1
 71
0
 91
1
 92
2
 72
0
 73
1
 93
73
 10
-598526.81
 20
-1153062.81
 10
-598517.83
 20
-1153087.52
 10
-598506.91
 20
-1153099.64
 10
-598499.26
 20
-1153116.32
 10
-598503.51
 20
-1153120.4
 10
-598506.72
 20
-1153126.66
 10
-598514.64
 20
-1153165.02
 10
-598521.55
 20
-1153186.84
 10
-598525.11
 20
-1153197.84
 10
-598529.26
 20
-1153210.69
 10
-598551.79
 20
-1153204.38
 10
-598564.57
 20
-1153204.08
 10
-598566.23
 20
-1153204.29
 10
-598573.42
 20
-1153207.36
 10
-598581.97
 20
-1153210.68
 10
-598585.69
 20
-1153211.54
 10
-598581.75
 20
-1153224.12
 10
-598577.04
 20
-1153247.38
 10
-598569.47
 20
-1153265.21
 10
-598565.43
 20
-1153272.98
 10
-598559.53
 20
-1153279.97
 10
-598583.53
 20
-1153312.51
 10
-598596.48
 20
-1153322.11
 10
-598592.3
 20
-1153328.11
 10
-598604.92
 20
-1153339.27
 10
-598616.15
 20
-1153354
 10
-598627.43
 20
-1153368.91
 10
-598640.59
 20
-1153380.19
 10
-598621.05
 20
-1153419
 10
-598628.66
 20
-1153423.1
 10
-598635.78
 20
-1153427.45
 10
-598632.23
 20
-1153434.75
 10
-598645.12
 20
-1153435.55
 10
-598646.8
 20
-1153432.34
 10
-598652.9
 20
-1153432.51
 10
-598653.83
 20
-1153430.63
 10
-598664.05
 20
-1153430.81
 10
-598673.25
 20
-1153430.98
 10
-598674.39
 20
-1153431
 10
-598677.78
 20
-1153439.82
 10
-598682.32
 20
-1153451.65
 10
-598688.68
 20
-1153438.27
 10
-598694.05
 20
-1153427.27
 10
-598701.7
 20
-1153411.6
 10
-598707.68
 20
-1153399.35
 10
-598715.94
 20
-1153382.43
 10
-598727.19
 20
-1153359.37
 10
-598764.85
 20
-1153290.72
 10
-598750.09
 20
-1153292.26
 10
-598743.31
 20
-1153292.84
 10
-598733.91
 20
-1153288.16
 10
-598724.41
 20
-1153283.69
 10
-598737.36
 20
-1153260.4
 10
-598690.57
 20
-1153215.37
 10
-598672.87
 20
-1153197.65
 10
-598667.58
 20
-1153188.27
 10
-598638.53
 20
-1153125.57
 10
-598618.53
 20
-1153090.33
 10
-598613.24
 20
-1153078.88
 10
-598602.87
 20
-1153064.16
 10
-598600.85
 20
-1153064.29
 10
-598599.22
 20
-1153064.51
 10
-598597.77
 20
-1153064.73
 10
-598596.23
 20
-1153064.99
 10
-598594.37
 20
-1153065.14
 10
-598592.37
 20
-1153065.41
 10
-598590.47
 20
-1153065.48
 10
-598587.63
 20
-1153065.54
 10
-598583.35
 20
-1153066.18
 10
-598545.06
 20
-1153067.23
 10
-598548.81
 20
-1153063.05
 10
-598538.39
 20
-1153061.2
 10
-598526.81
 20
-1153062.81
 97
0
 75
0
 76
1
 98
0
  0
HATCH
  5
20046
100
AcDbEntity
  8
0
100
AcDbHatch
 10
0
 20
0
 30
0
210
0
220
0
230
1
  2
SOLID
 70
1
 71
0
 91
1
 92
2
 72
0
 73
1
 93
84
 10
-605138.69
 20
-1154302.56
 10
-605130.14
 20
-1154310.78
 10
-605130.12
 20
-1154310.8
 10
-605127.73
 20
-1154311.97
 10
-605112.35
 20
-1154319.53
 10
-605101.43
 20
-1154322.09
 10
-605087.94
 20
-1154325.26
 10
-605079.25
 20
-1154329.63
 10
-605076.1
 20
-1154327.69
 10
-605075.95
 20
-1154327.6
 10
-605073.86
 20
-1154324.22
 10
-605072.55
 20
-1154322.11
 10
-605072.49
 20
-1154322.11
 10
-605067.52
 20
-1154322.41
 10
-605067.37
 20
-1154322.32
 10
-605066.01
 20
-1154321.48
 10
-605065.44
 20
-1154321.13
 10
-605065
 20
-1154320.58
 10
-605060.78
 20
-1154315.32
 10
-605060.56
 20
-1154315.51
 10
-605057.87
 20
-1154317.79
 10
-605055.45
 20
-1154319.85
 10
-605055.48
 20
-1154319.89
 10
-605059.21
 20
-1154324.45
 10
-605060.08
 20
-1154325.51
 10
-605058.25
 20
-1154330.6
 10
-605057.46
 20
-1154332.82
 10
-605057.32
 20
-1154332.86
 10
-605038.83
 20
-1154337.76
 10
-605038.76
 20
-1154337.8
 10
-605032.14
 20
-1154341.63
 10
-605018.14
 20
-1154349.72
 10
-605017.05
 20
-1154350.35
 10
-604999.31
 20
-1154363.33
 10
-604996.19
 20
-1154364.91
 10
-604985.16
 20
-1154370.5
 10
-604980.41
 20
-1154372.91
 10
-604976.97
 20
-1154376.69
 10
-604969.39
 20
-1154380.62
 10
-604966.58
 20
-1154386.19
 10
-604965
 20
-1154389.31
 10
-604964.76
 20
-1154389.79
 10
-604962.69
 20
-1154390.6
 10
-604960.9
 20
-1154391.31
 10
-604956.41
 20
-1154394.48
 10
-604954.98
 20
-1154396.27
 10
-604941.75
 20
-1154382.49
 10
-604926.88
 20
-1154372.98
 10
-604913.64
 20
-1154362.23
 10
-604907.31
 20
-1154359.34
 10
-604916.54
 20
-1154384.7
 10
-604918.5
 20
-1154393.63
 10
-604920.8
 20
-1154404.17
 10
-604920.87
 20
-1154404.49
 10
-604918.89
 20
-1154424.06
 10
-604918.83
 20
-1154424.62
 10
-604920.8
 20
-1154431.6
 10
-604920.83
 20
-1154431.69
 10
-604923.72
 20
-1154443.09
 10
-604926.98
 20
-1154442.85
 10
-604927.01
 20
-1154442.69
 10
-604928.43
 20
-1154433.65
 10
-604927.7
 20
-1154416.46
 10
-604926.28
 20
-1154403.63
 10
-604920.58
 20
-1154391.51
 10
-604920.93
 20
-1154386.16
 10
-604925.21
 20
-1154384.02
 10
-604936.25
 20
-1154390.08
 10
-604955.49
 20
-1154399.35
 10
-604971.53
 20
-1154398.28
 10
-604993.62
 20
-1154387.95
 10
-605004.3
 20
-1154373.69
 10
-605021.76
 20
-1154360.86
 10
-605035.66
 20
-1154350.17
 10
-605047.06
 20
-1154348.74
 10
-605070.93
 20
-1154338.05
 10
-605090.52
 20
-1154335.2
 10
-605124.73
 20
-1154320.94
 10
-605148.24
 20
-1154312.03
 10
-605142.11
 20
-1154303.91
 10
-605141.62
 20
-1154304.2
 10
-605140.6
 20
-1154301.92
 10
-605138.94
 20
-1154302.48
 10
-605138.69
 20
-1154302.56
 97
0
 75
0
 76
1
 98
0
  0
HATCH
  5
20047
100
AcDbEntity
  8
0
100
AcDbHatch
 10
0
 20
0
 30
0
210
0
220
0
230
1
  2
SOLID
 70
1
 71
0
 91
1
 92
2
 72
0
 73
1
 93
106
 10
-601127.99
 20
-1154793.03
 10
-601133.35
 20
-1154793.64
 10
-601138.55
 20
-1154794.24
 10
-601140.62
 20
-1154794.31
 10
-601144.55
 20
-1154794.44
 10
-601150.69
 20
-1154794.65
 10
-601158.3
 20
-1154793.93
 10
-601163.41
 20
-1154793.45
 10
-601165.91
 20
-1154793.21
 10
-601172.93
 20
-1154793.69
 10
-601157.41
 20
-1154851.73
 10
-601150.51
 20
-1154871.03
 10
-601132.32
 20
-1154921.93
 10
-601106.29
 20
-1154995.35
 10
-601120.82
 20
-1155014.21
 10
-601120.95
 20
-1155014.38
 10
-601153.13
 20
-1154975.4
 10
-601153.2
 20
-1154975.31
 10
-601163.05
 20
-1154976.12
 10
-601162.94
 20
-1154976.33
 10
-601147.95
 20
-1155005.91
 10
-601178.84
 20
-1154990.89
 10
-601197.15
 20
-1154981.98
 10
-601198.08
 20
-1154981.53
 10
-601198.1
 20
-1154981.48
 10
-601216.78
 20
-1154935.77
 10
-601216.87
 20
-1154935.8
 10
-601235.27
 20
-1154942.06
 10
-601238.77
 20
-1154942.72
 10
-601244.54
 20
-1154941.44
 10
-601251.73
 20
-1154939.85
 10
-601260.11
 20
-1154943.78
 10
-601265.07
 20
-1154945.62
 10
-601264.77
 20
-1154952.63
 10
-601264.59
 20
-1154954.28
 10
-601264.57
 20
-1154954.43
 10
-601279.07
 20
-1154956.37
 10
-601294.08
 20
-1154958.44
 10
-601307.21
 20
-1154960.25
 10
-601319.88
 20
-1154961.87
 10
-601320.26
 20
-1154961.97
 10
-601323.62
 20
-1154970.86
 10
-601330.72
 20
-1154990.69
 10
-601332.15
 20
-1154994.75
 10
-601342.94
 20
-1155002.58
 10
-601346.95
 20
-1155005.47
 10
-601346.96
 20
-1155005.48
 10
-601347.71
 20
-1155007.31
 10
-601357.33
 20
-1155030.97
 10
-601362.88
 20
-1155038.62
 10
-601363.22
 20
-1155039.08
 10
-601366.37
 20
-1155049.07
 10
-601369.48
 20
-1155058.92
 10
-601377.52
 20
-1155065.16
 10
-601406.97
 20
-1155087.85
 10
-601416.59
 20
-1155088.32
 10
-601443.96
 20
-1155089.08
 10
-601495.63
 20
-1155077.32
 10
-601494.5
 20
-1155103.41
 10
-601497.35
 20
-1155098.25
 10
-601498.98
 20
-1155093.64
 10
-601506.42
 20
-1155072.68
 10
-601522.6
 20
-1155027.02
 10
-601521.95
 20
-1155017.51
 10
-601520.66
 20
-1154998.72
 10
-601516.61
 20
-1154965.15
 10
-601506.58
 20
-1154904.55
 10
-601499.57
 20
-1154869.38
 10
-601502.61
 20
-1154841.78
 10
-601502.65
 20
-1154841.4
 10
-601499.77
 20
-1154810.68
 10
-601498.36
 20
-1154795.99
 10
-601497.32
 20
-1154790.51
 10
-601495.54
 20
-1154781.13
 10
-601486.01
 20
-1154746.62
 10
-601482.19
 20
-1154732.76
 10
-601481.98
 20
-1154732.15
 10
-601481.3
 20
-1154730.16
 10
-601240.9
 20
-1154518.12
 10
-601240.6
 20
-1154518.39
 10
-601238.96
 20
-1154521.43
 10
-601233.22
 20
-1154532.08
 10
-601232.97
 20
-1154532.55
 10
-601167.65
 20
-1154559.09
 10
-601129.84
 20
-1154574.97
 10
-601099.2
 20
-1154595.09
 10
-601079.52
 20
-1154629.88
 10
-601078.46
 20
-1154631.75
 10
-601076.24
 20
-1154640.18
 10
-601057.51
 20
-1154711.28
 10
-601045.43
 20
-1154735.02
 10
-601047.18
 20
-1154749.02
 10
-601049.11
 20
-1154764.33
 10
-601049.51
 20
-1154767.47
 10
-601054.73
 20
-1154768.73
 10
-601060.68
 20
-1154770.15
 10
-601070.15
 20
-1154772.43
 10
-601075.64
 20
-1154773.75
 10
-601079.8
 20
-1154775.37
 10
-601084.25
 20
-1154777.11
 10
-601089.16
 20
-1154779.02
 10
-601092.13
 20
-1154780.58
 10
-601106.06
 20
-1154787.92
 10
-601117.39
 20
-1154791.81
 10
-601122.36
 20
-1154792.38
 10
-601127.99
 20
-1154793.03
 97
0
 75
0
 76
1
 98
0
  0
HATCH
  5
20048
100
AcDbEntity
  8
0
100
AcDbHatch
 10
0
 20
0
 30
0
210
0
220
0
230
1
  2
SOLID
 70
1
 71
0
 91
1
 92
2
 72
0
 73
1
 93
131
 10
-597517.74
 20
-1155864.75
 10
-597492.34
 20
-1155871.64
 10
-597492.49
 20
-1155874.64
 10
-597478.56
 20
-1155878.7
 10
-597467.22
 20
-1155882
 10
-597452.16
 20
-1155909.04
 10
-597454.69
 20
-1155910.73
 10
-597465.56
 20
-1155918
 10
-597466.3
 20
-1155918.5
 10
-597475.59
 20
-1155919.47
 10
-597478.37
 20
-1155919.77
 10
-597478.41
 20
-1155919.77
 10
-597489.04
 20
-1155916.83
 10
-597548.71
 20
-1155900.29
 10
-597548.75
 20
-1155900.28
 10
-597554.86
 20
-1155902.47
 10
-597588.98
 20
-1155914.69
 10
-597589.19
 20
-1155914.63
 10
-597592.18
 20
-1155913.71
 10
-597599.93
 20
-1155911.33
 10
-597609.91
 20
-1155908.26
 10
-597620.47
 20
-1155913.76
 10
-597661.38
 20
-1155935.05
 10
-597669.39
 20
-1155940.53
 10
-597691.32
 20
-1155957.98
 10
-597701.74
 20
-1155972.1
 10
-597703.9
 20
-1155975.03
 10
-597707.17
 20
-1155979.46
 10
-597723.92
 20
-1156002.15
 10
-597724.23
 20
-1156002.4
 10
-597726.35
 20
-1156004.09
 10
-597739.13
 20
-1156014.33
 10
-597739.97
 20
-1156016
 10
-597747.22
 20
-1156030.34
 10
-597752
 20
-1156039.79
 10
-597752.31
 20
-1156040.04
 10
-597760.92
 20
-1156047.04
 10
-597764.15
 20
-1156049.66
 10
-597770.54
 20
-1156056.69
 10
-597782.98
 20
-1156070.4
 10
-597788.13
 20
-1156076.07
 10
-597788.15
 20
-1156076.11
 10
-597792.86
 20
-1156087.2
 10
-597809.62
 20
-1156126.66
 10
-597811.04
 20
-1156131.44
 10
-597809.85
 20
-1156142.21
 10
-597809.36
 20
-1156146.67
 10
-597799.61
 20
-1156170.65
 10
-597791.2
 20
-1156209.32
 10
-597784.48
 20
-1156222.44
 10
-597774.28
 20
-1156230.66
 10
-597775.17
 20
-1156234.57
 10
-597775.96
 20
-1156238.01
 10
-597777.12
 20
-1156243.07
 10
-597777.13
 20
-1156243.13
 10
-597758.62
 20
-1156288.82
 10
-597749.16
 20
-1156300.73
 10
-597740.73
 20
-1156317.41
 10
-597740.04
 20
-1156318.78
 10
-597737.97
 20
-1156328.27
 10
-597736.88
 20
-1156333.26
 10
-597736.87
 20
-1156333.45
 10
-597736.7
 20
-1156339.33
 10
-597736.56
 20
-1156344.33
 10
-597736.55
 20
-1156344.54
 10
-597735.15
 20
-1156347.51
 10
-597724.12
 20
-1156371.01
 10
-597702.93
 20
-1156389.56
 10
-597687.32
 20
-1156403.22
 10
-597687.14
 20
-1156403.38
 10
-597701.3
 20
-1156420.75
 10
-597707.95
 20
-1156423.27
 10
-597711.55
 20
-1156424.64
 10
-597715.86
 20
-1156428.65
 10
-597719.52
 20
-1156425
 10
-597722.79
 20
-1156421.73
 10
-597722.88
 20
-1156421.69
 10
-597726.47
 20
-1156420.02
 10
-597742.68
 20
-1156384.59
 10
-597755.6
 20
-1156346.96
 10
-597755.57
 20
-1156346.94
 10
-597750.76
 20
-1156343.42
 10
-597752.78
 20
-1156336.38
 10
-597755.32
 20
-1156327.54
 10
-597757.44
 20
-1156325.65
 10
-597765.25
 20
-1156318.7
 10
-597772.58
 20
-1156305.48
 10
-597798.75
 20
-1156249.9
 10
-597801.47
 20
-1156249.25
 10
-597809.63
 20
-1156247.29
 10
-597816.37
 20
-1156245.68
 10
-597811.52
 20
-1156219.2
 10
-597811.56
 20
-1156208.06
 10
-597811.56
 20
-1156207.97
 10
-597811.64
 20
-1156207.52
 10
-597816.37
 20
-1156179.36
 10
-597815.7
 20
-1156143.74
 10
-597815.31
 20
-1156123
 10
-597817.06
 20
-1156114.41
 10
-597805
 20
-1156085.27
 10
-597798.33
 20
-1156067.22
 10
-597791.63
 20
-1156045.07
 10
-597789.54
 20
-1156038.18
 10
-597787.11
 20
-1156035.33
 10
-597781.46
 20
-1156028.71
 10
-597779.89
 20
-1156026.87
 10
-597761.17
 20
-1156004.93
 10
-597755.27
 20
-1155998.02
 10
-597734.27
 20
-1155981.04
 10
-597731.81
 20
-1155978.95
 10
-597726.87
 20
-1155974.76
 10
-597726.77
 20
-1155974.67
 10
-597722.32
 20
-1155966.27
 10
-597722.77
 20
-1155961.31
 10
-597728.31
 20
-1155956.99
 10
-597712.37
 20
-1155942.78
 10
-597711.26
 20
-1155941.79
 10
-597691.7
 20
-1155920.45
 10
-597686.56
 20
-1155914.76
 10
-597680.62
 20
-1155908.19
 10
-597608.1
 20
-1155876.78
 10
-597595.61
 20
-1155874.39
 10
-597584.98
 20
-1155874.67
 10
-597583.49
 20
-1155867.56
 10
-597581.89
 20
-1155869.07
 10
-597578.75
 20
-1155870.09
 10
-597571.77
 20
-1155870.66
 10
-597545.97
 20
-1155867.12
 10
-597537.22
 20
-1155863.81
 10
-597527.66
 20
-1155863.27
 10
-597517.74
 20
-1155864.75
 97
0
 75
0
 76
1
 98
0
  0
HATCH
  5
20049
100
AcDbEntity
  8
0
100
AcDbHatch
 10
0
 20
0
 30
0
210
0
220
0
230
1
  2
SOLID
 70
1
 71
0
 91
1
 92
2
 72
0
 73
1
 93
27
 10
-603713.49
 20
-1155512.93
 10
-603674.6
 20
-1155524.98
 10
-603714.23
 20
-1155522.04
 10
-603726.47
 20
-1155521.19
 10
-603763.46
 20
-1155513.18
 10
-603789.92
 20
-1155503.79
 10
-603810.65
 20
-1155496.62
 10
-603814.41
 20
-1155498.21
 10
-603815.8
 20
-1155497.76
 10
-603820.66
 20
-1155504.66
 10
-603825.81
 20
-1155511.98
 10
-603829.95
 20
-1155517.85
 10
-603837.35
 20
-1155528.36
 10
-603839.84
 20
-1155527.11
 10
-603855.34
 20
-1155524.91
 10
-603870.05
 20
-1155523.67
 10
-603857.34
 20
-1155509.12
 10
-603844.86
 20
-1155494.56
 10
-603836.52
 20
-1155486.65
 10
-603828.44
 20
-1155484
 10
-603820.6
 20
-1155484.44
 10
-603808.1
 20
-1155486.82
 10
-603806.2
 20
-1155484.12
 10
-603800.8
 20
-1155476.46
 10
-603778.4
 20
-1155483.45
 10
-603743.52
 20
-1155503.63
 10
-603713.49
 20
-1155512.93
 97
0
 75
0
 76
1
 98
0
  0
HATCH
  5
2004A
100
AcDbEntity
  8
0
100
AcDbHatch
 10
0
 20
0
 30
0
210
0
220
0
230
1
  2
SOLID
 70
1
 71
0
 91
1
 92
2
 72
0
 73
1
 93
11
 10
-603699.81
 20
-1155370.33
 10
-603732.3
 20
-1155366.14
 10
-603732.64
 20
-1155369.66
 10
-603737.53
 20
-1155375.36
 10
-603738.62
 20
-1155376.63
 10
-603747.07
 20
-1155379.03
 10
-603730.12
 20
-1155343.59
 10
-603731.16
 20
-1155354.36
 10
-603649.43
 20
-1155378.15
 10
-603643.42
 20
-1155381.31
 10
-603699.81
 20
-1155370.33
 97
0
 75
0
 76
1
 98
0
  0
ENDSEC
  0
SECTION
  2
OBJECTS
  0
DICTIONARY
  5
C
330
0
100
AcDbDictionary
281
     1
  3
ACAD_GROUP
350
D
  3
ACAD_LAYOUT
350
1A
  3
ACAD_MLEADERSTYLE
350
43
  3
ACAD_PLOTSETTINGS
350
19
  3
ACAD_PLOTSTYLENAME
350
E
  3
ACAD_TABLESTYLE
350
42
  0
DICTIONARY
  5
D
102
{ACAD_REACTORS
330
C
102
}
330
C
100
AcDbDictionary
281
     1
  0
DICTIONARY
  5
1A
102
{ACAD_REACTORS
330
C
102
}
330
C
100
AcDbDictionary
281
     1
  3
Layout1
350
1E
  3
Model
350
22
  0
DICTIONARY
  5
43
102
{ACAD_REACTORS
330
C
102
}
330
C
100
AcDbDictionary
281
     1
  0
DICTIONARY
  5
19
102
{ACAD_REACTORS
330
C
102
}
330
C
100
AcDbDictionary
281
     1
  0
ACDBDICTIONARYWDFLT
  5
E
102
{ACAD_REACTORS
330
C
102
}
330
C
100
AcDbDictionary
281
     1
  3
Normal
350
F
100
AcDbDictionaryWithDefault
340
F
  0
DICTIONARY
  5
42
102
{ACAD_REACTORS
330
C
102
}
330
C
100
AcDbDictionary
281
     1
  0
LAYOUT
  5
1E
102
{ACAD_REACTORS
330
1A
102
}
330
1A
100
AcDbPlotSettings
  1

  2
none_device
  4

  6

 40
0.0
 41
0.0
 42
0.0
 43
0.0
 44
0.0
 45
0.0
 46
0.0
 47
0.0
 48
0.0
 49
0.0
140
0.0
141
0.0
142
1.0
143
1.0
 70
   688
 72
     0
 73
     0
 74
     5
  7

 75
    16
 76
     0
 77
     2
 78
   300
147
1.0
148
0.0
149
0.0
100
AcDbLayout
  1
Layout1
 70
     1
 71
     1
 10
0.0
 20
0.0
 11
12.0
 21
9.0
 12
0.0
 22
0.0
 32
0.0
 14
1.000000000000000E+20
 24
1.000000000000000E+20
 34
1.000000000000000E+20
 15
-1.000000000000000E+20
 25
-1.000000000000000E+20
 35
-1.000000000000000E+20
146
0.0
 13
0.0
 23
0.0
 33
0.0
 16
1.0
 26
0.0
 36
0.0
 17
0.0
 27
1.0
 37
0.0
 76
     0
330
1B
  0
LAYOUT
  5
22
102
{ACAD_REACTORS
330
1A
102
}
330
1A
100
AcDbPlotSettings
  1

  2
none_device
  4

  6

 40
0.0
 41
0.0
 42
0.0
 43
0.0
 44
0.0
 45
0.0
 46
0.0
 47
0.0
 48
0.0
 49
0.0
140
0.0
141
0.0
142
1.0
143
1.0
 70
  1712
 72
     0
 73
     0
 74
     0
  7

 75
     0
 76
     0
 77
     2
 78
   300
147
1.0
148
0.0
149
0.0
100
AcDbLayout
  1
Model
 70
     1
 71
     0
 10
0.0
 20
0.0
 11
12.0
 21
9.0
 12
0.0
 22
0.0
 32
0.0
 14
30.0
 24
49.75
 34
0.0
 15
130.5
 25
163.1318914119703
 35
0.0
146
0.0
 13
0.0
 23
0.0
 33
0.0
 16
1.0
 26
0.0
 36
0.0
 17
0.0
 27
1.0
 37
0.0
 76
     0
330
1F
331
29
  0
ENDSEC
  0
EOF
