  0
SECTION
  2
HEADER
  9
$ACADVER
  1
AC1018
  9
$ACADMAINTVER
 70
     0
  9
$DWGCODEPAGE
  3
ANSI_1252
  9
$EXTMIN
 10
16.461443225489
 20
49.1202687042514
 30
0.0
  9
$EXTMAX
 10
16.7057668033305
 20
49.2894532269644
 30
0.0
  9
$LIMMIN
 10
0.0
 20
0.0
  9
$LIMMAX
 10
12.0
 20
9.0
  9
$ORTHOMODE
 70
     0
  9
$REGENMODE
 70
     1
  9
$FILLMODE
 70
     1
  9
$QTEXTMODE
 70
     0
  9
$MIRRTEXT
 70
     1
  9
$LTSCALE
 40
1.0
  9
$ATTMODE
 70
     1
  9
$TEXTSIZE
 40
0.2
  9
$TRACEWID
 40
0.05
  9
$TEXTSTYLE
  7
Standard
  9
$CLAYER
  8
0
  9
$CELTYPE
  6
ByLayer
  9
$CECOLOR
 62
   256
  9
$CELTSCALE
 40
1.0
  9
$DISPSILH
 70
     0
  9
$LUNITS
 70
     2
  9
$LUPREC
 70
     4
  9
$SKETCHINC
 40
0.1
  9
$FILLETRAD
 40
0.5
  9
$AUNITS
 70
     0
  9
$AUPREC
 70
     0
  9
$MENU
  1
.
  9
$ELEVATION
 40
0.0
  9
$PELEVATION
 40
0.0
  9
$THICKNESS
 40
0.0
  9
$LIMCHECK
 70
     0
  9
$CHAMFERA
 40
0.5
  9
$CHAMFERB
 40
0.5
  9
$CHAMFERC
 40
1.0
  9
$CHAMFERD
 40
0.0
  9
$SKPOLY
 70
     0
  9
$ANGBASE
 50
0.0
  9
$ANGDIR
 70
     0
  9
$PDMODE
 70
     0
  9
$PDSIZE
 40
0.0
  9
$PLINEWID
 40
0.0
  9
$SPLFRAME
 70
     0
  9
$SPLINETYPE
 70
     6
  9
$SPLINESEGS
 70
     8
  9
$HANDSEED
  5
0002004B
  9
$SURFTAB1
 70
     6
  9
$SURFTAB2
 70
     6
  9
$SURFTYPE
 70
     6
  9
$SURFU
 70
     6
  9
$SURFV
 70
     6
  9
$UCSBASE
  2

  9
$UCSNAME
  2

  9
$UCSORG
 10
0.0
 20
0.0
 30
0.0
  9
$UCSXDIR
 10
1.0
 20
0.0
 30
0.0
  9
$UCSYDIR
 10
0.0
 20
1.0
 30
0.0
  9
$UCSORTHOREF
  2

  9
$UCSORTHOVIEW
 70
     0
  9
$UCSORGTOP
 10
0.0
 20
0.0
 30
0.0
  9
$UCSORGBOTTOM
 10
0.0
 20
0.0
 30
0.0
  9
$UCSORGLEFT
 10
0.0
 20
0.0
 30
0.0
  9
$UCSORGRIGHT
 10
0.0
 20
0.0
 30
0.0
  9
$UCSORGFRONT
 10
0.0
 20
0.0
 30
0.0
  9
$UCSORGBACK
 10
0.0
 20
0.0
 30
0.0
  9
$PUCSBASE
  2

  9
$PUCSNAME
  2

  9
$PUCSORG
 10
0.0
 20
0.0
 30
0.0
  9
$PUCSXDIR
 10
1.0
 20
0.0
 30
0.0
  9
$PUCSYDIR
 10
0.0
 20
1.0
 30
0.0
  9
$PUCSORTHOREF
  2

  9
$PUCSORTHOVIEW
 70
     0
  9
$PUCSORGTOP
 10
0.0
 20
0.0
 30
0.0
  9
$PUCSORGBOTTOM
 10
0.0
 20
0.0
 30
0.0
  9
$PUCSORGLEFT
 10
0.0
 20
0.0
 30
0.0
  9
$PUCSORGRIGHT
 10
0.0
 20
0.0
 30
0.0
  9
$PUCSORGFRONT
 10
0.0
 20
0.0
 30
0.0
  9
$PUCSORGBACK
 10
0.0
 20
0.0
 30
0.0
  9
$WORLDVIEW
 70
     1
  9
$SHADEDGE
 70
     3
  9
$SHADEDIF
 70
    70
  9
$TILEMODE
 70
     1
  9
$MAXACTVP
 70
    64
  9
$PINSBASE
 10
0.0
 20
0.0
 30
0.0
  9
$PLIMCHECK
 70
     0
  9
$PEXTMIN
 10
1.000000000000000E+20
 20
1.000000000000000E+20
 30
1.000000000000000E+20
  9
$PEXTMAX
 10
-1.000000000000000E+20
 20
-1.000000000000000E+20
 30
-1.000000000000000E+20
  9
$PLIMMIN
 10
0.0
 20
0.0
  9
$PLIMMAX
 10
12.0
 20
9.0
  9
$UNITMODE
 70
     0
  9
$VISRETAIN
 70
     1
  9
$PLINEGEN
 70
     0
  9
$PSLTSCALE
 70
     1
  9
$TREEDEPTH
 70
  3020
  9
$CMLSTYLE
  2
Standard
  9
$CMLJUST
 70
     0
  9
$CMLSCALE
 40
1.0
  9
$PROXYGRAPHICS
 70
     1
  9
$MEASUREMENT
 70
     0
  9
$CELWEIGHT
370
    -1
  9
$ENDCAPS
280
     0
  9
$JOINSTYLE
280
     0
  9
$LWDISPLAY
290
     0
  9
$INSUNITS
 70
     1
  9
$HYPERLINKBASE
  1

  9
$STYLESHEET
  1

  9
$XEDIT
290
     1
  9
$CEPSNTYPE
380
     0
  9
$PSTYLEMODE
290
     1
  9
$EXTNAMES
290
     1
  9
$PSVPSCALE
 40
0.0
  9
$OLESTARTUP
290
     0
  9
$SORTENTS
280
   127
  9
$INDEXCTL
280
     0
  9
$HIDETEXT
280
     1
  9
$XCLIPFRAME
290
     0
  9
$HALOGAP
280
     0
  9
$OBSCOLOR
 70
   257
  9
$OBSLTYPE
280
     0
  9
$INTERSECTIONDISPLAY
280
     0
  9
$INTERSECTIONCOLOR
 70
   257
  9
$DIMASSOC
280
     2
  9
$PROJECTNAME
  1

  0
ENDSEC
  0
SECTION
  2
CLASSES
  0
CLASS
  1
ACDBDICTIONARYWDFLT
  2
AcDbDictionaryWithDefault
  3
ObjectDBX Classes
 90
        0
 91
        4
280
     0
281
     0
  0
ENDSEC
  0
SECTION
  2
TABLES
  0
TABLE
  2
VPORT
  5
8
330
0
100
AcDbSymbolTable
 70
     1
  0
VPORT
  5
29
330
8
100
AcDbSymbolTableRecord
100
AcDbViewportTableRecord
  2
*Active
 70
     0
 10
0.0
 20
0.0
 11
1.0
 21
1.0
 12
80.25
 22
106.4409457059851
 13
0.0
 23
0.0
 14
0.5
 24
0.5
 15
0.5
 25
0.5
 16
0.0
 26
0.0
 36
1.0
 17
0.0
 27
0.0
 37
0.0
 40
113.3818914119703
 41
0.8863849310366128
 42
50.0
 43
0.0
 44
0.0
 50
0.0
 51
0.0
 71
     0
 72
  1000
 73
     1
 74
     3
 75
     0
 76
     0
 77
     0
 78
     0
281
     0
 65
     1
110
0.0
120
0.0
130
0.0
111
1.0
121
0.0
131
0.0
112
0.0
122
1.0
132
0.0
 79
     0
146
0.0
  0
ENDTAB
  0
TABLE
  2
LTYPE
  5
5
330
0
100
AcDbSymbolTable
 70
     1
  0
LTYPE
  5
14
330
5
100
AcDbSymbolTableRecord
100
AcDbLinetypeTableRecord
  2
ByBlock
 70
     0
  3

 72
    65
 73
     0
 40
0.0
  0
LTYPE
  5
15
330
5
100
AcDbSymbolTableRecord
100
AcDbLinetypeTableRecord
  2
ByLayer
 70
     0
  3

 72
    65
 73
     0
 40
0.0
  0
LTYPE
  5
16
330
5
100
AcDbSymbolTableRecord
100
AcDbLinetypeTableRecord
  2
Continuous
 70
     0
  3
Solid line
 72
    65
 73
     0
 40
0.0
  0
ENDTAB
  0
TABLE
  2
LAYER
  5
2
330
0
100
AcDbSymbolTable
 70
     1
  0
LAYER
  5
10
330
2
100
AcDbSymbolTableRecord
100
AcDbLayerTableRecord
  2
0
 70
     0
 62
     7
  6
Continuous
370
    -3
390
F
  0
ENDTAB
  0
TABLE
  2
STYLE
  5
3
330
0
100
AcDbSymbolTable
 70
     1
  0
STYLE
  5
11
330
3
100
AcDbSymbolTableRecord
100
AcDbTextStyleTableRecord
  2
Standard
 70
     0
 40
0.0
 41
1.0
 50
0.0
 71
     0
 42
0.2
  3
txt
  4

  0
ENDTAB
  0
TABLE
  2
VIEW
  5
6
330
0
100
AcDbSymbolTable
 70
     0
  0
ENDTAB
  0
TABLE
  2
UCS
  5
7
330
0
100
AcDbSymbolTable
 70
     0
  0
ENDTAB
  0
TABLE
  2
APPID
  5
9
330
0
100
AcDbSymbolTable
 70
     1
  0
APPID
  5
12
330
9
100
AcDbSymbolTableRecord
100
AcDbRegAppTableRecord
  2
ACAD
 70
     0
  0
ENDTAB
  0
TABLE
  2
DIMSTYLE
  5
A
330
0
100
AcDbSymbolTable
 70
     1
100
AcDbDimStyleTable
  0
DIMSTYLE
105
27
330
A
100
AcDbSymbolTableRecord
100
AcDbDimStyleTableRecord
  2
Standard
 70
     0
340
11
  0
ENDTAB
  0
TABLE
  2
BLOCK_RECORD
  5
1
330
0
100
AcDbSymbolTable
 70
     1
  0
BLOCK_RECORD
  5
1F
330
1
100
AcDbSymbolTableRecord
100
AcDbBlockTableRecord
  2
*Model_Space
340
22
  0
BLOCK_RECORD
  5
1B
330
1
100
AcDbSymbolTableRecord
100
AcDbBlockTableRecord
  2
*Paper_Space
340
1E
  0
ENDTAB
  0
ENDSEC
  0
SECTION
  2
BLOCKS
  0
BLOCK
  5
20
330
1F
100
AcDbEntity
  8
0
100
AcDbBlockBegin
  2
*Model_Space
 70
     0
 10
0.0
 20
0.0
 30
0.0
  3
*Model_Space
  1

  0
ENDBLK
  5
21
330
1F
100
AcDbEntity
  8
0
100
AcDbBlockEnd
  0
BLOCK
  5
1C
330
1B
100
AcDbEntity
 67
     1
  8
0
100
AcDbBlockBegin
  2
*Paper_Space
 70
     0
 10
0.0
 20
0.0
 30
0.0
  3
*Paper_Space
  1

  0
ENDBLK
  5
1D
330
1B
100
AcDbEntity
 67
     1
  8
0
100
AcDbBlockEnd
  0
ENDSEC
  0
SECTION
  2
ENTITIES
  0
HATCH
  5
20000
100
AcDbEntity
  8
0
100
AcDbHatch
 10
0
 20
0
 30
0
210
0
220
0
230
1
  2
SOLID
 70
1
 71
0
 91
1
 92
2
 72
0
 73
1
 93
39
 10
16.6529993805821
 20
49.2204106828346
 10
16.653207412065
 20
49.219955026473
 10
16.6534057004143
 20
49.219620963587
 10
16.65345553075
 20
49.2195369233636
 10
16.6535841177817
 20
49.2193271956767
 10
16.6537201347882
 20
49.2191235081985
 10
16.653784947167
 20
49.2190264137503
 10
16.6538661509738
 20
49.2189076817872
 10
16.6539034205549
 20
49.2188530555285
 10
16.6539939473592
 20
49.2187204186241
 10
16.6540770801773
 20
49.2186025459648
 10
16.6541101770457
 20
49.2185556753072
 10
16.6541279501496
 20
49.2185483347198
 10
16.6541318071019
 20
49.2185467070045
 10
16.6541470786066
 20
49.2185226390917
 10
16.6541838278854
 20
49.2184644488452
 10
16.6541977579595
 20
49.2184418240083
 10
16.6542436176115
 20
49.2183668196823
 10
16.6542661298934
 20
49.2183305995445
 10
16.6542946825737
 20
49.2182844941906
 10
16.6543432686897
 20
49.2182063354233
 10
16.654415596888
 20
49.2180979219178
 10
16.6543406095282
 20
49.2177269784613
 10
16.6543411861888
 20
49.2177243057628
 10
16.6542298741506
 20
49.217714387212
 10
16.65417618267
 20
49.2178682494144
 10
16.6539760572218
 20
49.2182775229717
 10
16.6537523488858
 20
49.2186857687618
 10
16.6534179426994
 20
49.2193015649142
 10
16.6532949051274
 20
49.2195422532204
 10
16.6532624340209
 20
49.2196096985085
 10
16.6531483524228
 20
49.2198555396478
 10
16.6530428057308
 20
49.2200931183405
 10
16.6529776674239
 20
49.2202620018607
 10
16.6529551275525
 20
49.220335392262
 10
16.6529545235932
 20
49.2203777678005
 10
16.6529628840306
 20
49.2203958122142
 10
16.6529809137435
 20
49.2204104676254
 10
16.6529993805821
 20
49.2204106828346
 97
0
 75
0
 76
1
 98
0
  0
HATCH
  5
20001
100
AcDbEntity
  8
0
100
AcDbHatch
 10
0
 20
0
 30
0
210
0
220
0
230
1
  2
SOLID
 70
1
 71
0
 91
1
 92
2
 72
0
 73
1
 93
134
 10
16.5130886421199
 20
49.1936459016397
 10
16.5131936487055
 20
49.1936403125546
 10
16.5132335127765
 20
49.1936454319362
 10
16.5132371656518
 20
49.1936458747319
 10
16.5133458461638
 20
49.1936604505471
 10
16.5134405503266
 20
49.1936727578605
 10
16.513594429507
 20
49.1936927446825
 10
16.5138065439869
 20
49.1937202529413
 10
16.5139147538337
 20
49.1937343421476
 10
16.513983114425
 20
49.193743222751
 10
16.5140265590604
 20
49.1937268876331
 10
16.5141137359578
 20
49.1936941475095
 10
16.5144630476532
 20
49.193562867891
 10
16.5144646673585
 20
49.1935622602935
 10
16.5146365904471
 20
49.1935063750681
 10
16.5148369601703
 20
49.1934413112666
 10
16.5148484962564
 20
49.1934375245634
 10
16.5149203275501
 20
49.1934065787816
 10
16.5150013760735
 20
49.1933716800426
 10
16.5150772180372
 20
49.1933390314767
 10
16.51508451667
 20
49.193308526178
 10
16.5151056005884
 20
49.193219394555
 10
16.5151056155046
 20
49.1932193051623
 10
16.5151232088278
 20
49.1931453018722
 10
16.5151605816648
 20
49.1929875011805
 10
16.5151614041987
 20
49.192983398889
 10
16.5151721332714
 20
49.1929265436778
 10
16.5151946764807
 20
49.1928278372309
 10
16.5152012823784
 20
49.1927990010576
 10
16.5152038982474
 20
49.1927510628422
 10
16.5152022110078
 20
49.1926916894017
 10
16.5152034329484
 20
49.192638042644
 10
16.5152060661329
 20
49.1925163792614
 10
16.5152081884475
 20
49.1924192848853
 10
16.5152087332932
 20
49.1923903761439
 10
16.5152499354726
 20
49.1923345290468
 10
16.5153138654277
 20
49.1922500061926
 10
16.5153788372549
 20
49.1921642010635
 10
16.5153900103892
 20
49.1921493519725
 10
16.5154307494456
 20
49.1920846968474
 10
16.5154921742836
 20
49.1919870583485
 10
16.5155682048791
 20
49.1918664038043
 10
16.5156326168509
 20
49.1917640944207
 10
16.5156420720632
 20
49.1917471320317
 10
16.5156957580395
 20
49.1916512003724
 10
16.5155514069256
 20
49.1915882057918
 10
16.5155249061516
 20
49.1915766270152
 10
16.5153603501585
 20
49.1915048566251
 10
16.5153375810931
 20
49.1914949021918
 10
16.5144368400415
 20
49.1911020525537
 10
16.5127893026101
 20
49.1903667177151
 10
16.5127366404611
 20
49.1904267177926
 10
16.5127238750247
 20
49.1904411811074
 10
16.5126826185243
 20
49.1904882486795
 10
16.5126609704986
 20
49.1905129305853
 10
16.5126451084778
 20
49.1905310617482
 10
16.5125985665835
 20
49.1905849873212
 10
16.5125511892292
 20
49.1906381292824
 10
16.5125404631879
 20
49.1906502963277
 10
16.5124962909263
 20
49.190700773287
 10
16.5124947501054
 20
49.190702562517
 10
16.5124574208836
 20
49.1907451171249
 10
16.5124468610254
 20
49.1907571151555
 10
16.5124169929187
 20
49.1907905252597
 10
16.5124105589394
 20
49.1907984769282
 10
16.5123767800808
 20
49.1908371248191
 10
16.512359225712
 20
49.1908571247834
 10
16.5123391032756
 20
49.1908801067915
 10
16.5123241318525
 20
49.1908970353114
 10
16.5122939630628
 20
49.1909314189204
 10
16.5122866510278
 20
49.1909396694758
 10
16.5122501675228
 20
49.1909812895949
 10
16.5122268269158
 20
49.1910078402569
 10
16.5121968093013
 20
49.1910421442268
 10
16.5121714141782
 20
49.191071080512
 10
16.5121437983326
 20
49.1911025714305
 10
16.5120536802751
 20
49.1911157400266
 10
16.5120234036485
 20
49.1911201728386
 10
16.5119530813817
 20
49.1911305090575
 10
16.5119271671088
 20
49.1911344404832
 10
16.5118559220133
 20
49.191145343711
 10
16.511839957884
 20
49.1911475461093
 10
16.5117575479063
 20
49.19115918656
 10
16.5117419780155
 20
49.1911615076767
 10
16.5116594933825
 20
49.191173595019
 10
16.5115925786154
 20
49.1911833612078
 10
16.5115447479308
 20
49.1911904250283
 10
16.5115040240525
 20
49.1911623562781
 10
16.5114336067248
 20
49.1911947581913
 10
16.5113815917879
 20
49.1912186192872
 10
16.5113451959853
 20
49.1912357301738
 10
16.5113399319893
 20
49.1912391521161
 10
16.5111906175091
 20
49.1913357331791
 10
16.5111384610885
 20
49.1913695349013
 10
16.5110801326858
 20
49.1914072361995
 10
16.5110352519962
 20
49.1914363128174
 10
16.5109877392316
 20
49.1914671003808
 10
16.5109165680157
 20
49.1915131077949
 10
16.5108733963576
 20
49.1915410404481
 10
16.5108574570188
 20
49.1915530144426
 10
16.5107840814046
 20
49.1916080908765
 10
16.5107125810968
 20
49.1916618543618
 10
16.5106180633818
 20
49.1917327833158
 10
16.5112770818746
 20
49.1924151791108
 10
16.5114817288736
 20
49.1926469633808
 10
16.5113759523692
 20
49.1927001692202
 10
16.5112490807909
 20
49.1927639842542
 10
16.5110962867378
 20
49.1928408665897
 10
16.5109539053878
 20
49.1929132486344
 10
16.510859736567
 20
49.1929614064109
 10
16.5107898276059
 20
49.1929626350557
 10
16.5106731308039
 20
49.1929646696612
 10
16.5106271692477
 20
49.1929745811447
 10
16.5106010598896
 20
49.1929796743694
 10
16.5104249029427
 20
49.1930162530303
 10
16.5103065057871
 20
49.1930408714176
 10
16.510276010515
 20
49.1930730601675
 10
16.5106865189538
 20
49.1934789135877
 10
16.5109980299703
 20
49.1937907317867
 10
16.5116304305018
 20
49.1944153086241
 10
16.5117399627654
 20
49.1942833980466
 10
16.511869944531
 20
49.1941786449262
 10
16.5119914581301
 20
49.1940807929009
 10
16.5120086810787
 20
49.1940669205801
 10
16.5121109631006
 20
49.1939974516468
 10
16.5122514072705
 20
49.1939019517897
 10
16.5123817167743
 20
49.1938134144673
 10
16.5124178522091
 20
49.1937887761207
 10
16.5125510121446
 20
49.1937187163737
 10
16.5128039961947
 20
49.1936601418921
 10
16.5128723247842
 20
49.1936568084923
 10
16.5129504100246
 20
49.1936529080537
 10
16.5130383733876
 20
49.1936485397272
 10
16.5130886421199
 20
49.1936459016397
 97
0
 75
0
 76
1
 98
0
  0
HATCH
  5
20002
100
AcDbEntity
  8
0
100
AcDbHatch
 10
0
 20
0
 30
0
210
0
220
0
230
1
  2
SOLID
 70
1
 71
0
 91
1
 92
2
 72
0
 73
1
 93
67
 10
16.5550836337235
 20
49.1637967829205
 10
16.5550836337235
 20
49.1637967829205
 10
16.5550355822667
 20
49.1637962483386
 10
16.5549081010081
 20
49.1637947488926
 10
16.5549054663651
 20
49.1637948322381
 10
16.5547565065669
 20
49.1638005741072
 10
16.5547164444195
 20
49.1638025996289
 10
16.5546545725541
 20
49.1638080437447
 10
16.5544514761462
 20
49.1638316312539
 10
16.5540735197081
 20
49.1639347330585
 10
16.5538000985677
 20
49.164042943208
 10
16.5536413114812
 20
49.1641112118679
 10
16.5533611463504
 20
49.1642317846738
 10
16.5533225266972
 20
49.1642483858673
 10
16.5532013620455
 20
49.1643010671181
 10
16.5532226441694
 20
49.1643249292014
 10
16.5532410227269
 20
49.1643455084739
 10
16.5532611197114
 20
49.1643682004642
 10
16.5532263412364
 20
49.1643699694537
 10
16.5531051803639
 20
49.164379412314
 10
16.55298179258
 20
49.1644064257201
 10
16.5528902675562
 20
49.1644292910116
 10
16.5528586966952
 20
49.164439158652
 10
16.5527478882136
 20
49.1644826284463
 10
16.5526346878214
 20
49.1645263796864
 10
16.5525724062946
 20
49.1645542269464
 10
16.5525226120128
 20
49.1645758194663
 10
16.5522817628443
 20
49.1646855375686
 10
16.55213877153
 20
49.1647508614964
 10
16.5518661069613
 20
49.1648793841457
 10
16.551746417371
 20
49.1649347926556
 10
16.551593735069
 20
49.1650053038766
 10
16.5515336616086
 20
49.1650281522234
 10
16.5513976195565
 20
49.1651654329368
 10
16.5512099198041
 20
49.1654011518994
 10
16.5512115381389
 20
49.165400543783
 10
16.551267056794
 20
49.1653785463143
 10
16.5516022059922
 20
49.1652716727237
 10
16.5515094008624
 20
49.1651850825779
 10
16.5515102781876
 20
49.1651847833841
 10
16.5515922404289
 20
49.1651547233851
 10
16.5517445785749
 20
49.1650987512159
 10
16.5520230882013
 20
49.1649965168544
 10
16.5521526624149
 20
49.1649488694027
 10
16.5532585866057
 20
49.1645446827057
 10
16.5533801737056
 20
49.164500263123
 10
16.5534049931831
 20
49.1644911798403
 10
16.553504149516
 20
49.1644547475273
 10
16.553559671657
 20
49.164434377578
 10
16.5536280221611
 20
49.1644056966187
 10
16.5536595965562
 20
49.1643924821149
 10
16.5537085156449
 20
49.1643720026274
 10
16.5537411332942
 20
49.1643583198247
 10
16.5538047502706
 20
49.1643315623445
 10
16.5538303819607
 20
49.164320908724
 10
16.5538438557735
 20
49.164315357503
 10
16.5539008039026
 20
49.1642913804453
 10
16.5539719964053
 20
49.1642613643845
 10
16.5543069555728
 20
49.16412063933
 10
16.5543712832307
 20
49.1640937513877
 10
16.554426719249
 20
49.1640705707562
 10
16.5545120042543
 20
49.1640345949963
 10
16.5545486285932
 20
49.1640192078961
 10
16.5545847994303
 20
49.1640040597911
 10
16.5547647611652
 20
49.1639287077123
 10
16.5548257896982
 20
49.1639025791276
 10
16.5550836337235
 20
49.1637967829205
 97
0
 75
0
 76
1
 98
0
  0
HATCH
  5
20003
100
AcDbEntity
  8
0
100
AcDbHatch
 10
0
 20
0
 30
0
210
0
220
0
230
1
  2
SOLID
 70
1
 71
0
 91
1
 92
2
 72
0
 73
1
 93
98
 10
16.5453144782475
 20
49.1889375588733
 10
16.5453961605757
 20
49.1885798415451
 10
16.5454672401669
 20
49.1883863623802
 10
16.5455688251947
 20
49.1881579739421
 10
16.5456975764657
 20
49.1878790598797
 10
16.5457284016341
 20
49.1878306047353
 10
16.5457794178729
 20
49.1877760834669
 10
16.5458316259386
 20
49.1877293362181
 10
16.5421755288664
 20
49.1874523583793
 10
16.5420509617147
 20
49.1874429159562
 10
16.5415460352569
 20
49.1865149193826
 10
16.5413137998358
 20
49.1860948805855
 10
16.5411252018149
 20
49.1857950125674
 10
16.5410828260521
 20
49.1858041964716
 10
16.5407714293053
 20
49.1859805014732
 10
16.5403435454777
 20
49.1860523238634
 10
16.5399504549403
 20
49.1861514169732
 10
16.5395661588363
 20
49.1862581931656
 10
16.5391715797829
 20
49.1863570870033
 10
16.5387131762906
 20
49.1864721327831
 10
16.5383436631856
 20
49.186569649574
 10
16.5380501956514
 20
49.1866745912606
 10
16.5376881780128
 20
49.186766852559
 10
16.5372948862903
 20
49.1868828388495
 10
16.5365740639175
 20
49.1871193284071
 10
16.5364045636108
 20
49.1871891660534
 10
16.5371388397139
 20
49.1875071582614
 10
16.5371822280353
 20
49.1875259094289
 10
16.5373345127057
 20
49.1875918853953
 10
16.5374924931553
 20
49.1875398574405
 10
16.5377192802514
 20
49.1879211615964
 10
16.5382742982556
 20
49.1888538446922
 10
16.5383553090455
 20
49.1889898958228
 10
16.5384278411899
 20
49.1890400381338
 10
16.5385935634414
 20
49.1889721887262
 10
16.5388078585008
 20
49.1887923852351
 10
16.5388501505092
 20
49.1887505403371
 10
16.5388380710593
 20
49.188744339929
 10
16.5390428664019
 20
49.1885602388134
 10
16.5390192267424
 20
49.1883356587797
 10
16.5392130830177
 20
49.1883218332567
 10
16.5395177175735
 20
49.1883115823632
 10
16.5397169576886
 20
49.188222245907
 10
16.5398141092739
 20
49.1882480041833
 10
16.5399772842676
 20
49.1882726007609
 10
16.5399927494335
 20
49.1882617653903
 10
16.5400227884028
 20
49.1882794709301
 10
16.540225692351
 20
49.1883099818337
 10
16.5404352846034
 20
49.1883185365577
 10
16.5406193648964
 20
49.1883468875061
 10
16.5408343487592
 20
49.1884458330346
 10
16.5409516338935
 20
49.1884658826844
 10
16.541122267727
 20
49.1885394058252
 10
16.5413475164443
 20
49.188592407117
 10
16.5414552301754
 20
49.1886708417329
 10
16.5414997574505
 20
49.188713463042
 10
16.5415284320337
 20
49.1887402069541
 10
16.5415581460684
 20
49.1887507425978
 10
16.5416130558846
 20
49.1887707673751
 10
16.5416726883075
 20
49.1887989089653
 10
16.5418190139857
 20
49.1888459990235
 10
16.5418497030052
 20
49.1888772287642
 10
16.5418878863879
 20
49.1889115267623
 10
16.5420176570814
 20
49.1889552627629
 10
16.5421776005234
 20
49.1890582334496
 10
16.542326679887
 20
49.1891559952717
 10
16.5424003048195
 20
49.1892053987241
 10
16.5424690191075
 20
49.1892494760979
 10
16.5426161849243
 20
49.1893122743029
 10
16.5427293752389
 20
49.1893586241654
 10
16.5428596691856
 20
49.1893900941308
 10
16.5429850208806
 20
49.1894205776831
 10
16.54308501384
 20
49.1894334194345
 10
16.5431888555342
 20
49.1894463551036
 10
16.5432943083221
 20
49.1894844626905
 10
16.5433411060816
 20
49.1895068017426
 10
16.5434186969768
 20
49.1895215708521
 10
16.5434209710396
 20
49.1895220046638
 10
16.5435602160974
 20
49.1895569173594
 10
16.5437724579318
 20
49.1896383832316
 10
16.5439287385998
 20
49.1897078008425
 10
16.5439932722006
 20
49.1897280594333
 10
16.5440605320129
 20
49.1897667852457
 10
16.5441090440335
 20
49.1897896082141
 10
16.5442112310955
 20
49.1898481965162
 10
16.5442952642228
 20
49.1899105537736
 10
16.5443913292225
 20
49.1899968370977
 10
16.5444317029342
 20
49.1900470302037
 10
16.5444636636253
 20
49.1899834593713
 10
16.5446110790708
 20
49.1898737689944
 10
16.5447961950432
 20
49.1898170656423
 10
16.544944329305
 20
49.1898126289393
 10
16.5449726143216
 20
49.1896624081095
 10
16.5450540612325
 20
49.1894364713121
 10
16.5451245756159
 20
49.1894041479978
 10
16.5451457027201
 20
49.1893874747413
 10
16.545261205866
 20
49.1891002875973
 10
16.5453144782475
 20
49.1889375588733
 97
0
 75
0
 76
1
 98
0
  0
HATCH
  5
20004
100
AcDbEntity
  8
0
100
AcDbHatch
 10
0
 20
0
 30
0
210
0
220
0
230
1
  2
SOLID
 70
1
 71
0
 91
1
 92
2
 72
0
 73
1
 93
13
 10
16.6554807604735
 20
49.2205695797173
 10
16.6552122213793
 20
49.2205921868715
 10
16.6548814287791
 20
49.2206197259326
 10
16.6550133636178
 20
49.2206874416075
 10
16.6550140901296
 20
49.220687221429
 10
16.6550816716803
 20
49.220664123076
 10
16.6551117022847
 20
49.2206552937776
 10
16.6551129454482
 20
49.2206552908608
 10
16.6552048942291
 20
49.2206578755381
 10
16.6552972671885
 20
49.2206603995622
 10
16.655339920115
 20
49.2206503786812
 10
16.6554476201123
 20
49.2206251302533
 10
16.6554807604735
 20
49.2205695797173
 97
0
 75
0
 76
1
 98
0
  0
HATCH
  5
20005
100
AcDbEntity
  8
0
100
AcDbHatch
 10
0
 20
0
 30
0
210
0
220
0
230
1
  2
SOLID
 70
1
 71
0
 91
1
 92
2
 72
0
 73
1
 93
15
 10
16.65089534016
 20
49.1726223285229
 10
16.6512814606699
 20
49.1727071671409
 10
16.6510764594749
 20
49.1730647111407
 10
16.6510319832862
 20
49.1731281423308
 10
16.6510320431147
 20
49.1731420750127
 10
16.6505393186514
 20
49.1740014675012
 10
16.6502577245399
 20
49.1744886437979
 10
16.6501709967443
 20
49.1746414394311
 10
16.6500660958974
 20
49.1748259658458
 10
16.6500313594957
 20
49.1748871894156
 10
16.6493161108945
 20
49.1746709652179
 10
16.6496707763433
 20
49.1742110120712
 10
16.6496958510386
 20
49.1741784113508
 10
16.6505812031096
 20
49.1730296087762
 10
16.65089534016
 20
49.1726223285229
 97
0
 75
0
 76
1
 98
0
  0
HATCH
  5
20006
100
AcDbEntity
  8
0
100
AcDbHatch
 10
0
 20
0
 30
0
210
0
220
0
230
1
  2
SOLID
 70
1
 71
0
 91
1
 92
2
 72
0
 73
1
 93
111
 10
16.6555852212641
 20
49.2148301633631
 10
16.6553812642501
 20
49.2147067276846
 10
16.6552907648967
 20
49.2146844373164
 10
16.6551288091109
 20
49.2145406241303
 10
16.6551153835621
 20
49.2145332572842
 10
16.6548646506712
 20
49.2145072808242
 10
16.6549070804162
 20
49.2143547058051
 10
16.6546985377932
 20
49.2143374882116
 10
16.6548749966206
 20
49.2142422863737
 10
16.6548747000907
 20
49.2142407279534
 10
16.6549486750206
 20
49.214204694838
 10
16.6549492853974
 20
49.2142026576187
 10
16.6549498606629
 20
49.2142025172402
 10
16.655404716565
 20
49.2141060258072
 10
16.6555512166658
 20
49.2140545683987
 10
16.6555776991347
 20
49.2140463034164
 10
16.6558149025624
 20
49.213957819424
 10
16.6558487440556
 20
49.2139619206154
 10
16.6558539201177
 20
49.2139438346108
 10
16.6559158281152
 20
49.2139106595057
 10
16.6559041838785
 20
49.2138991673289
 10
16.6558664093494
 20
49.2138744394692
 10
16.6557880000577
 20
49.2138230638907
 10
16.6557435923209
 20
49.2137966931723
 10
16.6557171386847
 20
49.2138157229757
 10
16.6557121679992
 20
49.2138132023439
 10
16.6557105111042
 20
49.2138123621333
 10
16.6556640109232
 20
49.2137886477951
 10
16.6556680288108
 20
49.2137860365111
 10
16.6556953982673
 20
49.2137681565234
 10
16.6556917483837
 20
49.2137660002196
 10
16.6556464587323
 20
49.2137391151427
 10
16.6555751132161
 20
49.2137734344545
 10
16.6555376174185
 20
49.2137857174524
 10
16.6554968007754
 20
49.2138005703554
 10
16.6554555159902
 20
49.213815752056
 10
16.6554191017618
 20
49.2138290156106
 10
16.6554013260852
 20
49.213835542098
 10
16.6553541809429
 20
49.2138435278596
 10
16.6553115938602
 20
49.2138506587911
 10
16.6552623281357
 20
49.2138589474151
 10
16.6551953128716
 20
49.2138702370232
 10
16.6551579808946
 20
49.2138764717326
 10
16.6551131073799
 20
49.2138840746985
 10
16.6550856829127
 20
49.2138947152156
 10
16.6550398340707
 20
49.2139124695892
 10
16.6550029706588
 20
49.2139267867169
 10
16.6549665606775
 20
49.2139408644332
 10
16.6549286685085
 20
49.2139555613153
 10
16.6548897476015
 20
49.2139706379625
 10
16.6548867125631
 20
49.2139672587191
 10
16.6547907721151
 20
49.2140059053948
 10
16.6547531630297
 20
49.2140197177256
 10
16.6547176598171
 20
49.2140333165655
 10
16.6546846674765
 20
49.2140459164447
 10
16.6546432795433
 20
49.2140617237271
 10
16.6546467871407
 20
49.2140655884728
 10
16.6546466359892
 20
49.2140656682723
 10
16.6546401613699
 20
49.2140681065232
 10
16.6546052626982
 20
49.2140813861306
 10
16.6545639187225
 20
49.2140969251533
 10
16.6545597874082
 20
49.2140926547082
 10
16.6545574276636
 20
49.214093573856
 10
16.6545201398638
 20
49.2141079514062
 10
16.6544812333838
 20
49.2141229385049
 10
16.6544433556027
 20
49.2141375458168
 10
16.6544057156292
 20
49.2141540691795
 10
16.6543641968268
 20
49.2141681487305
 10
16.654323369285
 20
49.2141839049327
 10
16.6542824243461
 20
49.2142003764034
 10
16.6542433812405
 20
49.2142153538103
 10
16.6542053668374
 20
49.2142299514325
 10
16.654203597019
 20
49.2142306407879
 10
16.6541940341024
 20
49.2142199280955
 10
16.6540849290058
 20
49.2142630737689
 10
16.6541274115594
 20
49.2143062225282
 10
16.6541259147001
 20
49.2143069311056
 10
16.6538514380675
 20
49.2144273364061
 10
16.6538155715579
 20
49.2143909845368
 10
16.653815420404
 20
49.2143910643352
 10
16.6537995550568
 20
49.2143977251425
 10
16.6537710060151
 20
49.2143689432048
 10
16.6537265936137
 20
49.2144057010046
 10
16.653855532765
 20
49.2145168021927
 10
16.6540631306369
 20
49.2146415826202
 10
16.6540647581879
 20
49.214642601675
 10
16.6545138756884
 20
49.2147519204931
 10
16.6545165128732
 20
49.2147518348731
 10
16.6545226208101
 20
49.2147516318893
 10
16.6547433062851
 20
49.2147436570281
 10
16.654788728354
 20
49.2147419716036
 10
16.6548203892295
 20
49.2147408546745
 10
16.6549663743413
 20
49.2147750115472
 10
16.6552458377924
 20
49.2148985189827
 10
16.6554750339448
 20
49.215016225184
 10
16.6556677998256
 20
49.2152272358067
 10
16.6560545049773
 20
49.2153593770294
 10
16.6563426765907
 20
49.2155106274644
 10
16.6564550867619
 20
49.2158260485398
 10
16.6563868226022
 20
49.2162202783509
 10
16.656594719921
 20
49.2163584599236
 10
16.6566085402117
 20
49.2163575335565
 10
16.6566169054776
 20
49.2163570371471
 10
16.6566347734623
 20
49.2156531090667
 10
16.6564721157835
 20
49.2153359595589
 10
16.6564708593292
 20
49.2153335195768
 10
16.6563131511858
 20
49.2151747225835
 10
16.6562606377015
 20
49.2151438924373
 10
16.6561170540597
 20
49.2150504851553
 10
16.6557768027549
 20
49.2148859800566
 10
16.6555852212641
 20
49.2148301633631
 97
0
 75
0
 76
1
 98
0
  0
HATCH
  5
20007
100
AcDbEntity
  8
0
100
AcDbHatch
 10
0
 20
0
 30
0
210
0
220
0
230
1
  2
SOLID
 70
1
 71
0
 91
1
 92
2
 72
0
 73
1
 93
25
 10
16.6939074958756
 20
49.1929484156641
 10
16.6938346944118
 20
49.1928643587355
 10
16.6928357169772
 20
49.1930194218588
 10
16.6920115793693
 20
49.1931676544183
 10
16.6920360765193
 20
49.1932255348583
 10
16.6920478108279
 20
49.1932533989645
 10
16.6920628358147
 20
49.1932890002565
 10
16.69208102966
 20
49.193332239751
 10
16.6920925629874
 20
49.1933545729741
 10
16.692123146401
 20
49.1934140558641
 10
16.692126505011
 20
49.193420531666
 10
16.6921520432808
 20
49.1934703455527
 10
16.6921596964615
 20
49.193485171564
 10
16.6921901727983
 20
49.1935444660374
 10
16.6921971241868
 20
49.1935585193226
 10
16.6922231651193
 20
49.1936111720387
 10
16.6924482371805
 20
49.1935376000897
 10
16.6926403885829
 20
49.1935186055866
 10
16.6929356937632
 20
49.1934746470508
 10
16.69427305032
 20
49.1933465598649
 10
16.6941953025331
 20
49.1932640557188
 10
16.6941206060389
 20
49.1931848403267
 10
16.6940468407022
 20
49.1931066849736
 10
16.6939764520857
 20
49.1930281332102
 10
16.6939074958756
 20
49.1929484156641
 97
0
 75
0
 76
1
 98
0
  0
HATCH
  5
20008
100
AcDbEntity
  8
0
100
AcDbHatch
 10
0
 20
0
 30
0
210
0
220
0
230
1
  2
SOLID
 70
1
 71
0
 91
1
 92
2
 72
0
 73
1
 93
35
 10
16.5392025358809
 20
49.2511874633631
 10
16.5368485182485
 20
49.2508883398339
 10
16.5368432780931
 20
49.2509255963089
 10
16.536831944823
 20
49.2511122165436
 10
16.5367860094552
 20
49.2512154061242
 10
16.5367181180575
 20
49.2513367479426
 10
16.5366691600664
 20
49.2514240724175
 10
16.536621070824
 20
49.251507840582
 10
16.5365982068172
 20
49.251551346747
 10
16.5365675593267
 20
49.2516141979785
 10
16.536539313187
 20
49.251693322232
 10
16.5364441809825
 20
49.251944968926
 10
16.5363952031921
 20
49.25208050619
 10
16.5363824886895
 20
49.2521095400405
 10
16.536344498371
 20
49.2521675249674
 10
16.5362718015244
 20
49.2522413948008
 10
16.5361597270093
 20
49.2523069349707
 10
16.5360129305956
 20
49.2523834740548
 10
16.5354849611668
 20
49.2543667037007
 10
16.5386199079835
 20
49.254590513941
 10
16.5386141315256
 20
49.2544700639551
 10
16.5386594302481
 20
49.2541143602385
 10
16.5387338488305
 20
49.2537514178944
 10
16.5388649182495
 20
49.253448241256
 10
16.5389462246063
 20
49.2528871449812
 10
16.5390027721305
 20
49.2523991806445
 10
16.5390169307282
 20
49.2522793394878
 10
16.5390225459881
 20
49.2522315262274
 10
16.5390567388267
 20
49.2520080029857
 10
16.5390717529816
 20
49.2519095709666
 10
16.5391326130875
 20
49.2515110155218
 10
16.539233173229
 20
49.2512582172778
 10
16.5392448678054
 20
49.2512286581547
 10
16.5392587146016
 20
49.2511936442619
 10
16.5392025358809
 20
49.2511874633631
 97
0
 75
0
 76
1
 98
0
  0
HATCH
  5
20009
100
AcDbEntity
  8
0
100
AcDbHatch
 10
0
 20
0
 30
0
210
0
220
0
230
1
  2
SOLID
 70
1
 71
0
 91
1
 92
2
 72
0
 73
1
 93
78
 10
16.6216676593775
 20
49.2486749821548
 10
16.6219700453418
 20
49.2485520847815
 10
16.6220158810265
 20
49.2487056466293
 10
16.6221474484246
 20
49.2486970340436
 10
16.6222883792262
 20
49.2486860981142
 10
16.6223236850397
 20
49.2487443080499
 10
16.6226729841155
 20
49.2486142316204
 10
16.6227414265228
 20
49.2485887673025
 10
16.6230977038539
 20
49.2480693558654
 10
16.6231372281349
 20
49.24807431888
 10
16.6231343631839
 20
49.2480338675321
 10
16.6231074627436
 20
49.2476522702492
 10
16.6230130121178
 20
49.2476787915436
 10
16.6229181222128
 20
49.2477054626271
 10
16.6228243984358
 20
49.2477317637916
 10
16.6227176318282
 20
49.2477617561986
 10
16.6226110016589
 20
49.2477917581557
 10
16.6225759832901
 20
49.2477963389042
 10
16.62244167227
 20
49.2478048484054
 10
16.6222629569368
 20
49.2478187224029
 10
16.6222369363197
 20
49.2478206826908
 10
16.6220951055821
 20
49.2478521767633
 10
16.6218771312067
 20
49.2479005405273
 10
16.6217575440495
 20
49.2479270032616
 10
16.6216336320861
 20
49.247943663325
 10
16.6215419188233
 20
49.2479560862634
 10
16.6214557380297
 20
49.2479676338057
 10
16.6214203783445
 20
49.2478661858716
 10
16.6214190261311
 20
49.2478467345994
 10
16.6211612868051
 20
49.247304198596
 10
16.6211392596871
 20
49.2473196461352
 10
16.6209944722428
 20
49.2474210265719
 10
16.6209585363923
 20
49.2474462544328
 10
16.6209387159059
 20
49.2474600489313
 10
16.6209224786802
 20
49.247471383226
 10
16.6209195006401
 20
49.2474735244071
 10
16.6208865427564
 20
49.2474966110643
 10
16.620850606796
 20
49.2475218388913
 10
16.620814670799
 20
49.247547066707
 10
16.6207968762077
 20
49.2475594667476
 10
16.6207787495071
 20
49.2475722051058
 10
16.6207704648082
 20
49.2475780414024
 10
16.6207442753345
 20
49.2475986215782
 10
16.6207103031664
 20
49.2476253448611
 10
16.6207001329254
 20
49.2476333995364
 10
16.6206763162195
 20
49.2476521575394
 10
16.6206698177173
 20
49.2476572155857
 10
16.6206422074111
 20
49.2476788711509
 10
16.6206207634919
 20
49.2476958069864
 10
16.6206024931621
 20
49.2477102536738
 10
16.620562657038
 20
49.2477415371261
 10
16.6205178796513
 20
49.2477768128424
 10
16.6204731169432
 20
49.2478119991355
 10
16.6204332806554
 20
49.2478432825426
 10
16.6204116852837
 20
49.2478602980929
 10
16.6203498696187
 20
49.2479553312104
 10
16.6203038164131
 20
49.2480444233755
 10
16.6202808801464
 20
49.2480888401681
 10
16.6202782350319
 20
49.24812582713
 10
16.6202754386025
 20
49.2481628938456
 10
16.6202695080779
 20
49.2481980205667
 10
16.6202624089719
 20
49.2482393960227
 10
16.6202564303181
 20
49.2482739766581
 10
16.6202562797914
 20
49.2482774030228
 10
16.6202515767877
 20
49.2483059233851
 10
16.6202505734816
 20
49.24830865635
 10
16.6202630898514
 20
49.2483726732194
 10
16.6202850095119
 20
49.2484936129342
 10
16.6203271526857
 20
49.2484910739558
 10
16.6203374293892
 20
49.2484639424146
 10
16.620490309321
 20
49.2485062222035
 10
16.6206367257205
 20
49.2485449697931
 10
16.6208196645757
 20
49.2488079845906
 10
16.6211192358464
 20
49.2487968641212
 10
16.6211343873302
 20
49.2487963067297
 10
16.6212683965691
 20
49.2487653462888
 10
16.621407746609
 20
49.2487346726452
 10
16.6216676593775
 20
49.2486749821548
 97
0
 75
0
 76
1
 98
0
  0
HATCH
  5
2000A
100
AcDbEntity
  8
0
100
AcDbHatch
 10
0
 20
0
 30
0
210
0
220
0
230
1
  2
SOLID
 70
1
 71
0
 91
1
 92
2
 72
0
 73
1
 93
48
 10
16.5498835137596
 20
49.2294503288333
 10
16.5501899537899
 20
49.2287544982423
 10
16.5502510365214
 20
49.2286521152758
 10
16.550276587935
 20
49.2286163978734
 10
16.5497919880359
 20
49.2287381476923
 10
16.5496193184212
 20
49.2287814641362
 10
16.5495218227938
 20
49.2285280157656
 10
16.5494520129898
 20
49.2283464650114
 10
16.5494518291796
 20
49.2283459091604
 10
16.5493457735259
 20
49.2283715427757
 10
16.5492130977133
 20
49.2284035997051
 10
16.5491906902651
 20
49.228413760932
 10
16.5488434182401
 20
49.2285709912002
 10
16.5486820603248
 20
49.2286143894251
 10
16.5484950995133
 20
49.2286647355442
 10
16.5484606946391
 20
49.2286739504237
 10
16.5484625283255
 20
49.2287468086681
 10
16.5484625634586
 20
49.2287482584866
 10
16.5482739663264
 20
49.2288358463418
 10
16.5482750312946
 20
49.2288369173344
 10
16.5482807061703
 20
49.2288426590938
 10
16.5482901083372
 20
49.228865853562
 10
16.548297568451
 20
49.2288841152776
 10
16.5483594227329
 20
49.2290362437025
 10
16.548335089134
 20
49.2292249200493
 10
16.548335089134
 20
49.2292249200493
 10
16.5481671150583
 20
49.229336321795
 10
16.5481509683215
 20
49.229364478116
 10
16.5481156190571
 20
49.2294184018115
 10
16.5481168205368
 20
49.2294194825424
 10
16.5482118281054
 20
49.2295092990955
 10
16.5483088632351
 20
49.2296068585603
 10
16.5483446659596
 20
49.2296440573851
 10
16.5484901170967
 20
49.229722908143
 10
16.5485470064424
 20
49.2297537411867
 10
16.5486939151912
 20
49.2298695115982
 10
16.5488597973863
 20
49.2299999322094
 10
16.5489259559747
 20
49.2300182194308
 10
16.5491484433252
 20
49.2300798589767
 10
16.5493521868057
 20
49.2301362716048
 10
16.5494646032615
 20
49.2299934974268
 10
16.5495441133792
 20
49.22991404805
 10
16.5496757638235
 20
49.2297826861825
 10
16.549782597607
 20
49.229675967775
 10
16.5498396316018
 20
49.2295638886475
 10
16.5498637247022
 20
49.2294954123695
 10
16.5498639206628
 20
49.2294950645172
 10
16.5498835137596
 20
49.2294503288333
 97
0
 75
0
 76
1
 98
0
  0
HATCH
  5
2000B
100
AcDbEntity
  8
0
100
AcDbHatch
 10
0
 20
0
 30
0
210
0
220
0
230
1
  2
SOLID
 70
1
 71
0
 91
1
 92
2
 72
0
 73
1
 93
33
 10
16.6992322394708
 20
49.2262866475369
 10
16.6991602837842
 20
49.2262731990615
 10
16.6991326788046
 20
49.2262765117482
 10
16.6983976208237
 20
49.2263655861874
 10
16.6983917342599
 20
49.2266495102805
 10
16.6983915137595
 20
49.2266601664948
 10
16.6984241541051
 20
49.2267622047471
 10
16.6984268228459
 20
49.2267670039322
 10
16.6984532174717
 20
49.2268142517749
 10
16.6984623262404
 20
49.2268303544034
 10
16.6985092888207
 20
49.2270603699794
 10
16.6985290515666
 20
49.2272954447646
 10
16.6985253166851
 20
49.2273090202312
 10
16.6984721952797
 20
49.2275016411278
 10
16.6984273233387
 20
49.2275845056045
 10
16.698386430728
 20
49.2276421452563
 10
16.6987368486139
 20
49.2277405676239
 10
16.6992019471345
 20
49.2279155693823
 10
16.6997579728046
 20
49.2281248795959
 10
16.6999943385194
 20
49.2280684429699
 10
16.7014523384979
 20
49.2277202099409
 10
16.7012278267853
 20
49.2276050149593
 10
16.7012115362607
 20
49.2275567568754
 10
16.7011481316031
 20
49.2273681884942
 10
16.7010691354386
 20
49.2271338526484
 10
16.7008246006318
 20
49.2268934462742
 10
16.700770146084
 20
49.2268641312472
 10
16.7005181774176
 20
49.2267556041183
 10
16.7001708928603
 20
49.2265940095449
 10
16.699939557551
 20
49.2264893671773
 10
16.6998468244604
 20
49.2264467003014
 10
16.6996739947746
 20
49.2263693955157
 10
16.6992322394708
 20
49.2262866475369
 97
0
 75
0
 76
1
 98
0
  0
HATCH
  5
2000C
100
AcDbEntity
  8
0
100
AcDbHatch
 10
0
 20
0
 30
0
210
0
220
0
230
1
  2
SOLID
 70
1
 71
0
 91
1
 92
2
 72
0
 73
1
 93
24
 10
16.6001039729651
 20
49.2288722502141
 10
16.6001066222192
 20
49.2288712621299
 10
16.600184832499
 20
49.2288952572427
 10
16.6001875993684
 20
49.228896900552
 10
16.6001969329728
 20
49.2289022654949
 10
16.6002311057781
 20
49.2289219635216
 10
16.6002464600896
 20
49.2289310113907
 10
16.6002726700822
 20
49.2289119750056
 10
16.6003692447693
 20
49.2288390425358
 10
16.6004604635687
 20
49.2288904613587
 10
16.6005379425167
 20
49.2276810243103
 10
16.6001943330573
 20
49.2278573799423
 10
16.6000092969727
 20
49.2277870098666
 10
16.5999859328608
 20
49.2278013635545
 10
16.5999522780931
 20
49.2284295980563
 10
16.5999875035716
 20
49.2284613102451
 10
16.5999873601145
 20
49.2285432480964
 10
16.5999873731329
 20
49.2285531985577
 10
16.599945674326
 20
49.2285531374314
 10
16.5999382189738
 20
49.2286935306637
 10
16.5999226810508
 20
49.2287850505273
 10
16.6000331398684
 20
49.2289231280957
 10
16.6000638110635
 20
49.2289013326382
 10
16.6001039729651
 20
49.2288722502141
 97
0
 75
0
 76
1
 98
0
  0
HATCH
  5
2000D
100
AcDbEntity
  8
0
100
AcDbHatch
 10
0
 20
0
 30
0
210
0
220
0
230
1
  2
SOLID
 70
1
 71
0
 91
1
 92
2
 72
0
 73
1
 93
115
 10
16.6418537825232
 20
49.1376430819863
 10
16.6419096162541
 20
49.1375876029754
 10
16.6419616408406
 20
49.1375360153918
 10
16.6423206278493
 20
49.1371796005725
 10
16.6424683554948
 20
49.1370328402296
 10
16.6426782848625
 20
49.1368245381729
 10
16.6428569531805
 20
49.1366471310395
 10
16.643034792209
 20
49.1364705696005
 10
16.6430479585534
 20
49.1364558524004
 10
16.6430771944645
 20
49.1364230052154
 10
16.6431084028904
 20
49.1363882170886
 10
16.643159894168
 20
49.1363306220228
 10
16.6431961878598
 20
49.1362900427285
 10
16.6432184636613
 20
49.1362576083792
 10
16.6432626546395
 20
49.1361932568785
 10
16.6432981192846
 20
49.1361417654828
 10
16.6433274254079
 20
49.1360992454904
 10
16.643396400006
 20
49.1359611219963
 10
16.6434242752311
 20
49.135905476699
 10
16.6434267611224
 20
49.1359004064073
 10
16.6434445026152
 20
49.1358460351772
 10
16.6434642246451
 20
49.1357854726094
 10
16.6434842002303
 20
49.1357242043815
 10
16.6434934198607
 20
49.13569573194
 10
16.6435004370852
 20
49.1356512758896
 10
16.6435064464973
 20
49.1356138034477
 10
16.6435164222654
 20
49.1355504722474
 10
16.6435263393384
 20
49.1354874986859
 10
16.6435262509473
 20
49.1354561076732
 10
16.6435257539812
 20
49.1353465424388
 10
16.6435253818116
 20
49.1352782294041
 10
16.6435236298574
 20
49.1352586597685
 10
16.6435142948142
 20
49.1351491938647
 10
16.6435061936848
 20
49.1350557336086
 10
16.6434935668084
 20
49.1349100376696
 10
16.6434838836848
 20
49.1347976528904
 10
16.6434785143913
 20
49.1347345945486
 10
16.6434723772573
 20
49.1346636131663
 10
16.6434615360712
 20
49.1345381223489
 10
16.6434481562774
 20
49.1343844139443
 10
16.6434397762721
 20
49.1342867734403
 10
16.6434320761367
 20
49.1341975924354
 10
16.6434246802305
 20
49.1341115985273
 10
16.6434186837624
 20
49.1340414410751
 10
16.6434131972954
 20
49.1339790980043
 10
16.6434111180558
 20
49.1339548020451
 10
16.6434098857022
 20
49.1339303850115
 10
16.6434084877573
 20
49.1339061371736
 10
16.6434075218952
 20
49.1338574089732
 10
16.6434080723316
 20
49.1338179229248
 10
16.6434080695396
 20
49.1338086972297
 10
16.6434102669438
 20
49.1337600115673
 10
16.6434111507795
 20
49.1337495822526
 10
16.6434121831907
 20
49.1337357264818
 10
16.6434144386834
 20
49.1337068526093
 10
16.6434165475029
 20
49.1336788728374
 10
16.643195274151
 20
49.1336707504311
 10
16.6431216931707
 20
49.1336680855043
 10
16.6431216638355
 20
49.1336682643243
 10
16.6431017500385
 20
49.1337384005624
 10
16.6430872621195
 20
49.1337897454884
 10
16.6430826556543
 20
49.1338060621894
 10
16.6430775547325
 20
49.1338262331463
 10
16.6429475172117
 20
49.1338282630821
 10
16.6426263360502
 20
49.1338334327787
 10
16.6426001924065
 20
49.1338146725623
 10
16.642529822418
 20
49.1338067168785
 10
16.6424765479171
 20
49.1338063000286
 10
16.6424786222153
 20
49.133899515675
 10
16.6424889936073
 20
49.1339934078791
 10
16.6424979619527
 20
49.1340387218184
 10
16.6425162719408
 20
49.1341312754299
 10
16.6425448840194
 20
49.1342752970696
 10
16.6425733264263
 20
49.134418673579
 10
16.6425974820255
 20
49.1345612950205
 10
16.6426101502454
 20
49.1346369888565
 10
16.6426178081568
 20
49.134709615382
 10
16.6426311624768
 20
49.1348995911549
 10
16.6426329294144
 20
49.1350005634176
 10
16.6426230114619
 20
49.1351013434048
 10
16.6426013749695
 20
49.1352012956184
 10
16.6425683657366
 20
49.1352999922526
 10
16.6425213149212
 20
49.1354313429786
 10
16.6424014464462
 20
49.1357334677247
 10
16.6423018183358
 20
49.1359844729808
 10
16.6422790947307
 20
49.1360414769144
 10
16.6421758663864
 20
49.136301815115
 10
16.6421548617493
 20
49.1363634627794
 10
16.642140339094
 20
49.1364259301175
 10
16.6421323424548
 20
49.1364889489021
 10
16.6421310814727
 20
49.1365520817109
 10
16.642124507367
 20
49.136682040716
 10
16.6421223063074
 20
49.1367273796645
 10
16.642112868484
 20
49.1367722978537
 10
16.6420961309632
 20
49.1368163386067
 10
16.6420723180152
 20
49.1368589750869
 10
16.6420418048495
 20
49.1368996006727
 10
16.6420049079976
 20
49.1369379663811
 10
16.6418947872782
 20
49.1370521088043
 10
16.6418192317834
 20
49.1371219322263
 10
16.6416154162132
 20
49.1373105858865
 10
16.6415401764811
 20
49.1373801601461
 10
16.6415010568092
 20
49.1374219865639
 10
16.6414703983305
 20
49.1374668527611
 10
16.6414490144466
 20
49.1375140021893
 10
16.6414412944666
 20
49.1375459270205
 10
16.6414371881666
 20
49.1375625503825
 10
16.6414361953356
 20
49.1375870816277
 10
16.6414340007951
 20
49.1375987750551
 10
16.6414358016223
 20
49.1375987213817
 10
16.6414967467617
 20
49.1375977809432
 10
16.6415000078294
 20
49.1376283108143
 10
16.6416211772776
 20
49.137633343271
 10
16.6416837452344
 20
49.1376359543286
 10
16.6418537825232
 20
49.1376430819863
 97
0
 75
0
 76
1
 98
0
  0
HATCH
  5
2000E
100
AcDbEntity
  8
0
100
AcDbHatch
 10
0
 20
0
 30
0
210
0
220
0
230
1
  2
SOLID
 70
1
 71
0
 91
1
 92
2
 72
0
 73
1
 93
131
 10
16.6340681727324
 20
49.2516871077673
 10
16.6342026869141
 20
49.251648027873
 10
16.6344643312226
 20
49.2519219035412
 10
16.6344784690694
 20
49.2519367390275
 10
16.6345714853364
 20
49.2518811644829
 10
16.6348271799002
 20
49.2516892772575
 10
16.6349886501268
 20
49.2515661747401
 10
16.6351185797399
 20
49.2514668051148
 10
16.6352945820757
 20
49.251304931325
 10
16.6353714426788
 20
49.2511930449972
 10
16.6355063418855
 20
49.2509971585283
 10
16.6356152505652
 20
49.2508962153595
 10
16.6357880426451
 20
49.2507361948715
 10
16.6358481964201
 20
49.2506804723577
 10
16.6359046008158
 20
49.2506063962942
 10
16.6359619956096
 20
49.2505481275645
 10
16.6360943374372
 20
49.2504139249308
 10
16.6361491813857
 20
49.2503493259411
 10
16.6362727273593
 20
49.2502039206933
 10
16.6364154113949
 20
49.2500723465875
 10
16.6366896631808
 20
49.2497894204997
 10
16.6367640725185
 20
49.2497125439443
 10
16.6369033415917
 20
49.2496168162387
 10
16.636920802462
 20
49.249613977617
 10
16.6369227880837
 20
49.249613665425
 10
16.6370182156008
 20
49.24959796491
 10
16.6372219422725
 20
49.2495236054474
 10
16.6372724013527
 20
49.2494889960105
 10
16.6374784688368
 20
49.2493475099984
 10
16.6375109974662
 20
49.2493337046579
 10
16.6378295043199
 20
49.2491990618949
 10
16.6379016757702
 20
49.2491685157858
 10
16.6382798981031
 20
49.2490714570776
 10
16.6384558890899
 20
49.2490262530921
 10
16.6386539939597
 20
49.2489952704199
 10
16.6388735008574
 20
49.2489610028559
 10
16.6389145889704
 20
49.2489421930853
 10
16.6391013099367
 20
49.248856954039
 10
16.6391598773135
 20
49.2488301511992
 10
16.6392327765261
 20
49.2487968518691
 10
16.6392922220367
 20
49.2487697491049
 10
16.6395271500736
 20
49.2486669250488
 10
16.6396884516602
 20
49.2485623467383
 10
16.6399870835761
 20
49.2484115550396
 10
16.6401173246294
 20
49.2482967369105
 10
16.6404025037529
 20
49.2480941659322
 10
16.6407966512566
 20
49.247674249274
 10
16.6408179576998
 20
49.2476438242139
 10
16.6408316752456
 20
49.2476242602336
 10
16.6407475562861
 20
49.2476258373382
 10
16.6407469511806
 20
49.2476261564615
 10
16.6406253417713
 20
49.2476994362818
 10
16.6405555644791
 20
49.2478137236326
 10
16.6405154640842
 20
49.2478794539353
 10
16.6403995158614
 20
49.247930069232
 10
16.6403289572025
 20
49.2479609112587
 10
16.6399502451802
 20
49.2480517910372
 10
16.6398935995467
 20
49.248074478759
 10
16.6399068953736
 20
49.2480877166272
 10
16.6398919670805
 20
49.2481020398128
 10
16.639926549467
 20
49.2481807229358
 10
16.6397059625768
 20
49.24823418084
 10
16.639547960787
 20
49.2483548196154
 10
16.6392327507619
 20
49.2484325376341
 10
16.6389645743289
 20
49.2485829424453
 10
16.6389125268928
 20
49.2486121042293
 10
16.6388909124069
 20
49.2486242374285
 10
16.638813741441
 20
49.24866754608
 10
16.6387612525375
 20
49.248699390032
 10
16.6387088987133
 20
49.248698502379
 10
16.638642868032
 20
49.2487253214269
 10
16.6385353752405
 20
49.2487690243733
 10
16.6384031115085
 20
49.2488306071624
 10
16.6383339979693
 20
49.2488627258289
 10
16.6382745186712
 20
49.2489454495034
 10
16.6381595905518
 20
49.2489444906458
 10
16.6380478477664
 20
49.248943484953
 10
16.6378518419931
 20
49.2490792596714
 10
16.6378094518451
 20
49.2491756696807
 10
16.6376233811515
 20
49.2489588657998
 10
16.6372596553305
 20
49.2491172716878
 10
16.6372549321536
 20
49.2491132303452
 10
16.6370022419456
 20
49.2492651756084
 10
16.636821763297
 20
49.2493737345194
 10
16.6368202357029
 20
49.2493746216834
 10
16.6367190823709
 20
49.2494335128242
 10
16.6366008226026
 20
49.2495023221987
 10
16.636453891764
 20
49.2496395662681
 10
16.6364377369733
 20
49.2496546166121
 10
16.6363838686645
 20
49.2497258869862
 10
16.636131635261
 20
49.2499598064599
 10
16.6359886252157
 20
49.2500900005732
 10
16.6359767224202
 20
49.2501119532854
 10
16.635882418006
 20
49.2502861925818
 10
16.6357946361156
 20
49.2503679140194
 10
16.6356540955117
 20
49.2504411205251
 10
16.6356218959365
 20
49.2505259482967
 10
16.6354473688416
 20
49.2507057441456
 10
16.635430391607
 20
49.2507232688532
 10
16.635327264132
 20
49.2508394526913
 10
16.6353103245015
 20
49.2508584271668
 10
16.6352211869044
 20
49.2509693570044
 10
16.6352003235538
 20
49.2509953807846
 10
16.635039960725
 20
49.2511210035839
 10
16.6350099823073
 20
49.2511444850215
 10
16.6349046829857
 20
49.2512545460029
 10
16.6348804931633
 20
49.2512797924236
 10
16.6348572818293
 20
49.2513544911124
 10
16.6347310974013
 20
49.2513815873382
 10
16.6346802567096
 20
49.251392472266
 10
16.6345616126268
 20
49.2514677650289
 10
16.6344934141776
 20
49.251511071174
 10
16.6342651825469
 20
49.2515898482732
 10
16.6341667554963
 20
49.251610309745
 10
16.6340985639588
 20
49.2516250353707
 10
16.6340627778795
 20
49.2516401476923
 10
16.6339159244439
 20
49.2517021441262
 10
16.6338683734961
 20
49.2517157028472
 10
16.6337258717967
 20
49.2517562991212
 10
16.6336804324374
 20
49.251770458971
 10
16.6334268948917
 20
49.2518493486252
 10
16.6333095093855
 20
49.2518859278963
 10
16.6331479917506
 20
49.2519312417623
 10
16.6331601606245
 20
49.2519437678214
 10
16.6331966841159
 20
49.2519334109496
 10
16.6333601809238
 20
49.2518895028929
 10
16.6335224670343
 20
49.2518462327746
 10
16.6336956423959
 20
49.2517964045798
 10
16.6338517547397
 20
49.2517503468984
 10
16.6339465794163
 20
49.2517223958794
 10
16.6340681727324
 20
49.2516871077673
 97
0
 75
0
 76
1
 98
0
  0
HATCH
  5
2000F
100
AcDbEntity
  8
0
100
AcDbHatch
 10
0
 20
0
 30
0
210
0
220
0
230
1
  2
SOLID
 70
1
 71
0
 91
1
 92
2
 72
0
 73
1
 93
232
 10
16.5720358540437
 20
49.2059820370175
 10
16.5729955562034
 20
49.2052533294173
 10
16.5729649650834
 20
49.2050089166149
 10
16.5729498181354
 20
49.2048878966773
 10
16.5729782668057
 20
49.2045221340588
 10
16.572979941946
 20
49.2045003633309
 10
16.5729895817283
 20
49.2043772174142
 10
16.572991677192
 20
49.2043504111576
 10
16.5729928789309
 20
49.2043356621741
 10
16.5728761611602
 20
49.2038529253839
 10
16.5728343649003
 20
49.2035470203461
 10
16.5728292513857
 20
49.2035095702784
 10
16.5728304310821
 20
49.203504950597
 10
16.5728360566893
 20
49.203481832774
 10
16.572888130173
 20
49.2032667291588
 10
16.5728239574512
 20
49.2032574595017
 10
16.5726157529424
 20
49.2032693290209
 10
16.5725986653832
 20
49.203283309479
 10
16.5722729322062
 20
49.2034712519365
 10
16.5721725477873
 20
49.2034805715087
 10
16.5719058165142
 20
49.2032375357261
 10
16.5714884025634
 20
49.2031157489142
 10
16.5712067968588
 20
49.2028975225561
 10
16.5711796351557
 20
49.2028765036404
 10
16.5710649863162
 20
49.2027520198694
 10
16.5709524734571
 20
49.2026271452321
 10
16.5708859058487
 20
49.2025732003614
 10
16.5707999128317
 20
49.2025040333715
 10
16.570778707536
 20
49.2024870564387
 10
16.5707237855867
 20
49.2024428048295
 10
16.5707169603981
 20
49.2024373440677
 10
16.5705499085306
 20
49.2023050595039
 10
16.5703716270796
 20
49.2021322658093
 10
16.5704116210235
 20
49.201995088752
 10
16.5704176185423
 20
49.2019738969905
 10
16.5704169214704
 20
49.2019214741891
 10
16.5704158863341
 20
49.2018436095953
 10
16.5704138220925
 20
49.2017661240255
 10
16.5703516111825
 20
49.2017217151738
 10
16.5702821328954
 20
49.2016670199151
 10
16.5702818896735
 20
49.201666821694
 10
16.5702432968792
 20
49.2016564765762
 10
16.5701238717292
 20
49.2015541747076
 10
16.5699849464037
 20
49.2014770783134
 10
16.5699747106896
 20
49.2014713747302
 10
16.569952204593
 20
49.2014589181858
 10
16.5698418284914
 20
49.2013203545697
 10
16.569812941365
 20
49.2012631210045
 10
16.5697816757352
 20
49.2012060799383
 10
16.5697748351522
 20
49.2011923866315
 10
16.5697348586745
 20
49.2011321023013
 10
16.569720380323
 20
49.2011103575753
 10
16.5696802021743
 20
49.2010487924952
 10
16.5696572649014
 20
49.2010222847079
 10
16.5696229352796
 20
49.2009887245904
 10
16.569563841769
 20
49.200930516623
 10
16.5695094793131
 20
49.2008770776753
 10
16.5695037489412
 20
49.2008725088424
 10
16.5694367284792
 20
49.2008179878776
 10
16.569367670488
 20
49.2007616031788
 10
16.5692994194385
 20
49.2007061804183
 10
16.5692905421542
 20
49.2006989452747
 10
16.5692218140213
 20
49.2005481492104
 10
16.5692700304476
 20
49.2004696296572
 10
16.5693183831476
 20
49.2003911197948
 10
16.5692195968017
 20
49.2002018211161
 10
16.5692095381571
 20
49.2001825618341
 10
16.5692047921392
 20
49.2001737212259
 10
16.5692023182372
 20
49.2001686605561
 10
16.569180949213
 20
49.2001277010524
 10
16.5691748974362
 20
49.200142557083
 10
16.5691583195971
 20
49.2001509651231
 10
16.5691513147524
 20
49.2001540846431
 10
16.5691200481178
 20
49.200169497465
 10
16.569042046177
 20
49.2002095337134
 10
16.5690193264494
 20
49.2002208513206
 10
16.5683334772744
 20
49.2005660447028
 10
16.5683202054595
 20
49.2005669993555
 10
16.5683204786153
 20
49.2005711797259
 10
16.5682193076861
 20
49.2005836054225
 10
16.5682129609631
 20
49.2005844199237
 10
16.5681618638051
 20
49.2005895560753
 10
16.5680217669638
 20
49.2006036424659
 10
16.5679959913541
 20
49.2006042495591
 10
16.5679959765311
 20
49.2006043389586
 10
16.5680243902274
 20
49.2008042772546
 10
16.5680474760261
 20
49.2009814033785
 10
16.5680522713039
 20
49.201195580109
 10
16.5680516221079
 20
49.2012003279961
 10
16.5680326561993
 20
49.2013413536395
 10
16.5680075893115
 20
49.20152500143
 10
16.5680034094197
 20
49.2015543730308
 10
16.567989656945
 20
49.201646471955
 10
16.5679842431254
 20
49.2016741275161
 10
16.5679645329972
 20
49.2016881015348
 10
16.5679682413004
 20
49.201703200156
 10
16.5679859977683
 20
49.201701841178
 10
16.5679861341981
 20
49.2017018508915
 10
16.5679845082961
 20
49.2016925087347
 10
16.5680476212157
 20
49.2016865094219
 10
16.5680581593188
 20
49.2017370098746
 10
16.5682990741442
 20
49.2017159899913
 10
16.5685463023532
 20
49.2017626270002
 10
16.568745533842
 20
49.2018006906257
 10
16.569161432325
 20
49.2018907216167
 10
16.5690166237778
 20
49.2027433512102
 10
16.5687930225278
 20
49.2028039582679
 10
16.5688068049842
 20
49.2030538708901
 10
16.5683986075591
 20
49.2031870872535
 10
16.5684081770272
 20
49.2032051358389
 10
16.5683839141773
 20
49.2032257508657
 10
16.5683605549091
 20
49.2032325906315
 10
16.5685679429443
 20
49.2035428705083
 10
16.568653106822
 20
49.2036828062948
 10
16.5687071473596
 20
49.2037265438953
 10
16.5687399703854
 20
49.2037092518168
 10
16.5687936313667
 20
49.2037527814399
 10
16.5687997268456
 20
49.2037576476422
 10
16.5688006343946
 20
49.2037571695196
 10
16.5688031909611
 20
49.2037559042384
 10
16.5688497422187
 20
49.203794857244
 10
16.5688485469754
 20
49.2037954053417
 10
16.5688480932008
 20
49.2037956444032
 10
16.5688544319169
 20
49.2038007088265
 10
16.5689068769622
 20
49.2038432472766
 10
16.5688747953753
 20
49.2038602303657
 10
16.5689274985508
 20
49.2039028776305
 10
16.5689518007724
 20
49.2039253217319
 10
16.5689533996104
 20
49.2039273350952
 10
16.5689548916569
 20
49.203929159947
 10
16.5689635451689
 20
49.2039494046249
 10
16.5689535133446
 20
49.2039741082795
 10
16.5689532583298
 20
49.2039748137639
 10
16.5690025713199
 20
49.2040145964617
 10
16.5689697333611
 20
49.2040319780136
 10
16.5689703266095
 20
49.2040325629724
 10
16.5690216599725
 20
49.2040776453954
 10
16.5690274381739
 20
49.2040827603598
 10
16.5690876821902
 20
49.2041357134227
 10
16.5691367674113
 20
49.2041793693812
 10
16.5691872733375
 20
49.2042219505318
 10
16.5692457523722
 20
49.2042688982963
 10
16.5692434241992
 20
49.2042704512099
 10
16.5692813978353
 20
49.2043011952106
 10
16.5693153539631
 20
49.2042828981578
 10
16.5693836247771
 20
49.2043382314803
 10
16.5693845323312
 20
49.2043377533531
 10
16.5693878896727
 20
49.204335821421
 10
16.5693891411669
 20
49.2043341014107
 10
16.5694267572498
 20
49.2043461862447
 10
16.5694957904981
 20
49.2043702764505
 10
16.5694888208094
 20
49.2043748458065
 10
16.5694871124965
 20
49.2043759905733
 10
16.5695427856875
 20
49.204418215701
 10
16.5695965279315
 20
49.2044587656231
 10
16.5695977528251
 20
49.2044580387184
 10
16.5695985239415
 20
49.2044575508781
 10
16.5696252202882
 20
49.2044797129335
 10
16.5696452900745
 20
49.2044968805805
 10
16.5696554348154
 20
49.2045064672219
 10
16.5696683471028
 20
49.2045185122172
 10
16.5696644440082
 20
49.2045204053117
 10
16.5697119042161
 20
49.2045588798359
 10
16.569769945189
 20
49.2046059769977
 10
16.5697725165956
 20
49.2046046222956
 10
16.5697726382127
 20
49.2046047214066
 10
16.5697913524407
 20
49.2046200738982
 10
16.5698036928718
 20
49.2046372340825
 10
16.5698091787036
 20
49.204653273193
 10
16.5698186518041
 20
49.20464942473
 10
16.5698341652181
 20
49.2046599362039
 10
16.5698861076717
 20
49.2047013528513
 10
16.5698565942242
 20
49.2047161671981
 10
16.5699110018048
 20
49.204760201561
 10
16.5699126656588
 20
49.2047593249871
 10
16.5699248047728
 20
49.2047510530871
 10
16.56994743615
 20
49.2047561011666
 10
16.5700211731933
 20
49.2047693094274
 10
16.570037125199
 20
49.2047755102658
 10
16.5700481444868
 20
49.2047798222894
 10
16.5700452705601
 20
49.204781336375
 10
16.5700407327807
 20
49.2047837270364
 10
16.5700896529531
 20
49.2048233907324
 10
16.5701291612712
 20
49.2048024131561
 10
16.5701849396897
 20
49.2048481731151
 10
16.570189323153
 20
49.2048450478285
 10
16.5701902455289
 20
49.2048444802953
 10
16.5701986929782
 20
49.2048459860742
 10
16.5702665327748
 20
49.204850633529
 10
16.5703232775067
 20
49.2048630844631
 10
16.570322886538
 20
49.2048679411814
 10
16.5703212375077
 20
49.2048687283615
 10
16.5703206324711
 20
49.2048690471178
 10
16.5703702382065
 20
49.2049095735561
 10
16.5703728244324
 20
49.2049081294409
 10
16.5704258207704
 20
49.2049515203448
 10
16.570426274548
 20
49.2049512812772
 10
16.57043348747
 20
49.2049469100856
 10
16.5704865193373
 20
49.2049634384958
 10
16.5705273293765
 20
49.2049904038614
 10
16.5705217951274
 20
49.2049938090763
 10
16.5705205702341
 20
49.2049945359908
 10
16.5705698113991
 20
49.205034765012
 10
16.5706194471435
 20
49.2050751125426
 10
16.5706203398795
 20
49.2050747238056
 10
16.5706252425177
 20
49.2050726304517
 10
16.5706917160917
 20
49.2051329908095
 10
16.5706889489649
 20
49.2051346934209
 10
16.5706860305785
 20
49.2051364757218
 10
16.570736351784
 20
49.2051776860611
 10
16.5707401184496
 20
49.2051757832204
 10
16.5707885086282
 20
49.2052153183774
 10
16.5707892797447
 20
49.2052148305291
 10
16.5708001080794
 20
49.2052086361621
 10
16.5708814989737
 20
49.2052497962113
 10
16.570888635771
 20
49.2052533795651
 10
16.5709489302031
 20
49.205302716815
 10
16.570982041191
 20
49.2052853541231
 10
16.5710412411615
 20
49.2053337993371
 10
16.5710927846865
 20
49.2053734682916
 10
16.5711493684634
 20
49.2054193754391
 10
16.5711155338554
 20
49.2054377721379
 10
16.5710824079934
 20
49.2054552242675
 10
16.5711346318874
 20
49.2055024493256
 10
16.5711459723817
 20
49.2055114877134
 10
16.5711781437145
 20
49.2054981285393
 10
16.5712585080862
 20
49.2054638667018
 10
16.5712683133852
 20
49.20545967994
 10
16.571300222336
 20
49.2054812174596
 10
16.5713703912585
 20
49.2055284530477
 10
16.5717643606975
 20
49.2057976392796
 10
16.5720358540437
 20
49.2059820370175
 97
0
 75
0
 76
1
 98
0
  0
HATCH
  5
20010
100
AcDbEntity
  8
0
100
AcDbHatch
 10
0
 20
0
 30
0
210
0
220
0
230
1
  2
SOLID
 70
1
 71
0
 91
1
 92
2
 72
0
 73
1
 93
119
 10
16.624113590416
 20
49.1425372746993
 10
16.6241404369552
 20
49.142526602828
 10
16.6241482478722
 20
49.1425235378228
 10
16.6242014235665
 20
49.142426542565
 10
16.6242831614771
 20
49.1422480853052
 10
16.6243821503487
 20
49.1420812507541
 10
16.6244586994106
 20
49.1420005626325
 10
16.624650751778
 20
49.1418596715909
 10
16.6248265159768
 20
49.1417281193581
 10
16.6248757318135
 20
49.1416920771554
 10
16.6249006343111
 20
49.141673941227
 10
16.6250863040426
 20
49.1415408286358
 10
16.625162333024
 20
49.1414968253766
 10
16.6253017271502
 20
49.141416243619
 10
16.6257248463952
 20
49.1412190761249
 10
16.625767993309
 20
49.1411989752048
 10
16.6257693373909
 20
49.1411983467493
 10
16.6259599915051
 20
49.1410701082227
 10
16.6261143674233
 20
49.1408279601659
 10
16.626051511943
 20
49.1407918547025
 10
16.6254607048763
 20
49.1405600972311
 10
16.62535509785
 20
49.1405006144646
 10
16.6252981963576
 20
49.1404685478869
 10
16.6251524352445
 20
49.1403782741646
 10
16.6251000123541
 20
49.1403458008955
 10
16.6248438152366
 20
49.1401767980149
 10
16.6246167765728
 20
49.1400274959756
 10
16.6244268475971
 20
49.1398990005542
 10
16.6243355330052
 20
49.1398398048484
 10
16.6242700037363
 20
49.1396791423486
 10
16.624141715395
 20
49.1395203682284
 10
16.6241137767191
 20
49.1394488354729
 10
16.6240456220533
 20
49.1392739673736
 10
16.6240144313854
 20
49.1391777832584
 10
16.6239893712896
 20
49.139100484634
 10
16.6237412078461
 20
49.1387217545107
 10
16.6236042980119
 20
49.1385978249122
 10
16.6235241126523
 20
49.1385388735733
 10
16.6233456905657
 20
49.1384125471699
 10
16.6233164851846
 20
49.1383604612917
 10
16.6233041338685
 20
49.1383383313679
 10
16.6233036917354
 20
49.1383376669236
 10
16.6231966548315
 20
49.1382626136975
 10
16.6231905610728
 20
49.138254403656
 10
16.6231633234865
 20
49.1382180142064
 10
16.6231170871284
 20
49.1381462708702
 10
16.6230972511717
 20
49.138043925742
 10
16.6231323037591
 20
49.1379431153358
 10
16.6232179916173
 20
49.1376961977135
 10
16.6232476637579
 20
49.1376096590127
 10
16.6233649788665
 20
49.1372676580335
 10
16.6233601027877
 20
49.1372671318906
 10
16.6233527739656
 20
49.1372664320836
 10
16.6232784397608
 20
49.1372590885804
 10
16.623223329508
 20
49.1372522016986
 10
16.6232041565509
 20
49.137249758769
 10
16.6231398539293
 20
49.1372417687334
 10
16.6230833957858
 20
49.1372346958947
 10
16.6229923483385
 20
49.1372233648865
 10
16.6229912729367
 20
49.1372231982917
 10
16.6229668118486
 20
49.1373358837875
 10
16.6227703998394
 20
49.1376408077214
 10
16.6227676802905
 20
49.1376606947552
 10
16.6227108830481
 20
49.1380680335081
 10
16.6230033632966
 20
49.1384144486888
 10
16.6233110320555
 20
49.1387364317082
 10
16.6233361759904
 20
49.1387654369725
 10
16.623430816975
 20
49.1388747968161
 10
16.6235349826621
 20
49.1390100660425
 10
16.6236154917697
 20
49.1392112253207
 10
16.6237336203948
 20
49.139466965313
 10
16.6238206355936
 20
49.1396579120172
 10
16.6238246895086
 20
49.139666791627
 10
16.6239100430849
 20
49.1397580367954
 10
16.6240403211706
 20
49.1398493870378
 10
16.6242378255481
 20
49.1399921676242
 10
16.6243354500173
 20
49.1400540712905
 10
16.6248417285318
 20
49.1404175142728
 10
16.6250046100885
 20
49.1405487071067
 10
16.6250234348812
 20
49.1405633355195
 10
16.6250511446104
 20
49.1405717187708
 10
16.6250813553225
 20
49.1405808217347
 10
16.6251449297164
 20
49.1405999744011
 10
16.6253732392048
 20
49.140770077699
 10
16.6253738617658
 20
49.1407704835578
 10
16.625507988997
 20
49.1408149806539
 10
16.625776530572
 20
49.1408695338726
 10
16.6258245504796
 20
49.1409363367998
 10
16.6258239652464
 20
49.1409373807573
 10
16.6258041583128
 20
49.1409698065138
 10
16.6257790214696
 20
49.1410111711987
 10
16.625776742139
 20
49.1410124570452
 10
16.6255841329078
 20
49.1411215627741
 10
16.6255751665202
 20
49.1411266263821
 10
16.6255745773177
 20
49.1411268560237
 10
16.625486300931
 20
49.1411640230388
 10
16.6252441293916
 20
49.1412660023406
 10
16.6251731786876
 20
49.1412958933494
 10
16.6250136118683
 20
49.14139603106
 10
16.6248938681934
 20
49.1414711293739
 10
16.6248820115827
 20
49.1414795158392
 10
16.6248305273365
 20
49.1415159401513
 10
16.6248097855791
 20
49.1415305717494
 10
16.6248069503437
 20
49.1415327227137
 10
16.6246984337258
 20
49.1416133188905
 10
16.6245475055438
 20
49.1417254640792
 10
16.6244805857194
 20
49.1417752673689
 10
16.6243590899412
 20
49.1418358599221
 10
16.6241862852158
 20
49.1420256889394
 10
16.6241228297877
 20
49.1421441163261
 10
16.6240483938324
 20
49.1422832026559
 10
16.6240068042696
 20
49.1423659131607
 10
16.6239729664496
 20
49.1424333439379
 10
16.6239574183563
 20
49.1424515992349
 10
16.6239029906201
 20
49.1425151303043
 10
16.6239071083713
 20
49.1425152409099
 10
16.6239706315514
 20
49.1425171147991
 10
16.6239618217392
 20
49.1425296061661
 10
16.624113590416
 20
49.1425372746993
 97
0
 75
0
 76
1
 98
0
  0
HATCH
  5
20011
100
AcDbEntity
  8
0
100
AcDbHatch
 10
0
 20
0
 30
0
210
0
220
0
230
1
  2
SOLID
 70
1
 71
0
 91
1
 92
2
 72
0
 73
1
 93
75
 10
16.6336372502456
 20
49.2275795703849
 10
16.6336434440246
 20
49.2275780177576
 10
16.6336780317389
 20
49.2275692438037
 10
16.6337082886226
 20
49.2275616112893
 10
16.6337664350832
 20
49.2275489829723
 10
16.63382256293
 20
49.2275209267734
 10
16.6339041281642
 20
49.2274616531978
 10
16.6339061676604
 20
49.2274601691225
 10
16.6340103593074
 20
49.2273204580054
 10
16.6339734644155
 20
49.2272324728816
 10
16.6339862039193
 20
49.2272179962446
 10
16.6340137035679
 20
49.2271868339927
 10
16.6340634263319
 20
49.2271305587152
 10
16.6342137676367
 20
49.2269269034488
 10
16.6342163425492
 20
49.2269263616197
 10
16.634265597746
 20
49.2269157284944
 10
16.6342444768724
 20
49.2268317510648
 10
16.6342330274058
 20
49.2267863530974
 10
16.6341827351419
 20
49.2266815943918
 10
16.6339309928856
 20
49.2264322840905
 10
16.6339155562205
 20
49.2264169944895
 10
16.6338321513947
 20
49.2263305200226
 10
16.6337994365084
 20
49.2262985445515
 10
16.6337982479469
 20
49.2262973753046
 10
16.6337886950312
 20
49.2262731850443
 10
16.6337823102935
 20
49.2262398120221
 10
16.6337791179278
 20
49.2262231255108
 10
16.6337785554763
 20
49.2262198297529
 10
16.6337848162614
 20
49.2261834601385
 10
16.6337871742741
 20
49.2261699692291
 10
16.6337900670123
 20
49.2261632995157
 10
16.6338091775401
 20
49.2261193349769
 10
16.6338372354342
 20
49.2260696707656
 10
16.6338868228457
 20
49.2259957490912
 10
16.633928249629
 20
49.2259512794688
 10
16.6339778645106
 20
49.2259099202738
 10
16.6344746287344
 20
49.225631044912
 10
16.6345029261821
 20
49.2256109733334
 10
16.6345235103007
 20
49.2255857446022
 10
16.6345320333956
 20
49.2255591219307
 10
16.6345414990384
 20
49.2254159809642
 10
16.6345414990384
 20
49.2254159809642
 10
16.633608371447
 20
49.2253733618032
 10
16.6331552405311
 20
49.2253140605511
 10
16.6330336182617
 20
49.2247633407373
 10
16.6326073955502
 20
49.2247805545602
 10
16.6325389591663
 20
49.2249539021241
 10
16.6323365611227
 20
49.2249175441665
 10
16.6322693913438
 20
49.2250957747194
 10
16.6319099276769
 20
49.2260506527377
 10
16.6317997795379
 20
49.2263431576775
 10
16.6317652670878
 20
49.2264488043197
 10
16.6317512696739
 20
49.226512032928
 10
16.6317390396749
 20
49.226567879279
 10
16.6317294891427
 20
49.2266259046261
 10
16.6317129806968
 20
49.2267874519565
 10
16.6317073681572
 20
49.2268962243647
 10
16.631707607253
 20
49.2269501472316
 10
16.6317128386953
 20
49.2270291144046
 10
16.6317267521476
 20
49.2271098703446
 10
16.6317329894015
 20
49.2271382586074
 10
16.6317442256183
 20
49.2271899731594
 10
16.6317604032398
 20
49.2272443881822
 10
16.6318242442789
 20
49.2274639766549
 10
16.6320471646989
 20
49.2274906587557
 10
16.6320719161944
 20
49.2274887883263
 10
16.6322089955842
 20
49.2274782058832
 10
16.6328310338854
 20
49.2275476241771
 10
16.6331255889645
 20
49.2275661557871
 10
16.6331667384902
 20
49.2275686987034
 10
16.6331887466503
 20
49.2275700713373
 10
16.6332193698998
 20
49.2275719616455
 10
16.633417550499
 20
49.2275845035607
 10
16.6334761786836
 20
49.2275832151421
 10
16.6336372502456
 20
49.2275795703849
 97
0
 75
0
 76
1
 98
0
  0
HATCH
  5
20012
100
AcDbEntity
  8
0
100
AcDbHatch
 10
0
 20
0
 30
0
210
0
220
0
230
1
  2
SOLID
 70
1
 71
0
 91
1
 92
2
 72
0
 73
1
 93
20
 10
16.6477124654109
 20
49.1726145591477
 10
16.6477067587508
 20
49.1726123477005
 10
16.6473341857635
 20
49.172641689523
 10
16.6473346431957
 20
49.172642264462
 10
16.6473511030258
 20
49.1726672126359
 10
16.6473528740702
 20
49.1726698700319
 10
16.6473578367939
 20
49.1726774557205
 10
16.6473570125725
 20
49.1726791160334
 10
16.6472624484435
 20
49.172851888158
 10
16.6475359116343
 20
49.1729574634165
 10
16.6479059214833
 20
49.1730950822924
 10
16.6481727709423
 20
49.1730190281279
 10
16.6481965217234
 20
49.1730079506571
 10
16.6481999515574
 20
49.1730063836819
 10
16.6482012962177
 20
49.1730057549681
 10
16.648311421874
 20
49.1729541907628
 10
16.6483951872942
 20
49.1728446913485
 10
16.6483064625469
 20
49.1728221531567
 10
16.6481538355671
 20
49.1727880528127
 10
16.6477124654109
 20
49.1726145591477
 97
0
 75
0
 76
1
 98
0
  0
HATCH
  5
20013
100
AcDbEntity
  8
0
100
AcDbHatch
 10
0
 20
0
 30
0
210
0
220
0
230
1
  2
SOLID
 70
1
 71
0
 91
1
 92
2
 72
0
 73
1
 93
67
 10
16.6273406029608
 20
49.2553251740512
 10
16.6274181462594
 20
49.255294831797
 10
16.6274433093711
 20
49.2553115310441
 10
16.6274903997883
 20
49.2553427139675
 10
16.6277430228979
 20
49.2552913570466
 10
16.6281307660554
 20
49.2552191473668
 10
16.6283329032718
 20
49.2551815014207
 10
16.6284040689184
 20
49.2551378649825
 10
16.6286060394573
 20
49.2550140106406
 10
16.6288159379956
 20
49.2549166737025
 10
16.6289118427095
 20
49.2548721603355
 10
16.6294261469115
 20
49.2545936191776
 10
16.6294443490055
 20
49.2545837790516
 10
16.6294132401558
 20
49.2545637654111
 10
16.6293808725869
 20
49.2545438438084
 10
16.6293571606774
 20
49.2545292381507
 10
16.6293254202032
 20
49.2545097207674
 10
16.6292932964227
 20
49.2544899972348
 10
16.629202844059
 20
49.2544343195333
 10
16.6291723634509
 20
49.2544155259589
 10
16.6293496722147
 20
49.2541989410297
 10
16.6295323758791
 20
49.2540427025178
 10
16.6299399124923
 20
49.2536942160551
 10
16.6302892437429
 20
49.2534516030157
 10
16.6304736867273
 20
49.2533015460398
 10
16.6306463426603
 20
49.2531609678316
 10
16.6303965517785
 20
49.2529980824238
 10
16.630342606713
 20
49.2530655466578
 10
16.6301026758516
 20
49.2531984820145
 10
16.6297122549219
 20
49.2533843788058
 10
16.6293870413238
 20
49.2535963128696
 10
16.6293627416106
 20
49.2536121442442
 10
16.6293254987546
 20
49.2536461461698
 10
16.6291633719556
 20
49.2537940685609
 10
16.6290222863063
 20
49.2539241196302
 10
16.6289784848581
 20
49.2539644646013
 10
16.6288709652304
 20
49.2540634894169
 10
16.6287991093935
 20
49.2541297793015
 10
16.6284845794653
 20
49.254085598106
 10
16.6284658149477
 20
49.2540829167912
 10
16.6282987912122
 20
49.2542077000866
 10
16.6281324013645
 20
49.2543319852682
 10
16.6281257595641
 20
49.2543362186988
 10
16.6279940180741
 20
49.2544196268145
 10
16.6279132972893
 20
49.2544449531719
 10
16.6277834656362
 20
49.2544857120703
 10
16.6277186185587
 20
49.2545060972284
 10
16.6274231168264
 20
49.2545988357783
 10
16.6272245213472
 20
49.2546502074951
 10
16.6271975357383
 20
49.2546571660085
 10
16.6271708222254
 20
49.2546641419176
 10
16.6269853639291
 20
49.2547121011525
 10
16.6269784394101
 20
49.254713873416
 10
16.6269593785639
 20
49.2547188588965
 10
16.6269304550953
 20
49.2548163983509
 10
16.6269103209687
 20
49.254884077906
 10
16.6268901667349
 20
49.2549519378384
 10
16.6268733819149
 20
49.2550084567073
 10
16.6268723844088
 20
49.2550463738019
 10
16.6268713304331
 20
49.2550913417349
 10
16.6272348444694
 20
49.2550286406575
 10
16.6275600774953
 20
49.254919007637
 10
16.6276820038508
 20
49.2551031718199
 10
16.6271714290064
 20
49.2552667407874
 10
16.6271783640942
 20
49.2552732903261
 10
16.6272640893545
 20
49.2553551367246
 10
16.6273406029608
 20
49.2553251740512
 97
0
 75
0
 76
1
 98
0
  0
HATCH
  5
20014
100
AcDbEntity
  8
0
100
AcDbHatch
 10
0
 20
0
 30
0
210
0
220
0
230
1
  2
SOLID
 70
1
 71
0
 91
1
 92
2
 72
0
 73
1
 93
57
 10
16.6749004956224
 20
49.2178860848086
 10
16.6749757681421
 20
49.2178479600804
 10
16.6752337288536
 20
49.217742174062
 10
16.6753203620655
 20
49.2177232065385
 10
16.6749790504881
 20
49.2175858216611
 10
16.6748865344531
 20
49.2175555376502
 10
16.674819273222
 20
49.2175405031043
 10
16.674548134555
 20
49.2174256815549
 10
16.6745235004027
 20
49.2174386931038
 10
16.6739676064021
 20
49.2175992485295
 10
16.6740177081275
 20
49.2176845265984
 10
16.6738044404475
 20
49.217806563556
 10
16.6736018400523
 20
49.2177799409472
 10
16.6733539532532
 20
49.2180721067968
 10
16.6733124531947
 20
49.2181695809941
 10
16.6731863711482
 20
49.2181857757834
 10
16.672983541918
 20
49.2184894270521
 10
16.6728509369557
 20
49.2187444705079
 10
16.6726018077398
 20
49.2188586503107
 10
16.6725683073974
 20
49.2188853283277
 10
16.6722814496987
 20
49.2189406928978
 10
16.6719405575546
 20
49.2190477912017
 10
16.6713382838754
 20
49.2192173771023
 10
16.6708653969492
 20
49.219323608709
 10
16.6707421566577
 20
49.2193232691224
 10
16.6701651131637
 20
49.2194947128111
 10
16.6697910703962
 20
49.2195436732395
 10
16.6694842015146
 20
49.219650352385
 10
16.6692822957129
 20
49.2198428208652
 10
16.66914042957
 20
49.2199123480956
 10
16.6689620704231
 20
49.2200133162811
 10
16.6687141163389
 20
49.2201235919109
 10
16.6687063738525
 20
49.220127027139
 10
16.6683811876375
 20
49.2203134520126
 10
16.668179699837
 20
49.2204451715943
 10
16.668052846755
 20
49.2204921477224
 10
16.6680335069812
 20
49.2205115898604
 10
16.6680538159199
 20
49.2205528117962
 10
16.6681875214919
 20
49.220743817223
 10
16.6685571299774
 20
49.2205913556537
 10
16.6686833657913
 20
49.2205557312474
 10
16.6689505219725
 20
49.2204386654203
 10
16.669277979291
 20
49.2202914694134
 10
16.6696851156943
 20
49.2201332312006
 10
16.6706643671828
 20
49.2198656966837
 10
16.6716303511038
 20
49.2195813047076
 10
16.6719112023595
 20
49.2194985679446
 10
16.672176661425
 20
49.2194204469255
 10
16.6727214469347
 20
49.2192014164703
 10
16.6729663698845
 20
49.2190910106647
 10
16.6732928216031
 20
49.2189439149367
 10
16.673395940418
 20
49.2188892068168
 10
16.67361380015
 20
49.2187737332468
 10
16.6738723336641
 20
49.2186012445267
 10
16.6743749710886
 20
49.2182136493327
 10
16.6746630393169
 20
49.2180142022399
 10
16.6749004956224
 20
49.2178860848086
 97
0
 75
0
 76
1
 98
0
  0
HATCH
  5
20015
100
AcDbEntity
  8
0
100
AcDbHatch
 10
0
 20
0
 30
0
210
0
220
0
230
1
  2
SOLID
 70
1
 71
0
 91
1
 92
2
 72
0
 73
1
 93
32
 10
16.4986803011908
 20
49.2565332348824
 10
16.4989180083941
 20
49.2565258592214
 10
16.4992924110573
 20
49.2565638389231
 10
16.4995804617944
 20
49.2565777128001
 10
16.4997137292542
 20
49.2565841041066
 10
16.4998940310831
 20
49.2565654629487
 10
16.4998967006827
 20
49.2565652020833
 10
16.4999504175252
 20
49.2565431819491
 10
16.5002461623636
 20
49.2564219115704
 10
16.5003841520589
 20
49.2563654072039
 10
16.5005378892863
 20
49.2563023425967
 10
16.5010906041712
 20
49.2559743352358
 10
16.5011544471307
 20
49.2559363955613
 10
16.5012891627975
 20
49.2558564970447
 10
16.5016768995683
 20
49.2556264796423
 10
16.5016802779912
 20
49.255624460308
 10
16.5017269012802
 20
49.2556060016863
 10
16.5019624734402
 20
49.2555130702372
 10
16.5021302201236
 20
49.2554546267924
 10
16.5020218836124
 20
49.255155569496
 10
16.5020878275228
 20
49.2551405766589
 10
16.502771615084
 20
49.2549847026362
 10
16.5022933219248
 20
49.2538043403548
 10
16.4977828016149
 20
49.2550349250006
 10
16.4967623285933
 20
49.257004922149
 10
16.4967668185261
 20
49.2570045205562
 10
16.497137940532
 20
49.2569003348071
 10
16.4977747289341
 20
49.2567216663117
 10
16.4980373635472
 20
49.2566479617162
 10
16.4982115992264
 20
49.2566168563917
 10
16.4984334086842
 20
49.2565773125006
 10
16.4986803011908
 20
49.2565332348824
 97
0
 75
0
 76
1
 98
0
  0
HATCH
  5
20016
100
AcDbEntity
  8
0
100
AcDbHatch
 10
0
 20
0
 30
0
210
0
220
0
230
1
  2
SOLID
 70
1
 71
0
 91
1
 92
2
 72
0
 73
1
 93
18
 10
16.5162506400551
 20
49.2427429366132
 10
16.5162402198971
 20
49.24272011813
 10
16.5161886307013
 20
49.2426898292271
 10
16.5160841952084
 20
49.2425102050663
 10
16.5159450297461
 20
49.242531088903
 10
16.5158189028778
 20
49.2425500113306
 10
16.5152680321
 20
49.2426617307195
 10
16.5151832283545
 20
49.2423852703162
 10
16.5151415282628
 20
49.2424579100659
 10
16.5150700459889
 20
49.2426765927522
 10
16.5149985630829
 20
49.2428952753865
 10
16.5150909833924
 20
49.2430119840821
 10
16.5151267750066
 20
49.2430450322093
 10
16.5154389622097
 20
49.24304296013
 10
16.5155351443367
 20
49.2430047969119
 10
16.5158619721461
 20
49.2429986156536
 10
16.5163634446003
 20
49.2429891057505
 10
16.5162506400551
 20
49.2427429366132
 97
0
 75
0
 76
1
 98
0
  0
HATCH
  5
20017
100
AcDbEntity
  8
0
100
AcDbHatch
 10
0
 20
0
 30
0
210
0
220
0
230
1
  2
SOLID
 70
1
 71
0
 91
1
 92
2
 72
0
 73
1
 93
96
 10
16.5507128507574
 20
49.1951076018808
 10
16.5508869590033
 20
49.1939590982852
 10
16.5505356036757
 20
49.1938599411013
 10
16.5495681733464
 20
49.1936400166514
 10
16.5493971993184
 20
49.1936007672708
 10
16.5493095333665
 20
49.1935842886565
 10
16.5486096340094
 20
49.1934530114286
 10
16.5484411476161
 20
49.1934370047625
 10
16.5480358169815
 20
49.1933985732389
 10
16.547861478228
 20
49.1933538347061
 10
16.5477624649228
 20
49.1933284036224
 10
16.5476152571808
 20
49.193290667102
 10
16.5475021989999
 20
49.193251749984
 10
16.5470935501526
 20
49.1931112227378
 10
16.5467870592629
 20
49.1929705700356
 10
16.5467668012313
 20
49.1929429814081
 10
16.5459434916448
 20
49.1933374816464
 10
16.5458077403313
 20
49.1932300036101
 10
16.5457842085642
 20
49.1932113172663
 10
16.5456159846972
 20
49.1935034246548
 10
16.5456321311711
 20
49.1935109096491
 10
16.5456124174342
 20
49.1935340160718
 10
16.5456039120992
 20
49.1935511384909
 10
16.545603881259
 20
49.1935695896973
 10
16.5456186328873
 20
49.1935954285007
 10
16.5456873937726
 20
49.1936650157396
 10
16.5456904912279
 20
49.1936762727719
 10
16.5456942890676
 20
49.1938560123687
 10
16.5456158334934
 20
49.1938571946325
 10
16.5456159237091
 20
49.1938616335104
 10
16.5455208295069
 20
49.1938624417524
 10
16.5455214709597
 20
49.1937988052
 10
16.5454499073137
 20
49.1937992130569
 10
16.5451684689214
 20
49.1942807959299
 10
16.5452822963401
 20
49.1943557724722
 10
16.545319367593
 20
49.1943768730266
 10
16.5453743975621
 20
49.194412824616
 10
16.5455301624794
 20
49.1945186564766
 10
16.5456485895107
 20
49.194595860625
 10
16.5457216186338
 20
49.1946588777009
 10
16.5457987130619
 20
49.1947231800237
 10
16.5458720896823
 20
49.1947857694989
 10
16.545912163099
 20
49.1948444432615
 10
16.545955377705
 20
49.1949091305854
 10
16.5459972463594
 20
49.1949653092069
 10
16.5460440279456
 20
49.1950317889452
 10
16.5460482055092
 20
49.1951046343813
 10
16.546053838985
 20
49.1951778551398
 10
16.5460549840358
 20
49.1952083307175
 10
16.5460563907927
 20
49.1952447047377
 10
16.5460532929581
 20
49.1952890792527
 10
16.5460536118653
 20
49.1953635487938
 10
16.5460493889437
 20
49.1954346184882
 10
16.5460533306762
 20
49.1954723494522
 10
16.5460505500872
 20
49.1954932275896
 10
16.5460744837878
 20
49.1955975155616
 10
16.5461327150574
 20
49.1956897790428
 10
16.5461578284453
 20
49.1957330017408
 10
16.5461999187264
 20
49.1957778888174
 10
16.5462924972122
 20
49.1958453766711
 10
16.546431124913
 20
49.1959032166518
 10
16.5465524570868
 20
49.195963801795
 10
16.5466663144217
 20
49.1960137218783
 10
16.5468011273829
 20
49.1960770782976
 10
16.546916608471
 20
49.1961321796482
 10
16.5470422501737
 20
49.1961942477989
 10
16.5471550452167
 20
49.1962572078484
 10
16.5472727783796
 20
49.1963195252488
 10
16.5473918464617
 20
49.1963729824976
 10
16.5475082257861
 20
49.1964243480597
 10
16.547647782941
 20
49.1964874087879
 10
16.5479033276375
 20
49.196597554954
 10
16.5480163654534
 20
49.1966324895095
 10
16.5481305298265
 20
49.1966689516751
 10
16.5481533616718
 20
49.1965623037369
 10
16.5481397288482
 20
49.1965363643697
 10
16.5481330313956
 20
49.1965135433069
 10
16.5481286853542
 20
49.1964915232872
 10
16.5481303144012
 20
49.1964709247953
 10
16.548135413164
 20
49.1964502121381
 10
16.5481450931733
 20
49.196431002433
 10
16.5481583995452
 20
49.1964132275206
 10
16.5481832725439
 20
49.1963922980871
 10
16.5482241313512
 20
49.1963665394948
 10
16.5482970347113
 20
49.1963257003217
 10
16.5485652031731
 20
49.1961846410831
 10
16.5487132641838
 20
49.1961068319978
 10
16.5489402736916
 20
49.1959883433341
 10
16.5492947194235
 20
49.1958197903198
 10
16.5494679098698
 20
49.1957352709088
 10
16.549759788007
 20
49.1955902026543
 10
16.5499667976866
 20
49.1954873814246
 10
16.5501961675981
 20
49.1953696018856
 10
16.5503971625494
 20
49.1952630943229
 10
16.5505518058193
 20
49.1951796923493
 10
16.5507128507574
 20
49.1951076018808
 97
0
 75
0
 76
1
 98
0
  0
HATCH
  5
20018
100
AcDbEntity
  8
0
100
AcDbHatch
 10
0
 20
0
 30
0
210
0
220
0
230
1
  2
SOLID
 70
1
 71
0
 91
1
 92
2
 72
0
 73
1
 93
45
 10
16.5438457835555
 20
49.1842774592489
 10
16.5437949420738
 20
49.1842304979203
 10
16.5437105359707
 20
49.1842609230428
 10
16.5435611074272
 20
49.1843147452091
 10
16.5435448846192
 20
49.1843201897597
 10
16.5434553430775
 20
49.1843507906075
 10
16.5433549812373
 20
49.1843850508668
 10
16.5432615046047
 20
49.1844169082557
 10
16.5431847044646
 20
49.1844430821099
 10
16.5431718560619
 20
49.1844473203471
 10
16.5430046902493
 20
49.1845024075585
 10
16.5429113915317
 20
49.184533191905
 10
16.54280760464
 20
49.184567297506
 10
16.5427084693139
 20
49.1846016448902
 10
16.5425917645196
 20
49.1846420640857
 10
16.5425097742518
 20
49.1846703995681
 10
16.5424251358494
 20
49.1846997217596
 10
16.5423213619766
 20
49.1847428737437
 10
16.5421260075256
 20
49.1848238974875
 10
16.542074869136
 20
49.184845119793
 10
16.541929997127
 20
49.1849179905565
 10
16.541802882321
 20
49.1849819985887
 10
16.5417343783256
 20
49.1850163628738
 10
16.5414854247255
 20
49.1851699029214
 10
16.5413978593109
 20
49.1852417117468
 10
16.5413728304923
 20
49.1853034252267
 10
16.5414015674994
 20
49.1853696137125
 10
16.541618254132
 20
49.1853785836234
 10
16.5423908658411
 20
49.1852120721458
 10
16.5431561825921
 20
49.1850777806227
 10
16.5431240712754
 20
49.1850277246232
 10
16.5434646379738
 20
49.1849381670217
 10
16.5436271023346
 20
49.1848765016102
 10
16.5436062781496
 20
49.1847560614158
 10
16.5436049825949
 20
49.1847489131228
 10
16.5436200305731
 20
49.1847455556283
 10
16.5436329288385
 20
49.1847426777743
 10
16.5436321431999
 20
49.1846868089065
 10
16.5436948755226
 20
49.1846672283056
 10
16.5436948755226
 20
49.1846672283056
 10
16.5436021876463
 20
49.184454452732
 10
16.5436064197405
 20
49.1844514081002
 10
16.5437491129619
 20
49.1843476240525
 10
16.5438296289716
 20
49.1842899644526
 10
16.5438457835555
 20
49.1842774592489
 97
0
 75
0
 76
1
 98
0
  0
HATCH
  5
20019
100
AcDbEntity
  8
0
100
AcDbHatch
 10
0
 20
0
 30
0
210
0
220
0
230
1
  2
SOLID
 70
1
 71
0
 91
1
 92
2
 72
0
 73
1
 93
21
 10
16.5259583733692
 20
49.1968030798633
 10
16.5256116869044
 20
49.196736473231
 10
16.5255726535329
 20
49.196636072547
 10
16.5255194535511
 20
49.1964724210386
 10
16.5253246712363
 20
49.1963863818768
 10
16.5249216097294
 20
49.1963433280636
 10
16.5247309037258
 20
49.1963048904545
 10
16.5246714636854
 20
49.1962962933491
 10
16.5245284114254
 20
49.1963744328578
 10
16.524343211916
 20
49.1964023345682
 10
16.5243489044129
 20
49.196411245378
 10
16.5243627952637
 20
49.1966293452432
 10
16.5243754307103
 20
49.1967249620287
 10
16.5244003426341
 20
49.1967999280179
 10
16.5244890402644
 20
49.196919534199
 10
16.524619901081
 20
49.1969716897311
 10
16.5247727350405
 20
49.1970079591159
 10
16.5250823016664
 20
49.1969751184302
 10
16.5253502693128
 20
49.1969467171335
 10
16.5259763038855
 20
49.1968628006147
 10
16.5259583733692
 20
49.1968030798633
 97
0
 75
0
 76
1
 98
0
  0
HATCH
  5
2001A
100
AcDbEntity
  8
0
100
AcDbHatch
 10
0
 20
0
 30
0
210
0
220
0
230
1
  2
SOLID
 70
1
 71
0
 91
1
 92
2
 72
0
 73
1
 93
38
 10
16.5360633126958
 20
49.1786164576596
 10
16.5358622811576
 20
49.1782631304082
 10
16.5357721730072
 20
49.1782847288797
 10
16.5355860409879
 20
49.1783303068052
 10
16.5355577476945
 20
49.1783262028344
 10
16.5355815093534
 20
49.1783840774374
 10
16.5355403016657
 20
49.1783920760408
 10
16.5355171276274
 20
49.1783331579377
 10
16.5353880998453
 20
49.1783581239931
 10
16.5353697336411
 20
49.1783905518586
 10
16.535333291592
 20
49.1785656079209
 10
16.5350899488567
 20
49.1786821749318
 10
16.534939992551
 20
49.1786745257184
 10
16.5347632039683
 20
49.1785652708554
 10
16.5347583173163
 20
49.1785672732984
 10
16.534819210173
 20
49.1786267182945
 10
16.5355374014787
 20
49.1794767480346
 10
16.5358178850968
 20
49.1793982055068
 10
16.5358959061433
 20
49.1793762852562
 10
16.5361347441282
 20
49.1793166550568
 10
16.5362619763539
 20
49.1792834182864
 10
16.5363646882726
 20
49.1792565693496
 10
16.5364327843183
 20
49.1792387334013
 10
16.5365391133221
 20
49.1792108765377
 10
16.5364549835843
 20
49.1791276990088
 10
16.5364138684137
 20
49.1790870374864
 10
16.5363829335275
 20
49.1790565116728
 10
16.5363620722739
 20
49.1790359330341
 10
16.5363332944789
 20
49.1790073706361
 10
16.5363048663055
 20
49.1789791950663
 10
16.5363001827978
 20
49.1789733421417
 10
16.5362808859628
 20
49.1789491665208
 10
16.5362527849669
 20
49.1789140489639
 10
16.5362402394464
 20
49.1788982260679
 10
16.5362321195767
 20
49.1788881472006
 10
16.5361801450421
 20
49.1788231896069
 10
16.5361675796028
 20
49.1788008522052
 10
16.5360633126958
 20
49.1786164576596
 97
0
 75
0
 76
1
 98
0
  0
HATCH
  5
2001B
100
AcDbEntity
  8
0
100
AcDbHatch
 10
0
 20
0
 30
0
210
0
220
0
230
1
  2
SOLID
 70
1
 71
0
 91
1
 92
2
 72
0
 73
1
 93
63
 10
16.5883789418439
 20
49.1758412630515
 10
16.5883902072748
 20
49.1757814602916
 10
16.5884633055689
 20
49.1758032975871
 10
16.5884642977339
 20
49.1758014685812
 10
16.5885011723482
 20
49.1757369728915
 10
16.5885029020816
 20
49.1757340204097
 10
16.5884971171042
 20
49.1757306244249
 10
16.5884959274681
 20
49.1757286403915
 10
16.5886092611512
 20
49.1755496373428
 10
16.5887638832288
 20
49.1752785927352
 10
16.5885860126908
 20
49.1751936827451
 10
16.5885040585731
 20
49.175154482484
 10
16.5886723051871
 20
49.1749662656997
 10
16.5886927948488
 20
49.1749432993865
 10
16.588746966782
 20
49.1748826558472
 10
16.5887264892134
 20
49.1747286073768
 10
16.5886828830158
 20
49.1746994586274
 10
16.5886164941036
 20
49.174658741246
 10
16.5886820212372
 20
49.1746337288339
 10
16.5887123427369
 20
49.1746222249791
 10
16.5886590535176
 20
49.1742209899434
 10
16.5886566514646
 20
49.1742188293077
 10
16.5885265072734
 20
49.1740263248207
 10
16.588295436045
 20
49.1737767185053
 10
16.588185972324
 20
49.173640225927
 10
16.5878911992437
 20
49.1734864038342
 10
16.5877022002224
 20
49.1734780381321
 10
16.5874590358124
 20
49.1738866088648
 10
16.587492548059
 20
49.1741361977543
 10
16.5862398619831
 20
49.1742889481266
 10
16.5861683605759
 20
49.1740113314563
 10
16.5861255745383
 20
49.1740231245923
 10
16.5859847175652
 20
49.1740615049806
 10
16.5858277013717
 20
49.1741041637837
 10
16.585240108894
 20
49.1742644679045
 10
16.5850385877083
 20
49.1748298559969
 10
16.5849941856895
 20
49.1749515247972
 10
16.5849320294889
 20
49.1751288264661
 10
16.5848902078998
 20
49.1752482364605
 10
16.5848206767188
 20
49.1754934868089
 10
16.5847946097214
 20
49.1755835340732
 10
16.5847542777298
 20
49.1757231305307
 10
16.5847225951906
 20
49.1758329496298
 10
16.5846812474987
 20
49.1759761824572
 10
16.5846414389492
 20
49.1761142784205
 10
16.5846070057103
 20
49.1762332186414
 10
16.5845963104928
 20
49.1762703581732
 10
16.5846523804569
 20
49.1762842034562
 10
16.584824504012
 20
49.1763271027716
 10
16.5850065594241
 20
49.1763725168703
 10
16.5851948172746
 20
49.176419637886
 10
16.5852512670967
 20
49.1764336907611
 10
16.5854241910855
 20
49.1765168071172
 10
16.5854963690558
 20
49.1766701899283
 10
16.5854927820801
 20
49.1768537353533
 10
16.5865420424239
 20
49.1771415086401
 10
16.5866619081954
 20
49.1773577974787
 10
16.5874340720613
 20
49.1775667123039
 10
16.5875479068707
 20
49.1774156048121
 10
16.5877669455166
 20
49.1771589071694
 10
16.588357168775
 20
49.1764061300363
 10
16.5882968650154
 20
49.1763870109106
 10
16.5883789418439
 20
49.1758412630515
 97
0
 75
0
 76
1
 98
0
  0
HATCH
  5
2001C
100
AcDbEntity
  8
0
100
AcDbHatch
 10
0
 20
0
 30
0
210
0
220
0
230
1
  2
SOLID
 70
1
 71
0
 91
1
 92
2
 72
0
 73
1
 93
115
 10
16.5155446359875
 20
49.2440390850177
 10
16.5155454030492
 20
49.2440766812893
 10
16.5155849958235
 20
49.2441928636929
 10
16.5155899128072
 20
49.2443768517237
 10
16.5156225573861
 20
49.2445553166168
 10
16.51561082129
 20
49.2446768702143
 10
16.515613844991
 20
49.2448275234585
 10
16.5155974801087
 20
49.2449081286415
 10
16.5155986633195
 20
49.2449481971463
 10
16.5155992699506
 20
49.2449710367676
 10
16.5155936029275
 20
49.2450818981618
 10
16.5155907885634
 20
49.2451359733136
 10
16.5155802210108
 20
49.2452463933995
 10
16.5155756186501
 20
49.2452954556443
 10
16.5154787740097
 20
49.245371474959
 10
16.515452253945
 20
49.2453921010797
 10
16.5154197679179
 20
49.2454567164586
 10
16.5154095965957
 20
49.2454878305486
 10
16.5153765972802
 20
49.2455877794612
 10
16.5153481448849
 20
49.2456348627856
 10
16.5152840654545
 20
49.2457405470785
 10
16.5152551133738
 20
49.2457765583613
 10
16.5151910713363
 20
49.2458563734265
 10
16.5151671411435
 20
49.2458871356547
 10
16.5150837575283
 20
49.2459950562207
 10
16.5150435920299
 20
49.2460469094719
 10
16.514988594177
 20
49.2460767137716
 10
16.5149298243328
 20
49.24610841905
 10
16.5149164626864
 20
49.2461205792469
 10
16.5148685245551
 20
49.2461643676745
 10
16.5148020041233
 20
49.2462250987683
 10
16.5147553522546
 20
49.2462678032625
 10
16.5146654315752
 20
49.2463246877846
 10
16.5146268011206
 20
49.2463491506493
 10
16.5145963631028
 20
49.2463684105719
 10
16.5147856866074
 20
49.2467098877813
 10
16.5147782024777
 20
49.2467191217335
 10
16.5147476323048
 20
49.2467573690877
 10
16.5147330544205
 20
49.2467743270994
 10
16.5146888704852
 20
49.2468212790577
 10
16.5146017120381
 20
49.2469137316948
 10
16.5145847998814
 20
49.2469198481421
 10
16.514579222943
 20
49.2469218008242
 10
16.5145099677504
 20
49.246946784786
 10
16.514448380258
 20
49.2469688802014
 10
16.5144318458419
 20
49.2469917589967
 10
16.5144129837877
 20
49.247017818193
 10
16.5144708584514
 20
49.2471527689569
 10
16.514559093551
 20
49.2473078047782
 10
16.5145622789534
 20
49.2473135509832
 10
16.5145885221546
 20
49.2473946739657
 10
16.5146037859277
 20
49.247442263878
 10
16.5146091243483
 20
49.2474706890646
 10
16.5146406791955
 20
49.2476391255028
 10
16.5147148805236
 20
49.2477408697571
 10
16.5147965546858
 20
49.2477656237777
 10
16.5148444356965
 20
49.2477800881541
 10
16.5148732226301
 20
49.247732666955
 10
16.5149083757165
 20
49.2476719514526
 10
16.5149112492001
 20
49.2476514415854
 10
16.5149194664452
 20
49.2475923255663
 10
16.514927504475
 20
49.2475342822498
 10
16.514934113221
 20
49.2474864491705
 10
16.5148765970305
 20
49.2473270094629
 10
16.514831554409
 20
49.2472095321293
 10
16.5148245321637
 20
49.2471580997327
 10
16.5148323740559
 20
49.2471061937305
 10
16.5148554214498
 20
49.2470567333202
 10
16.5148941796618
 20
49.246994285821
 10
16.5149193584703
 20
49.246953571816
 10
16.514936575479
 20
49.2469365313516
 10
16.5149939952094
 20
49.2468756913204
 10
16.5150515390564
 20
49.2468389228134
 10
16.5151112375216
 20
49.2467966999558
 10
16.5151468448889
 20
49.2467704826456
 10
16.5151704620813
 20
49.2467473871791
 10
16.5151935863468
 20
49.246721452124
 10
16.5152138192004
 20
49.2466747753871
 10
16.5152520383678
 20
49.2465865982742
 10
16.5153091312618
 20
49.246459879068
 10
16.5153209312051
 20
49.2464479688621
 10
16.5153846223939
 20
49.2463901106165
 10
16.515437147659
 20
49.2463602195622
 10
16.5155651860544
 20
49.2462976505581
 10
16.5155961507576
 20
49.246282679786
 10
16.51566832255
 20
49.2462427066235
 10
16.5156965581054
 20
49.2462167755815
 10
16.5157284525691
 20
49.2461921015508
 10
16.5157702986025
 20
49.2461392828836
 10
16.5157972593189
 20
49.2460845844115
 10
16.5158600719964
 20
49.2459533896515
 10
16.5159020429574
 20
49.2458849301462
 10
16.5159609046768
 20
49.2458253690209
 10
16.5159799792865
 20
49.2458112657275
 10
16.5160364519551
 20
49.2457660073057
 10
16.5161064548342
 20
49.2457208128594
 10
16.5161518126006
 20
49.2456883278462
 10
16.5161756619483
 20
49.2456787275469
 10
16.5162275078787
 20
49.245656205386
 10
16.5162241212658
 20
49.2456375993682
 10
16.5161897599006
 20
49.2454420957761
 10
16.5161149133751
 20
49.2451605602053
 10
16.5160235467962
 20
49.2448323399463
 10
16.5159963291425
 20
49.2446304725596
 10
16.5159473766225
 20
49.2443717774199
 10
16.5158780037816
 20
49.2439970965809
 10
16.5159195978657
 20
49.24393584707
 10
16.515789983857
 20
49.2437853578769
 10
16.515776549516
 20
49.2437698318274
 10
16.5156621823066
 20
49.2437745796915
 10
16.5156756838036
 20
49.2438211387148
 10
16.5156759403746
 20
49.2438378019225
 10
16.5156779397097
 20
49.2439739080635
 10
16.5156785255439
 20
49.2440117627358
 10
16.5155446359875
 20
49.2440390850177
 97
0
 75
0
 76
1
 98
0
  0
HATCH
  5
2001D
100
AcDbEntity
  8
0
100
AcDbHatch
 10
0
 20
0
 30
0
210
0
220
0
230
1
  2
SOLID
 70
1
 71
0
 91
1
 92
2
 72
0
 73
1
 93
135
 10
16.6698621995594
 20
49.1254292256531
 10
16.669868498973
 20
49.1253485420341
 10
16.6698197374551
 20
49.1252447170914
 10
16.6698022580638
 20
49.1252074900753
 10
16.6698036919835
 20
49.1251700572827
 10
16.6698047739772
 20
49.1251398351333
 10
16.6698104895412
 20
49.12497083823
 10
16.669405590836
 20
49.1249296650424
 10
16.6692562160103
 20
49.1249144433239
 10
16.6692059346261
 20
49.1249092745884
 10
16.6691509638527
 20
49.1248990725752
 10
16.6690513226958
 20
49.124880569583
 10
16.668916917471
 20
49.124855548425
 10
16.6688933780789
 20
49.1248511774484
 10
16.6687226634756
 20
49.1247717752615
 10
16.6686794996006
 20
49.1247517322226
 10
16.6686065074117
 20
49.1247177404914
 10
16.6685719306604
 20
49.1247016485407
 10
16.6685176305589
 20
49.1246763894568
 10
16.6684549867371
 20
49.1246473772233
 10
16.6684033869313
 20
49.1246233031214
 10
16.6683987747647
 20
49.1246211694422
 10
16.668373407856
 20
49.1246094342034
 10
16.6682530344909
 20
49.1245533835936
 10
16.6682509377496
 20
49.1245518792791
 10
16.6681285979091
 20
49.1244615025634
 10
16.6679001776119
 20
49.1242925661001
 10
16.66789402369
 20
49.1242880627325
 10
16.6678502770242
 20
49.1242479903666
 10
16.6678170864392
 20
49.1242175248893
 10
16.6676501612023
 20
49.1240644052862
 10
16.6676416296854
 20
49.1239429724142
 10
16.6676392738565
 20
49.1239093425409
 10
16.6676734863909
 20
49.123734664716
 10
16.6675965136064
 20
49.1237292431639
 10
16.6674963462479
 20
49.1237426279734
 10
16.6673311035826
 20
49.123764633686
 10
16.6672098136228
 20
49.1237807812638
 10
16.6671475507351
 20
49.1237890575942
 10
16.6671173849114
 20
49.1236254917102
 10
16.6670814855838
 20
49.1236107531521
 10
16.6668778399515
 20
49.1236114218016
 10
16.6668684590284
 20
49.1236114845407
 10
16.6668595406583
 20
49.1236104041004
 10
16.666661152229
 20
49.1235856663766
 10
16.6665256935438
 20
49.1235687982207
 10
16.6663210216272
 20
49.1235352964696
 10
16.6659374006163
 20
49.1234601552285
 10
16.6656612475951
 20
49.123415466231
 10
16.6654837165836
 20
49.123399702638
 10
16.6652141401216
 20
49.1233940047517
 10
16.6650510266564
 20
49.1234072033027
 10
16.665042375421
 20
49.1234078599633
 10
16.664841591791
 20
49.1234382111736
 10
16.6641884011562
 20
49.1235510950191
 10
16.663845780317
 20
49.1236060897915
 10
16.6632892782487
 20
49.1236956645266
 10
16.6628841998608
 20
49.1237651577349
 10
16.66276387581
 20
49.1237838107887
 10
16.6627078524255
 20
49.1237985842453
 10
16.6626542912409
 20
49.1238261028861
 10
16.6626102873945
 20
49.1238634299108
 10
16.6626099736993
 20
49.1238830340912
 10
16.6626257565146
 20
49.1239533358908
 10
16.6626259896637
 20
49.1239544376475
 10
16.6625816886489
 20
49.1239657863753
 10
16.6625491733075
 20
49.1239741670931
 10
16.6624712369146
 20
49.1239830547462
 10
16.6624699669127
 20
49.1239832365682
 10
16.6625306469368
 20
49.1240217009906
 10
16.6625309340362
 20
49.1240216307814
 10
16.6625599740332
 20
49.1240168037652
 10
16.6625963313831
 20
49.124013577783
 10
16.6626384206511
 20
49.1240098513274
 10
16.6626407978832
 20
49.1240155359373
 10
16.6626884240049
 20
49.1241329420519
 10
16.6626971064322
 20
49.1241539942469
 10
16.6627342537957
 20
49.1241863682708
 10
16.6627695917468
 20
49.1242171676585
 10
16.6628252407097
 20
49.1242030008591
 10
16.6629341055073
 20
49.1241752192603
 10
16.6631164604118
 20
49.1241497225152
 10
16.6632641163532
 20
49.1241291061135
 10
16.6645031364752
 20
49.1239572050667
 10
16.6650702808497
 20
49.1238817598722
 10
16.6653519789657
 20
49.1238445373402
 10
16.6658716433978
 20
49.1237804854517
 10
16.6661135421848
 20
49.1237506773575
 10
16.6666106374761
 20
49.1236881073893
 10
16.6666476982711
 20
49.1237075405215
 10
16.6667079239908
 20
49.123745427881
 10
16.6667113009598
 20
49.1237618550981
 10
16.6667145955491
 20
49.1237771007503
 10
16.6667282243541
 20
49.1238454409863
 10
16.6667465490533
 20
49.1238429332072
 10
16.6667436153564
 20
49.1238591872135
 10
16.6667397458405
 20
49.1238811636637
 10
16.6667023472405
 20
49.1240921560655
 10
16.6668933532366
 20
49.1241460389133
 10
16.6669397145319
 20
49.1241591629264
 10
16.6670208578242
 20
49.1241820628444
 10
16.6670543213136
 20
49.1241914745543
 10
16.6671287629277
 20
49.124238502865
 10
16.667149628217
 20
49.1242516397461
 10
16.6672353077999
 20
49.1243057905751
 10
16.6673804556583
 20
49.1243974131159
 10
16.6674070616159
 20
49.1244142102419
 10
16.6674861352796
 20
49.1244640969416
 10
16.6677435562615
 20
49.1246267560952
 10
16.6680648362594
 20
49.1248295466718
 10
16.6680660816802
 20
49.1248303579301
 10
16.668068450904
 20
49.1248318814382
 10
16.6681887418534
 20
49.1249078238626
 10
16.6681997366809
 20
49.1249147483315
 10
16.668281404707
 20
49.1250448591336
 10
16.6682945783738
 20
49.1251918523426
 10
16.6682683933179
 20
49.1252592875405
 10
16.6682931537058
 20
49.1252654630423
 10
16.668343061406
 20
49.1252872473484
 10
16.6684064848404
 20
49.1253148674054
 10
16.6684157385424
 20
49.1253189559358
 10
16.6684639573818
 20
49.1253232561938
 10
16.6685007613451
 20
49.1253265716553
 10
16.6686741837817
 20
49.1253422215939
 10
16.6688532412898
 20
49.1253562783511
 10
16.6689142035922
 20
49.125361023616
 10
16.6689894564628
 20
49.1253668656399
 10
16.6690412907254
 20
49.1253709680347
 10
16.6690903662891
 20
49.1253742430392
 10
16.6691960106273
 20
49.1253813206459
 10
16.6693169138634
 20
49.1253894726488
 10
16.6693460545836
 20
49.1253916151059
 10
16.669794517467
 20
49.1254242790678
 10
16.6698593385172
 20
49.1254290241994
 10
16.6698621995594
 20
49.1254292256531
 97
0
 75
0
 76
1
 98
0
  0
HATCH
  5
2001E
100
AcDbEntity
  8
0
100
AcDbHatch
 10
0
 20
0
 30
0
210
0
220
0
230
1
  2
SOLID
 70
1
 71
0
 91
1
 92
2
 72
0
 73
1
 93
41
 10
16.6444688900019
 20
49.1215157639146
 10
16.644490100153
 20
49.1215065895853
 10
16.6447583974041
 20
49.1216889780325
 10
16.6449965208133
 20
49.121452820945
 10
16.6452991771712
 20
49.1209701437489
 10
16.6451847804724
 20
49.1208988415746
 10
16.6445044309392
 20
49.1207569899455
 10
16.6433634977672
 20
49.1203466195179
 10
16.6433076656433
 20
49.1203375193888
 10
16.643287699628
 20
49.1203617954602
 10
16.6432508793731
 20
49.1204064973732
 10
16.6431705633945
 20
49.1203416708957
 10
16.6430800075042
 20
49.1202687042514
 10
16.6430195566406
 20
49.1203835508172
 10
16.6430623538068
 20
49.1204578463227
 10
16.6431444775232
 20
49.1207183454001
 10
16.6432439922823
 20
49.1210349739405
 10
16.643245595717
 20
49.1210378006144
 10
16.6435301581068
 20
49.1215545453885
 10
16.6435922682552
 20
49.1216673783887
 10
16.6436695625816
 20
49.1218077847924
 10
16.643657707218
 20
49.1218120122229
 10
16.6437455301808
 20
49.1219924160011
 10
16.6438571413383
 20
49.1221790225037
 10
16.6439428239395
 20
49.1222884554979
 10
16.6439905627217
 20
49.1223494421604
 10
16.6440283507294
 20
49.1223853958284
 10
16.6441397801566
 20
49.1225571559115
 10
16.6441794756574
 20
49.1226856801729
 10
16.6442210080048
 20
49.1226853580347
 10
16.6442135746232
 20
49.1226441321859
 10
16.6441969633273
 20
49.1225521508522
 10
16.6441622816135
 20
49.1223611207349
 10
16.6442319438988
 20
49.1222312771575
 10
16.6444197882723
 20
49.1218815866432
 10
16.6444429841892
 20
49.1218384544181
 10
16.6444426592134
 20
49.1218370747704
 10
16.6444035728141
 20
49.1217006343576
 10
16.6442679872568
 20
49.1216022382458
 10
16.6442694667984
 20
49.1216016191959
 10
16.6444688900019
 20
49.1215157639146
 97
0
 75
0
 76
1
 98
0
  0
HATCH
  5
2001F
100
AcDbEntity
  8
0
100
AcDbHatch
 10
0
 20
0
 30
0
210
0
220
0
230
1
  2
SOLID
 70
1
 71
0
 91
1
 92
2
 72
0
 73
1
 93
55
 10
16.6863662578228
 20
49.136068830636
 10
16.6852369951947
 20
49.1350906914683
 10
16.6851094404943
 20
49.1351755159063
 10
16.6850999907732
 20
49.1351371381403
 10
16.6849568071794
 20
49.1350331092936
 10
16.684662196634
 20
49.1348130761415
 10
16.6845920486366
 20
49.1347606654386
 10
16.6845101904099
 20
49.1346938656731
 10
16.6842857591579
 20
49.1345108693382
 10
16.6842680432639
 20
49.134494430323
 10
16.6841420660417
 20
49.1343770483787
 10
16.6840140355684
 20
49.1342578940232
 10
16.6839645676697
 20
49.1342088354045
 10
16.6837822712131
 20
49.1340278040232
 10
16.6836713182045
 20
49.1338040334615
 10
16.68366260107
 20
49.1337865083718
 10
16.6835639540557
 20
49.1335152165886
 10
16.6834580839066
 20
49.1332028994294
 10
16.6834504708336
 20
49.1331701673843
 10
16.6833807171716
 20
49.1328687994148
 10
16.6833694136099
 20
49.132618026116
 10
16.6834177182502
 20
49.1320704547592
 10
16.6827712938198
 20
49.1324294717855
 10
16.682715666312
 20
49.1324603815495
 10
16.6824978613956
 20
49.1325813665588
 10
16.6821105251365
 20
49.1328560318737
 10
16.6817068817876
 20
49.1331376895299
 10
16.6816543285872
 20
49.1331742414685
 10
16.6820609074079
 20
49.1334596753216
 10
16.6821598323668
 20
49.1335291239468
 10
16.6822247442668
 20
49.1335747470625
 10
16.6823198395853
 20
49.1336414844124
 10
16.6824253158756
 20
49.1337155535506
 10
16.6827970379876
 20
49.1339764664621
 10
16.6830710675297
 20
49.1341688309237
 10
16.6832288595953
 20
49.1342795870832
 10
16.6833045340448
 20
49.1343327489421
 10
16.683423494468
 20
49.134416266094
 10
16.6835598884428
 20
49.1345120421122
 10
16.6836465822317
 20
49.1345728516381
 10
16.6838634855493
 20
49.1347251130687
 10
16.6839964305577
 20
49.1348183850445
 10
16.6842049161741
 20
49.1349648085535
 10
16.6844863885376
 20
49.1351623043711
 10
16.6845642850421
 20
49.1352170684057
 10
16.6845894105322
 20
49.1352598940822
 10
16.6846377779175
 20
49.1353418858604
 10
16.6846375955368
 20
49.1354367454184
 10
16.6846375927861
 20
49.1354637870167
 10
16.6843567163155
 20
49.1356629165664
 10
16.6843907076584
 20
49.1356852021438
 10
16.6855900471156
 20
49.1364797045391
 10
16.6859601882004
 20
49.1363450871886
 10
16.6861861362707
 20
49.1362029614923
 10
16.6863662578228
 20
49.136068830636
 97
0
 75
0
 76
1
 98
0
  0
HATCH
  5
20020
100
AcDbEntity
  8
0
100
AcDbHatch
 10
0
 20
0
 30
0
210
0
220
0
230
1
  2
SOLID
 70
1
 71
0
 91
1
 92
2
 72
0
 73
1
 93
25
 10
16.5444223327343
 20
49.2351913943836
 10
16.5447022802392
 20
49.2352614832218
 10
16.544769971656
 20
49.2351427483535
 10
16.5447197567688
 20
49.2351323810805
 10
16.5447601517563
 20
49.2350747473625
 10
16.5435677124348
 20
49.2345154787567
 10
16.5433926374058
 20
49.2348469948329
 10
16.543258890401
 20
49.2348023523503
 10
16.5430947208286
 20
49.2351164644704
 10
16.5430517665979
 20
49.2351853127611
 10
16.5430372866552
 20
49.2352050846202
 10
16.5430276536771
 20
49.2356298193989
 10
16.5427979217875
 20
49.2359776064247
 10
16.5431907801575
 20
49.2361146448785
 10
16.5436401691117
 20
49.2362066879273
 10
16.5437069383661
 20
49.2361159294572
 10
16.5437667465935
 20
49.2360346245546
 10
16.5438981845075
 20
49.2358557617931
 10
16.5439244416971
 20
49.2358200051531
 10
16.5439493389103
 20
49.2357857796985
 10
16.5440447338641
 20
49.2356558151809
 10
16.5440773135447
 20
49.2356102879838
 10
16.5441636452444
 20
49.2355057284322
 10
16.5442996152696
 20
49.2353411192512
 10
16.5444223327343
 20
49.2351913943836
 97
0
 75
0
 76
1
 98
0
  0
HATCH
  5
20021
100
AcDbEntity
  8
0
100
AcDbHatch
 10
0
 20
0
 30
0
210
0
220
0
230
1
  2
SOLID
 70
1
 71
0
 91
1
 92
2
 72
0
 73
1
 93
7
 10
16.6566192256682
 20
49.1445028087917
 10
16.6569259265626
 20
49.1443322374266
 10
16.6567633240711
 20
49.1442088944423
 10
16.6562619198394
 20
49.1445025801419
 10
16.6563370911665
 20
49.1445520168693
 10
16.6564370657087
 20
49.1446166784409
 10
16.6566192256682
 20
49.1445028087917
 97
0
 75
0
 76
1
 98
0
  0
HATCH
  5
20022
100
AcDbEntity
  8
0
100
AcDbHatch
 10
0
 20
0
 30
0
210
0
220
0
230
1
  2
SOLID
 70
1
 71
0
 91
1
 92
2
 72
0
 73
1
 93
26
 10
16.4997413169784
 20
49.2616406992462
 10
16.5008426344769
 20
49.2610677931101
 10
16.5008809448602
 20
49.2610478337955
 10
16.5009509479199
 20
49.2610069883388
 10
16.5013514637945
 20
49.2607735432618
 10
16.5008720250994
 20
49.2604173924762
 10
16.5003730497791
 20
49.2605718579671
 10
16.5003040936807
 20
49.260593238165
 10
16.499902773126
 20
49.2607175239153
 10
16.499083021694
 20
49.2609642313454
 10
16.4990208464211
 20
49.2610639857899
 10
16.4989381975741
 20
49.2611943862996
 10
16.4987358213631
 20
49.2613133958996
 10
16.4984550987416
 20
49.2613769410709
 10
16.4981972216683
 20
49.2614055770554
 10
16.4979909905339
 20
49.2613866241639
 10
16.4972496777032
 20
49.261765684911
 10
16.4970320431061
 20
49.2618701184617
 10
16.4948813683593
 20
49.2629019835912
 10
16.4948405966899
 20
49.2632551226634
 10
16.4948351938512
 20
49.2633022283616
 10
16.4949413078548
 20
49.263304142698
 10
16.4955880675941
 20
49.2633157162706
 10
16.4968053457794
 20
49.2627673549403
 10
16.4980193545403
 20
49.262234217363
 10
16.4997413169784
 20
49.2616406992462
 97
0
 75
0
 76
1
 98
0
  0
HATCH
  5
20023
100
AcDbEntity
  8
0
100
AcDbHatch
 10
0
 20
0
 30
0
210
0
220
0
230
1
  2
SOLID
 70
1
 71
0
 91
1
 92
2
 72
0
 73
1
 93
25
 10
16.609000964412
 20
49.1902001182908
 10
16.6087358164483
 20
49.1901067100838
 10
16.6085981018191
 20
49.190058963096
 10
16.6085597201959
 20
49.1900515400593
 10
16.6085197312094
 20
49.1900438222138
 10
16.6084686306938
 20
49.1900382113952
 10
16.6083494599631
 20
49.190050389565
 10
16.6082122466003
 20
49.1900799217596
 10
16.6082151479475
 20
49.1900849211939
 10
16.6082184842998
 20
49.1900923031489
 10
16.6082255811075
 20
49.1900902734415
 10
16.6082390521306
 20
49.1900872482197
 10
16.6082389708768
 20
49.1901061464771
 10
16.6083785693804
 20
49.1901115159864
 10
16.6084707650187
 20
49.1901147927152
 10
16.6085903856291
 20
49.1901249873865
 10
16.6086720301327
 20
49.1901403601888
 10
16.6087662720291
 20
49.1901772480809
 10
16.6088462209927
 20
49.1902330220997
 10
16.6089437481531
 20
49.1902926645886
 10
16.6089864431865
 20
49.1902689165958
 10
16.6090107895872
 20
49.1902317482532
 10
16.6090130788983
 20
49.1902187047993
 10
16.6090110806828
 20
49.1902124126359
 10
16.609000964412
 20
49.1902001182908
 97
0
 75
0
 76
1
 98
0
  0
HATCH
  5
20024
100
AcDbEntity
  8
0
100
AcDbHatch
 10
0
 20
0
 30
0
210
0
220
0
230
1
  2
SOLID
 70
1
 71
0
 91
1
 92
2
 72
0
 73
1
 93
11
 10
16.4614754076858
 20
49.264618822332
 10
16.4614751160168
 20
49.2645096065915
 10
16.461443225489
 20
49.2642891006642
 10
16.4614825061748
 20
49.2641887065978
 10
16.461577517632
 20
49.2641350281904
 10
16.4616932657051
 20
49.2640969565403
 10
16.461949000948
 20
49.2640542227649
 10
16.4620758867498
 20
49.2640165007459
 10
16.4621066283708
 20
49.2641608401369
 10
16.4615823498813
 20
49.2646059901456
 10
16.4614754076858
 20
49.264618822332
 97
0
 75
0
 76
1
 98
0
  0
HATCH
  5
20025
100
AcDbEntity
  8
0
100
AcDbHatch
 10
0
 20
0
 30
0
210
0
220
0
230
1
  2
SOLID
 70
1
 71
0
 91
1
 92
2
 72
0
 73
1
 93
38
 10
16.6628061768561
 20
49.2241483577138
 10
16.6628613911278
 20
49.2241232091528
 10
16.6628709340128
 20
49.2241189060092
 10
16.6629525532803
 20
49.2240817768871
 10
16.6630417831267
 20
49.2240580257905
 10
16.6628898777068
 20
49.2237346827531
 10
16.6628857576979
 20
49.2237353878427
 10
16.6625257269175
 20
49.2237971609193
 10
16.6624758626017
 20
49.2237922065275
 10
16.6622756145916
 20
49.2237881605382
 10
16.6622544905186
 20
49.2237847753967
 10
16.6619970092214
 20
49.2237432394509
 10
16.6618744650261
 20
49.2237554211904
 10
16.6618926785509
 20
49.2237967683847
 10
16.6619085248356
 20
49.2238323416247
 10
16.6619253596289
 20
49.2238711498802
 10
16.6619385940213
 20
49.2239032834584
 10
16.6619621007395
 20
49.2239746680875
 10
16.6619212898331
 20
49.224021450279
 10
16.6618829132039
 20
49.2240643337832
 10
16.6614384607698
 20
49.2240236631353
 10
16.6614259854986
 20
49.2241081632773
 10
16.6614148976829
 20
49.2241479919793
 10
16.6614115899305
 20
49.2241909003691
 10
16.6613997844451
 20
49.2242704732908
 10
16.6613849057178
 20
49.2243915240198
 10
16.6613816246759
 20
49.2244283746407
 10
16.6617069881867
 20
49.2245401671547
 10
16.6621368438879
 20
49.2246050431354
 10
16.6621540827749
 20
49.2246077027818
 10
16.6621575880891
 20
49.2246082206694
 10
16.6621600159729
 20
49.224608572329
 10
16.6621967407539
 20
49.2245766065083
 10
16.6624433257192
 20
49.2244184924996
 10
16.6624892468258
 20
49.2243826513288
 10
16.662496220833
 20
49.2243771726589
 10
16.6625670812912
 20
49.2243248162471
 10
16.6628061768561
 20
49.2241483577138
 97
0
 75
0
 76
1
 98
0
  0
HATCH
  5
20026
100
AcDbEntity
  8
0
100
AcDbHatch
 10
0
 20
0
 30
0
210
0
220
0
230
1
  2
SOLID
 70
1
 71
0
 91
1
 92
2
 72
0
 73
1
 93
26
 10
16.5380646932336
 20
49.1821877764196
 10
16.53805681227
 20
49.1821231680427
 10
16.5380484276467
 20
49.1820524629033
 10
16.5380439823852
 20
49.1820161424298
 10
16.5380339383389
 20
49.1819330162291
 10
16.5380246707399
 20
49.181856006286
 10
16.5369528096236
 20
49.1820547328847
 10
16.5368438924068
 20
49.1819720452885
 10
16.5368738048241
 20
49.1820584919376
 10
16.5368849438866
 20
49.1820993617755
 10
16.5369268791874
 20
49.1822528841194
 10
16.5369528027688
 20
49.1823475486903
 10
16.5369725438837
 20
49.1824072158223
 10
16.5370225155681
 20
49.1825580561341
 10
16.5370639249533
 20
49.182683227049
 10
16.5371600092188
 20
49.1826763468583
 10
16.5371984963848
 20
49.1826349544459
 10
16.537222951923
 20
49.1825874931283
 10
16.5372116138914
 20
49.1825411815811
 10
16.5374272271041
 20
49.1825158900227
 10
16.5377139234048
 20
49.1824822014677
 10
16.5380955278558
 20
49.1824437182367
 10
16.5380874582444
 20
49.1823769253679
 10
16.5380831344245
 20
49.1823407040423
 10
16.5380697314389
 20
49.1822296572774
 10
16.5380646932336
 20
49.1821877764196
 97
0
 75
0
 76
1
 98
0
  0
HATCH
  5
20027
100
AcDbEntity
  8
0
100
AcDbHatch
 10
0
 20
0
 30
0
210
0
220
0
230
1
  2
SOLID
 70
1
 71
0
 91
1
 92
2
 72
0
 73
1
 93
17
 10
16.5599806405444
 20
49.2299162345055
 10
16.5595222095913
 20
49.2298796914602
 10
16.5590782795795
 20
49.2298614565428
 10
16.558540452856
 20
49.2298289325061
 10
16.5585421164707
 20
49.2298418676892
 10
16.5585607789552
 20
49.2299900872934
 10
16.5598129348495
 20
49.2301051909959
 10
16.5598355793014
 20
49.2301072733745
 10
16.5606656363239
 20
49.2301836052251
 10
16.561889374402
 20
49.2302961290033
 10
16.5618905263119
 20
49.2302875273252
 10
16.5618891341853
 20
49.2302418387419
 10
16.561880373596
 20
49.2301964395499
 10
16.5618729218823
 20
49.2301481485369
 10
16.5618665707579
 20
49.2301065391292
 10
16.5607881721741
 20
49.2300139116274
 10
16.5599806405444
 20
49.2299162345055
 97
0
 75
0
 76
1
 98
0
  0
HATCH
  5
20028
100
AcDbEntity
  8
0
100
AcDbHatch
 10
0
 20
0
 30
0
210
0
220
0
230
1
  2
SOLID
 70
1
 71
0
 91
1
 92
2
 72
0
 73
1
 93
10
 10
16.5615756779655
 20
49.231056590544
 10
16.5616368794223
 20
49.2309550256138
 10
16.5616668525098
 20
49.2309026154807
 10
16.5616932524501
 20
49.2308517600044
 10
16.559833737486
 20
49.2306807432809
 10
16.5597664443721
 20
49.2306745535488
 10
16.5589318424712
 20
49.2305977870424
 10
16.5591126316625
 20
49.230812450163
 10
16.5597409355599
 20
49.2308747238184
 10
16.5615756779655
 20
49.231056590544
 97
0
 75
0
 76
1
 98
0
  0
HATCH
  5
20029
100
AcDbEntity
  8
0
100
AcDbHatch
 10
0
 20
0
 30
0
210
0
220
0
230
1
  2
SOLID
 70
1
 71
0
 91
1
 92
2
 72
0
 73
1
 93
16
 10
16.5319850751025
 20
49.1838219896752
 10
16.5318245823596
 20
49.1837150729968
 10
16.5314344812751
 20
49.1833204400526
 10
16.5313661839837
 20
49.1831504644771
 10
16.5312381946548
 20
49.1831218584959
 10
16.5306031165111
 20
49.1835802811464
 10
16.5306134952547
 20
49.1835859085971
 10
16.5307240789077
 20
49.1836452926529
 10
16.5313075022753
 20
49.1836835977246
 10
16.5315450593921
 20
49.1837652722898
 10
16.531737150216
 20
49.183845683729
 10
16.5320093760282
 20
49.1840307905651
 10
16.5322714085548
 20
49.1842058500712
 10
16.5323602150471
 20
49.1841805419757
 10
16.5323865681008
 20
49.1841731097884
 10
16.5319850751025
 20
49.1838219896752
 97
0
 75
0
 76
1
 98
0
  0
HATCH
  5
2002A
100
AcDbEntity
  8
0
100
AcDbHatch
 10
0
 20
0
 30
0
210
0
220
0
230
1
  2
SOLID
 70
1
 71
0
 91
1
 92
2
 72
0
 73
1
 93
17
 10
16.7050043009614
 20
49.1930836258851
 10
16.70510827273
 20
49.1931111627172
 10
16.7052699369167
 20
49.1931538620775
 10
16.705405130823
 20
49.1931896436563
 10
16.7054452168181
 20
49.1932002274733
 10
16.7055145365016
 20
49.193218555301
 10
16.7056244734689
 20
49.193247594462
 10
16.7057668033305
 20
49.1929491666798
 10
16.7057337001374
 20
49.1929008167974
 10
16.7056945994612
 20
49.1928435459531
 10
16.7056378625744
 20
49.1927607128573
 10
16.7056212647382
 20
49.192736398997
 10
16.7054541651403
 20
49.1926567828588
 10
16.7053071596866
 20
49.192586802964
 10
16.7052868077891
 20
49.1925770579585
 10
16.7050466414044
 20
49.1929720058941
 10
16.7050043009614
 20
49.1930836258851
 97
0
 75
0
 76
1
 98
0
  0
HATCH
  5
2002B
100
AcDbEntity
  8
0
100
AcDbHatch
 10
0
 20
0
 30
0
210
0
220
0
230
1
  2
SOLID
 70
1
 71
0
 91
1
 92
2
 72
0
 73
1
 93
34
 10
16.5928947798135
 20
49.2004277430638
 10
16.592893964415
 20
49.200417645051
 10
16.5928938301098
 20
49.2004109420944
 10
16.5928930579828
 20
49.2004039225097
 10
16.5928917401316
 20
49.2003968641891
 10
16.5928901198624
 20
49.2003899653059
 10
16.592887666229
 20
49.2003830977214
 10
16.5928846077597
 20
49.2003765490118
 10
16.5928808887711
 20
49.2003714910961
 10
16.5928749322669
 20
49.2003641035192
 10
16.5928677660916
 20
49.2003573536915
 10
16.5928589627463
 20
49.2003504876551
 10
16.5928497239822
 20
49.2003445856797
 10
16.5928393824224
 20
49.2003395099424
 10
16.5928312601717
 20
49.2003360389604
 10
16.5928219100436
 20
49.2003324808213
 10
16.5928103144818
 20
49.2003283110384
 10
16.5927960789727
 20
49.2003234111563
 10
16.5927864923981
 20
49.2003212834575
 10
16.5927769058244
 20
49.200319155758
 10
16.5924692415325
 20
49.2002798595648
 10
16.5922137499082
 20
49.200243090233
 10
16.5921491050426
 20
49.2004679774051
 10
16.5924390318445
 20
49.2005018545198
 10
16.5924702019671
 20
49.2005120268652
 10
16.5925013721025
 20
49.2005221992022
 10
16.5925110315087
 20
49.2005272265475
 10
16.5925181681023
 20
49.2005341552025
 10
16.5925293579762
 20
49.2005499644868
 10
16.5925401499183
 20
49.2005648410057
 10
16.5925484747429
 20
49.2005804469156
 10
16.592553155746
 20
49.2005980554662
 10
16.592851419406
 20
49.2006249253083
 10
16.5928947798135
 20
49.2004277430638
 97
0
 75
0
 76
1
 98
0
  0
HATCH
  5
2002C
100
AcDbEntity
  8
0
100
AcDbHatch
 10
0
 20
0
 30
0
210
0
220
0
230
1
  2
SOLID
 70
1
 71
0
 91
1
 92
2
 72
0
 73
1
 93
16
 10
16.5210043152589
 20
49.1816129480629
 10
16.5209956891271
 20
49.1816050932008
 10
16.5203664472547
 20
49.1821529874346
 10
16.5203727149114
 20
49.1821625730623
 10
16.5203997483535
 20
49.1822040414131
 10
16.5204632328429
 20
49.1822685654491
 10
16.5204684885887
 20
49.1822792545705
 10
16.5205334206789
 20
49.1824129042273
 10
16.5205485573849
 20
49.1823974342254
 10
16.5208195209301
 20
49.1821204950079
 10
16.5209327738503
 20
49.1820710749626
 10
16.520918387197
 20
49.1820398302694
 10
16.5210583478919
 20
49.1820181048748
 10
16.5211454033861
 20
49.181983452798
 10
16.5212976552225
 20
49.1819144822705
 10
16.5210043152589
 20
49.1816129480629
 97
0
 75
0
 76
1
 98
0
  0
HATCH
  5
2002D
100
AcDbEntity
  8
0
100
AcDbHatch
 10
0
 20
0
 30
0
210
0
220
0
230
1
  2
SOLID
 70
1
 71
0
 91
1
 92
2
 72
0
 73
1
 93
86
 10
16.6719489245765
 20
49.2126002772765
 10
16.6705654100971
 20
49.2123767019447
 10
16.6705537978938
 20
49.2122427558963
 10
16.6705242210022
 20
49.2118644404046
 10
16.6705184403026
 20
49.2118634914652
 10
16.6703264004124
 20
49.2118315439046
 10
16.6702044854225
 20
49.2121258637606
 10
16.6698421332284
 20
49.2123735284291
 10
16.6698051412047
 20
49.2123987843011
 10
16.6692793171412
 20
49.212359109952
 10
16.6691890176775
 20
49.2124114590526
 10
16.6689698642714
 20
49.2125071159192
 10
16.6687692434211
 20
49.2125781184556
 10
16.6685579871815
 20
49.2126449362284
 10
16.668430355255
 20
49.2126715072512
 10
16.6684736964779
 20
49.2127170618123
 10
16.6685217207794
 20
49.2127677389862
 10
16.6685854220013
 20
49.2128348028711
 10
16.6686228621373
 20
49.2128742446813
 10
16.6686574808005
 20
49.2129106844348
 10
16.6686870363298
 20
49.2129417939479
 10
16.6686999842378
 20
49.2129554564507
 10
16.6687027849476
 20
49.2129838711594
 10
16.6687075817878
 20
49.2130220130164
 10
16.6687123153796
 20
49.2130596982176
 10
16.6687182069051
 20
49.2131063281086
 10
16.6687228274116
 20
49.2131480752362
 10
16.6687276330181
 20
49.2131903780253
 10
16.6687329225352
 20
49.2132271978854
 10
16.6687396199376
 20
49.2132874506822
 10
16.668746785633
 20
49.2133263017066
 10
16.6687559008452
 20
49.2134063503201
 10
16.6687558569101
 20
49.2134066185568
 10
16.6687593762681
 20
49.213446660318
 10
16.6687678449239
 20
49.2135196994622
 10
16.668771462753
 20
49.2135557687074
 10
16.6687877475087
 20
49.2136594743854
 10
16.6687876453727
 20
49.2136786408505
 10
16.6687873192628
 20
49.2137168747738
 10
16.6687914818238
 20
49.2137580470442
 10
16.668795192235
 20
49.2137943941182
 10
16.6687939992337
 20
49.2138294920829
 10
16.6687965892628
 20
49.2139030223845
 10
16.6687977632471
 20
49.2139464264929
 10
16.6688005855409
 20
49.2140471960753
 10
16.6688061480357
 20
49.2142054078826
 10
16.6688135550846
 20
49.2143152725913
 10
16.6688067969673
 20
49.2143236608141
 10
16.6686814639186
 20
49.2145401407366
 10
16.6684341902813
 20
49.2149414129268
 10
16.6684942582922
 20
49.2150062315258
 10
16.6688718708228
 20
49.2149352798527
 10
16.6693099789842
 20
49.2147453073369
 10
16.6699680895679
 20
49.2146087819051
 10
16.6703799503033
 20
49.2146077021438
 10
16.6702875765738
 20
49.2145664804238
 10
16.6701865220077
 20
49.2144315841692
 10
16.6701783542907
 20
49.2142403593643
 10
16.6700488392543
 20
49.2140120261921
 10
16.6700401895659
 20
49.2139105759134
 10
16.6700556579513
 20
49.2138355113214
 10
16.6700582538773
 20
49.2138230319587
 10
16.6701523865153
 20
49.2137017637046
 10
16.670266085939
 20
49.2135748161921
 10
16.6703223406062
 20
49.2135120241186
 10
16.670379781142
 20
49.2134419896103
 10
16.6704316680897
 20
49.2133788905265
 10
16.6704888839455
 20
49.2133329880755
 10
16.6705348281758
 20
49.2132960610964
 10
16.670575658196
 20
49.213263387186
 10
16.6706155521394
 20
49.2132313710081
 10
16.6707119650758
 20
49.2131981718435
 10
16.6707979849156
 20
49.2131685833752
 10
16.6709305242929
 20
49.2131230001535
 10
16.6711163469402
 20
49.2130201134291
 10
16.6711650766267
 20
49.2129931496783
 10
16.6712347488643
 20
49.2129546341089
 10
16.6712827228156
 20
49.212928069414
 10
16.6713320568054
 20
49.2129007863072
 10
16.6713824485875
 20
49.2128729444295
 10
16.6713866946137
 20
49.212870620018
 10
16.6714724745677
 20
49.2128155097839
 10
16.6715204392874
 20
49.2127847840557
 10
16.6716474222933
 20
49.2127014573733
 10
16.6717194356801
 20
49.2126773053775
 10
16.6719489245765
 20
49.2126002772765
 97
0
 75
0
 76
1
 98
0
  0
HATCH
  5
2002E
100
AcDbEntity
  8
0
100
AcDbHatch
 10
0
 20
0
 30
0
210
0
220
0
230
1
  2
SOLID
 70
1
 71
0
 91
1
 92
2
 72
0
 73
1
 93
18
 10
16.5035641532432
 20
49.2207789347197
 10
16.5040420239199
 20
49.2209382333124
 10
16.504479745871
 20
49.2209700826361
 10
16.5050366905913
 20
49.2209265316657
 10
16.5050553283039
 20
49.2209224406204
 10
16.5051098169493
 20
49.220910427153
 10
16.5051493405716
 20
49.2209102765412
 10
16.5051545613361
 20
49.2209063087635
 10
16.5052659882392
 20
49.2208238375315
 10
16.5052102366717
 20
49.2208277092998
 10
16.5049819160369
 20
49.2208336782102
 10
16.5048175103165
 20
49.2208323802614
 10
16.5046085437366
 20
49.2208233628013
 10
16.5043859632249
 20
49.2208082120834
 10
16.5041763635734
 20
49.2207881119446
 10
16.5039685263923
 20
49.2207632528383
 10
16.5035764280644
 20
49.2207137772687
 10
16.5035641532432
 20
49.2207789347197
 97
0
 75
0
 76
1
 98
0
  0
HATCH
  5
2002F
100
AcDbEntity
  8
0
100
AcDbHatch
 10
0
 20
0
 30
0
210
0
220
0
230
1
  2
SOLID
 70
1
 71
0
 91
1
 92
2
 72
0
 73
1
 93
50
 10
16.5995879810106
 20
49.2780238502342
 10
16.5996098747733
 20
49.2780009791296
 10
16.5996735193234
 20
49.2780432937343
 10
16.5998994784938
 20
49.2778866252453
 10
16.5999783972242
 20
49.2778290794488
 10
16.6002121715602
 20
49.2776585823683
 10
16.600226503727
 20
49.2776212465418
 10
16.6000342610887
 20
49.2775490232594
 10
16.5998983913176
 20
49.277497886274
 10
16.599808961338
 20
49.2775813703384
 10
16.5997017168856
 20
49.2776555428991
 10
16.5996693517482
 20
49.277706616417
 10
16.5995631361976
 20
49.2777662088936
 10
16.5995033875551
 20
49.2778482670072
 10
16.599433888165
 20
49.2779073849218
 10
16.5993712944994
 20
49.277960658529
 10
16.599341048536
 20
49.2779930685201
 10
16.5992300599313
 20
49.2782294232674
 10
16.5992369733743
 20
49.2784441881432
 10
16.599365949965
 20
49.2787108314541
 10
16.5994151968531
 20
49.2787950884099
 10
16.5997372655104
 20
49.2793461213761
 10
16.6003658737072
 20
49.2799087243476
 10
16.6005604408756
 20
49.2800313104065
 10
16.60073762181
 20
49.2803777034409
 10
16.6009715074821
 20
49.2804071958124
 10
16.6009526025022
 20
49.2800659484551
 10
16.6011292370395
 20
49.2800411880551
 10
16.6014224380421
 20
49.279959465342
 10
16.6016611632574
 20
49.2798643884759
 10
16.6017020966155
 20
49.279863487244
 10
16.6015691168777
 20
49.2797430018377
 10
16.6014397566984
 20
49.2795755578862
 10
16.6013923691595
 20
49.2795410886386
 10
16.6010711205447
 20
49.2794254547091
 10
16.600801635547
 20
49.2792827317159
 10
16.6006926109895
 20
49.2792280696844
 10
16.6005196057887
 20
49.2791414714938
 10
16.6004682857242
 20
49.2791307829365
 10
16.6003237911784
 20
49.2791008345003
 10
16.6002510629897
 20
49.2790365311567
 10
16.6002123300703
 20
49.2790024027506
 10
16.6001355036565
 20
49.278889328178
 10
16.5999131467448
 20
49.2787032675761
 10
16.5996843477801
 20
49.278511865989
 10
16.599444505894
 20
49.2783111795885
 10
16.599434369827
 20
49.278301416876
 10
16.5994123762866
 20
49.2782246053622
 10
16.5994226670973
 20
49.2781966615246
 10
16.5995879810106
 20
49.2780238502342
 97
0
 75
0
 76
1
 98
0
  0
HATCH
  5
20030
100
AcDbEntity
  8
0
100
AcDbHatch
 10
0
 20
0
 30
0
210
0
220
0
230
1
  2
SOLID
 70
1
 71
0
 91
1
 92
2
 72
0
 73
1
 93
52
 10
16.6297982339557
 20
49.2557773202576
 10
16.6298637412007
 20
49.2557277663863
 10
16.6300326180332
 20
49.2556001268411
 10
16.6301033392055
 20
49.2555465994328
 10
16.6301965841887
 20
49.2554553175733
 10
16.630217661146
 20
49.2554347362366
 10
16.6302934188368
 20
49.2553598571427
 10
16.6303408087551
 20
49.2552550281751
 10
16.6303250751888
 20
49.2552456872083
 10
16.6303166452985
 20
49.255240660422
 10
16.6302316931196
 20
49.2553428384483
 10
16.63001126831
 20
49.2555107969279
 10
16.6296997806116
 20
49.2557425141989
 10
16.6296264903303
 20
49.2556849731436
 10
16.6297024633348
 20
49.2556012458284
 10
16.6295561902551
 20
49.2555572759904
 10
16.6293797236252
 20
49.2555464488371
 10
16.6293551163161
 20
49.2555649719464
 10
16.6290844879725
 20
49.2557457562283
 10
16.6289803170381
 20
49.2558278546667
 10
16.6289362303263
 20
49.2559662911136
 10
16.6288785581853
 20
49.2559867312326
 10
16.628369443164
 20
49.2561674127758
 10
16.6275329831332
 20
49.2563731912184
 10
16.6270976687031
 20
49.2565134928109
 10
16.6267820740482
 20
49.2566635118092
 10
16.6263062903015
 20
49.2568221179796
 10
16.6263179118748
 20
49.256843831689
 10
16.6263677043963
 20
49.2569366180776
 10
16.6264308180417
 20
49.2570542228529
 10
16.6264816527723
 20
49.2571490725676
 10
16.6265242644926
 20
49.2572284179935
 10
16.6265309102787
 20
49.2572409165982
 10
16.6268218383612
 20
49.2571617849879
 10
16.6269145780865
 20
49.2571172303013
 10
16.6271425362311
 20
49.2569875245356
 10
16.6272828194364
 20
49.2569420751417
 10
16.6277063919554
 20
49.2568537643851
 10
16.6280238641985
 20
49.2568172951914
 10
16.6282629633229
 20
49.2568094815388
 10
16.6284130180891
 20
49.2568045170042
 10
16.6286233063643
 20
49.2567384113442
 10
16.628793234691
 20
49.2566564322757
 10
16.6289814765291
 20
49.2565656156606
 10
16.6297631720614
 20
49.2564011848643
 10
16.6297220678714
 20
49.2563789283759
 10
16.629524915308
 20
49.2563091179573
 10
16.6293863830958
 20
49.2562600867312
 10
16.6294689451357
 20
49.2561372091405
 10
16.629555741721
 20
49.2560423069026
 10
16.6297079218455
 20
49.2558759541249
 10
16.6297982339557
 20
49.2557773202576
 97
0
 75
0
 76
1
 98
0
  0
HATCH
  5
20031
100
AcDbEntity
  8
0
100
AcDbHatch
 10
0
 20
0
 30
0
210
0
220
0
230
1
  2
SOLID
 70
1
 71
0
 91
1
 92
2
 72
0
 73
1
 93
22
 10
16.6452217178127
 20
49.2578146650974
 10
16.6447009195552
 20
49.2571196360316
 10
16.6396255282017
 20
49.2571046797777
 10
16.6393709955052
 20
49.2574884935052
 10
16.6388254903098
 20
49.2583683257808
 10
16.638562163686
 20
49.2587912239335
 10
16.6386573510268
 20
49.2588199123961
 10
16.6388694392144
 20
49.2588864171025
 10
16.6435602697101
 20
49.2603434775721
 10
16.6438760250106
 20
49.2599544724712
 10
16.6439071015752
 20
49.2599058321162
 10
16.6440479011646
 20
49.2596941628356
 10
16.6441905208172
 20
49.2595201560131
 10
16.6443147108834
 20
49.2593935097626
 10
16.6444400043055
 20
49.2592517465281
 10
16.6446013209807
 20
49.2591194850068
 10
16.6446014869882
 20
49.2591193158127
 10
16.6446222103662
 20
49.2590958130536
 10
16.6451264699545
 20
49.2585779967391
 10
16.6451815053921
 20
49.2585214567557
 10
16.6451908349405
 20
49.258357143936
 10
16.6452217178127
 20
49.2578146650974
 97
0
 75
0
 76
1
 98
0
  0
HATCH
  5
20032
100
AcDbEntity
  8
0
100
AcDbHatch
 10
0
 20
0
 30
0
210
0
220
0
230
1
  2
SOLID
 70
1
 71
0
 91
1
 92
2
 72
0
 73
1
 93
18
 10
16.5000969588496
 20
49.2633515239817
 10
16.5007449844642
 20
49.2638228909554
 10
16.5012723648748
 20
49.2642198378724
 10
16.5020634651035
 20
49.2647317577369
 10
16.5020996937818
 20
49.26471599084
 10
16.5025994819093
 20
49.264600653442
 10
16.5032336861349
 20
49.2645006473685
 10
16.5050553649784
 20
49.2634375509459
 10
16.5048382143352
 20
49.2632136553917
 10
16.5038601873317
 20
49.2626202395148
 10
16.503348877371
 20
49.262244539102
 10
16.5029730383518
 20
49.2616647836402
 10
16.5025962865157
 20
49.2613151879827
 10
16.5001536572683
 20
49.2627527451413
 10
16.5002699456734
 20
49.2628945159967
 10
16.5003388274205
 20
49.263053603557
 10
16.5002266801277
 20
49.2632289305244
 10
16.5000969588496
 20
49.2633515239817
 97
0
 75
0
 76
1
 98
0
  0
HATCH
  5
20033
100
AcDbEntity
  8
0
100
AcDbHatch
 10
0
 20
0
 30
0
210
0
220
0
230
1
  2
SOLID
 70
1
 71
0
 91
1
 92
2
 72
0
 73
1
 93
25
 10
16.6311496302182
 20
49.2424394665644
 10
16.6312174658006
 20
49.2424226381015
 10
16.6316354120103
 20
49.242509480654
 10
16.6316399878522
 20
49.2425085373752
 10
16.6316461246789
 20
49.2425073424874
 10
16.6317331670838
 20
49.2419392439709
 10
16.6305987622322
 20
49.2418838630235
 10
16.6303480589478
 20
49.2419256790506
 10
16.6298384146715
 20
49.2419938948089
 10
16.62913394983
 20
49.2419893825658
 10
16.6288940089431
 20
49.2419473880165
 10
16.6287392584438
 20
49.2419014588956
 10
16.628540429636
 20
49.2416828301069
 10
16.6282390925133
 20
49.2418282455075
 10
16.6280748995823
 20
49.2419436384161
 10
16.6278326485265
 20
49.242270409963
 10
16.6277583821046
 20
49.242370716802
 10
16.6277436460627
 20
49.2423905693738
 10
16.6277433916876
 20
49.2423912749836
 10
16.6276317473742
 20
49.2426849400546
 10
16.627631522452
 20
49.2426854668511
 10
16.6286541300528
 20
49.2428980470716
 10
16.6287641923608
 20
49.2429209226597
 10
16.6297394118151
 20
49.2427879883853
 10
16.6311496302182
 20
49.2424394665644
 97
0
 75
0
 76
1
 98
0
  0
HATCH
  5
20034
100
AcDbEntity
  8
0
100
AcDbHatch
 10
0
 20
0
 30
0
210
0
220
0
230
1
  2
SOLID
 70
1
 71
0
 91
1
 92
2
 72
0
 73
1
 93
122
 10
16.518427745189
 20
49.2399067881342
 10
16.5183641828985
 20
49.2399126415442
 10
16.5174761485317
 20
49.2400919627395
 10
16.5175488184857
 20
49.240184640437
 10
16.5175691426992
 20
49.2402300593078
 10
16.5176038297817
 20
49.2403036445753
 10
16.5174190883459
 20
49.2404121804359
 10
16.5173626657846
 20
49.2405523361239
 10
16.5174050172267
 20
49.2406842746182
 10
16.5174996466723
 20
49.2407364599228
 10
16.5176193756149
 20
49.2409006231533
 10
16.5174506483924
 20
49.2408569743316
 10
16.5174929328378
 20
49.2408792693656
 10
16.5176024586465
 20
49.2409829075822
 10
16.5175365643651
 20
49.2410639476223
 10
16.5173371397655
 20
49.2409641865687
 10
16.5172794828469
 20
49.2410008570853
 10
16.5174095060612
 20
49.2411240549737
 10
16.517552906418
 20
49.2412018942664
 10
16.5175769661703
 20
49.2412150145837
 10
16.5175767546749
 20
49.2414463078802
 10
16.5175415566437
 20
49.2416058037565
 10
16.5174779169817
 20
49.2416965036024
 10
16.5174176632357
 20
49.2417040408686
 10
16.5172837415078
 20
49.2417167076946
 10
16.5172289310959
 20
49.2418761565368
 10
16.5172127532448
 20
49.2419233950437
 10
16.5171171814627
 20
49.2420464554551
 10
16.5170944703467
 20
49.2420782097609
 10
16.5167953070353
 20
49.2420875504944
 10
16.5166587128903
 20
49.2420938740219
 10
16.5162688113696
 20
49.2421344397773
 10
16.5161770755209
 20
49.2421327570721
 10
16.5161623323375
 20
49.2421325157128
 10
16.5161636495395
 20
49.2421544111258
 10
16.5161641277798
 20
49.2421631296242
 10
16.5161650522335
 20
49.2421799311008
 10
16.5161660364045
 20
49.2421963750084
 10
16.5161651729386
 20
49.2422081635864
 10
16.5169661916348
 20
49.2421878020681
 10
16.5173533090153
 20
49.2421779722947
 10
16.517386189401
 20
49.2421771598211
 10
16.5175975864577
 20
49.2420968557039
 10
16.5176867550527
 20
49.2420295128179
 10
16.517753975301
 20
49.2419786005392
 10
16.5178491163077
 20
49.2419888481398
 10
16.5178633642486
 20
49.2419854354046
 10
16.5182362767338
 20
49.2419787472278
 10
16.5185691429558
 20
49.2421548170723
 10
16.5186213924888
 20
49.2421877754719
 10
16.5189419690204
 20
49.2422107191344
 10
16.5195441027067
 20
49.2422362620228
 10
16.5200013456374
 20
49.2421738184069
 10
16.5200136141229
 20
49.2421731585019
 10
16.5200640840372
 20
49.2421596730392
 10
16.5200515054514
 20
49.2421191512168
 10
16.5200565296201
 20
49.2421039515297
 10
16.5201089227816
 20
49.2421004638759
 10
16.5201496040506
 20
49.2420959571969
 10
16.520160899636
 20
49.2420945039747
 10
16.5201780466929
 20
49.2420919316419
 10
16.5201949654501
 20
49.2420890715885
 10
16.5205847722581
 20
49.2420208956096
 10
16.520814474689
 20
49.2419807033761
 10
16.5208805110286
 20
49.2419691455452
 10
16.520940134852
 20
49.2419587571418
 10
16.5210088845936
 20
49.2419466697062
 10
16.5213673691701
 20
49.2418840296963
 10
16.5215448447993
 20
49.2418529447415
 10
16.5218089886092
 20
49.2418067115191
 10
16.5220734049882
 20
49.2417604972273
 10
16.5223398218161
 20
49.2417138827146
 10
16.5226459413666
 20
49.2416603381375
 10
16.5229892163263
 20
49.2416002237399
 10
16.5230351803845
 20
49.2415922042042
 10
16.5232950464942
 20
49.2415467473003
 10
16.523529869801
 20
49.2414683802813
 10
16.5232969417042
 20
49.2414492764002
 10
16.5232617710259
 20
49.2413147792618
 10
16.5231238877552
 20
49.2413363057786
 10
16.5230226719565
 20
49.2409551031474
 10
16.5230009193911
 20
49.2407915329271
 10
16.5229903301698
 20
49.2407688840653
 10
16.5229843371373
 20
49.2406706679088
 10
16.5229738176349
 20
49.2405970949527
 10
16.5231120237148
 20
49.2405669981321
 10
16.5231067712364
 20
49.2404138351935
 10
16.5230788849127
 20
49.240350779741
 10
16.5230759621443
 20
49.2403144770554
 10
16.5230400880503
 20
49.2402802497338
 10
16.521864403463
 20
49.2405383518565
 10
16.5217935993589
 20
49.2405362713176
 10
16.521701204897
 20
49.240520343409
 10
16.5216599455271
 20
49.240501832244
 10
16.5215958164861
 20
49.240473000595
 10
16.52158364884
 20
49.2404606415602
 10
16.5215076028821
 20
49.2403840082922
 10
16.5214814584793
 20
49.2403577133898
 10
16.5213715729074
 20
49.2402470881332
 10
16.5213501586817
 20
49.2402255641942
 10
16.5212942048438
 20
49.2401692745533
 10
16.5211695220751
 20
49.2400438403013
 10
16.5211264657003
 20
49.2400005046267
 10
16.5211226787246
 20
49.239996705702
 10
16.5210497064389
 20
49.2399231866885
 10
16.5209909796485
 20
49.2398785487526
 10
16.5209742345995
 20
49.2398671285458
 10
16.5209646397822
 20
49.2398691558095
 10
16.5207276957055
 20
49.2396995039175
 10
16.5206165145216
 20
49.2396074198582
 10
16.5205106123112
 20
49.2396368400394
 10
16.5203055405707
 20
49.2396512030439
 10
16.5201484739796
 20
49.2396833842612
 10
16.5199909506126
 20
49.2397149898274
 10
16.5197002123417
 20
49.2397716176304
 10
16.5194540850939
 20
49.2397919061574
 10
16.5192729305974
 20
49.2398343031465
 10
16.5190562259917
 20
49.2398546160128
 10
16.5188517720027
 20
49.2398735437781
 10
16.5187152378451
 20
49.2398828587839
 10
16.5186080604633
 20
49.2398901136486
 10
16.518427745189
 20
49.2399067881342
 97
0
 75
0
 76
1
 98
0
  0
HATCH
  5
20035
100
AcDbEntity
  8
0
100
AcDbHatch
 10
0
 20
0
 30
0
210
0
220
0
230
1
  2
SOLID
 70
1
 71
0
 91
1
 92
2
 72
0
 73
1
 93
72
 10
16.6374577114951
 20
49.2864340692898
 10
16.6380596292511
 20
49.2863060852673
 10
16.6385749305859
 20
49.2861826680582
 10
16.6390859185494
 20
49.2860770337243
 10
16.6391792479485
 20
49.2860501445802
 10
16.6395286297889
 20
49.2858377040527
 10
16.6397605793052
 20
49.2857002891381
 10
16.6398316400039
 20
49.2856591685587
 10
16.6402720285918
 20
49.2853977854016
 10
16.6407402915326
 20
49.2851173812898
 10
16.6414463521904
 20
49.2847790180758
 10
16.6415210825507
 20
49.284711383652
 10
16.6416816250293
 20
49.2846112639742
 10
16.6417177060884
 20
49.2845466052726
 10
16.6417690474566
 20
49.2845177519081
 10
16.64223698578
 20
49.2842627347857
 10
16.6422887849558
 20
49.2842344561376
 10
16.6419778362186
 20
49.2841883173606
 10
16.6419092016004
 20
49.284228162761
 10
16.6418128561203
 20
49.2842666895199
 10
16.6417517771709
 20
49.2842824662053
 10
16.6417069745188
 20
49.2843455157363
 10
16.6410753880218
 20
49.2847816501978
 10
16.6409915854832
 20
49.2848271196406
 10
16.6409052235965
 20
49.2848620981173
 10
16.6408256723634
 20
49.2849077764716
 10
16.6408831118036
 20
49.2849451963628
 10
16.6408152808379
 20
49.2849969460442
 10
16.6406743856395
 20
49.2850280830787
 10
16.6405219414154
 20
49.2851302191518
 10
16.6404058464503
 20
49.2851400395779
 10
16.6403661486947
 20
49.2852014585833
 10
16.6403061892989
 20
49.2852549382976
 10
16.6402237561516
 20
49.285295438871
 10
16.6396539682616
 20
49.2856272968976
 10
16.6392890198341
 20
49.285858719637
 10
16.6389831371197
 20
49.285978262669
 10
16.6387779845141
 20
49.2860519920245
 10
16.638269323661
 20
49.2861644818882
 10
16.6375141432099
 20
49.2862777779725
 10
16.6375012511627
 20
49.2862830197504
 10
16.6374510308234
 20
49.2863033582711
 10
16.6373169141459
 20
49.2863579422164
 10
16.6372076602034
 20
49.2864059571687
 10
16.6369629362052
 20
49.2862884083346
 10
16.6364875604546
 20
49.2859007254213
 10
16.6361739134072
 20
49.2856744865373
 10
16.6362269171165
 20
49.2856313717681
 10
16.6361832606733
 20
49.2856051410498
 10
16.6358613152166
 20
49.2853822957817
 10
16.6358748956203
 20
49.2853392967635
 10
16.6355965619717
 20
49.2853276380494
 10
16.6354802991374
 20
49.2853166394722
 10
16.6352823366915
 20
49.2853508929549
 10
16.6352822356536
 20
49.2853509355778
 10
16.6352123671175
 20
49.285380330046
 10
16.6352104430881
 20
49.2853810988747
 10
16.6352025542692
 20
49.2853845214814
 10
16.6356930017414
 20
49.2855840633364
 10
16.6357334352637
 20
49.2856004799442
 10
16.6358432893736
 20
49.2856436771036
 10
16.6358867275388
 20
49.2856628378788
 10
16.6361849928328
 20
49.2858170848406
 10
16.6362988157925
 20
49.2858882373244
 10
16.6364122123572
 20
49.2859888446134
 10
16.6366008141311
 20
49.2861726247546
 10
16.6366326303081
 20
49.2862077888601
 10
16.6367142924637
 20
49.2862979288232
 10
16.6367501804948
 20
49.2863545439035
 10
16.6369237789465
 20
49.2865161019375
 10
16.6371257996594
 20
49.2865890369744
 10
16.6374577114951
 20
49.2864340692898
 97
0
 75
0
 76
1
 98
0
  0
HATCH
  5
20036
100
AcDbEntity
  8
0
100
AcDbHatch
 10
0
 20
0
 30
0
210
0
220
0
230
1
  2
SOLID
 70
1
 71
0
 91
1
 92
2
 72
0
 73
1
 93
40
 10
16.6399023713247
 20
49.2876516648383
 10
16.6399218862519
 20
49.2875331266971
 10
16.6399269669885
 20
49.287502265044
 10
16.6398207280338
 20
49.2873346043026
 10
16.6395791413687
 20
49.2871181558084
 10
16.6393311473981
 20
49.2869305592358
 10
16.6392705268457
 20
49.2867327375617
 10
16.6392368819119
 20
49.2866230097749
 10
16.6391904027787
 20
49.2864442731507
 10
16.6391432193393
 20
49.2862849324054
 10
16.6391196067203
 20
49.2862041299882
 10
16.6389490019168
 20
49.2862300970043
 10
16.6388782387727
 20
49.2862408487791
 10
16.6389129038219
 20
49.2862687964111
 10
16.6389037849441
 20
49.2866088581259
 10
16.6389354796687
 20
49.2867321057721
 10
16.6389585937884
 20
49.2868192946556
 10
16.6390400811002
 20
49.2870071002362
 10
16.6390861140279
 20
49.2870550228687
 10
16.6392617454491
 20
49.287214368331
 10
16.6393369729332
 20
49.2873478277211
 10
16.6393530079023
 20
49.2874486270485
 10
16.6393414984268
 20
49.2875748001014
 10
16.639444574628
 20
49.2875769062879
 10
16.6392893937342
 20
49.2880365560725
 10
16.6391686389962
 20
49.2883484030039
 10
16.6390929812488
 20
49.2887239342339
 10
16.6390413560826
 20
49.2889257869028
 10
16.6390445002556
 20
49.2890469325335
 10
16.6389957616323
 20
49.2892581234429
 10
16.6389341814034
 20
49.2894079023816
 10
16.6390190836768
 20
49.2894532269644
 10
16.6391495903721
 20
49.2893626607816
 10
16.639209291637
 20
49.2892520022559
 10
16.6392511135038
 20
49.2889979961016
 10
16.6394508826182
 20
49.2887672363239
 10
16.639494439288
 20
49.2886143786932
 10
16.639563125062
 20
49.2882534604763
 10
16.6397596071654
 20
49.2879015448668
 10
16.6399023713247
 20
49.2876516648383
 97
0
 75
0
 76
1
 98
0
  0
HATCH
  5
20037
100
AcDbEntity
  8
0
100
AcDbHatch
 10
0
 20
0
 30
0
210
0
220
0
230
1
  2
SOLID
 70
1
 71
0
 91
1
 92
2
 72
0
 73
1
 93
11
 10
16.6679369773787
 20
49.2201063181581
 10
16.6676085476592
 20
49.2191166794323
 10
16.6674862486293
 20
49.2191350335146
 10
16.6671639566132
 20
49.2193872286549
 10
16.6664613226129
 20
49.2193105160103
 10
16.665953512419
 20
49.2193904866308
 10
16.6659529371244
 20
49.219390627064
 10
16.6658940083263
 20
49.2195025206703
 10
16.6658369084842
 20
49.2196108347417
 10
16.665660276235
 20
49.2199767339171
 10
16.6679369773787
 20
49.2201063181581
 97
0
 75
0
 76
1
 98
0
  0
HATCH
  5
20038
100
AcDbEntity
  8
0
100
AcDbHatch
 10
0
 20
0
 30
0
210
0
220
0
230
1
  2
SOLID
 70
1
 71
0
 91
1
 92
2
 72
0
 73
1
 93
15
 10
16.6820743079223
 20
49.2102278743129
 10
16.6819544075055
 20
49.2103533103624
 10
16.6824576709774
 20
49.2106330001685
 10
16.683253334402
 20
49.2107470811947
 10
16.6835830628834
 20
49.2107575574833
 10
16.6846770734113
 20
49.2105429232347
 10
16.6846068943945
 20
49.2104030632303
 10
16.684406979703
 20
49.2104429386244
 10
16.6842025748793
 20
49.210472278943
 10
16.6839135979492
 20
49.2104928810129
 10
16.683624327133
 20
49.2104924797043
 10
16.6830728265815
 20
49.2104765698383
 10
16.6826060121327
 20
49.2103927111373
 10
16.6821633929168
 20
49.2102537522034
 10
16.6820743079223
 20
49.2102278743129
 97
0
 75
0
 76
1
 98
0
  0
HATCH
  5
20039
100
AcDbEntity
  8
0
100
AcDbHatch
 10
0
 20
0
 30
0
210
0
220
0
230
1
  2
SOLID
 70
1
 71
0
 91
1
 92
2
 72
0
 73
1
 93
120
 10
16.5598873573262
 20
49.1559450469516
 10
16.5600299443094
 20
49.1559251866383
 10
16.5600351176349
 20
49.1559280884493
 10
16.5600583591037
 20
49.1559409629365
 10
16.5600663329877
 20
49.1559394512359
 10
16.5600783524499
 20
49.1558960753877
 10
16.5600827037313
 20
49.1558806463453
 10
16.5600903747786
 20
49.1558535138525
 10
16.5600958613262
 20
49.155833733423
 10
16.560133155901
 20
49.1557917986841
 10
16.5601375743532
 20
49.1557867769294
 10
16.5601933801603
 20
49.1557687767455
 10
16.5603742536205
 20
49.1557051524666
 10
16.560485989564
 20
49.1556659043063
 10
16.5607025804231
 20
49.1555898114962
 10
16.5608780240452
 20
49.1555281510863
 10
16.560995324017
 20
49.1554869474827
 10
16.5610467942749
 20
49.1554676426767
 10
16.5610691424866
 20
49.1554592864541
 10
16.5611767618476
 20
49.1554165781146
 10
16.5613137429834
 20
49.15536230494
 10
16.5614157526699
 20
49.1553218195435
 10
16.5615032783001
 20
49.155287175732
 10
16.5615989228318
 20
49.1552493117396
 10
16.5616397966174
 20
49.1552306982596
 10
16.5619076533667
 20
49.1551090514998
 10
16.5620924463809
 20
49.1550250803546
 10
16.5622211438933
 20
49.1549666876957
 10
16.5623374760176
 20
49.154913835478
 10
16.5623520337975
 20
49.1549075467004
 10
16.5625494924078
 20
49.1548220358459
 10
16.5626475469412
 20
49.1547895894231
 10
16.5628143033511
 20
49.1547345434237
 10
16.5629460358513
 20
49.1546911108444
 10
16.5631126404817
 20
49.1546361440924
 10
16.5631491158452
 20
49.1546240911745
 10
16.5632637894124
 20
49.1545862260482
 10
16.5632937015224
 20
49.1545763283132
 10
16.56335585467
 20
49.1545557943274
 10
16.5634874499226
 20
49.1545123514091
 10
16.5635096194856
 20
49.1545050675063
 10
16.5635628210725
 20
49.1544877847447
 10
16.5636216020469
 20
49.1544684574783
 10
16.5636466605385
 20
49.1544603845263
 10
16.563762168906
 20
49.1544233021297
 10
16.5639579481119
 20
49.1544019836482
 10
16.5640115427465
 20
49.1540045421024
 10
16.5640610847474
 20
49.1537172584056
 10
16.5640685073679
 20
49.1536891130888
 10
16.5639709662507
 20
49.153674379068
 10
16.5639581810201
 20
49.1536724724425
 10
16.5639320002079
 20
49.1536673492833
 10
16.5639006223529
 20
49.1536611319085
 10
16.5638246100541
 20
49.1536629485129
 10
16.5637876526636
 20
49.1536712585164
 10
16.5637564819449
 20
49.1536804333996
 10
16.5637020961224
 20
49.1536965462727
 10
16.5635105714882
 20
49.1537171724904
 10
16.5633073429125
 20
49.1537376874728
 10
16.5631796403435
 20
49.1537684724112
 10
16.5631490383995
 20
49.1537758785781
 10
16.5629918416312
 20
49.1538190331086
 10
16.5628102362861
 20
49.1538405464739
 10
16.562785252223
 20
49.1538440112749
 10
16.562628977299
 20
49.153865792968
 10
16.5624581718577
 20
49.1538845481842
 10
16.5622896950353
 20
49.1539067256491
 10
16.5622128225682
 20
49.1539178873274
 10
16.5621346901891
 20
49.1539408088732
 10
16.5619850913322
 20
49.1537259799476
 10
16.5618908035473
 20
49.1537739814506
 10
16.5618225995442
 20
49.1538085560811
 10
16.5617777148642
 20
49.1538314062973
 10
16.5617770396863
 20
49.153875410364
 10
16.5617754687184
 20
49.1539863786639
 10
16.5617297784728
 20
49.1539999448768
 10
16.561565195618
 20
49.154048540934
 10
16.5614782002149
 20
49.1540741768237
 10
16.5613663712695
 20
49.1541073584355
 10
16.5612706494166
 20
49.1541357186638
 10
16.5610436993514
 20
49.1541961478527
 10
16.5608544581498
 20
49.154267859705
 10
16.5607888076194
 20
49.1542928466611
 10
16.5607483170966
 20
49.1543041601764
 10
16.5606389733916
 20
49.1543339906212
 10
16.5605341151183
 20
49.1543692064829
 10
16.5603934554604
 20
49.1544273772063
 10
16.5602936749151
 20
49.1544685633817
 10
16.5601114511578
 20
49.1545386942356
 10
16.56002802061
 20
49.1545752573094
 10
16.5599701679295
 20
49.1546006192026
 10
16.5599481926033
 20
49.1546158764954
 10
16.5598291326889
 20
49.1546984729608
 10
16.5598063489496
 20
49.1547077928873
 10
16.5597271287546
 20
49.154740585586
 10
16.5594523903905
 20
49.1548438261861
 10
16.55932368509
 20
49.1548922651806
 10
16.5592662773401
 20
49.1549066228056
 10
16.5592208891856
 20
49.1549075457555
 10
16.5588687590977
 20
49.1549144453411
 10
16.5585679669204
 20
49.1549203029426
 10
16.5583927877441
 20
49.1549238150839
 10
16.5583803428902
 20
49.154924012638
 10
16.5582637916215
 20
49.1549889667308
 10
16.5581458947345
 20
49.1550545483699
 10
16.5580975695358
 20
49.1550814937902
 10
16.5581424650706
 20
49.1552897626044
 10
16.557987476011
 20
49.1553952122772
 10
16.5578455666104
 20
49.1554916448107
 10
16.5578887363032
 20
49.1555099218226
 10
16.5578135033378
 20
49.1555535813269
 10
16.5578146142733
 20
49.1555551983611
 10
16.557970723671
 20
49.1557822574506
 10
16.5580170626188
 20
49.1559444058681
 10
16.5580716029324
 20
49.1561352714605
 10
16.5580746951532
 20
49.1561448995927
 10
16.5580806337936
 20
49.1561631432945
 10
16.5582087461662
 20
49.1561515694211
 10
16.5591865693212
 20
49.1560459362106
 10
16.5598873573262
 20
49.1559450469516
 97
0
 75
0
 76
1
 98
0
  0
HATCH
  5
2003A
100
AcDbEntity
  8
0
100
AcDbHatch
 10
0
 20
0
 30
0
210
0
220
0
230
1
  2
SOLID
 70
1
 71
0
 91
1
 92
2
 72
0
 73
1
 93
41
 10
16.6100237355708
 20
49.2791168832156
 10
16.6100515991705
 20
49.279039440062
 10
16.6100843749824
 20
49.2789707559734
 10
16.6101218703916
 20
49.278891913636
 10
16.6101111261168
 20
49.2788724310429
 10
16.6099893274802
 20
49.2786515356212
 10
16.6099885733677
 20
49.278625975873
 10
16.6099872684884
 20
49.2785828302064
 10
16.6099658662516
 20
49.2785860199847
 10
16.6099100468377
 20
49.2785941925759
 10
16.6094930036619
 20
49.2786641921133
 10
16.6094254320555
 20
49.2786648401572
 10
16.6092742453794
 20
49.2786661772913
 10
16.6091848431274
 20
49.278679300733
 10
16.6091990805926
 20
49.278679312748
 10
16.6092115490477
 20
49.2786841743096
 10
16.609218093564
 20
49.2786914207998
 10
16.6092184593139
 20
49.2787017577841
 10
16.6088793560843
 20
49.2794471285683
 10
16.6088679771955
 20
49.2794883822927
 10
16.6088692589706
 20
49.2795333353668
 10
16.6088847119863
 20
49.2795770295141
 10
16.6090978227611
 20
49.2798979079177
 10
16.6091286368248
 20
49.2799548989355
 10
16.6091471188287
 20
49.2800070380432
 10
16.6093334988524
 20
49.2807407309224
 10
16.6093696880552
 20
49.2808279498973
 10
16.609375273118
 20
49.2808711269391
 10
16.6093722561482
 20
49.2809086305341
 10
16.6094223231394
 20
49.2808499428289
 10
16.6095248389458
 20
49.2807290274367
 10
16.6097073069412
 20
49.2805225037311
 10
16.6099017872244
 20
49.2802876145129
 10
16.6099928992867
 20
49.2801662542148
 10
16.6101109115097
 20
49.2799858340026
 10
16.6102503874472
 20
49.279772561187
 10
16.6104007675304
 20
49.2795309350206
 10
16.6104986147333
 20
49.279243264248
 10
16.6105161522098
 20
49.2791915017188
 10
16.6103560107613
 20
49.2791733939285
 10
16.6100237355708
 20
49.2791168832156
 97
0
 75
0
 76
1
 98
0
  0
HATCH
  5
2003B
100
AcDbEntity
  8
0
100
AcDbHatch
 10
0
 20
0
 30
0
210
0
220
0
230
1
  2
SOLID
 70
1
 71
0
 91
1
 92
2
 72
0
 73
1
 93
8
 10
16.629265723385
 20
49.2841944804942
 10
16.6292875313795
 20
49.2841074725107
 10
16.6289167683407
 20
49.284229648781
 10
16.6282102730543
 20
49.2843663065343
 10
16.6282137613599
 20
49.2845288124807
 10
16.628570404733
 20
49.2845099260928
 10
16.6291658456602
 20
49.2845210891952
 10
16.629265723385
 20
49.2841944804942
 97
0
 75
0
 76
1
 98
0
  0
HATCH
  5
2003C
100
AcDbEntity
  8
0
100
AcDbHatch
 10
0
 20
0
 30
0
210
0
220
0
230
1
  2
SOLID
 70
1
 71
0
 91
1
 92
2
 72
0
 73
1
 93
22
 10
16.5889487875911
 20
49.1827084713501
 10
16.588846759924
 20
49.1826720974956
 10
16.5888382021425
 20
49.1826687759627
 10
16.5888200721048
 20
49.1826549150819
 10
16.5886235130762
 20
49.1825042772942
 10
16.5886024593383
 20
49.1825014247651
 10
16.5885780934772
 20
49.1825035831678
 10
16.5885559264931
 20
49.182509968145
 10
16.5885398294613
 20
49.182518864763
 10
16.5885134298621
 20
49.1825458435509
 10
16.5884517641353
 20
49.1826576034954
 10
16.588351908164
 20
49.1827291123836
 10
16.5884365576575
 20
49.1827061815624
 10
16.588626949849
 20
49.1826654363889
 10
16.5886758375429
 20
49.1827135930523
 10
16.5886970720895
 20
49.1827345488969
 10
16.5887184430359
 20
49.1827555144266
 10
16.5888456667172
 20
49.1828806935952
 10
16.5888513303566
 20
49.1829132065609
 10
16.5889543383405
 20
49.1828677001268
 10
16.5890037849036
 20
49.1828089815651
 10
16.5889487875911
 20
49.1827084713501
 97
0
 75
0
 76
1
 98
0
  0
HATCH
  5
2003D
100
AcDbEntity
  8
0
100
AcDbHatch
 10
0
 20
0
 30
0
210
0
220
0
230
1
  2
SOLID
 70
1
 71
0
 91
1
 92
2
 72
0
 73
1
 93
215
 10
16.6133204076398
 20
49.2804411295141
 10
16.6135266588871
 20
49.2801984749381
 10
16.6136565407606
 20
49.2802466385687
 10
16.6135775663724
 20
49.2803288811442
 10
16.613432258248
 20
49.280482953719
 10
16.6133791381125
 20
49.280540070271
 10
16.6134979934087
 20
49.2805997555029
 10
16.6137166165255
 20
49.2807108119069
 10
16.6142576858066
 20
49.2801024441238
 10
16.6142962209996
 20
49.2800591298521
 10
16.6144633299498
 20
49.2798676143265
 10
16.6146229633417
 20
49.2796845246205
 10
16.6148315315944
 20
49.2793808895017
 10
16.6148976110219
 20
49.2792846200588
 10
16.6149812014765
 20
49.2791417413655
 10
16.6149217446916
 20
49.2788027021113
 10
16.6148978415714
 20
49.2786242780378
 10
16.6148173143752
 20
49.2786263652237
 10
16.6146538281417
 20
49.2786168003988
 10
16.6143304163638
 20
49.2785995497717
 10
16.6143315012798
 20
49.2783987420377
 10
16.6143453767889
 20
49.2783992705275
 10
16.6143921428216
 20
49.2781972596186
 10
16.6143603590436
 20
49.278197183871
 10
16.6144524445935
 20
49.2779685284149
 10
16.61447705253
 20
49.2779074065371
 10
16.6144317450023
 20
49.2778485788362
 10
16.6143757479038
 20
49.2777757901894
 10
16.6142972213665
 20
49.2776920929633
 10
16.6141351566594
 20
49.2775173795721
 10
16.6140180071283
 20
49.2773921499688
 10
16.6136613627058
 20
49.2772404939891
 10
16.6136872394928
 20
49.2772302936056
 10
16.6136917485062
 20
49.2772272657683
 10
16.6137218500093
 20
49.2772149219227
 10
16.6135845489307
 20
49.2772016888837
 10
16.6134845386337
 20
49.277086534027
 10
16.6134294359835
 20
49.2769212798052
 10
16.6134264036882
 20
49.2769187138055
 10
16.6132352716208
 20
49.2765751579935
 10
16.613234433217
 20
49.2765743751412
 10
16.6131703932554
 20
49.2765143129371
 10
16.6131609557962
 20
49.2764559399988
 10
16.6130701557773
 20
49.2763101407171
 10
16.6123452931689
 20
49.2754961462265
 10
16.612219982779
 20
49.2753534233182
 10
16.6121469357084
 20
49.275255006656
 10
16.6120717432196
 20
49.2751553528565
 10
16.6117706528616
 20
49.2747227057877
 10
16.6116929782848
 20
49.2746506436947
 10
16.611504188495
 20
49.2744754826191
 10
16.6113999020903
 20
49.274378745575
 10
16.6111981037453
 20
49.27426561593
 10
16.6111981037453
 20
49.27426561593
 10
16.611196545217
 20
49.2742633349633
 10
16.611137738463
 20
49.2741749691991
 10
16.6111353614554
 20
49.2741994030244
 10
16.6111353466882
 20
49.2741994924283
 10
16.610928002866
 20
49.2740847942388
 10
16.6107711204002
 20
49.2740721623126
 10
16.6107218679947
 20
49.2740682270286
 10
16.6104238472997
 20
49.2740740142237
 10
16.6102227573981
 20
49.2740654005538
 10
16.6100683967726
 20
49.2740299721257
 10
16.610019834991
 20
49.2740243668604
 10
16.6099875068988
 20
49.2740075182757
 10
16.6098777901559
 20
49.2739771464149
 10
16.6097601669922
 20
49.2739435922393
 10
16.6097345049446
 20
49.2739374357124
 10
16.6095297515159
 20
49.2738807144589
 10
16.6093521414156
 20
49.2738354097684
 10
16.6092831209849
 20
49.273803031547
 10
16.6088406242281
 20
49.2735897498327
 10
16.6087597024088
 20
49.2735733528232
 10
16.6086874847248
 20
49.2735586568403
 10
16.6084877526312
 20
49.2735108813494
 10
16.6083934813642
 20
49.2734958009551
 10
16.6083764831694
 20
49.2734890811438
 10
16.6082107593194
 20
49.2734237217253
 10
16.607798303858
 20
49.2732436749466
 10
16.6076541877908
 20
49.2732073396618
 10
16.6075985075933
 20
49.2731879337409
 10
16.6075905422055
 20
49.2731851089956
 10
16.6072666023716
 20
49.2730725560227
 10
16.6073010034054
 20
49.2731220232339
 10
16.6075701557829
 20
49.2732750198913
 10
16.6076681262215
 20
49.2733095378279
 10
16.6081974865406
 20
49.2734956843672
 10
16.6084654290474
 20
49.2735748774174
 10
16.608712574151
 20
49.2736460863534
 10
16.608827622064
 20
49.2737077699229
 10
16.6089427921296
 20
49.2737695524458
 10
16.6090651562495
 20
49.2738346475953
 10
16.6092173852713
 20
49.2739156031627
 10
16.6093285419245
 20
49.2739623582568
 10
16.6095036710903
 20
49.2740226828134
 10
16.6096334554739
 20
49.2740805235265
 10
16.6097815202394
 20
49.2741465310598
 10
16.6097675150211
 20
49.2740706492481
 10
16.6098191457165
 20
49.2740802705035
 10
16.609949491063
 20
49.2741045941539
 10
16.6101026514371
 20
49.274133063769
 10
16.6103591808791
 20
49.2741809637029
 10
16.6104377739303
 20
49.2741955667211
 10
16.6104789091945
 20
49.2741934107254
 10
16.6107165401425
 20
49.2741808201409
 10
16.6107975261132
 20
49.2741909792689
 10
16.6108907061806
 20
49.2742026338033
 10
16.6110037005874
 20
49.2742525018776
 10
16.6111222473032
 20
49.2743348715706
 10
16.6111358894329
 20
49.2743443383989
 10
16.6112017107621
 20
49.2743902372777
 10
16.6112394095227
 20
49.2744164196248
 10
16.6112853997097
 20
49.2744568459453
 10
16.6113948893757
 20
49.2745530465461
 10
16.6115704919593
 20
49.2747352347742
 10
16.6117179897291
 20
49.2749344294993
 10
16.6118131878416
 20
49.2751205193831
 10
16.6119035570552
 20
49.2753191113281
 10
16.6119837651838
 20
49.2754829762221
 10
16.6120962364743
 20
49.2755996470683
 10
16.6121298638462
 20
49.2756345859628
 10
16.6122003222553
 20
49.2757277544747
 10
16.6124479898748
 20
49.2758528077688
 10
16.6125242966363
 20
49.2759633032747
 10
16.6127082973993
 20
49.2761708655752
 10
16.6129005846438
 20
49.2763943894396
 10
16.6129358757401
 20
49.2765230592592
 10
16.6131474568471
 20
49.2767729101352
 10
16.6132085852788
 20
49.2769351535316
 10
16.6132127009715
 20
49.2769520868945
 10
16.6132725158458
 20
49.277082942392
 10
16.6133541386329
 20
49.2772098221346
 10
16.6134702279897
 20
49.277316345361
 10
16.6135044186905
 20
49.2773872313152
 10
16.613594170496
 20
49.2774699137535
 10
16.6137468246135
 20
49.2775174263413
 10
16.6138923820677
 20
49.2776121030674
 10
16.6139497278401
 20
49.277664998382
 10
16.6140384910459
 20
49.2777469773693
 10
16.6140504812239
 20
49.2777664571266
 10
16.6141034882599
 20
49.277823025362
 10
16.6141449691347
 20
49.277914234386
 10
16.6141285698212
 20
49.2780336421082
 10
16.6140944737869
 20
49.2781304533012
 10
16.6140826024924
 20
49.2781856013715
 10
16.6140224011465
 20
49.2783710151272
 10
16.6140077372242
 20
49.2785929323983
 10
16.6139766009877
 20
49.2787781393795
 10
16.6139013695255
 20
49.278953265085
 10
16.6137978766406
 20
49.2791647430046
 10
16.6135569580634
 20
49.2795537338837
 10
16.6134489087744
 20
49.2797291626979
 10
16.6132711819057
 20
49.279962346491
 10
16.6131488373431
 20
49.2800962440089
 10
16.6129272859079
 20
49.2803294047918
 10
16.6128412955075
 20
49.2804440740298
 10
16.6127726543223
 20
49.2805357296289
 10
16.6126325145636
 20
49.2807447068637
 10
16.6125921769079
 20
49.2808583522266
 10
16.6125170602217
 20
49.2810930003866
 10
16.612503501744
 20
49.2811416073664
 10
16.6124675413126
 20
49.2812697624834
 10
16.6124312339747
 20
49.2813556538909
 10
16.6123564106066
 20
49.2815324360871
 10
16.6122688161264
 20
49.2816785580532
 10
16.6122379087832
 20
49.2817242200548
 10
16.6119987876176
 20
49.2820770666851
 10
16.6118821361866
 20
49.2822526101879
 10
16.6117948992612
 20
49.2823714419474
 10
16.6116657105879
 20
49.282547546147
 10
16.6116585604997
 20
49.2825573517239
 10
16.6115765786423
 20
49.2826175827987
 10
16.6114733411284
 20
49.2826934961946
 10
16.6113878422556
 20
49.2827482325286
 10
16.6114002313716
 20
49.2827652986395
 10
16.6115054837706
 20
49.2829098591435
 10
16.6117202921173
 20
49.2828800025336
 10
16.6120240600605
 20
49.2827493441318
 10
16.6120583242724
 20
49.2827369329533
 10
16.6120796496525
 20
49.2827199891496
 10
16.6121785166278
 20
49.2826412337641
 10
16.6122692321404
 20
49.2825691379019
 10
16.6122919940756
 20
49.2825510293516
 10
16.6122984019064
 20
49.2825448796377
 10
16.6124094620421
 20
49.2824375000446
 10
16.6124782525256
 20
49.2823709090835
 10
16.6125203845112
 20
49.2823234175001
 10
16.6125925530888
 20
49.2822422318364
 10
16.6126401405228
 20
49.2821533389444
 10
16.6126592995436
 20
49.282117700106
 10
16.6126476943655
 20
49.2820238993017
 10
16.6127403757771
 20
49.2819407266224
 10
16.6127457420152
 20
49.2819358599813
 10
16.6127827480082
 20
49.2819026585457
 10
16.6129221494885
 20
49.2817534148351
 10
16.6130597452209
 20
49.281617610546
 10
16.6130957533204
 20
49.2815820773058
 10
16.6131938470547
 20
49.2814912370914
 10
16.613220437132
 20
49.2814608267619
 10
16.6131938917393
 20
49.2814549706689
 10
16.6130787755931
 20
49.2814295579541
 10
16.612937261024
 20
49.281387355157
 10
16.6128051541098
 20
49.2813476261517
 10
16.6128113525636
 20
49.2812699173456
 10
16.6128146066877
 20
49.2812284509036
 10
16.6128228417165
 20
49.2811250179671
 10
16.6128620907027
 20
49.2810254959112
 10
16.6129212167886
 20
49.2808751000781
 10
16.612936430301
 20
49.280836559341
 10
16.6130172569315
 20
49.2807539957715
 10
16.6131424996317
 20
49.2806260013461
 10
16.6131817493276
 20
49.2805859035336
 10
16.613277879053
 20
49.2804876887244
 10
16.6133204076398
 20
49.2804411295141
 97
0
 75
0
 76
1
 98
0
  0
HATCH
  5
2003E
100
AcDbEntity
  8
0
100
AcDbHatch
 10
0
 20
0
 30
0
210
0
220
0
230
1
  2
SOLID
 70
1
 71
0
 91
1
 92
2
 72
0
 73
1
 93
109
 10
16.5725082886539
 20
49.2404120457291
 10
16.572636541567
 20
49.2403450930843
 10
16.5727870690618
 20
49.2404720285971
 10
16.5728851713834
 20
49.2404610937221
 10
16.5730705629373
 20
49.2405985579334
 10
16.5730672104955
 20
49.240590450118
 10
16.5730467128012
 20
49.2405407809985
 10
16.5730464217948
 20
49.2405400366795
 10
16.5730434672533
 20
49.2405328616889
 10
16.5729503329174
 20
49.2403072517397
 10
16.5734824577167
 20
49.2402123880558
 10
16.5734576866681
 20
49.2401518321436
 10
16.5734217418319
 20
49.2400645216413
 10
16.5737637331473
 20
49.2400048938145
 10
16.5737643151755
 20
49.2400063824488
 10
16.5737698858013
 20
49.2400194419725
 10
16.5738001919246
 20
49.240091607533
 10
16.5738508240391
 20
49.2402119825538
 10
16.5738512071198
 20
49.2402130047763
 10
16.5739469984931
 20
49.2401968393671
 10
16.5741401508332
 20
49.2401625394714
 10
16.5742185846631
 20
49.2401485771729
 10
16.5742389395802
 20
49.2401449587469
 10
16.5742450626732
 20
49.240143856309
 10
16.5743972613939
 20
49.2401165946218
 10
16.5744385057385
 20
49.2402169448994
 10
16.5744391026127
 20
49.2402183441306
 10
16.5747283944
 20
49.2401599422333
 10
16.5748059603898
 20
49.2401412142806
 10
16.5748779682024
 20
49.2401285133906
 10
16.5749364602303
 20
49.2401073441111
 10
16.5749818811287
 20
49.240075024467
 10
16.5750095598583
 20
49.2400355642189
 10
16.5750192479283
 20
49.2400071268507
 10
16.575025530573
 20
49.2399883972992
 10
16.5750322584195
 20
49.2399553173
 10
16.5750321483897
 20
49.2399543144915
 10
16.5750319665217
 20
49.2399504120675
 10
16.5750304842069
 20
49.2399160248603
 10
16.5750209607475
 20
49.2398651462832
 10
16.5750154339582
 20
49.2398359892494
 10
16.5750150625414
 20
49.2398340633272
 10
16.5749996649217
 20
49.2397819531252
 10
16.5749829809433
 20
49.2397384350114
 10
16.5749414611071
 20
49.2396297436725
 10
16.57488250628
 20
49.2394754003485
 10
16.5748746570858
 20
49.2394535858509
 10
16.5748304785953
 20
49.2393317706061
 10
16.5747710042386
 20
49.2391880637462
 10
16.5747283993205
 20
49.2390809232858
 10
16.5747025611515
 20
49.2390467947086
 10
16.5746680691849
 20
49.2390182018058
 10
16.5746354325734
 20
49.238990916673
 10
16.5744872920523
 20
49.2389287370368
 10
16.5742257603823
 20
49.238840586585
 10
16.5741541895252
 20
49.2388165034205
 10
16.5740451228018
 20
49.2387752820393
 10
16.5739612719562
 20
49.2387444462666
 10
16.5739353946573
 20
49.2387355512311
 10
16.5738427582482
 20
49.23870354806
 10
16.5738385819045
 20
49.2387020752565
 10
16.5737419495312
 20
49.2386641797887
 10
16.57370962487
 20
49.2386508463726
 10
16.5736973361666
 20
49.238645811856
 10
16.573656783688
 20
49.2386304462178
 10
16.5736527587129
 20
49.2386288937146
 10
16.573648080723
 20
49.2386271138783
 10
16.5735969528494
 20
49.2386105440974
 10
16.5735164736153
 20
49.2385927016273
 10
16.5734458119599
 20
49.2386714379466
 10
16.5734013983013
 20
49.2387251756444
 10
16.5733865822548
 20
49.2387453788832
 10
16.5733690510854
 20
49.2387694594991
 10
16.5733029528903
 20
49.2388598269157
 10
16.5732211277258
 20
49.2389742222799
 10
16.5732105254294
 20
49.2389898405951
 10
16.5731388908869
 20
49.2390960959963
 10
16.5731029978206
 20
49.2391492635256
 10
16.5730009208914
 20
49.23930247082
 10
16.5728882325704
 20
49.2394571849403
 10
16.5728262663138
 20
49.2395059659151
 10
16.5727681098424
 20
49.2395476005388
 10
16.5726814634739
 20
49.2396152501259
 10
16.572630214293
 20
49.2396427223103
 10
16.5724846386647
 20
49.2397125135507
 10
16.5722128970565
 20
49.2398275154582
 10
16.572163427294
 20
49.2398484204141
 10
16.5721306821981
 20
49.2398642732626
 10
16.572120312275
 20
49.2398693249428
 10
16.5720608468878
 20
49.2398980217691
 10
16.5719904189868
 20
49.2399395071301
 10
16.5718765334036
 20
49.2400156215239
 10
16.5717312024123
 20
49.2401305658248
 10
16.5715448463107
 20
49.2402779601426
 10
16.5715225269218
 20
49.2403517210684
 10
16.5715002505773
 20
49.2404368822415
 10
16.5715365485281
 20
49.2405461989555
 10
16.571536916735
 20
49.2405473105851
 10
16.5716328543427
 20
49.2405694193724
 10
16.5716845193181
 20
49.2405752641067
 10
16.571817012157
 20
49.240590203108
 10
16.5718171486948
 20
49.2405902128168
 10
16.571815177259
 20
49.2405862735724
 10
16.5718070036154
 20
49.2405705865759
 10
16.5717891272652
 20
49.2405359379678
 10
16.571847792763
 20
49.2405320591407
 10
16.5723200133588
 20
49.2405010525254
 10
16.5724432489147
 20
49.2404426982313
 10
16.5725082886539
 20
49.2404120457291
 97
0
 75
0
 76
1
 98
0
  0
HATCH
  5
2003F
100
AcDbEntity
  8
0
100
AcDbHatch
 10
0
 20
0
 30
0
210
0
220
0
230
1
  2
SOLID
 70
1
 71
0
 91
1
 92
2
 72
0
 73
1
 93
115
 10
16.6141962359779
 20
49.2739091214658
 10
16.6142983958059
 20
49.2739065745558
 10
16.6143847366834
 20
49.2739161147482
 10
16.6145750673883
 20
49.2739086749809
 10
16.6148226291862
 20
49.2738911703232
 10
16.6152914535548
 20
49.2738438087291
 10
16.6155547463212
 20
49.2737988329305
 10
16.6158015563514
 20
49.2737473552492
 10
16.6159964252583
 20
49.2737433996021
 10
16.6161065574554
 20
49.2737645691334
 10
16.6162523123461
 20
49.2737926879601
 10
16.6165567343709
 20
49.273857796887
 10
16.616735525146
 20
49.2739010027253
 10
16.6171014378589
 20
49.273938617901
 10
16.6174979884872
 20
49.2739204199533
 10
16.6180728684384
 20
49.2739214231954
 10
16.6186768769647
 20
49.2739905079729
 10
16.6196911268314
 20
49.2743856883735
 10
16.6196289422435
 20
49.2743051391996
 10
16.6194704293295
 20
49.2741959874674
 10
16.6193196919979
 20
49.2741100869948
 10
16.6192968499801
 20
49.2741035892146
 10
16.6190466370357
 20
49.2740324587724
 10
16.6188580581381
 20
49.2739740031804
 10
16.6187633161448
 20
49.2739341157356
 10
16.6184459777516
 20
49.2738182638569
 10
16.6182652992017
 20
49.2737965442771
 10
16.6180740053419
 20
49.2737830286697
 10
16.6178682784199
 20
49.2738016871303
 10
16.6176377702668
 20
49.2738306237414
 10
16.6174931699447
 20
49.2738415711364
 10
16.6173696936355
 20
49.2738359215083
 10
16.6172473030288
 20
49.2738513322678
 10
16.6171372224548
 20
49.2738767479541
 10
16.6168305314012
 20
49.2735615738702
 10
16.6167783445809
 20
49.273543595336
 10
16.6165005227097
 20
49.2734479864577
 10
16.6164364334142
 20
49.2734259105063
 10
16.6164037951956
 20
49.2734209810014
 10
16.6163676486916
 20
49.2734155322139
 10
16.6161331065207
 20
49.2733801437887
 10
16.6160788868572
 20
49.2733719704761
 10
16.6160629703144
 20
49.2733695793461
 10
16.6157462941802
 20
49.2733217827634
 10
16.615621023981
 20
49.2733638511826
 10
16.6154040162154
 20
49.273436609647
 10
16.6152734870331
 20
49.2734803863305
 10
16.6150301271167
 20
49.2735620448862
 10
16.6148722128715
 20
49.2736209801673
 10
16.6147986099864
 20
49.2736481579836
 10
16.6144836588884
 20
49.2737657280275
 10
16.6144691457721
 20
49.2737648830488
 10
16.614104073514
 20
49.2737506542579
 10
16.6140304197641
 20
49.2737572059229
 10
16.6139344501418
 20
49.273765797933
 10
16.6139267284073
 20
49.2737665183475
 10
16.6136772766436
 20
49.2737887716435
 10
16.6135956425239
 20
49.2737959347058
 10
16.6134281422194
 20
49.2738107755073
 10
16.6133552010047
 20
49.2738171962314
 10
16.6130655007655
 20
49.273806935905
 10
16.6129337645605
 20
49.2738069384452
 10
16.6128079241919
 20
49.2737427777982
 10
16.6127112714734
 20
49.2737546670868
 10
16.6124183717356
 20
49.2737185820931
 10
16.6121752795614
 20
49.2737014846676
 10
16.6116537529544
 20
49.2735130171616
 10
16.6114569039605
 20
49.2734293620334
 10
16.6113815535748
 20
49.2733373843898
 10
16.6112196269587
 20
49.2732866793133
 10
16.6109091435261
 20
49.273201409203
 10
16.6108462612543
 20
49.2731871034124
 10
16.6107243074195
 20
49.2731488119017
 10
16.6106014009207
 20
49.2731079203231
 10
16.6105100574311
 20
49.2730726073819
 10
16.6104321297431
 20
49.2730272084629
 10
16.6103173906447
 20
49.2729368762296
 10
16.6102021311418
 20
49.2728421655247
 10
16.6101723501419
 20
49.2727714089601
 10
16.6101571072679
 20
49.2726837718197
 10
16.6101746423647
 20
49.2726186228957
 10
16.6101855348413
 20
49.272577787022
 10
16.6102220522372
 20
49.272442074177
 10
16.6102570699737
 20
49.2723003761246
 10
16.6102314538554
 20
49.2722044076745
 10
16.6101456813777
 20
49.2721822415363
 10
16.6099706332145
 20
49.2721750164667
 10
16.609354101968
 20
49.2719877767302
 10
16.6091677330309
 20
49.2720172857586
 10
16.6087580927211
 20
49.272037784466
 10
16.6086123324707
 20
49.2720331717613
 10
16.6086118376384
 20
49.2720378400829
 10
16.6085900205843
 20
49.272263594019
 10
16.6089139536555
 20
49.2722280787335
 10
16.6091718265518
 20
49.2722033565371
 10
16.6094147697827
 20
49.2722062499348
 10
16.6096004317678
 20
49.2722546570253
 10
16.6097005405585
 20
49.2723289409475
 10
16.6097800145839
 20
49.2724109910232
 10
16.6098359253235
 20
49.2724976153718
 10
16.6098881149062
 20
49.2726235024404
 10
16.6100242800522
 20
49.2727832773378
 10
16.6102166991497
 20
49.2729548091122
 10
16.6104119094519
 20
49.2730726306652
 10
16.6104812365027
 20
49.2731157028226
 10
16.6111374046537
 20
49.2733375759553
 10
16.6115647347238
 20
49.2735448012306
 10
16.6122879720519
 20
49.2737615507647
 10
16.6130887465812
 20
49.2739206443745
 10
16.6131797989138
 20
49.2739250916945
 10
16.6134411956583
 20
49.2739158943276
 10
16.6137001774518
 20
49.2739096008852
 10
16.6137228037327
 20
49.2739090296442
 10
16.6139740689197
 20
49.2739176566703
 10
16.6141962359779
 20
49.2739091214658
 97
0
 75
0
 76
1
 98
0
  0
HATCH
  5
20040
100
AcDbEntity
  8
0
100
AcDbHatch
 10
0
 20
0
 30
0
210
0
220
0
230
1
  2
SOLID
 70
1
 71
0
 91
1
 92
2
 72
0
 73
1
 93
19
 10
16.5397312759333
 20
49.22138499113
 10
16.5397785490172
 20
49.2210329566934
 10
16.5396869356301
 20
49.2210291276828
 10
16.5395865430577
 20
49.2210249429788
 10
16.5394766145139
 20
49.2210208008005
 10
16.5393735545014
 20
49.2210168776935
 10
16.5393712390665
 20
49.2210133653668
 10
16.5391309811406
 20
49.2206431468857
 10
16.538842823475
 20
49.2206336918443
 10
16.5387803249804
 20
49.2206316702215
 10
16.5387020424355
 20
49.2206290639137
 10
16.5387882706894
 20
49.2207050567613
 10
16.5387931689593
 20
49.2207054970825
 10
16.5389179741691
 20
49.2214249618567
 10
16.538990838022
 20
49.2214203060728
 10
16.539403818662
 20
49.2214099999773
 10
16.5395736582727
 20
49.2214026811601
 10
16.5396614602658
 20
49.2213995441008
 10
16.5397312759333
 20
49.22138499113
 97
0
 75
0
 76
1
 98
0
  0
HATCH
  5
20041
100
AcDbEntity
  8
0
100
AcDbHatch
 10
0
 20
0
 30
0
210
0
220
0
230
1
  2
SOLID
 70
1
 71
0
 91
1
 92
2
 72
0
 73
1
 93
18
 10
16.5423111021553
 20
49.1765517582683
 10
16.542231792046
 20
49.1764711007004
 10
16.5419633764243
 20
49.176368516694
 10
16.5418448596853
 20
49.1764191166417
 10
16.5421612281217
 20
49.1768963695521
 10
16.54222695926
 20
49.1768653355293
 10
16.542237138099
 20
49.1768605449282
 10
16.5422384842053
 20
49.1768599174512
 10
16.5423150187284
 20
49.1768062266238
 10
16.5423544001521
 20
49.1767867879519
 10
16.542401736661
 20
49.1767634852534
 10
16.5424913795732
 20
49.1767355166586
 10
16.5426500177465
 20
49.1766743046356
 10
16.5426237307362
 20
49.176639047093
 10
16.5425581275936
 20
49.1766435861085
 10
16.5425406369006
 20
49.1766259632942
 10
16.542512438373
 20
49.1766229532743
 10
16.5423111021553
 20
49.1765517582683
 97
0
 75
0
 76
1
 98
0
  0
HATCH
  5
20042
100
AcDbEntity
  8
0
100
AcDbHatch
 10
0
 20
0
 30
0
210
0
220
0
230
1
  2
SOLID
 70
1
 71
0
 91
1
 92
2
 72
0
 73
1
 93
47
 10
16.6031576212217
 20
49.273581070435
 10
16.6035891822012
 20
49.2734933102594
 10
16.6038687754754
 20
49.273460187244
 10
16.6039631476763
 20
49.27344705844
 10
16.6040573684127
 20
49.2734340092912
 10
16.6041245607552
 20
49.2734247453753
 10
16.6041494656809
 20
49.2734212620222
 10
16.6042074434441
 20
49.2734217475299
 10
16.6043653793163
 20
49.2734229761523
 10
16.6045451070511
 20
49.2734203199008
 10
16.6050311522824
 20
49.2733809115578
 10
16.6051778442331
 20
49.2733690422893
 10
16.6053522700035
 20
49.2733482815905
 10
16.60536270376
 20
49.273159710242
 10
16.605279097714
 20
49.273163743078
 10
16.6051695900286
 20
49.2731689276581
 10
16.6050245268898
 20
49.2731851632491
 10
16.6043508620383
 20
49.2732607683831
 10
16.6041715432601
 20
49.2732801863261
 10
16.6040901743284
 20
49.2732890800144
 10
16.6039180306166
 20
49.273307739124
 10
16.6035147636586
 20
49.2733514644503
 10
16.6031560192037
 20
49.2734419365256
 10
16.6028307884156
 20
49.2734818671183
 10
16.6027613256979
 20
49.2734822864531
 10
16.6025487793708
 20
49.2734836116443
 10
16.6023618393439
 20
49.273368531865
 10
16.6023072430746
 20
49.2733776915466
 10
16.6022924565816
 20
49.2733801722893
 10
16.6022820683607
 20
49.2733819694555
 10
16.6022543940226
 20
49.2734113962275
 10
16.6022425051028
 20
49.2734239410762
 10
16.601929546011
 20
49.2737558041519
 10
16.6016864081868
 20
49.2740349031093
 10
16.6014058461452
 20
49.274422424071
 10
16.6014682200303
 20
49.2744456535816
 10
16.6015141760701
 20
49.2744628364263
 10
16.6018063900874
 20
49.2745716220912
 10
16.6020013926308
 20
49.2741280246914
 10
16.6020727350076
 20
49.2739958636073
 10
16.6020888804079
 20
49.2739676105566
 10
16.602130616004
 20
49.2738949495006
 10
16.6022695690483
 20
49.2738036640517
 10
16.6026774701252
 20
49.273680946731
 10
16.6027862169104
 20
49.2736578015893
 10
16.6029082914926
 20
49.2736318009243
 10
16.6031576212217
 20
49.273581070435
 97
0
 75
0
 76
1
 98
0
  0
HATCH
  5
20043
100
AcDbEntity
  8
0
100
AcDbHatch
 10
0
 20
0
 30
0
210
0
220
0
230
1
  2
SOLID
 70
1
 71
0
 91
1
 92
2
 72
0
 73
1
 93
203
 10
16.5542349942064
 20
49.2394330549789
 10
16.5542971883118
 20
49.2393614135272
 10
16.5549774170271
 20
49.2394936487857
 10
16.5551120486598
 20
49.2395197955588
 10
16.5551897242645
 20
49.2395353709594
 10
16.5553953566622
 20
49.2395765266594
 10
16.5555643522398
 20
49.2396103678418
 10
16.5559907680468
 20
49.2396921286941
 10
16.5562139401526
 20
49.2397349847788
 10
16.5562875770648
 20
49.2397490957269
 10
16.5564322123307
 20
49.2397774008605
 10
16.5566517759332
 20
49.2398203607847
 10
16.5569029080503
 20
49.2398695492403
 10
16.557022665964
 20
49.2398921012848
 10
16.5570437947237
 20
49.239901295196
 10
16.5573487870137
 20
49.2400337396079
 10
16.5575037827837
 20
49.2401011345372
 10
16.5576297967429
 20
49.2401558814722
 10
16.5577941958324
 20
49.2402273830909
 10
16.5578400689405
 20
49.2402472945041
 10
16.5580378910821
 20
49.240071066688
 10
16.558075522854
 20
49.2400374744559
 10
16.5581306776376
 20
49.2399882151527
 10
16.5581562898306
 20
49.2399654355398
 10
16.5582339574585
 20
49.2398962513143
 10
16.558314391499
 20
49.2398245504268
 10
16.5583373990468
 20
49.23972098934
 10
16.5583609291864
 20
49.2396151136312
 10
16.5583842484327
 20
49.2395096751796
 10
16.5584284868748
 20
49.2393107483776
 10
16.5584430568067
 20
49.2392446681077
 10
16.5584639136951
 20
49.2391507230418
 10
16.558471602482
 20
49.2391160834695
 10
16.5585345318886
 20
49.2388329169929
 10
16.5585839929269
 20
49.2386100296364
 10
16.5586336020323
 20
49.238386248273
 10
16.5586587434366
 20
49.2382731604347
 10
16.5586873770972
 20
49.2381440393361
 10
16.5587038438989
 20
49.2380698627207
 10
16.5587257248561
 20
49.2379913680454
 10
16.5588462516413
 20
49.2375577154619
 10
16.5589762718395
 20
49.2370901850261
 10
16.5591459574923
 20
49.2364794845183
 10
16.559150301314
 20
49.236464145099
 10
16.5591630894149
 20
49.2364179285965
 10
16.5591808952835
 20
49.2363539783769
 10
16.5592027450256
 20
49.2362756623848
 10
16.5592268096952
 20
49.2361890013303
 10
16.5592374866077
 20
49.2361505040898
 10
16.559220064001
 20
49.2360524757694
 10
16.5592002003047
 20
49.2359417002557
 10
16.5591912428441
 20
49.2358916735436
 10
16.5591692260282
 20
49.2357680808817
 10
16.559156584887
 20
49.2356969870161
 10
16.5591566687013
 20
49.2356906610984
 10
16.5591577760721
 20
49.2356349289059
 10
16.5591598126125
 20
49.2355245372938
 10
16.5591628468042
 20
49.2353574106603
 10
16.5591643876045
 20
49.2352741203974
 10
16.5591660117433
 20
49.2351886651366
 10
16.5591673944743
 20
49.2351121477791
 10
16.5591685707822
 20
49.2350501790607
 10
16.559171216494
 20
49.2349061813679
 10
16.5591740288756
 20
49.2347578536779
 10
16.5591792062451
 20
49.2344805239119
 10
16.5591823475929
 20
49.2343094248473
 10
16.5591852226459
 20
49.2341573929338
 10
16.5591892925945
 20
49.233935795349
 10
16.5591924669126
 20
49.2337611708556
 10
16.559196413731
 20
49.2335519569028
 10
16.5591981512596
 20
49.2334599969019
 10
16.5591987968243
 20
49.2334195187923
 10
16.5592022809519
 20
49.2332338807773
 10
16.5592036362852
 20
49.233162517419
 10
16.5592058431031
 20
49.2330402882261
 10
16.5592088674241
 20
49.2328790404556
 10
16.5592091121492
 20
49.2328667559296
 10
16.558122009397
 20
49.2327380288479
 10
16.5580466871211
 20
49.2327291351728
 10
16.5576355149116
 20
49.2326798519605
 10
16.557476920429
 20
49.2326608643188
 10
16.5573892945149
 20
49.232650369982
 10
16.5566856028468
 20
49.2325659501652
 10
16.5566752401515
 20
49.2325992232241
 10
16.5566392347907
 20
49.2327153359213
 10
16.5566006192856
 20
49.2328396750384
 10
16.5565587492347
 20
49.2329744560579
 10
16.5565035764151
 20
49.2331518889721
 10
16.5564634458504
 20
49.2332811856631
 10
16.5564498581657
 20
49.2333247218172
 10
16.5564376214493
 20
49.2333642837147
 10
16.5564187987934
 20
49.2334243621196
 10
16.5564166548854
 20
49.233431445834
 10
16.5563403508208
 20
49.2335024441899
 10
16.5562862815812
 20
49.2335526842108
 10
16.556171250484
 20
49.2336597286321
 10
16.5560880831138
 20
49.2337371124797
 10
16.5559964500243
 20
49.2338222150017
 10
16.5559248761741
 20
49.2338888465086
 10
16.5558075757627
 20
49.2339978999136
 10
16.5556724531563
 20
49.2341235935448
 10
16.5555319334621
 20
49.2342543298324
 10
16.5554443799035
 20
49.2343356522279
 10
16.5553791835219
 20
49.2343963155755
 10
16.5553287545278
 20
49.2344429250749
 10
16.5552956189793
 20
49.2344735802603
 10
16.5552252514254
 20
49.2345387596695
 10
16.5551805213637
 20
49.2345801669625
 10
16.5550758837811
 20
49.2346770060896
 10
16.5549752975917
 20
49.2347702442542
 10
16.554826275874
 20
49.2349080628169
 10
16.5547723846529
 20
49.2349580436539
 10
16.5547356507062
 20
49.2349920605299
 10
16.5547212895806
 20
49.2350053291459
 10
16.5546726582055
 20
49.2350502574277
 10
16.5546267635796
 20
49.2350928479608
 10
16.5545309519384
 20
49.2351814510272
 10
16.5544225775431
 20
49.2352816416694
 10
16.5544130993142
 20
49.2352904640744
 10
16.5543217929419
 20
49.2353752271147
 10
16.5542252409689
 20
49.2354649531692
 10
16.5541476304445
 20
49.2355371237754
 10
16.5540656055635
 20
49.235613412086
 10
16.5539826127165
 20
49.2356905359296
 10
16.553911229411
 20
49.2357568183083
 10
16.5538787124845
 20
49.2357870650145
 10
16.5538335733937
 20
49.2358292568915
 10
16.5537046715372
 20
49.2359498744278
 10
16.5535756028114
 20
49.2360706608816
 10
16.5534208643906
 20
49.2362153976638
 10
16.5533745905421
 20
49.2362585940094
 10
16.5533523679218
 20
49.2362792623258
 10
16.5533289815838
 20
49.2363011140822
 10
16.5532230690137
 20
49.236399760726
 10
16.5530929382546
 20
49.2365211042947
 10
16.5530414628927
 20
49.2365689953484
 10
16.5528846939091
 20
49.2367151246461
 10
16.5528745501486
 20
49.236724623174
 10
16.5526530665354
 20
49.2369326248419
 10
16.5525343650387
 20
49.2370441992578
 10
16.5524530029337
 20
49.2371206244585
 10
16.5524030847825
 20
49.2371674503796
 10
16.55237771748
 20
49.2371912412886
 10
16.5523523352909
 20
49.2372151215889
 10
16.5522970050272
 20
49.2372670795262
 10
16.5522818192504
 20
49.2372969331219
 10
16.5522052900637
 20
49.2374481483374
 10
16.5520993683165
 20
49.2376573313626
 10
16.5520349952545
 20
49.2377844471018
 10
16.5520132257259
 20
49.2378273093684
 10
16.5519449651155
 20
49.2379620176721
 10
16.5519200773733
 20
49.2380111705116
 10
16.5519060818847
 20
49.2380388475261
 10
16.5518640953251
 20
49.2381218785586
 10
16.5518503106183
 20
49.2381491183139
 10
16.5517843238307
 20
49.2382792849344
 10
16.5517149928764
 20
49.2384162687482
 10
16.5517145563192
 20
49.2384172326485
 10
16.5516216342111
 20
49.2386013811889
 10
16.5515570654596
 20
49.2387296588011
 10
16.5513843262901
 20
49.2390722957789
 10
16.5513142119092
 20
49.2392114850554
 10
16.5512573242695
 20
49.2393242993772
 10
16.5511967301589
 20
49.2394444478007
 10
16.5511652097065
 20
49.2395060630087
 10
16.5511453661066
 20
49.2395448110503
 10
16.5511078941863
 20
49.239618123144
 10
16.5510514664355
 20
49.2397281660568
 10
16.5510295735338
 20
49.239770928994
 10
16.5509534083345
 20
49.2399199083988
 10
16.5509274318489
 20
49.2399706117488
 10
16.5509014701759
 20
49.2400212256957
 10
16.5507899399644
 20
49.2402391444932
 10
16.5507379416715
 20
49.240340819298
 10
16.5506759527268
 20
49.2404618631877
 10
16.5506356759663
 20
49.2405404026453
 10
16.5505468509236
 20
49.2407139881288
 10
16.550597061752
 20
49.2407210956423
 10
16.550646180323
 20
49.2407281252628
 10
16.5512154362894
 20
49.2408091417643
 10
16.5512569983046
 20
49.2408150896834
 10
16.5516673982098
 20
49.2408735626989
 10
16.5517354238273
 20
49.2408832059865
 10
16.5528299970328
 20
49.2410469777878
 10
16.552869633085
 20
49.2410528782849
 10
16.5529057813016
 20
49.2410099551638
 10
16.5529725788951
 20
49.240930591662
 10
16.5530954938578
 20
49.2407845813728
 10
16.5533505344754
 20
49.2404811863107
 10
16.5535050311697
 20
49.2402972639964
 10
16.5537132909232
 20
49.2400508687102
 10
16.553871926388
 20
49.2398628086901
 10
16.5539632528285
 20
49.2397547091669
 10
16.553973192656
 20
49.2397431154938
 10
16.5539802021732
 20
49.2397350216936
 10
16.5539948091169
 20
49.239717790516
 10
16.5540302485877
 20
49.2396766257864
 10
16.5540691616272
 20
49.2396311857849
 10
16.5541223935276
 20
49.2395685845132
 10
16.554145233031
 20
49.239541718466
 10
16.5541658341579
 20
49.2395166829356
 10
16.5542276522731
 20
49.2394414869244
 10
16.5542349942064
 20
49.2394330549789
 97
0
 75
0
 76
1
 98
0
  0
HATCH
  5
20044
100
AcDbEntity
  8
0
100
AcDbHatch
 10
0
 20
0
 30
0
210
0
220
0
230
1
  2
SOLID
 70
1
 71
0
 91
1
 92
2
 72
0
 73
1
 93
7
 10
16.5868802511003
 20
49.1939835864617
 10
16.5865107392278
 20
49.1938678771296
 10
16.586489888339
 20
49.1941349494775
 10
16.5867184842074
 20
49.1941730795642
 10
16.5868882781151
 20
49.1941419963914
 10
16.5869339883708
 20
49.1940926003785
 10
16.5868802511003
 20
49.1939835864617
 97
0
 75
0
 76
1
 98
0
  0
HATCH
  5
20045
100
AcDbEntity
  8
0
100
AcDbHatch
 10
0
 20
0
 30
0
210
0
220
0
230
1
  2
SOLID
 70
1
 71
0
 91
1
 92
2
 72
0
 73
1
 93
73
 10
16.5916538680102
 20
49.2635092678212
 10
16.5918131072724
 20
49.2632970537399
 10
16.5919802150535
 20
49.2631992750356
 10
16.5921094007007
 20
49.2630575619779
 10
16.5920573818228
 20
49.2630169700169
 10
16.5920227958329
 20
49.2629578956994
 10
16.5919713726847
 20
49.2626072803264
 10
16.5919092705745
 20
49.2624055134877
 10
16.5918769185779
 20
49.2623037237444
 10
16.5918392449479
 20
49.2621848232558
 10
16.5915221442291
 20
49.2622194146158
 10
16.5913471238145
 20
49.2622097184202
 10
16.5913247587943
 20
49.2622062331512
 10
16.5912310859767
 20
49.2621718227521
 10
16.5911192055455
 20
49.2621338599411
 10
16.5910696627617
 20
49.2621225681983
 10
16.5911421015393
 20
49.2620139172989
 10
16.591240864025
 20
49.2618105312523
 10
16.5913706572652
 20
49.2616584603152
 10
16.5914373423908
 20
49.2615929082612
 10
16.5915282805223
 20
49.2615361310072
 10
16.5912485989811
 20
49.2612219724347
 10
16.5910859114866
 20
49.2611236035809
 10
16.5911518891575
 20
49.2610740113732
 10
16.5909960188057
 20
49.2609620153766
 10
16.5908644197268
 20
49.2608194492062
 10
16.5907324048214
 20
49.2606752252221
 10
16.5905693380641
 20
49.2605616327539
 10
16.5908936853262
 20
49.2602335926558
 10
16.5907958038995
 20
49.2601895667051
 10
16.59070498582
 20
49.260143780271
 10
16.5907642810303
 20
49.2600819558233
 10
16.5905893937841
 20
49.2600623177528
 10
16.5905616949601
 20
49.2600893882912
 10
16.5904786234751
 20
49.2600819595647
 10
16.5904631376658
 20
49.2600978661825
 10
16.5903238037589
 20
49.2600863569723
 10
16.5901983878198
 20
49.2600759250809
 10
16.5901828455762
 20
49.2600746419471
 10
16.5901495941862
 20
49.2599925058877
 10
16.5901050895882
 20
49.2598823459402
 10
16.5899984116093
 20
49.2599958040158
 10
16.5899087787734
 20
49.2600889435012
 10
16.5897810895341
 20
49.260221624624
 10
16.5896812733206
 20
49.2603253481656
 10
16.5895434002428
 20
49.2604686132477
 10
16.5893555953212
 20
49.2606638738798
 10
16.5887395464086
 20
49.2612411273175
 10
16.5889434449366
 20
49.2612416600449
 10
16.5890369170534
 20
49.2612430435908
 10
16.5891583915154
 20
49.2612939905156
 10
16.5892815430711
 20
49.2613431567655
 10
16.5890701714999
 20
49.2615388261418
 10
16.5896426641677
 20
49.2619867310873
 10
16.5898582177102
 20
49.2621622974908
 10
16.5899165953691
 20
49.2622512806987
 10
16.5902206170367
 20
49.2628399692231
 10
16.5904416633842
 20
49.2631743938891
 10
16.5904969794408
 20
49.2632818828951
 10
16.5906168508266
 20
49.2634235269758
 10
16.5906446373412
 20
49.2634243214466
 10
16.5906672294905
 20
49.2634239335221
 10
16.590687362759
 20
49.2634233712359
 10
16.5907087846706
 20
49.2634225385185
 10
16.5907344151161
 20
49.2634229991808
 10
16.5907621356338
 20
49.2634225226293
 10
16.590788194092
 20
49.2634237372375
 10
16.5908270785744
 20
49.2634259517593
 10
16.5908864925427
 20
49.2634243758056
 10
16.5914111055809
 20
49.2634520762328
 10
16.5913536925527
 20
49.2634858139647
 10
16.5914932968597
 20
49.2635124457071
 10
16.5916538680102
 20
49.2635092678212
 97
0
 75
0
 76
1
 98
0
  0
HATCH
  5
20046
100
AcDbEntity
  8
0
100
AcDbHatch
 10
0
 20
0
 30
0
210
0
220
0
230
1
  2
SOLID
 70
1
 71
0
 91
1
 92
2
 72
0
 73
1
 93
84
 10
16.5031983860376
 20
49.2459879432652
 10
16.5033274187427
 20
49.2459228346682
 10
16.5033277217275
 20
49.2459226754669
 10
16.5033621040844
 20
49.2459145565471
 10
16.5035834054892
 20
49.2458620338384
 10
16.5037363338194
 20
49.2458498399451
 10
16.5039252646481
 20
49.2458347088389
 10
16.5040504509841
 20
49.2458041518527
 10
16.5040905600055
 20
49.2458245771541
 10
16.5040924735198
 20
49.2458255285037
 10
16.5041159563654
 20
49.2458577884133
 10
16.5041306880995
 20
49.2458779321774
 10
16.5041315073335
 20
49.2458779909108
 10
16.5041998157735
 20
49.2458801742548
 10
16.504201729292
 20
49.2458811256025
 10
16.5042190426452
 20
49.2458899656916
 10
16.5042263020573
 20
49.2458936523242
 10
16.5042314874265
 20
49.2458989995145
 10
16.5042812423161
 20
49.245950149833
 10
16.5042845302617
 20
49.2459486667631
 10
16.5043246682886
 20
49.2459309188588
 10
16.5043607907955
 20
49.2459148732417
 10
16.5043604409844
 20
49.2459144863133
 10
16.5043163298444
 20
49.245870073018
 10
16.5043060358271
 20
49.2458597459959
 10
16.5043386328233
 20
49.2458160374925
 10
16.5043527386394
 20
49.2457969660749
 10
16.5043547099889
 20
49.2457967455533
 10
16.5046144963718
 20
49.2457710430345
 10
16.5046155119476
 20
49.2457707539902
 10
16.5047116268321
 20
49.2457429971957
 10
16.5049148760845
 20
49.2456843834521
 10
16.5049307006733
 20
49.2456798187253
 10
16.5051923253441
 20
49.2455811531142
 10
16.5052372874041
 20
49.2455700831123
 10
16.5053962460747
 20
49.2455309092848
 10
16.505464704586
 20
49.2455140151043
 10
16.5055173246067
 20
49.2454835922152
 10
16.505626695579
 20
49.2454558803257
 10
16.5056733894221
 20
49.2454088398217
 10
16.5056996265157
 20
49.2453824962434
 10
16.5057036209775
 20
49.2453784403733
 10
16.5057330951922
 20
49.2453732256306
 10
16.5057585968506
 20
49.2453686307534
 10
16.5058246411348
 20
49.2453446881952
 10
16.5058468418688
 20
49.2453300867603
 10
16.5060068825163
 20
49.2454662152472
 10
16.5061956992472
 20
49.2455657785877
 10
16.5063604073683
 20
49.2456748309309
 10
16.5064425165867
 20
49.2457068595747
 10
16.5063543990271
 20
49.2454711315672
 10
16.5063409859605
 20
49.2453893873847
 10
16.5063253372536
 20
49.2452929185308
 10
16.5063248598197
 20
49.245289989518
 10
16.5063811470241
 20
49.2451169892041
 10
16.5063828033182
 20
49.2451120420308
 10
16.5063663389664
 20
49.2450477192874
 10
16.5063660638842
 20
49.2450468854104
 10
16.5063436450634
 20
49.2449421515463
 10
16.5062987753079
 20
49.2449411065911
 10
16.5062981265329
 20
49.2449425074864
 10
16.5062652254562
 20
49.245021927194
 10
16.5062494972347
 20
49.2451763045422
 10
16.5062497073513
 20
49.2452923827198
 10
16.5063094170876
 20
49.2454063027034
 10
16.5062966411147
 20
49.2454537843093
 10
16.5062350038673
 20
49.2454687253909
 10
16.5060933243155
 20
49.245403750231
 10
16.5058444826448
 20
49.2453020552528
 10
16.5056238766256
 20
49.2452959217174
 10
16.5053068220139
 20
49.245366642206
 10
16.5051396809653
 20
49.2454836602542
 10
16.5048821040362
 20
49.2455812589514
 10
16.5046763333137
 20
49.2456632120972
 10
16.5045185414304
 20
49.2456648362469
 10
16.5041766407381
 20
49.2457370293455
 10
16.5039049002899
 20
49.2457433290033
 10
16.5034164788606
 20
49.2458373101944
 10
16.5030821525603
 20
49.2458939409689
 10
16.5031537084256
 20
49.2459725273611
 10
16.5031608324984
 20
49.2459704147497
 10
16.5031713500294
 20
49.2459917943626
 10
16.5031948529303
 20
49.245988413639
 10
16.5031983860376
 20
49.2459879432652
 97
0
 75
0
 76
1
 98
0
  0
HATCH
  5
20047
100
AcDbEntity
  8
0
100
AcDbHatch
 10
0
 20
0
 30
0
210
0
220
0
230
1
  2
SOLID
 70
1
 71
0
 91
1
 92
2
 72
0
 73
1
 93
106
 10
16.5586930414761
 20
49.2455167474304
 10
16.5586207574019
 20
49.2455060818842
 10
16.5585506432843
 20
49.2454956612831
 10
16.5585224816827
 20
49.2454930225153
 10
16.5584690111565
 20
49.2454880385743
 10
16.5583854822272
 20
49.2454801902637
 10
16.5582804992585
 20
49.2454792263177
 10
16.5582100099369
 20
49.2454785479759
 10
16.5581755162939
 20
49.2454782622764
 10
16.5580803722266
 20
49.2454671442103
 10
16.5583785074622
 20
49.2449633735578
 10
16.5585013922803
 20
49.2447975461329
 10
16.5588253719902
 20
49.2443602006658
 10
16.5592898430146
 20
49.2437291539282
 10
16.5591194555775
 20
49.2435464211089
 10
16.5591179329963
 20
49.2435447749367
 10
16.5586206401782
 20
49.2438619548533
 10
16.5586195506923
 20
49.2438626913612
 10
16.5584862577948
 20
49.2438458714734
 10
16.5584880716969
 20
49.2438441010933
 10
16.558736685787
 20
49.2435942397348
 10
16.5582925933583
 20
49.2436984757787
 10
16.5580293470953
 20
49.2437603225724
 10
16.5580159800921
 20
49.2437634410237
 10
16.5580156327344
 20
49.2437638685614
 10
16.5576926686758
 20
49.244154337914
 10
16.5576914843366
 20
49.2441539821913
 10
16.557449541288
 20
49.2440801240311
 10
16.5574027311378
 20
49.2440708197377
 10
16.5573220434679
 20
49.2440766507455
 10
16.5572215059345
 20
49.2440838719123
 10
16.5571129199415
 20
49.2440405881571
 10
16.557047927406
 20
49.2440193147831
 10
16.5570624376582
 20
49.2439569389404
 10
16.5570673466569
 20
49.2439423634297
 10
16.5570678425818
 20
49.2439410419201
 10
16.5568727357736
 20
49.2439095955085
 10
16.556670858611
 20
49.2438764905354
 10
16.5564942656621
 20
49.2438475382167
 10
16.5563236716419
 20
49.2438207316285
 10
16.5563186315551
 20
49.2438194680217
 10
16.5562859609082
 20
49.2437367254061
 10
16.556218477037
 20
49.2435525440441
 10
16.556204983438
 20
49.2435148577037
 10
16.5560692872136
 20
49.243434363699
 10
16.5560188274936
 20
49.2434046271309
 10
16.5560187058087
 20
49.2434045280061
 10
16.5560111840542
 20
49.2433874387246
 10
16.5559149836117
 20
49.2431665666415
 10
16.5558505691246
 20
49.2430927788019
 10
16.5558466101682
 20
49.2430883357812
 10
16.5558184425122
 20
49.2429959635991
 10
16.5557906131164
 20
49.2429048818828
 10
16.5556901055346
 20
49.2428412767434
 10
16.5553217072528
 20
49.2426097848788
 10
16.5551910540736
 20
49.2425962244442
 10
16.5548184735398
 20
49.2425628026887
 10
16.5540954965966
 20
49.2426176619985
 10
16.5541496970358
 20
49.2423855243737
 10
16.5541031152528
 20
49.242428880302
 10
16.5540740085437
 20
49.242468506412
 10
16.5539412745945
 20
49.2426486436852
 10
16.5536524952226
 20
49.2430410873137
 10
16.553647236923
 20
49.2431267363827
 10
16.5536369255485
 20
49.2432959686538
 10
16.5536423339576
 20
49.2436000153295
 10
16.5536892237205
 20
49.2441515209224
 10
16.5537326719108
 20
49.2444727512384
 10
16.5536501428398
 20
49.2447165290474
 10
16.5536490318945
 20
49.2447198872131
 10
16.553642700352
 20
49.2449973172156
 10
16.5536401206897
 20
49.2451300134206
 10
16.5536461769995
 20
49.2451800149443
 10
16.5536565414919
 20
49.2452656013504
 10
16.5537353814502
 20
49.2455833834422
 10
16.5537669437268
 20
49.2457110046667
 10
16.5537689046436
 20
49.2457166622197
 10
16.5537752323426
 20
49.2457351138818
 10
16.5567428442866
 20
49.2478645638167
 10
16.5567473420861
 20
49.2478624418877
 10
16.5567742537599
 20
49.2478368602552
 10
16.5568684592564
 20
49.2477472350937
 10
16.5568725714124
 20
49.2477432765792
 10
16.5578039737104
 20
49.2475695457939
 10
16.5583438748177
 20
49.2474643530994
 10
16.5587921624667
 20
49.2473142810178
 10
16.5591125742989
 20
49.2470224034694
 10
16.5591298264252
 20
49.2470067168296
 10
16.5591726621779
 20
49.2469335132558
 10
16.5595340249553
 20
49.246316107649
 10
16.5597342366592
 20
49.2461156230265
 10
16.559731132567
 20
49.245988764566
 10
16.559727516145
 20
49.2458500199748
 10
16.5597267175353
 20
49.245821560141
 10
16.5596573098479
 20
49.2458052205115
 10
16.5595781717072
 20
49.2457867406732
 10
16.5594522454345
 20
49.2457571499182
 10
16.5593792402038
 20
49.2457400112009
 10
16.5593248416696
 20
49.2457214837493
 10
16.5592666614715
 20
49.2457016015119
 10
16.5592024525427
 20
49.2456797521903
 10
16.5591642143882
 20
49.2456629181772
 10
16.558984903285
 20
49.2455837548269
 10
16.5588359711316
 20
49.2455379616964
 10
16.5587689529867
 20
49.2455280330778
 10
16.5586930414761
 20
49.2455167474304
 97
0
 75
0
 76
1
 98
0
  0
HATCH
  5
20048
100
AcDbEntity
  8
0
100
AcDbHatch
 10
0
 20
0
 30
0
210
0
220
0
230
1
  2
SOLID
 70
1
 71
0
 91
1
 92
2
 72
0
 73
1
 93
131
 10
16.6095761767535
 20
49.2394353484198
 10
16.6099331624776
 20
49.2393982954257
 10
16.6099355420302
 20
49.2393713291673
 10
16.6101317368949
 20
49.2393484925036
 10
16.6102914456192
 20
49.2393299474319
 10
16.6105369828648
 20
49.2391027507492
 10
16.6105049320022
 20
49.2390851966379
 10
16.6103672408665
 20
49.2390096957327
 10
16.6103578747386
 20
49.2390045104293
 10
16.6102324597782
 20
49.2389868609337
 10
16.6101949441686
 20
49.238981492359
 10
16.6101943980052
 20
49.238981453705
 10
16.6100449160809
 20
49.2389974662075
 10
16.6092057644605
 20
49.2390876748783
 10
16.6092052035365
 20
49.239087725624
 10
16.6091250095347
 20
49.2390622409597
 10
16.6086771704897
 20
49.2389200119738
 10
16.6086742145752
 20
49.2389203454279
 10
16.6086320309775
 20
49.2389256806847
 10
16.6085226989913
 20
49.2389394681925
 10
16.6083818998802
 20
49.2389572690513
 10
16.6082458322394
 20
49.238897889784
 10
16.6077186765375
 20
49.2386680044294
 10
16.6076173984871
 20
49.2386112681579
 10
16.6073437299734
 20
49.2384340590457
 10
16.6072223027215
 20
49.2382977476355
 10
16.6071971361539
 20
49.2382694641859
 10
16.6071590284144
 20
49.2382266970857
 10
16.6069638264529
 20
49.2380076468846
 10
16.6069599628869
 20
49.2380051120985
 10
16.6069335120396
 20
49.2379879533527
 10
16.6067741357597
 20
49.2378840487047
 10
16.6067651322624
 20
49.2378683061708
 10
16.6066873149448
 20
49.2377330919019
 10
16.6066360027555
 20
49.2376439840296
 10
16.6066321392347
 20
49.2376414492324
 10
16.606524916565
 20
49.2375705425319
 10
16.6064846836937
 20
49.2375439959869
 10
16.606407816721
 20
49.2374749672295
 10
16.6062582088533
 20
49.2373403674122
 10
16.6061962648483
 20
49.2372846962909
 10
16.6061960508377
 20
49.2372843193389
 10
16.6061481172232
 20
49.2371806166825
 10
16.6059775488295
 20
49.2368116247819
 10
16.6059652188268
 20
49.2367675168075
 10
16.6059973685538
 20
49.2366723793859
 10
16.606010643988
 20
49.2366329790112
 10
16.6061791704566
 20
49.2364280151151
 10
16.606351089173
 20
49.2360904210798
 10
16.6064622094361
 20
49.2359796199914
 10
16.6066136078834
 20
49.2359159911125
 10
16.6066072292512
 20
49.2358801737345
 10
16.6066015220399
 20
49.2358486550196
 10
16.6065931549261
 20
49.2358022951555
 10
16.6065931069781
 20
49.2358017490639
 10
16.6069132802909
 20
49.2354111569029
 10
16.6070600207025
 20
49.2353138219665
 10
16.6071997397343
 20
49.2351728454057
 10
16.6072111827637
 20
49.2351612640755
 10
16.6072534540483
 20
49.2350784206948
 10
16.607275702229
 20
49.2350348617668
 10
16.6072761192447
 20
49.2350331727566
 10
16.6072871205462
 20
49.2349807675051
 10
16.6072964131485
 20
49.2349362008093
 10
16.6072968596874
 20
49.2349343329908
 10
16.6073203581766
 20
49.2349091333493
 10
16.6075056404341
 20
49.2347096962142
 10
16.6078223268615
 20
49.2345643348581
 10
16.6080556108357
 20
49.2344572976589
 10
16.6080583045125
 20
49.2344560411805
 10
16.6078906211071
 20
49.2342870589276
 10
16.6078035502003
 20
49.2342581010134
 10
16.6077564226588
 20
49.2342423727608
 10
16.6077034987289
 20
49.2342023554818
 10
16.6076481418298
 20
49.2342314500589
 10
16.607598670373
 20
49.2342575242491
 10
16.6075973825807
 20
49.2342577948665
 10
16.6075459040711
 20
49.2342692550455
 10
16.6072722908115
 20
49.2345703438692
 10
16.607040344412
 20
49.2348942814406
 10
16.6070407244732
 20
49.2348944892503
 10
16.6071011984347
 20
49.2349306093883
 10
16.6070632265581
 20
49.2349915970626
 10
16.607015497735
 20
49.2350681747523
 10
16.6069837632935
 20
49.235083022652
 10
16.6068668733767
 20
49.2351376082366
 10
16.606747279952
 20
49.2352487140486
 10
16.6063079217735
 20
49.2357203205519
 10
16.6062698256277
 20
49.2357235020812
 10
16.6061555223961
 20
49.2357331359974
 10
16.6060611233071
 20
49.2357410135756
 10
16.6060882437202
 20
49.2359824442493
 10
16.6060712494979
 20
49.2360820015144
 10
16.6060711166136
 20
49.2360828061494
 10
16.6060693599353
 20
49.2360867519776
 10
16.605963201694
 20
49.236333940146
 10
16.6059197554741
 20
49.2366530445217
 10
16.6058944568101
 20
49.236838845205
 10
16.6058578797469
 20
49.2369139511128
 10
16.6059795139366
 20
49.2371861342241
 10
16.6060439314617
 20
49.2373539570516
 10
16.6061027052585
 20
49.2375584644324
 10
16.6061210680328
 20
49.237622084381
 10
16.6061500382612
 20
49.2376499138803
 10
16.6062174068096
 20
49.2377145618022
 10
16.6062361262713
 20
49.237732530022
 10
16.6064593291312
 20
49.23794678075
 10
16.6065296837482
 20
49.2380142628977
 10
16.6067913429133
 20
49.2381863728868
 10
16.6068218455426
 20
49.2382074365173
 10
16.6068831091914
 20
49.2382496724925
 10
16.6068843416962
 20
49.2382505738022
 10
16.6069326994171
 20
49.2383299751162
 10
16.6069192322114
 20
49.2383738844537
 10
16.6068372117267
 20
49.2384071512202
 10
16.6070338748516
 20
49.2385496040016
 10
16.6070475690591
 20
49.2385595280568
 10
16.6072831343061
 20
49.2387692249701
 10
16.6073449153235
 20
49.2388250646363
 10
16.6074163205092
 20
49.2388895451652
 10
16.6083601440149
 20
49.2392404627734
 10
16.6085271560365
 20
49.2392739026468
 10
16.6086727128125
 20
49.2392816736215
 10
16.6086825622884
 20
49.2393466801193
 10
16.6087066378714
 20
49.2393347265299
 10
16.6087510175431
 20
49.2393286421822
 10
16.6088471649101
 20
49.2393302924091
 10
16.6091942171451
 20
49.2393868768821
 10
16.6093088056319
 20
49.2394249262161
 10
16.6094385426792
 20
49.2394389932682
 10
16.6095761767535
 20
49.2394353484198
 97
0
 75
0
 76
1
 98
0
  0
HATCH
  5
20049
100
AcDbEntity
  8
0
100
AcDbHatch
 10
0
 20
0
 30
0
210
0
220
0
230
1
  2
SOLID
 70
1
 71
0
 91
1
 92
2
 72
0
 73
1
 93
27
 10
16.524463840163
 20
49.2365616919366
 10
16.5250127247213
 20
49.2364919471686
 10
16.5244673231047
 20
49.236479531972
 10
16.5242989586456
 20
49.2364751780984
 10
16.5237820366444
 20
49.2365106600665
 10
16.5234068081937
 20
49.2365687597906
 10
16.5231131143418
 20
49.2366126092151
 10
16.5230641553636
 20
49.2365947234969
 10
16.5230445083074
 20
49.2365973886428
 10
16.5229884524119
 20
49.2365309607884
 10
16.5229290641186
 20
49.2364604951591
 10
16.5228813014539
 20
49.2364039779492
 10
16.5227959552908
 20
49.2363027983096
 10
16.5227600983113
 20
49.2363115405071
 10
16.5225452166459
 20
49.2363160681402
 10
16.5223425516783
 20
49.2363127852585
 10
16.5224943611609
 20
49.2364552664522
 10
16.5226430167093
 20
49.2365976121951
 10
16.5227450737502
 20
49.2366764678135
 10
16.5228514271641
 20
49.236708048601
 10
16.5229591130925
 20
49.2367117723992
 10
16.5231333096695
 20
49.2367027049948
 10
16.5231552209772
 20
49.2367286967797
 10
16.5232175157554
 20
49.2368024458173
 10
16.5235337406382
 20
49.2367618361254
 10
16.5240400096343
 20
49.2366155031117
 10
16.524463840163
 20
49.2365616919366
 97
0
 75
0
 76
1
 98
0
  0
HATCH
  5
2004A
100
AcDbEntity
  8
0
100
AcDbHatch
 10
0
 20
0
 30
0
210
0
220
0
230
1
  2
SOLID
 70
1
 71
0
 91
1
 92
2
 72
0
 73
1
 93
11
 10
16.524437943838
 20
49.2378497996532
 10
16.5239881390043
 20
49.2378555284554
 10
16.5239887469143
 20
49.2378237299913
 10
16.5239304891505
 20
49.237768000506
 10
16.523917502463
 20
49.237755583119
 10
16.5238057220141
 20
49.2377258768216
 10
16.5239842701595
 20
49.2380592391931
 10
16.5239861340484
 20
49.2379619470135
 10
16.5251373975272
 20
49.2378290874616
 10
16.5252241586426
 20
49.2378067073042
 10
16.524437943838
 20
49.2378497996532
 97
0
 75
0
 76
1
 98
0
  0
ENDSEC
  0
SECTION
  2
OBJECTS
  0
DICTIONARY
  5
C
330
0
100
AcDbDictionary
281
     1
  3
ACAD_GROUP
350
D
  3
ACAD_LAYOUT
350
1A
  3
ACAD_MLEADERSTYLE
350
43
  3
ACAD_PLOTSETTINGS
350
19
  3
ACAD_PLOTSTYLENAME
350
E
  3
ACAD_TABLESTYLE
350
42
  0
DICTIONARY
  5
D
102
{ACAD_REACTORS
330
C
102
}
330
C
100
AcDbDictionary
281
     1
  0
DICTIONARY
  5
1A
102
{ACAD_REACTORS
330
C
102
}
330
C
100
AcDbDictionary
281
     1
  3
Layout1
350
1E
  3
Model
350
22
  0
DICTIONARY
  5
43
102
{ACAD_REACTORS
330
C
102
}
330
C
100
AcDbDictionary
281
     1
  0
DICTIONARY
  5
19
102
{ACAD_REACTORS
330
C
102
}
330
C
100
AcDbDictionary
281
     1
  0
ACDBDICTIONARYWDFLT
  5
E
102
{ACAD_REACTORS
330
C
102
}
330
C
100
AcDbDictionary
281
     1
  3
Normal
350
F
100
AcDbDictionaryWithDefault
340
F
  0
DICTIONARY
  5
42
102
{ACAD_REACTORS
330
C
102
}
330
C
100
AcDbDictionary
281
     1
  0
LAYOUT
  5
1E
102
{ACAD_REACTORS
330
1A
102
}
330
1A
100
AcDbPlotSettings
  1

  2
none_device
  4

  6

 40
0.0
 41
0.0
 42
0.0
 43
0.0
 44
0.0
 45
0.0
 46
0.0
 47
0.0
 48
0.0
 49
0.0
140
0.0
141
0.0
142
1.0
143
1.0
 70
   688
 72
     0
 73
     0
 74
     5
  7

 75
    16
 76
     0
 77
     2
 78
   300
147
1.0
148
0.0
149
0.0
100
AcDbLayout
  1
Layout1
 70
     1
 71
     1
 10
0.0
 20
0.0
 11
12.0
 21
9.0
 12
0.0
 22
0.0
 32
0.0
 14
1.000000000000000E+20
 24
1.000000000000000E+20
 34
1.000000000000000E+20
 15
-1.000000000000000E+20
 25
-1.000000000000000E+20
 35
-1.000000000000000E+20
146
0.0
 13
0.0
 23
0.0
 33
0.0
 16
1.0
 26
0.0
 36
0.0
 17
0.0
 27
1.0
 37
0.0
 76
     0
330
1B
  0
LAYOUT
  5
22
102
{ACAD_REACTORS
330
1A
102
}
330
1A
100
AcDbPlotSettings
  1

  2
none_device
  4

  6

 40
0.0
 41
0.0
 42
0.0
 43
0.0
 44
0.0
 45
0.0
 46
0.0
 47
0.0
 48
0.0
 49
0.0
140
0.0
141
0.0
142
1.0
143
1.0
 70
  1712
 72
     0
 73
     0
 74
     0
  7

 75
     0
 76
     0
 77
     2
 78
   300
147
1.0
148
0.0
149
0.0
100
AcDbLayout
  1
Model
 70
     1
 71
     0
 10
0.0
 20
0.0
 11
12.0
 21
9.0
 12
0.0
 22
0.0
 32
0.0
 14
30.0
 24
49.75
 34
0.0
 15
130.5
 25
163.1318914119703
 35
0.0
146
0.0
 13
0.0
 23
0.0
 33
0.0
 16
1.0
 26
0.0
 36
0.0
 17
0.0
 27
1.0
 37
0.0
 76
     0
330
1F
331
29
  0
ENDSEC
  0
EOF
