  0
SECTION
  2
HEADER
  9
$ACADVER
  1
AC1018
  9
$ACADMAINTVER
 70
     0
  9
$DWGCODEPAGE
  3
ANSI_1252
  9
$EXTMIN
 10
-606943.199999999
 20
-1166543.0033
 30
0.0
  9
$EXTMAX
 10
-590874.344300002
 20
-1152324.8799
 30
0.0
  9
$LIMMIN
 10
0.0
 20
0.0
  9
$LIMMAX
 10
12.0
 20
9.0
  9
$ORTHOMODE
 70
     0
  9
$REGENMODE
 70
     1
  9
$FILLMODE
 70
     1
  9
$QTEXTMODE
 70
     0
  9
$MIRRTEXT
 70
     1
  9
$LTSCALE
 40
1.0
  9
$ATTMODE
 70
     1
  9
$TEXTSIZE
 40
0.2
  9
$TRACEWID
 40
0.05
  9
$TEXTSTYLE
  7
Standard
  9
$CLAYER
  8
0
  9
$CELTYPE
  6
ByLayer
  9
$CECOLOR
 62
   256
  9
$CELTSCALE
 40
1.0
  9
$DISPSILH
 70
     0
  9
$LUNITS
 70
     2
  9
$LUPREC
 70
     4
  9
$SKETCHINC
 40
0.1
  9
$FILLETRAD
 40
0.5
  9
$AUNITS
 70
     0
  9
$AUPREC
 70
     0
  9
$MENU
  1
.
  9
$ELEVATION
 40
0.0
  9
$PELEVATION
 40
0.0
  9
$THICKNESS
 40
0.0
  9
$LIMCHECK
 70
     0
  9
$CHAMFERA
 40
0.5
  9
$CHAMFERB
 40
0.5
  9
$CHAMFERC
 40
1.0
  9
$CHAMFERD
 40
0.0
  9
$SKPOLY
 70
     0
  9
$ANGBASE
 50
0.0
  9
$ANGDIR
 70
     0
  9
$PDMODE
 70
     0
  9
$PDSIZE
 40
0.0
  9
$PLINEWID
 40
0.0
  9
$SPLFRAME
 70
     0
  9
$SPLINETYPE
 70
     6
  9
$SPLINESEGS
 70
     8
  9
$HANDSEED
  5
0002000C
  9
$SURFTAB1
 70
     6
  9
$SURFTAB2
 70
     6
  9
$SURFTYPE
 70
     6
  9
$SURFU
 70
     6
  9
$SURFV
 70
     6
  9
$UCSBASE
  2

  9
$UCSNAME
  2

  9
$UCSORG
 10
0.0
 20
0.0
 30
0.0
  9
$UCSXDIR
 10
1.0
 20
0.0
 30
0.0
  9
$UCSYDIR
 10
0.0
 20
1.0
 30
0.0
  9
$UCSORTHOREF
  2

  9
$UCSORTHOVIEW
 70
     0
  9
$UCSORGTOP
 10
0.0
 20
0.0
 30
0.0
  9
$UCSORGBOTTOM
 10
0.0
 20
0.0
 30
0.0
  9
$UCSORGLEFT
 10
0.0
 20
0.0
 30
0.0
  9
$UCSORGRIGHT
 10
0.0
 20
0.0
 30
0.0
  9
$UCSORGFRONT
 10
0.0
 20
0.0
 30
0.0
  9
$UCSORGBACK
 10
0.0
 20
0.0
 30
0.0
  9
$PUCSBASE
  2

  9
$PUCSNAME
  2

  9
$PUCSORG
 10
0.0
 20
0.0
 30
0.0
  9
$PUCSXDIR
 10
1.0
 20
0.0
 30
0.0
  9
$PUCSYDIR
 10
0.0
 20
1.0
 30
0.0
  9
$PUCSORTHOREF
  2

  9
$PUCSORTHOVIEW
 70
     0
  9
$PUCSORGTOP
 10
0.0
 20
0.0
 30
0.0
  9
$PUCSORGBOTTOM
 10
0.0
 20
0.0
 30
0.0
  9
$PUCSORGLEFT
 10
0.0
 20
0.0
 30
0.0
  9
$PUCSORGRIGHT
 10
0.0
 20
0.0
 30
0.0
  9
$PUCSORGFRONT
 10
0.0
 20
0.0
 30
0.0
  9
$PUCSORGBACK
 10
0.0
 20
0.0
 30
0.0
  9
$WORLDVIEW
 70
     1
  9
$SHADEDGE
 70
     3
  9
$SHADEDIF
 70
    70
  9
$TILEMODE
 70
     1
  9
$MAXACTVP
 70
    64
  9
$PINSBASE
 10
0.0
 20
0.0
 30
0.0
  9
$PLIMCHECK
 70
     0
  9
$PEXTMIN
 10
1.000000000000000E+20
 20
1.000000000000000E+20
 30
1.000000000000000E+20
  9
$PEXTMAX
 10
-1.000000000000000E+20
 20
-1.000000000000000E+20
 30
-1.000000000000000E+20
  9
$PLIMMIN
 10
0.0
 20
0.0
  9
$PLIMMAX
 10
12.0
 20
9.0
  9
$UNITMODE
 70
     0
  9
$VISRETAIN
 70
     1
  9
$PLINEGEN
 70
     0
  9
$PSLTSCALE
 70
     1
  9
$TREEDEPTH
 70
  3020
  9
$CMLSTYLE
  2
Standard
  9
$CMLJUST
 70
     0
  9
$CMLSCALE
 40
1.0
  9
$PROXYGRAPHICS
 70
     1
  9
$MEASUREMENT
 70
     0
  9
$CELWEIGHT
370
    -1
  9
$ENDCAPS
280
     0
  9
$JOINSTYLE
280
     0
  9
$LWDISPLAY
290
     0
  9
$INSUNITS
 70
     1
  9
$HYPERLINKBASE
  1

  9
$STYLESHEET
  1

  9
$XEDIT
290
     1
  9
$CEPSNTYPE
380
     0
  9
$PSTYLEMODE
290
     1
  9
$EXTNAMES
290
     1
  9
$PSVPSCALE
 40
0.0
  9
$OLESTARTUP
290
     0
  9
$SORTENTS
280
   127
  9
$INDEXCTL
280
     0
  9
$HIDETEXT
280
     1
  9
$XCLIPFRAME
290
     0
  9
$HALOGAP
280
     0
  9
$OBSCOLOR
 70
   257
  9
$OBSLTYPE
280
     0
  9
$INTERSECTIONDISPLAY
280
     0
  9
$INTERSECTIONCOLOR
 70
   257
  9
$DIMASSOC
280
     2
  9
$PROJECTNAME
  1

  0
ENDSEC
  0
SECTION
  2
CLASSES
  0
CLASS
  1
ACDBDICTIONARYWDFLT
  2
AcDbDictionaryWithDefault
  3
ObjectDBX Classes
 90
        0
 91
        4
280
     0
281
     0
  0
ENDSEC
  0
SECTION
  2
TABLES
  0
TABLE
  2
VPORT
  5
8
330
0
100
AcDbSymbolTable
 70
     1
  0
VPORT
  5
29
330
8
100
AcDbSymbolTableRecord
100
AcDbViewportTableRecord
  2
*Active
 70
     0
 10
0.0
 20
0.0
 11
1.0
 21
1.0
 12
80.25
 22
106.4409457059851
 13
0.0
 23
0.0
 14
0.5
 24
0.5
 15
0.5
 25
0.5
 16
0.0
 26
0.0
 36
1.0
 17
0.0
 27
0.0
 37
0.0
 40
113.3818914119703
 41
0.8863849310366128
 42
50.0
 43
0.0
 44
0.0
 50
0.0
 51
0.0
 71
     0
 72
  1000
 73
     1
 74
     3
 75
     0
 76
     0
 77
     0
 78
     0
281
     0
 65
     1
110
0.0
120
0.0
130
0.0
111
1.0
121
0.0
131
0.0
112
0.0
122
1.0
132
0.0
 79
     0
146
0.0
  0
ENDTAB
  0
TABLE
  2
LTYPE
  5
5
330
0
100
AcDbSymbolTable
 70
     1
  0
LTYPE
  5
14
330
5
100
AcDbSymbolTableRecord
100
AcDbLinetypeTableRecord
  2
ByBlock
 70
     0
  3

 72
    65
 73
     0
 40
0.0
  0
LTYPE
  5
15
330
5
100
AcDbSymbolTableRecord
100
AcDbLinetypeTableRecord
  2
ByLayer
 70
     0
  3

 72
    65
 73
     0
 40
0.0
  0
LTYPE
  5
16
330
5
100
AcDbSymbolTableRecord
100
AcDbLinetypeTableRecord
  2
Continuous
 70
     0
  3
Solid line
 72
    65
 73
     0
 40
0.0
  0
ENDTAB
  0
TABLE
  2
LAYER
  5
2
330
0
100
AcDbSymbolTable
 70
     1
  0
LAYER
  5
10
330
2
100
AcDbSymbolTableRecord
100
AcDbLayerTableRecord
  2
0
 70
     0
 62
     7
  6
Continuous
370
    -3
390
F
  0
ENDTAB
  0
TABLE
  2
STYLE
  5
3
330
0
100
AcDbSymbolTable
 70
     1
  0
STYLE
  5
11
330
3
100
AcDbSymbolTableRecord
100
AcDbTextStyleTableRecord
  2
Standard
 70
     0
 40
0.0
 41
1.0
 50
0.0
 71
     0
 42
0.2
  3
txt
  4

  0
ENDTAB
  0
TABLE
  2
VIEW
  5
6
330
0
100
AcDbSymbolTable
 70
     0
  0
ENDTAB
  0
TABLE
  2
UCS
  5
7
330
0
100
AcDbSymbolTable
 70
     0
  0
ENDTAB
  0
TABLE
  2
APPID
  5
9
330
0
100
AcDbSymbolTable
 70
     1
  0
APPID
  5
12
330
9
100
AcDbSymbolTableRecord
100
AcDbRegAppTableRecord
  2
ACAD
 70
     0
  0
ENDTAB
  0
TABLE
  2
DIMSTYLE
  5
A
330
0
100
AcDbSymbolTable
 70
     1
100
AcDbDimStyleTable
  0
DIMSTYLE
105
27
330
A
100
AcDbSymbolTableRecord
100
AcDbDimStyleTableRecord
  2
Standard
 70
     0
340
11
  0
ENDTAB
  0
TABLE
  2
BLOCK_RECORD
  5
1
330
0
100
AcDbSymbolTable
 70
     1
  0
BLOCK_RECORD
  5
1F
330
1
100
AcDbSymbolTableRecord
100
AcDbBlockTableRecord
  2
*Model_Space
340
22
  0
BLOCK_RECORD
  5
1B
330
1
100
AcDbSymbolTableRecord
100
AcDbBlockTableRecord
  2
*Paper_Space
340
1E
  0
ENDTAB
  0
ENDSEC
  0
SECTION
  2
BLOCKS
  0
BLOCK
  5
20
330
1F
100
AcDbEntity
  8
0
100
AcDbBlockBegin
  2
*Model_Space
 70
     0
 10
0.0
 20
0.0
 30
0.0
  3
*Model_Space
  1

  0
ENDBLK
  5
21
330
1F
100
AcDbEntity
  8
0
100
AcDbBlockEnd
  0
BLOCK
  5
1C
330
1B
100
AcDbEntity
 67
     1
  8
0
100
AcDbBlockBegin
  2
*Paper_Space
 70
     0
 10
0.0
 20
0.0
 30
0.0
  3
*Paper_Space
  1

  0
ENDBLK
  5
1D
330
1B
100
AcDbEntity
 67
     1
  8
0
100
AcDbBlockEnd
  0
ENDSEC
  0
SECTION
  2
ENTITIES
  0
HATCH
  5
20000
100
AcDbEntity
  8
0
100
AcDbHatch
 10
0
 20
0
 30
0
210
0
220
0
230
1
  2
SOLID
 70
1
 71
0
 91
1
 92
2
 72
0
 73
1
 93
11
 10
-597652.566799998
 20
-1152327.9153
 10
-597654.583700001
 20
-1152340.1319
 10
-597656.658199999
 20
-1152363.4702
 10
-597659.8836
 20
-1152386.5388
 10
-597658.963199999
 20
-1152406.1132
 10
-597687.430300001
 20
-1152406.8047
 10
-597715.738600001
 20
-1152405.5431
 10
-597714.299899999
 20
-1152382.4988
 10
-597712.680300001
 20
-1152345.9934
 10
-597711.6844
 20
-1152324.8799
 10
-597652.566799998
 20
-1152327.9153
 97
0
 75
0
 76
1
 98
0
  0
HATCH
  5
20001
100
AcDbEntity
  8
0
100
AcDbHatch
 10
0
 20
0
 30
0
210
0
220
0
230
1
  2
SOLID
 70
1
 71
0
 91
1
 92
2
 72
0
 73
1
 93
10
 10
-601535.303199999
 20
-1157369.0549
 10
-601538.217399999
 20
-1157309.8006
 10
-601510.539999999
 20
-1157309.33
 10
-601511.059999999
 20
-1157275.63
 10
-601301.98
 20
-1157263.89
 10
-601300.876600001
 20
-1157293.9347
 10
-601277.620000001
 20
-1157292.62
 10
-601275.800000001
 20
-1157349.21
 10
-601370.23
 20
-1157357.75
 10
-601535.303199999
 20
-1157369.0549
 97
0
 75
0
 76
1
 98
0
  0
HATCH
  5
20002
100
AcDbEntity
  8
0
100
AcDbHatch
 10
0
 20
0
 30
0
210
0
220
0
230
1
  2
SOLID
 70
1
 71
0
 91
1
 92
2
 72
0
 73
1
 93
25
 10
-598673.086800002
 20
-1156205.4962
 10
-598646.533599999
 20
-1156197.2633
 10
-598646.658
 20
-1156196.7994
 10
-598620.606600001
 20
-1156190.1901
 10
-598623.411200002
 20
-1156178.178
 10
-598554.125399999
 20
-1156161.0904
 10
-598530.094799999
 20
-1156155.3176
 10
-598493.7731
 20
-1156142.3948
 10
-598480.752300002
 20
-1156137.7594
 10
-598462.343899999
 20
-1156131.4756
 10
-598451.092399999
 20
-1156149.2872
 10
-598473.737500001
 20
-1156174.4967
 10
-598497.934999999
 20
-1156195.3883
 10
-598522.811099999
 20
-1156210.0568
 10
-598546.103799999
 20
-1156228.9004
 10
-598573.924800001
 20
-1156248.6252
 10
-598590.506299999
 20
-1156272.3822
 10
-598607.4846
 20
-1156292.5117
 10
-598631.818399999
 20
-1156307.4527
 10
-598637.136500001
 20
-1156304.1984
 10
-598659.282200001
 20
-1156224.2552
 10
-598663.561799999
 20
-1156225.2474
 10
-598665.017000001
 20
-1156219.8235
 10
-598668.985800002
 20
-1156220.6834
 10
-598673.086800002
 20
-1156205.4962
 97
0
 75
0
 76
1
 98
0
  0
HATCH
  5
20003
100
AcDbEntity
  8
0
100
AcDbHatch
 10
0
 20
0
 30
0
210
0
220
0
230
1
  2
SOLID
 70
1
 71
0
 91
1
 92
2
 72
0
 73
1
 93
106
 10
-595047.254500002
 20
-1159949.1211
 10
-595038.631700002
 20
-1159953.0449
 10
-595031.961599998
 20
-1159955.8283
 10
-594991.508000001
 20
-1159972.6694
 10
-594989.3552
 20
-1159975.1113
 10
-594978.465
 20
-1159989.4359
 10
-594963.507399999
 20
-1159999.4093
 10
-594959.000500001
 20
-1160023.6574
 10
-594965.638599999
 20
-1160033.8781
 10
-594924.009
 20
-1160054.1769
 10
-594925.329999998
 20
-1160061.6879
 10
-594926.7108
 20
-1160068.5433
 10
-594926.986000001
 20
-1160070.5541
 10
-594927.552900001
 20
-1160073.4668
 10
-594929.424899999
 20
-1160083.0513
 10
-594931.4377
 20
-1160093.9687
 10
-594932.072700001
 20
-1160094.0693
 10
-594933.034600001
 20
-1160100.2251
 10
-594933.636799999
 20
-1160103.798
 10
-594933.931000002
 20
-1160105.5528
 10
-594934.250399999
 20
-1160107.4599
 10
-594934.319800001
 20
-1160107.8095
 10
-594953.5502
 20
-1160104.3442
 10
-594972.361200001
 20
-1160100.9248
 10
-594976.124600001
 20
-1160100.2342
 10
-594984.6831
 20
-1160098.538
 10
-594995.544399999
 20
-1160096.3892
 10
-595019.239
 20
-1160091.9475
 10
-595030.5244
 20
-1160089.8728
 10
-595052.5528
 20
-1160086.909
 10
-595055.8336
 20
-1160086.4645
 10
-595068.779300001
 20
-1160085.1851
 10
-595085.746399999
 20
-1160084.6083
 10
-595092.107000001
 20
-1160084.7181
 10
-595120.873599999
 20
-1160085.4121
 10
-595133.5997
 20
-1160086.0636
 10
-595146.794500001
 20
-1160087.3256
 10
-595153.871599998
 20
-1160088.0082
 10
-595157.909699999
 20
-1160088.4342
 10
-595167.744600002
 20
-1160089.5058
 10
-595168.057100002
 20
-1160089.54
 10
-595168.553599998
 20
-1160089.6088
 10
-595170.554200001
 20
-1160089.8867
 10
-595171.2766
 20
-1160089.9872
 10
-595209.481800001
 20
-1160095.3204
 10
-595225.056299999
 20
-1160099.7231
 10
-595237.830400001
 20
-1160106.5599
 10
-595259.937199999
 20
-1160122.6255
 10
-595270.125999998
 20
-1160129.8211
 10
-595274.712099999
 20
-1160133.0887
 10
-595289.4351
 20
-1160143.6969
 10
-595307.7513
 20
-1160117.4853
 10
-595313.408100002
 20
-1160109.6589
 10
-595314.821199998
 20
-1160107.7284
 10
-595316.239300001
 20
-1160105.3908
 10
-595316.688700002
 20
-1160104.6525
 10
-595322.740499999
 20
-1160081.6562
 10
-595322.918099999
 20
-1160081.6689
 10
-595323.287900001
 20
-1160080.2703
 10
-595323.710000001
 20
-1160080.3798
 10
-595323.870000001
 20
-1160079.7497
 10
-595324.890099999
 20
-1160075.93
 10
-595325.048500001
 20
-1160075.3098
 10
-595324.629099999
 20
-1160075.1968
 10
-595325.019699998
 20
-1160073.7195
 10
-595324.839699998
 20
-1160073.6699
 10
-595325.000100002
 20
-1160073.0601
 10
-595350.407400001
 20
-1159976.6487
 10
-595345.7269
 20
-1159975.4616
 10
-595345.810199998
 20
-1159974.3992
 10
-595331.120000001
 20
-1159970.4302
 10
-595336.699499998
 20
-1159950.7914
 10
-595320.809900001
 20
-1159947.1114
 10
-595318.799600001
 20
-1159946.1003
 10
-595317.070799999
 20
-1159944.48
 10
-595324.963
 20
-1159912.1868
 10
-595325.368799999
 20
-1159912.2787
 10
-595333.9901
 20
-1159913.6499
 10
-595335.936799999
 20
-1159909.6122
 10
-595344.367899999
 20
-1159891.1618
 10
-595336.7601
 20
-1159887.8393
 10
-595362.3398
 20
-1159832.5202
 10
-595356.552900001
 20
-1159828.3889
 10
-595314.0528
 20
-1159807.1981
 10
-595309.356699999
 20
-1159804.8591
 10
-595309.063999999
 20
-1159804.712
 10
-595308.806400001
 20
-1159804.5924
 10
-595307.333999999
 20
-1159803.9131
 10
-595289.021899998
 20
-1159795.4552
 10
-595279.389600001
 20
-1159791.5882
 10
-595271.231199998
 20
-1159788.8283
 10
-595260.565699998
 20
-1159799.6588
 10
-595250.585900001
 20
-1159818.6814
 10
-595246.379000001
 20
-1159829.6987
 10
-595237.038899999
 20
-1159850.7569
 10
-595227.6602
 20
-1159871.9255
 10
-595222.7641
 20
-1159882.9705
 10
-595220.495299999
 20
-1159888.6062
 10
-595211.6776
 20
-1159889.8277
 10
-595202.708700001
 20
-1159891.3182
 10
-595138.690299999
 20
-1159901.97
 10
-595126.480500001
 20
-1159905.5899
 10
-595103.670499999
 20
-1159916.2263
 10
-595070.4012
 20
-1159935.8021
 10
-595055.529599998
 20
-1159944.5433
 10
-595047.254500002
 20
-1159949.1211
 97
0
 75
0
 76
1
 98
0
  0
HATCH
  5
20004
100
AcDbEntity
  8
0
100
AcDbHatch
 10
0
 20
0
 30
0
210
0
220
0
230
1
  2
SOLID
 70
1
 71
0
 91
1
 92
2
 72
0
 73
1
 93
8
 10
-595031.151999999
 20
-1159924.2002
 10
-595032.656300001
 20
-1159928.1571
 10
-595039.8583
 20
-1159947.1878
 10
-595111.892000001
 20
-1159906.7318
 10
-595137.159699999
 20
-1159897.0903
 10
-595137.5504
 20
-1159895.3803
 10
-595099.2302
 20
-1159863.42
 10
-595031.151999999
 20
-1159924.2002
 97
0
 75
0
 76
1
 98
0
  0
HATCH
  5
20005
100
AcDbEntity
  8
0
100
AcDbHatch
 10
0
 20
0
 30
0
210
0
220
0
230
1
  2
SOLID
 70
1
 71
0
 91
1
 92
2
 72
0
 73
1
 93
17
 10
-590874.344300002
 20
-1159031.1224
 10
-591008.866700001
 20
-1159063.3355
 10
-591025.217999998
 20
-1158993.1361
 10
-591017.015900001
 20
-1158990.9136
 10
-591038.7907
 20
-1158896.893
 10
-591050.419100001
 20
-1158846.3418
 10
-591037.004700001
 20
-1158843.0239
 10
-591027.090300001
 20
-1158840.7829
 10
-590933.173599999
 20
-1158819.1399
 10
-590926.095899999
 20
-1158823.9686
 10
-590907.925099999
 20
-1158900.9031
 10
-590902.1369
 20
-1158923.4324
 10
-590899.028000001
 20
-1158935.4577
 10
-590895.151900001
 20
-1158950.4596
 10
-590889.151099999
 20
-1158973.7562
 10
-590877.9166
 20
-1159017.2718
 10
-590874.344300002
 20
-1159031.1224
 97
0
 75
0
 76
1
 98
0
  0
HATCH
  5
20006
100
AcDbEntity
  8
0
100
AcDbHatch
 10
0
 20
0
 30
0
210
0
220
0
230
1
  2
SOLID
 70
1
 71
0
 91
1
 92
2
 72
0
 73
1
 93
24
 10
-592288.57
 20
-1163373.46
 10
-592230.366999999
 20
-1163427.5512
 10
-592231.441199999
 20
-1163428.7789
 10
-592208.951499999
 20
-1163449.173
 10
-592189.8299
 20
-1163466.8675
 10
-592191.482000001
 20
-1163470.2717
 10
-592193.534499999
 20
-1163473.5257
 10
-592198.0902
 20
-1163478.9325
 10
-592219.2665
 20
-1163503.4129
 10
-592238.970199998
 20
-1163482.2712
 10
-592249.861099999
 20
-1163470.3236
 10
-592258.7577
 20
-1163460.1186
 10
-592261.52
 20
-1163457.1023
 10
-592271.527899999
 20
-1163446.4396
 10
-592279.303300001
 20
-1163438.1343
 10
-592286.557599999
 20
-1163430.3899
 10
-592294.321899999
 20
-1163422.0947
 10
-592310.684599999
 20
-1163404.6151
 10
-592300.7062
 20
-1163394.2776
 10
-592294.790100001
 20
-1163387.1567
 10
-592300.716800001
 20
-1163382.5371
 10
-592298.838199999
 20
-1163380.4469
 10
-592297.012600001
 20
-1163382.0608
 10
-592288.57
 20
-1163373.46
 97
0
 75
0
 76
1
 98
0
  0
HATCH
  5
20007
100
AcDbEntity
  8
0
100
AcDbHatch
 10
0
 20
0
 30
0
210
0
220
0
230
1
  2
SOLID
 70
1
 71
0
 91
1
 92
2
 72
0
 73
1
 93
22
 10
-594306.787599999
 20
-1166461.8356
 10
-594303.992600001
 20
-1166454.3023
 10
-594298.856600001
 20
-1166440.43
 10
-594297.718899999
 20
-1166437.4445
 10
-594289.684599999
 20
-1166416.8292
 10
-594288.052999999
 20
-1166412.7969
 10
-594284.798599999
 20
-1166414.4109
 10
-594282.417399999
 20
-1166414.5697
 10
-594282.4703
 20
-1166419.3322
 10
-594264.790800001
 20
-1166426.8446
 10
-594256.959100001
 20
-1166408.0485
 10
-594129.960499998
 20
-1166462.0174
 10
-594112.2293
 20
-1166539.987
 10
-594114.801100001
 20
-1166543.0033
 10
-594123.573600002
 20
-1166538.9615
 10
-594133.7498
 20
-1166534.254
 10
-594153.120499998
 20
-1166525.3151
 10
-594164.896600001
 20
-1166519.9445
 10
-594167.307500001
 20
-1166525.7146
 10
-594204.5524
 20
-1166505.8306
 10
-594242.017499998
 20
-1166486.2117
 10
-594306.787599999
 20
-1166461.8356
 97
0
 75
0
 76
1
 98
0
  0
HATCH
  5
20008
100
AcDbEntity
  8
0
100
AcDbHatch
 10
0
 20
0
 30
0
210
0
220
0
230
1
  2
SOLID
 70
1
 71
0
 91
1
 92
2
 72
0
 73
1
 93
46
 10
-599343.803599998
 20
-1153989.9166
 10
-599346.296
 20
-1153987.948
 10
-599352.857700001
 20
-1153980.4868
 10
-599356.991799999
 20
-1153981.7681
 10
-599361.437600002
 20
-1153979.1755
 10
-599374.2645
 20
-1153971.4686
 10
-599365.963599999
 20
-1153903.3627
 10
-599345.169300001
 20
-1153885.9121
 10
-599322.482299998
 20
-1153878.4144
 10
-599321.932
 20
-1153878.2874
 10
-599315.1428
 20
-1153878.3509
 10
-599306.096099999
 20
-1153878.2478
 10
-599267.088100001
 20
-1153893.8825
 10
-599264.826400001
 20
-1153894.9372
 10
-599237.662099998
 20
-1153904.9511
 10
-599227.228500001
 20
-1153909.5925
 10
-599222.7597
 20
-1153910.8757
 10
-599221.0108
 20
-1153920.7738
 10
-599220.832699999
 20
-1153928.294
 10
-599215.930799998
 20
-1153933.4738
 10
-599203.500599999
 20
-1153951.873
 10
-599188.7038
 20
-1153982.2565
 10
-599186.735300001
 20
-1153985.9903
 10
-599175.280400001
 20
-1154007.6253
 10
-599169.0097
 20
-1154019.4173
 10
-599172.401299998
 20
-1154058.8361
 10
-599172.517200001
 20
-1154059.1395
 10
-599203.693599999
 20
-1154047.3214
 10
-599213.1752
 20
-1154043.7322
 10
-599218.245499998
 20
-1154041.8232
 10
-599225.274500001
 20
-1154039.0747
 10
-599233.199299999
 20
-1154035.9791
 10
-599249.971299998
 20
-1154029.4191
 10
-599250.423799999
 20
-1154029.173
 10
-599280.693300001
 20
-1154017.136
 10
-599283.489
 20
-1154016.0287
 10
-599286.380800001
 20
-1154014.942
 10
-599290.058499999
 20
-1154013.553
 10
-599300.331
 20
-1154009.6901
 10
-599314.531199999
 20
-1154004.3719
 10
-599328.317600001
 20
-1153997.8911
 10
-599330.497200001
 20
-1153996.8743
 10
-599332.711100001
 20
-1153995.7696
 10
-599337.2315
 20
-1153993.4876
 10
-599340.655200001
 20
-1153991.7413
 10
-599343.803599998
 20
-1153989.9166
 97
0
 75
0
 76
1
 98
0
  0
HATCH
  5
20009
100
AcDbEntity
  8
0
100
AcDbHatch
 10
0
 20
0
 30
0
210
0
220
0
230
1
  2
SOLID
 70
1
 71
0
 91
1
 92
2
 72
0
 73
1
 93
17
 10
-606864.836800002
 20
-1158746.9889
 10
-606824.969900001
 20
-1158743.17
 10
-606814.940000001
 20
-1158746.12
 10
-606789.260000002
 20
-1158753.6
 10
-606790.841699999
 20
-1158758.2683
 10
-606793.699999999
 20
-1158767.31
 10
-606797.9586
 20
-1158780.3112
 10
-606831.93
 20
-1158888.11
 10
-606891.659899998
 20
-1158910.02
 10
-606896.98
 20
-1158908
 10
-606900.890000001
 20
-1158909.31
 10
-606904.870000001
 20
-1158909.68
 10
-606905.530000001
 20
-1158910.12
 10
-606942.98
 20
-1158923.5
 10
-606943.199999999
 20
-1158923.36
 10
-606890.84
 20
-1158749.25
 10
-606864.836800002
 20
-1158746.9889
 97
0
 75
0
 76
1
 98
0
  0
HATCH
  5
2000A
100
AcDbEntity
  8
0
100
AcDbHatch
 10
0
 20
0
 30
0
210
0
220
0
230
1
  2
SOLID
 70
1
 71
0
 91
1
 92
2
 72
0
 73
1
 93
22
 10
-596618.218400002
 20
-1153444.2508
 10
-596625.004999999
 20
-1153427.1337
 10
-596632.733899999
 20
-1153407.9493
 10
-596637.364999998
 20
-1153409.8424
 10
-596649.092099998
 20
-1153382.8958
 10
-596660.685800001
 20
-1153355.8968
 10
-596655.064100001
 20
-1153346.6457
 10
-596650.918499999
 20
-1153340.3724
 10
-596640.476199999
 20
-1153326.4361
 10
-596630.2744
 20
-1153313.347
 10
-596610.362799998
 20
-1153350.3804
 10
-596573.382199999
 20
-1153420.2548
 10
-596557.764199998
 20
-1153449.6946
 10
-596554.6822
 20
-1153455.7996
 10
-596540.238400001
 20
-1153482.7811
 10
-596563.634500001
 20
-1153495.3091
 10
-596572.303599998
 20
-1153499.9492
 10
-596575.8323
 20
-1153501.8544
 10
-596584.888
 20
-1153506.8024
 10
-596600.874899998
 20
-1153477.5154
 10
-596603.565299999
 20
-1153472.4447
 10
-596618.218400002
 20
-1153444.2508
 97
0
 75
0
 76
1
 98
0
  0
HATCH
  5
2000B
100
AcDbEntity
  8
0
100
AcDbHatch
 10
0
 20
0
 30
0
210
0
220
0
230
1
  2
SOLID
 70
1
 71
0
 91
1
 92
2
 72
0
 73
1
 93
871
 10
-599743.670000002
 20
-1163093.45
 10
-599742.25
 20
-1163093.7199
 10
-599693.57
 20
-1163102.95
 10
-599677.079999998
 20
-1163106.28
 10
-599665.379999999
 20
-1163108.8
 10
-599665.32
 20
-1163108.5
 10
-599654.899999999
 20
-1163110.52
 10
-599649.010000002
 20
-1163111.7
 10
-599648.350000001
 20
-1163109.12
 10
-599647.190000001
 20
-1163106.63
 10
-599645.760000002
 20
-1163104.49
 10
-599644.159899998
 20
-1163102.82
 10
-599642.370000001
 20
-1163101.34
 10
-599640.140000001
 20
-1163100.09
 10
-599638.07
 20
-1163099.15
 10
-599635.719900001
 20
-1163098.59
 10
-599633.409899998
 20
-1163098.4699
 10
-599631.02
 20
-1163098.77
 10
-599610.870000001
 20
-1163102.58
 10
-599594.75
 20
-1163105.79
 10
-599577.359999999
 20
-1163109.36
 10
-599577.289999999
 20
-1163109.02
 10
-599576.699999999
 20
-1163109.13
 10
-599576.73
 20
-1163109.28
 10
-599574.32
 20
-1163109.75
 10
-599574.289999999
 20
-1163109.6
 10
-599573.710000001
 20
-1163109.71
 10
-599573.73
 20
-1163109.86
 10
-599571.329999998
 20
-1163110.32
 10
-599571.300000001
 20
-1163110.18
 10
-599570.710000001
 20
-1163110.29
 10
-599570.739999998
 20
-1163110.44
 10
-599568.329999998
 20
-1163110.9
 10
-599568.300000001
 20
-1163110.75
 10
-599567.719900001
 20
-1163110.87
 10
-599567.739999998
 20
-1163111.01
 10
-599565.34
 20
-1163111.48
 10
-599565.309999999
 20
-1163111.33
 10
-599564.719900001
 20
-1163111.45
 10
-599564.75
 20
-1163111.59
 10
-599562.399999999
 20
-1163112.05
 10
-599562.370000001
 20
-1163111.9
 10
-599561.780000001
 20
-1163112.01
 10
-599561.809999999
 20
-1163112.1599
 10
-599555.75
 20
-1163113.32
 10
-599555.719900001
 20
-1163113.17
 10
-599555.129999999
 20
-1163113.28
 10
-599555.159899998
 20
-1163113.42
 10
-599545.75
 20
-1163115.11
 10
-599539.129999999
 20
-1163116.37
 10
-599531.800000001
 20
-1163117.76
 10
-599513.690000001
 20
-1163121.2199
 10
-599513.659899998
 20
-1163121.07
 10
-599511.739999998
 20
-1163121.44
 10
-599511.77
 20
-1163121.59
 10
-599508.420000002
 20
-1163122.24
 10
-599508.390000001
 20
-1163122.09
 10
-599506.510000002
 20
-1163122.43
 10
-599506.550000001
 20
-1163122.63
 10
-599506.350000001
 20
-1163122.6599
 10
-599506.379999999
 20
-1163122.81
 10
-599503.920000002
 20
-1163123.29
 10
-599503.890000001
 20
-1163123.15
 10
-599503.300000001
 20
-1163123.26
 10
-599503.329999998
 20
-1163123.4099
 10
-599500.879999999
 20
-1163123.89
 10
-599500.859999999
 20
-1163123.74
 10
-599500.27
 20
-1163123.86
 10
-599500.300000001
 20
-1163124.01
 10
-599497.850000001
 20
-1163124.49
 10
-599497.82
 20
-1163124.34
 10
-599497.23
 20
-1163124.45
 10
-599497.260000002
 20
-1163124.6
 10
-599494.82
 20
-1163125.08
 10
-599494.789999999
 20
-1163124.94
 10
-599494.199999999
 20
-1163125.06
 10
-599494.23
 20
-1163125.2
 10
-599491.789999999
 20
-1163125.68
 10
-599491.760000002
 20
-1163125.53
 10
-599491.170000002
 20
-1163125.64
 10
-599491.199999999
 20
-1163125.79
 10
-599488.48
 20
-1163126.32
 10
-599488.43
 20
-1163126.18
 10
-599487.84
 20
-1163126.29
 10
-599487.870000001
 20
-1163126.44
 10
-599485.129999999
 20
-1163126.9699
 10
-599485.100000001
 20
-1163126.82
 10
-599484.510000002
 20
-1163126.94
 10
-599484.539999999
 20
-1163127.09
 10
-599481.800000001
 20
-1163127.62
 10
-599481.780000001
 20
-1163127.4699
 10
-599481.190000001
 20
-1163127.59
 10
-599481.219900001
 20
-1163127.73
 10
-599478.48
 20
-1163128.26
 10
-599478.449999999
 20
-1163128.12
 10
-599477.859999999
 20
-1163128.23
 10
-599477.890000001
 20
-1163128.38
 10
-599475.149999999
 20
-1163128.9099
 10
-599475.120000001
 20
-1163128.76
 10
-599474.530000001
 20
-1163128.88
 10
-599474.559999999
 20
-1163129.03
 10
-599471.829999998
 20
-1163129.56
 10
-599471.800000001
 20
-1163129.4099
 10
-599471.210000001
 20
-1163129.52
 10
-599471.239999998
 20
-1163129.67
 10
-599468.449999999
 20
-1163130.21
 10
-599468.420000002
 20
-1163130.06
 10
-599467.829999998
 20
-1163130.17
 10
-599467.859999999
 20
-1163130.32
 10
-599465.07
 20
-1163130.86
 10
-599465.039999999
 20
-1163130.71
 10
-599464.449999999
 20
-1163130.83
 10
-599464.48
 20
-1163130.9699
 10
-599461.690000001
 20
-1163131.51
 10
-599461.670000002
 20
-1163131.37
 10
-599461.079999998
 20
-1163131.48
 10
-599461.109999999
 20
-1163131.63
 10
-599458.32
 20
-1163132.17
 10
-599458.289999999
 20
-1163132.02
 10
-599457.699999999
 20
-1163132.13
 10
-599457.73
 20
-1163132.28
 10
-599454.940000001
 20
-1163132.82
 10
-599454.909899998
 20
-1163132.67
 10
-599454.32
 20
-1163132.78
 10
-599454.350000001
 20
-1163132.93
 10
-599451.550000001
 20
-1163133.48
 10
-599451.489999998
 20
-1163133.18
 10
-599450.899999999
 20
-1163133.29
 10
-599450.93
 20
-1163133.44
 10
-599448.199999999
 20
-1163133.9699
 10
-599448.170000002
 20
-1163133.82
 10
-599447.579999998
 20
-1163133.94
 10
-599447.609999999
 20
-1163134.08
 10
-599444.879999999
 20
-1163134.61
 10
-599444.850000001
 20
-1163134.46
 10
-599444.260000002
 20
-1163134.58
 10
-599444.289999999
 20
-1163134.7199
 10
-599441.559999999
 20
-1163135.25
 10
-599441.530000001
 20
-1163135.11
 10
-599440.940000001
 20
-1163135.2199
 10
-599441.07
 20
-1163135.9099
 10
-599440.969900001
 20
-1163135.93
 10
-599440.940000001
 20
-1163135.78
 10
-599440.359999999
 20
-1163135.9
 10
-599440.390000001
 20
-1163136.05
 10
-599437.93
 20
-1163136.56
 10
-599437.899999999
 20
-1163136.4099
 10
-599437.379999999
 20
-1163136.52
 10
-599437.309999999
 20
-1163136.53
 10
-599437.34
 20
-1163136.68
 10
-599436.43
 20
-1163136.87
 10
-599436.399999999
 20
-1163136.7199
 10
-599435.809999999
 20
-1163136.84
 10
-599435.84
 20
-1163136.99
 10
-599431.52
 20
-1163137.8
 10
-599431.489999998
 20
-1163137.65
 10
-599430.909899998
 20
-1163137.77
 10
-599430.940000001
 20
-1163137.92
 10
-599428.859999999
 20
-1163138.34
 10
-599428.829999998
 20
-1163138.19
 10
-599428.239999998
 20
-1163138.31
 10
-599428.27
 20
-1163138.46
 10
-599426.18
 20
-1163138.88
 10
-599426.149999999
 20
-1163138.74
 10
-599425.57
 20
-1163138.86
 10
-599425.600000001
 20
-1163139
 10
-599425.449999999
 20
-1163139.03
 10
-599425.280000001
 20
-1163138.2
 10
-599424.690000001
 20
-1163138.32
 10
-599424.719900001
 20
-1163138.4699
 10
-599421.920000002
 20
-1163139.04
 10
-599421.890000001
 20
-1163138.89
 10
-599421.300000001
 20
-1163139.01
 10
-599421.329999998
 20
-1163139.1599
 10
-599418.530000001
 20
-1163139.73
 10
-599418.5
 20
-1163139.58
 10
-599417.909899998
 20
-1163139.7
 10
-599417.940000001
 20
-1163139.85
 10
-599415.140000001
 20
-1163140.42
 10
-599415.109999999
 20
-1163140.27
 10
-599414.52
 20
-1163140.39
 10
-599414.550000001
 20
-1163140.54
 10
-599411.75
 20
-1163141.11
 10
-599411.719900001
 20
-1163140.96
 10
-599411.129999999
 20
-1163141.08
 10
-599411.159899998
 20
-1163141.2199
 10
-599408.370000001
 20
-1163141.77
 10
-599408.34
 20
-1163141.62
 10
-599407.75
 20
-1163141.74
 10
-599407.780000001
 20
-1163141.88
 10
-599405
 20
-1163142.43
 10
-599404.969900001
 20
-1163142.28
 10
-599404.379999999
 20
-1163142.39
 10
-599404.409899998
 20
-1163142.54
 10
-599401.620000001
 20
-1163143.09
 10
-599401.59
 20
-1163142.94
 10
-599401
 20
-1163143.05
 10
-599401.030000001
 20
-1163143.2
 10
-599398.23
 20
-1163143.75
 10
-599398.199999999
 20
-1163143.6
 10
-599397.609999999
 20
-1163143.71
 10
-599397.640000001
 20
-1163143.86
 10
-599394.859999999
 20
-1163144.4
 10
-599394.829999998
 20
-1163144.25
 10
-599394.239999998
 20
-1163144.36
 10
-599394.27
 20
-1163144.51
 10
-599391.489999998
 20
-1163145.05
 10
-599391.460000001
 20
-1163144.9
 10
-599390.879999999
 20
-1163145.02
 10
-599390.899999999
 20
-1163145.1599
 10
-599388.120000001
 20
-1163145.7
 10
-599388.100000001
 20
-1163145.55
 10
-599387.510000002
 20
-1163145.67
 10
-599387.539999999
 20
-1163145.81
 10
-599384.760000002
 20
-1163146.35
 10
-599384.73
 20
-1163146.2
 10
-599384.140000001
 20
-1163146.32
 10
-599384.170000002
 20
-1163146.4699
 10
-599381.100000001
 20
-1163147.06
 10
-599381.07
 20
-1163146.9099
 10
-599380.48
 20
-1163147.02
 10
-599380.510000002
 20
-1163147.17
 10
-599378
 20
-1163147.6599
 10
-599377.969900001
 20
-1163147.51
 10
-599377.379999999
 20
-1163147.62
 10
-599377.409899998
 20
-1163147.77
 10
-599374.659899998
 20
-1163148.3
 10
-599374.629999999
 20
-1163148.1599
 10
-599374.039999999
 20
-1163148.27
 10
-599374.07
 20
-1163148.42
 10
-599371.32
 20
-1163148.95
 10
-599371.289999999
 20
-1163148.8
 10
-599370.699999999
 20
-1163148.92
 10
-599370.73
 20
-1163149.07
 10
-599367.98
 20
-1163149.6
 10
-599367.949999999
 20
-1163149.45
 10
-599367.370000001
 20
-1163149.57
 10
-599367.390000001
 20
-1163149.71
 10
-599364.649999999
 20
-1163150.24
 10
-599364.620000001
 20
-1163150.1
 10
-599364.030000001
 20
-1163150.21
 10
-599364.059999999
 20
-1163150.36
 10
-599361.280000001
 20
-1163150.9
 10
-599361.25
 20
-1163150.75
 10
-599360.659899998
 20
-1163150.86
 10
-599360.690000001
 20
-1163151.01
 10
-599357.949999999
 20
-1163151.54
 10
-599357.920000002
 20
-1163151.39
 10
-599357.329999998
 20
-1163151.5
 10
-599357.359999999
 20
-1163151.65
 10
-599354.620000001
 20
-1163152.18
 10
-599354.59
 20
-1163152.03
 10
-599354
 20
-1163152.14
 10
-599354.030000001
 20
-1163152.29
 10
-599351.289999999
 20
-1163152.81
 10
-599351.260000002
 20
-1163152.67
 10
-599350.670000002
 20
-1163152.78
 10
-599350.699999999
 20
-1163152.93
 10
-599347.940000001
 20
-1163153.46
 10
-599347.909899998
 20
-1163153.31
 10
-599347.32
 20
-1163153.43
 10
-599347.350000001
 20
-1163153.58
 10
-599344.59
 20
-1163154.13
 10
-599344.559999999
 20
-1163153.98
 10
-599343.969900001
 20
-1163154.1
 10
-599344
 20
-1163154.24
 10
-599341.23
 20
-1163154.8
 10
-599341.199999999
 20
-1163154.65
 10
-599340.609999999
 20
-1163154.76
 10
-599340.640000001
 20
-1163154.9099
 10
-599337.890000001
 20
-1163155.4099
 10
-599337.859999999
 20
-1163155.26
 10
-599337.27
 20
-1163155.37
 10
-599337.300000001
 20
-1163155.52
 10
-599334.57
 20
-1163156.02
 10
-599334.539999999
 20
-1163155.87
 10
-599333.949999999
 20
-1163155.99
 10
-599333.98
 20
-1163156.13
 10
-599331.260000002
 20
-1163156.6599
 10
-599331.23
 20
-1163156.51
 10
-599330.640000001
 20
-1163156.63
 10
-599330.670000002
 20
-1163156.78
 10
-599327.949999999
 20
-1163157.31
 10
-599327.920000002
 20
-1163157.1599
 10
-599327.329999998
 20
-1163157.27
 10
-599327.359999999
 20
-1163157.42
 10
-599324.609999999
 20
-1163157.96
 10
-599324.579999998
 20
-1163157.81
 10
-599323.989999998
 20
-1163157.93
 10
-599324.02
 20
-1163158.07
 10
-599321.280000001
 20
-1163158.61
 10
-599321.25
 20
-1163158.46
 10
-599320.659899998
 20
-1163158.57
 10
-599320.690000001
 20
-1163158.7199
 10
-599317.920000002
 20
-1163159.26
 10
-599317.890000001
 20
-1163159.11
 10
-599317.300000001
 20
-1163159.23
 10
-599317.329999998
 20
-1163159.37
 10
-599314.57
 20
-1163159.9099
 10
-599314.539999999
 20
-1163159.76
 10
-599313.949999999
 20
-1163159.87
 10
-599313.98
 20
-1163160.02
 10
-599311.239999998
 20
-1163160.52
 10
-599311.219900001
 20
-1163160.38
 10
-599310.620000001
 20
-1163160.48
 10
-599310.649999999
 20
-1163160.63
 10
-599307.920000002
 20
-1163161.14
 10
-599307.890000001
 20
-1163160.99
 10
-599307.300000001
 20
-1163161.1
 10
-599307.329999998
 20
-1163161.25
 10
-599304.559999999
 20
-1163161.76
 10
-599304.539999999
 20
-1163161.62
 10
-599303.949999999
 20
-1163161.73
 10
-599303.98
 20
-1163161.87
 10
-599301.210000001
 20
-1163162.39
 10
-599301.18
 20
-1163162.24
 10
-599300.59
 20
-1163162.36
 10
-599300.620000001
 20
-1163162.51
 10
-599297.73
 20
-1163163.09
 10
-599297.699999999
 20
-1163162.94
 10
-599297.109999999
 20
-1163163.06
 10
-599297.140000001
 20
-1163163.2
 10
-599294.25
 20
-1163163.78
 10
-599294.219900001
 20
-1163163.63
 10
-599293.629999999
 20
-1163163.75
 10
-599293.659899998
 20
-1163163.9
 10
-599290.75
 20
-1163164.48
 10
-599290.719900001
 20
-1163164.33
 10
-599290.129999999
 20
-1163164.44
 10
-599290.159899998
 20
-1163164.59
 10
-599287.210000001
 20
-1163165.1599
 10
-599287.18
 20
-1163165.01
 10
-599286.600000001
 20
-1163165.13
 10
-599286.620000001
 20
-1163165.27
 10
-599283.68
 20
-1163165.84
 10
-599283.649999999
 20
-1163165.7
 10
-599283.059999999
 20
-1163165.81
 10
-599283.09
 20
-1163165.96
 10
-599280.129999999
 20
-1163166.53
 10
-599280.100000001
 20
-1163166.38
 10
-599279.510000002
 20
-1163166.5
 10
-599279.539999999
 20
-1163166.64
 10
-599276.600000001
 20
-1163167.21
 10
-599276.57
 20
-1163167.06
 10
-599275.98
 20
-1163167.17
 10
-599276.010000002
 20
-1163167.32
 10
-599273.07
 20
-1163167.88
 10
-599273.050000001
 20
-1163167.74
 10
-599272.460000001
 20
-1163167.85
 10
-599272.48
 20
-1163168
 10
-599269.550000001
 20
-1163168.56
 10
-599269.52
 20
-1163168.42
 10
-599268.93
 20
-1163168.53
 10
-599268.960000001
 20
-1163168.68
 10
-599266.02
 20
-1163169.24
 10
-599265.989999998
 20
-1163169.1
 10
-599265.399999999
 20
-1163169.21
 10
-599265.43
 20
-1163169.36
 10
-599262.510000002
 20
-1163169.92
 10
-599262.48
 20
-1163169.77
 10
-599261.890000001
 20
-1163169.88
 10
-599261.920000002
 20
-1163170.03
 10
-599259.260000002
 20
-1163170.52
 10
-599259.23
 20
-1163170.37
 10
-599258.640000001
 20
-1163170.48
 10
-599258.670000002
 20
-1163170.63
 10
-599257.640000001
 20
-1163170.82
 10
-599256.640000001
 20
-1163171.01
 10
-599256.02
 20
-1163171.12
 10
-599255.989999998
 20
-1163170.98
 10
-599255.399999999
 20
-1163171.09
 10
-599255.43
 20
-1163171.24
 10
-599252.780000001
 20
-1163171.75
 10
-599252.75
 20
-1163171.6
 10
-599252.159899998
 20
-1163171.7199
 10
-599252.190000001
 20
-1163171.87
 10
-599249.539999999
 20
-1163172.38
 10
-599249.510000002
 20
-1163172.23
 10
-599248.920000002
 20
-1163172.35
 10
-599248.949999999
 20
-1163172.49
 10
-599246.579999998
 20
-1163172.95
 10
-599246.239999998
 20
-1163173.02
 10
-599246.210000001
 20
-1163172.87
 10
-599245.649999999
 20
-1163172.96
 10
-599245.409899998
 20
-1163173.3
 10
-599245.530000001
 20
-1163173.39
 10
-599245.07
 20
-1163173.9699
 10
-599244.870000001
 20
-1163173.82
 10
-599244.440000001
 20
-1163174.39
 10
-599244.68
 20
-1163174.56
 10
-599242.379999999
 20
-1163177.2
 10
-599242.170000002
 20
-1163176.99
 10
-599241.649999999
 20
-1163177.51
 10
-599241.899999999
 20
-1163177.76
 10
-599241.440000001
 20
-1163178.27
 10
-599241.300000001
 20
-1163178.13
 10
-599240.989999998
 20
-1163178.43
 10
-599240.969900001
 20
-1163178.9099
 10
-599241.170000002
 20
-1163178.92
 10
-599241.16
 20
-1163179.24
 10
-599241.140000001
 20
-1163180.17
 10
-599240.940000001
 20
-1163180.1599
 10
-599240.909899998
 20
-1163180.76
 10
-599241.109999999
 20
-1163180.77
 10
-599240.98
 20
-1163183.03
 10
-599240.940000001
 20
-1163183.81
 10
-599240.739999998
 20
-1163183.8
 10
-599240.710000001
 20
-1163184.4
 10
-599240.909899998
 20
-1163184.4099
 10
-599240.75
 20
-1163187.46
 10
-599240.550000001
 20
-1163187.45
 10
-599240.510000002
 20
-1163188.05
 10
-599240.710000001
 20
-1163188.06
 10
-599240.550000001
 20
-1163191.09
 10
-599240.350000001
 20
-1163191.08
 10
-599240.32
 20
-1163191.68
 10
-599240.52
 20
-1163191.69
 10
-599240.329999998
 20
-1163194.78
 10
-599240.159899998
 20
-1163194.78
 10
-599240.129999999
 20
-1163195.38
 10
-599240.32
 20
-1163195.39
 10
-599240.159899998
 20
-1163198.42
 10
-599239.960000001
 20
-1163198.4099
 10
-599239.93
 20
-1163199.01
 10
-599240.129999999
 20
-1163199.02
 10
-599239.93
 20
-1163202.14
 10
-599239.75
 20
-1163202.12
 10
-599239.719900001
 20
-1163202.73
 10
-599239.920000002
 20
-1163202.74
 10
-599239.719900001
 20
-1163205.77
 10
-599239.52
 20
-1163205.76
 10
-599239.48
 20
-1163206.36
 10
-599239.68
 20
-1163206.37
 10
-599239.530000001
 20
-1163208.49
 10
-599239.460000001
 20
-1163209.42
 10
-599239.25
 20
-1163209.4
 10
-599239.210000001
 20
-1163209.99
 10
-599239.409899998
 20
-1163209.99
 10
-599239.300000001
 20
-1163213.03
 10
-599239.100000001
 20
-1163213.02
 10
-599239.07
 20
-1163213.62
 10
-599239.27
 20
-1163213.63
 10
-599239.129999999
 20
-1163216.8
 10
-599238.940000001
 20
-1163216.78
 10
-599238.899999999
 20
-1163217.39
 10
-599239.100000001
 20
-1163217.4
 10
-599238.940000001
 20
-1163220.43
 10
-599238.739999998
 20
-1163220.42
 10
-599238.699999999
 20
-1163221.02
 10
-599238.909899998
 20
-1163221.03
 10
-599238.710000001
 20
-1163224.1599
 10
-599238.510000002
 20
-1163224.15
 10
-599238.469900001
 20
-1163224.75
 10
-599238.670000002
 20
-1163224.76
 10
-599238.510000002
 20
-1163227.8
 10
-599238.309999999
 20
-1163227.78
 10
-599238.27
 20
-1163228.38
 10
-599238.469900001
 20
-1163228.39
 10
-599238.280000001
 20
-1163231.56
 10
-599238.079999998
 20
-1163231.54
 10
-599238.039999999
 20
-1163232.14
 10
-599238.239999998
 20
-1163232.15
 10
-599238.109999999
 20
-1163235.2199
 10
-599237.909899998
 20
-1163235.21
 10
-599237.879999999
 20
-1163235.81
 10
-599238.07
 20
-1163235.82
 10
-599237.940000001
 20
-1163238.19
 10
-599237.899999999
 20
-1163238.88
 10
-599237.699999999
 20
-1163238.87
 10
-599237.670000002
 20
-1163239.4699
 10
-599237.870000001
 20
-1163239.48
 10
-599237.699999999
 20
-1163242.56
 10
-599237.5
 20
-1163242.55
 10
-599237.469900001
 20
-1163243.15
 10
-599237.670000002
 20
-1163243.1599
 10
-599237.5
 20
-1163246.2199
 10
-599237.300000001
 20
-1163246.21
 10
-599237.27
 20
-1163246.81
 10
-599237.469900001
 20
-1163246.82
 10
-599237.32
 20
-1163249.92
 10
-599237.120000001
 20
-1163249.9099
 10
-599237.09
 20
-1163250.51
 10
-599237.289999999
 20
-1163250.52
 10
-599237.129999999
 20
-1163253.59
 10
-599236.93
 20
-1163253.58
 10
-599236.899999999
 20
-1163254.18
 10
-599237.100000001
 20
-1163254.19
 10
-599237
 20
-1163256.1599
 10
-599236.800000001
 20
-1163256.15
 10
-599236.760000002
 20
-1163256.85
 10
-599236.960000001
 20
-1163256.86
 10
-599236.809999999
 20
-1163259.76
 10
-599236.609999999
 20
-1163259.75
 10
-599236.57
 20
-1163260.45
 10
-599236.77
 20
-1163260.46
 10
-599236.609999999
 20
-1163263.35
 10
-599236.409899998
 20
-1163263.34
 10
-599236.370000001
 20
-1163264.04
 10
-599236.57
 20
-1163264.05
 10
-599236.399999999
 20
-1163267.25
 10
-599235.699999999
 20
-1163267.21
 10
-599235.449999999
 20
-1163270.69
 10
-599236.149999999
 20
-1163270.73
 10
-599235.98
 20
-1163273.61
 10
-599235.780000001
 20
-1163273.6
 10
-599235.75
 20
-1163274.19
 10
-599235.940000001
 20
-1163274.21
 10
-599235.909899998
 20
-1163274.81
 10
-599235.710000001
 20
-1163274.79
 10
-599235.670000002
 20
-1163275.39
 10
-599235.870000001
 20
-1163275.4
 10
-599235.800000001
 20
-1163276.6
 10
-599235.600000001
 20
-1163276.59
 10
-599235.57
 20
-1163277.19
 10
-599235.77
 20
-1163277.2
 10
-599235.719900001
 20
-1163278
 10
-599235.52
 20
-1163277.99
 10
-599235.489999998
 20
-1163278.59
 10
-599235.690000001
 20
-1163278.6
 10
-599235.510000002
 20
-1163281.55
 10
-599234.48
 20
-1163281.4699
 10
-599234.039999999
 20
-1163289.88
 10
-599234.440000001
 20
-1163289.9
 10
-599234.77
 20
-1163289.91
 10
-599235.100000001
 20
-1163289.93
 10
-599235.609999999
 20
-1163289.95
 10
-599235.449999999
 20
-1163292.77
 10
-599235.420000002
 20
-1163293.17
 10
-599235.409899998
 20
-1163293.39
 10
-599235.210000001
 20
-1163293.38
 10
-599235.149999999
 20
-1163294.4699
 10
-599235.350000001
 20
-1163294.49
 10
-599235.140000001
 20
-1163298.08
 10
-599234.940000001
 20
-1163298.07
 10
-599234.879999999
 20
-1163299.17
 10
-599235.079999998
 20
-1163299.18
 10
-599234.909899998
 20
-1163302.07
 10
-599234.710000001
 20
-1163302.06
 10
-599234.670000002
 20
-1163302.76
 10
-599234.870000001
 20
-1163302.77
 10
-599234.699999999
 20
-1163305.67
 10
-599234.510000002
 20
-1163305.6599
 10
-599234.460000001
 20
-1163306.36
 10
-599234.659899998
 20
-1163306.37
 10
-599234.489999998
 20
-1163309.46
 10
-599234.289999999
 20
-1163309.45
 10
-599234.25
 20
-1163310.15
 10
-599234.449999999
 20
-1163310.1599
 10
-599234.280000001
 20
-1163313.06
 10
-599234.079999998
 20
-1163313.04
 10
-599234.039999999
 20
-1163313.74
 10
-599234.239999998
 20
-1163313.75
 10
-599233.710000001
 20
-1163322.94
 10
-599233.530000001
 20
-1163326.43
 10
-599233.829999998
 20
-1163326.45
 10
-599233.550000001
 20
-1163331.74
 10
-599233.25
 20
-1163331.73
 10
-599233.059999999
 20
-1163335.2199
 10
-599233.359999999
 20
-1163335.24
 10
-599233.280000001
 20
-1163336.76
 10
-599233.079999998
 20
-1163336.75
 10
-599233.050000001
 20
-1163337.45
 10
-599233.25
 20
-1163337.46
 10
-599233.07
 20
-1163340.96
 10
-599232.870000001
 20
-1163340.95
 10
-599232.829999998
 20
-1163341.65
 10
-599233.030000001
 20
-1163341.6599
 10
-599232.850000001
 20
-1163345.15
 10
-599232.649999999
 20
-1163345.14
 10
-599232.609999999
 20
-1163345.84
 10
-599232.809999999
 20
-1163345.85
 10
-599232.620000001
 20
-1163349.55
 10
-599232.420000002
 20
-1163349.54
 10
-599232.379999999
 20
-1163350.23
 10
-599232.579999998
 20
-1163350.24
 10
-599232.399999999
 20
-1163353.74
 10
-599232.199999999
 20
-1163353.73
 10
-599232.170000002
 20
-1163354.43
 10
-599232.359999999
 20
-1163354.44
 10
-599232.129999999
 20
-1163358.93
 10
-599231.93
 20
-1163358.92
 10
-599231.879999999
 20
-1163359.92
 10
-599232.079999998
 20
-1163359.93
 10
-599231.870000001
 20
-1163363.93
 10
-599231.670000002
 20
-1163363.92
 10
-599231.620000001
 20
-1163364.9099
 10
-599231.82
 20
-1163364.92
 10
-599231.640000001
 20
-1163368.3
 10
-599229.82
 20
-1163368.2
 10
-599229.350000001
 20
-1163376.68
 10
-599230.25
 20
-1163376.73
 10
-599230.100000001
 20
-1163379.69
 10
-599229.899999999
 20
-1163379.68
 10
-599229.879999999
 20
-1163380.28
 10
-599230.07
 20
-1163380.29
 10
-599230.039999999
 20
-1163380.99
 10
-599229.84
 20
-1163380.98
 10
-599229.809999999
 20
-1163381.58
 10
-599230.010000002
 20
-1163381.59
 10
-599229.960000001
 20
-1163382.59
 10
-599229.760000002
 20
-1163382.58
 10
-599229.73
 20
-1163383.18
 10
-599229.93
 20
-1163383.19
 10
-599229.899999999
 20
-1163383.88
 10
-599229.699999999
 20
-1163383.87
 10
-599229.670000002
 20
-1163384.4699
 10
-599229.870000001
 20
-1163384.48
 10
-599229.710000001
 20
-1163387.59
 10
-599229.409899998
 20
-1163387.57
 10
-599229.25
 20
-1163390.82
 10
-599229.550000001
 20
-1163390.84
 10
-599229.43
 20
-1163393.52
 10
-599229.23
 20
-1163393.51
 10
-599229.199999999
 20
-1163394.21
 10
-599229.399999999
 20
-1163394.2199
 10
-599229.25
 20
-1163397.21
 10
-599229.050000001
 20
-1163397.2
 10
-599229.010000002
 20
-1163397.9
 10
-599229.210000001
 20
-1163397.9099
 10
-599229.07
 20
-1163400.9099
 10
-599228.870000001
 20
-1163400.9
 10
-599228.829999998
 20
-1163401.6
 10
-599229.030000001
 20
-1163401.61
 10
-599228.879999999
 20
-1163404.7
 10
-599228.68
 20
-1163404.69
 10
-599228.640000001
 20
-1163405.39
 10
-599228.84
 20
-1163405.4
 10
-599228.690000001
 20
-1163408.4
 10
-599228.489999998
 20
-1163408.39
 10
-599228.460000001
 20
-1163409.09
 10
-599228.659899998
 20
-1163409.1
 10
-599228.510000002
 20
-1163412.09
 10
-599228.309999999
 20
-1163412.09
 10
-599228.280000001
 20
-1163412.78
 10
-599228.48
 20
-1163412.79
 10
-599228.329999998
 20
-1163415.79
 10
-599228.129999999
 20
-1163415.78
 10
-599228.09
 20
-1163416.48
 10
-599228.289999999
 20
-1163416.49
 10
-599228.149999999
 20
-1163419.49
 10
-599227.949999999
 20
-1163419.48
 10
-599227.909899998
 20
-1163420.18
 10
-599228.109999999
 20
-1163420.19
 10
-599227.960000001
 20
-1163423.18
 10
-599227.760000002
 20
-1163423.17
 10
-599227.25
 20
-1163443.42
 10
-599226.909899998
 20
-1163449.93
 10
-599226.719900001
 20
-1163453.49
 10
-599223.329999998
 20
-1163516.4099
 10
-599221.170000002
 20
-1163556.51
 10
-599223.670000002
 20
-1163556.64
 10
-599222.710000001
 20
-1163576.75
 10
-599222.4186
 20
-1163576.75
 10
-599222.135699999
 20
-1163576.8197
 10
-599221.877700001
 20
-1163576.955
 10
-599221.659400001
 20
-1163577.1481
 10
-599221.493700001
 20
-1163577.3877
 10
-599221.390000001
 20
-1163577.6599
 10
-599221.079999998
 20
-1163582.58
 10
-599221.065400001
 20
-1163582.821
 10
-599221.107500002
 20
-1163583.0588
 10
-599221.203899998
 20
-1163583.2802
 10
-599221.349300001
 20
-1163583.4729
 10
-599221.535700001
 20
-1163583.6264
 10
-599221.752799999
 20
-1163583.7322
 10
-599221.988600001
 20
-1163583.7843
 10
-599222.23
 20
-1163583.78
 10
-599221.98
 20
-1163588.24
 10
-599221.710499998
 20
-1163588.2033
 10
-599221.4399
 20
-1163588.2299
 10
-599221.182700001
 20
-1163588.3181
 10
-599220.952799998
 20
-1163588.4634
 10
-599220.762699999
 20
-1163588.6578
 10
-599220.622499999
 20
-1163588.8909
 10
-599220.539999999
 20
-1163589.15
 10
-599220.289999999
 20
-1163594.12
 10
-599220.3673
 20
-1163594.361
 10
-599220.499600001
 20
-1163594.5768
 10
-599220.679499999
 20
-1163594.7549
 10
-599220.896499999
 20
-1163594.8851
 10
-599221.138300002
 20
-1163594.96
 10
-599221.390999999
 20
-1163594.9752
 10
-599221.640000001
 20
-1163594.93
 10
-599220.719900001
 20
-1163610.68
 10
-599220.5046
 20
-1163610.6541
 10
-599220.288899999
 20
-1163610.6764
 10
-599220.0834
 20
-1163610.7458
 10
-599219.898200002
 20
-1163610.8588
 10
-599219.742600001
 20
-1163611.0099
 10
-599219.6241
 20
-1163611.1916
 10
-599219.548700001
 20
-1163611.395
 10
-599219.52
 20
-1163611.61
 10
-599219.43
 20
-1163613.78
 10
-599219.482099999
 20
-1163614.0169
 10
-599219.588199999
 20
-1163614.235
 10
-599219.7425
 20
-1163614.4222
 10
-599219.936299998
 20
-1163614.5679
 10
-599220.159000002
 20
-1163614.6642
 10
-599220.397999998
 20
-1163614.7057
 10
-599220.640000001
 20
-1163614.69
 10
-599220.5
 20
-1163617.55
 10
-599219.800000001
 20
-1163631.43
 10
-599219.649999999
 20
-1163634.4
 10
-599219.407200001
 20
-1163634.3487
 10
-599219.159200002
 20
-1163634.3576
 10
-599218.920699999
 20
-1163634.4263
 10
-599218.705899999
 20
-1163634.5507
 10
-599218.527600002
 20
-1163634.7233
 10
-599218.396400001
 20
-1163634.9339
 10
-599218.32
 20
-1163635.17
 10
-599218.18
 20
-1163637.34
 10
-599218.2062
 20
-1163637.5815
 10
-599218.287599999
 20
-1163637.8103
 10
-599218.4197
 20
-1163638.0141
 10
-599218.595400002
 20
-1163638.1819
 10
-599218.805199999
 20
-1163638.3044
 10
-599219.037599999
 20
-1163638.375
 10
-599219.280000001
 20
-1163638.39
 10
-599218.620000001
 20
-1163654.36
 10
-599218.054299999
 20
-1163654.3273
 10
-599217.551600002
 20
-1163654.5125
 10
-599217.207699999
 20
-1163654.83
 10
-599217.159899998
 20
-1163655.31
 10
-599216.879999999
 20
-1163660.27
 10
-599216.888
 20
-1163660.4934
 10
-599216.945300002
 20
-1163660.7095
 10
-599217.048999999
 20
-1163660.9076
 10
-599217.193999998
 20
-1163661.0778
 10
-599217.373
 20
-1163661.2117
 10
-599217.577199999
 20
-1163661.3026
 10
-599217.796500001
 20
-1163661.3461
 10
-599218.02
 20
-1163661.34
 10
-599217.760000002
 20
-1163665.31
 10
-599217.518199999
 20
-1163665.2754
 10
-599217.275199998
 20
-1163665.2998
 10
-599217.0451
 20
-1163665.3817
 10
-599216.841200002
 20
-1163665.5163
 10
-599216.6756
 20
-1163665.6959
 10
-599216.557799999
 20
-1163665.9098
 10
-599216.4947
 20
-1163666.1458
 10
-599216.489999998
 20
-1163666.39
 10
-599216.289999999
 20
-1163671.32
 10
-599216.339200001
 20
-1163671.5688
 10
-599216.442200001
 20
-1163671.8005
 10
-599216.593899999
 20
-1163672.0036
 10
-599216.786899999
 20
-1163672.1681
 10
-599217.011500001
 20
-1163672.2858
 10
-599217.2566
 20
-1163672.3508
 10
-599217.510000002
 20
-1163672.36
 10
-599216.52
 20
-1163691.87
 10
-599208.899999999
 20
-1163783.01
 10
-599208.780000001
 20
-1163785.6
 10
-599209.09
 20
-1163785.61
 10
-599207.390000001
 20
-1163826.21
 10
-599205.379999999
 20
-1163897.08
 10
-599204.879999999
 20
-1163897.13
 10
-599210.23
 20
-1163952.69
 10
-599211.690000001
 20
-1163952.77
 10
-599211.710000001
 20
-1163952.27
 10
-599214.370000001
 20
-1163952.46
 10
-599214.309999999
 20
-1163952.9099
 10
-599227.43
 20
-1163953.6
 10
-599252.73
 20
-1163954.94
 10
-599373.390000001
 20
-1163961.2199
 10
-599394.100000001
 20
-1163962.25
 10
-599461.600000001
 20
-1163965.79
 10
-599468.390000001
 20
-1163966.11
 10
-599473.489999998
 20
-1163965.55
 10
-599576.210000001
 20
-1163936.03
 10
-599580.399999999
 20
-1163934.82
 10
-599593.780000001
 20
-1163930.98
 10
-599638
 20
-1163909.08
 10
-599641.870000001
 20
-1163906.65
 10
-599642.609999999
 20
-1163906.19
 10
-599667.510000002
 20
-1163892.24
 10
-599684.309999999
 20
-1163882.84
 10
-599685.050000001
 20
-1163882.38
 10
-599689.949999999
 20
-1163879.57
 10
-599743.100000001
 20
-1163853.79
 10
-599760.23
 20
-1163846.1599
 10
-599762.84
 20
-1163845.15
 10
-599759.039999999
 20
-1163817.9099
 10
-599758.77
 20
-1163815.4099
 10
-599756.710000001
 20
-1163800.3
 10
-599756.609999999
 20
-1163799.54
 10
-599751.219900001
 20
-1163757.75
 10
-599750.640000001
 20
-1163753.58
 10
-599743.809999999
 20
-1163702.61
 10
-599742.109999999
 20
-1163689.78
 10
-599741.780000001
 20
-1163687.17
 10
-599739.219900001
 20
-1163670.08
 10
-599738.010000002
 20
-1163657.82
 10
-599736.82
 20
-1163645.08
 10
-599734.879999999
 20
-1163623.85
 10
-599730.609999999
 20
-1163580.81
 10
-599728.09
 20
-1163511.02
 10
-599727.050000001
 20
-1163491.28
 10
-599726.120000001
 20
-1163474.01
 10
-599725.670000002
 20
-1163472.55
 10
-599725.100000001
 20
-1163471.85
 10
-599724.280000001
 20
-1163471.28
 10
-599723.370000001
 20
-1163470.99
 10
-599722.399999999
 20
-1163470.99
 10
-599722.350000001
 20
-1163470.73
 10
-599721.390000001
 20
-1163470.9
 10
-599721.449999999
 20
-1163471.1599
 10
-599718.75
 20
-1163471.62
 10
-599718.710000001
 20
-1163471.3
 10
-599717.73
 20
-1163471.4699
 10
-599717.789999999
 20
-1163471.74
 10
-599715.140000001
 20
-1163472.12
 10
-599715.07
 20
-1163471.81
 10
-599714.100000001
 20
-1163472
 10
-599714.129999999
 20
-1163472.28
 10
-599711.659899998
 20
-1163472.6599
 10
-599711.640000001
 20
-1163472.35
 10
-599710.690000001
 20
-1163472.53
 10
-599710.68
 20
-1163472.81
 10
-599708.02
 20
-1163473.1599
 10
-599707.98
 20
-1163472.87
 10
-599706.940000001
 20
-1163473.05
 10
-599706.960000001
 20
-1163473.3
 10
-599704.52
 20
-1163473.69
 10
-599704.469900001
 20
-1163473.4099
 10
-599703.52
 20
-1163473.59
 10
-599703.550000001
 20
-1163473.85
 10
-599701.420000002
 20
-1163474.18
 10
-599701.359999999
 20
-1163473.9099
 10
-599700.460000001
 20
-1163474.06
 10
-599700.48
 20
-1163474.26
 10
-599697.870000001
 20
-1163474.65
 10
-599697.800000001
 20
-1163474.44
 10
-599696.809999999
 20
-1163474.6
 10
-599696.84
 20
-1163474.84
 10
-599693.390000001
 20
-1163475.35
 10
-599693.32
 20
-1163475.08
 10
-599692.43
 20
-1163475.24
 10
-599692.399999999
 20
-1163475.5
 10
-599689.77
 20
-1163475.9
 10
-599689.77
 20
-1163475.65
 10
-599688.850000001
 20
-1163475.8
 10
-599688.859999999
 20
-1163476.06
 10
-599686.170000002
 20
-1163476.44
 10
-599686.120000001
 20
-1163476.19
 10
-599685.140000001
 20
-1163476.39
 10
-599685.190000001
 20
-1163476.63
 10
-599684.57
 20
-1163476.61
 10
-599682.16
 20
-1163476.95
 10
-599672.170000002
 20
-1163403.26
 10
-599672.120000001
 20
-1163402.92
 10
-599716.710000001
 20
-1163385.37
 10
-599719.68
 20
-1163384.18
 10
-599758.440000001
 20
-1163368.75
 10
-599797.57
 20
-1163352.77
 10
-599833.390000001
 20
-1163338.12
 10
-599861.100000001
 20
-1163326.75
 10
-599891.289999999
 20
-1163314.5
 10
-599893.34
 20
-1163313.6599
 10
-599872.690000001
 20
-1163239.37
 10
-599869.5
 20
-1163227.69
 10
-599840.710000001
 20
-1163145.85
 10
-599821.510000002
 20
-1163094.58
 10
-599820.780000001
 20
-1163094.94
 10
-599820.510000002
 20
-1163093.53
 10
-599811.469900001
 20
-1163095.27
 10
-599811.59
 20
-1163096.65
 10
-599806.469900001
 20
-1163097.68
 10
-599806.409899998
 20
-1163097.38
 10
-599768.920000002
 20
-1163104.39
 10
-599766.120000001
 20
-1163089.15
 10
-599743.670000002
 20
-1163093.45
 97
0
 75
0
 76
1
 98
0
  0
ENDSEC
  0
SECTION
  2
OBJECTS
  0
DICTIONARY
  5
C
330
0
100
AcDbDictionary
281
     1
  3
ACAD_GROUP
350
D
  3
ACAD_LAYOUT
350
1A
  3
ACAD_MLEADERSTYLE
350
43
  3
ACAD_PLOTSETTINGS
350
19
  3
ACAD_PLOTSTYLENAME
350
E
  3
ACAD_TABLESTYLE
350
42
  0
DICTIONARY
  5
D
102
{ACAD_REACTORS
330
C
102
}
330
C
100
AcDbDictionary
281
     1
  0
DICTIONARY
  5
1A
102
{ACAD_REACTORS
330
C
102
}
330
C
100
AcDbDictionary
281
     1
  3
Layout1
350
1E
  3
Model
350
22
  0
DICTIONARY
  5
43
102
{ACAD_REACTORS
330
C
102
}
330
C
100
AcDbDictionary
281
     1
  0
DICTIONARY
  5
19
102
{ACAD_REACTORS
330
C
102
}
330
C
100
AcDbDictionary
281
     1
  0
ACDBDICTIONARYWDFLT
  5
E
102
{ACAD_REACTORS
330
C
102
}
330
C
100
AcDbDictionary
281
     1
  3
Normal
350
F
100
AcDbDictionaryWithDefault
340
F
  0
DICTIONARY
  5
42
102
{ACAD_REACTORS
330
C
102
}
330
C
100
AcDbDictionary
281
     1
  0
LAYOUT
  5
1E
102
{ACAD_REACTORS
330
1A
102
}
330
1A
100
AcDbPlotSettings
  1

  2
none_device
  4

  6

 40
0.0
 41
0.0
 42
0.0
 43
0.0
 44
0.0
 45
0.0
 46
0.0
 47
0.0
 48
0.0
 49
0.0
140
0.0
141
0.0
142
1.0
143
1.0
 70
   688
 72
     0
 73
     0
 74
     5
  7

 75
    16
 76
     0
 77
     2
 78
   300
147
1.0
148
0.0
149
0.0
100
AcDbLayout
  1
Layout1
 70
     1
 71
     1
 10
0.0
 20
0.0
 11
12.0
 21
9.0
 12
0.0
 22
0.0
 32
0.0
 14
1.000000000000000E+20
 24
1.000000000000000E+20
 34
1.000000000000000E+20
 15
-1.000000000000000E+20
 25
-1.000000000000000E+20
 35
-1.000000000000000E+20
146
0.0
 13
0.0
 23
0.0
 33
0.0
 16
1.0
 26
0.0
 36
0.0
 17
0.0
 27
1.0
 37
0.0
 76
     0
330
1B
  0
LAYOUT
  5
22
102
{ACAD_REACTORS
330
1A
102
}
330
1A
100
AcDbPlotSettings
  1

  2
none_device
  4

  6

 40
0.0
 41
0.0
 42
0.0
 43
0.0
 44
0.0
 45
0.0
 46
0.0
 47
0.0
 48
0.0
 49
0.0
140
0.0
141
0.0
142
1.0
143
1.0
 70
  1712
 72
     0
 73
     0
 74
     0
  7

 75
     0
 76
     0
 77
     2
 78
   300
147
1.0
148
0.0
149
0.0
100
AcDbLayout
  1
Model
 70
     1
 71
     0
 10
0.0
 20
0.0
 11
12.0
 21
9.0
 12
0.0
 22
0.0
 32
0.0
 14
30.0
 24
49.75
 34
0.0
 15
130.5
 25
163.1318914119703
 35
0.0
146
0.0
 13
0.0
 23
0.0
 33
0.0
 16
1.0
 26
0.0
 36
0.0
 17
0.0
 27
1.0
 37
0.0
 76
     0
330
1F
331
29
  0
ENDSEC
  0
EOF
