  0
SECTION
  2
HEADER
  9
$ACADVER
  1
AC1018
  9
$ACADMAINTVER
 70
     0
  9
$DWGCODEPAGE
  3
ANSI_1252
  9
$EXTMIN
 10
16.4854849800178
 20
49.1472384256267
 30
0.0
  9
$EXTMAX
 10
16.7049176672406
 20
49.2709255691257
 30
0.0
  9
$LIMMIN
 10
0.0
 20
0.0
  9
$LIMMAX
 10
12.0
 20
9.0
  9
$ORTHOMODE
 70
     0
  9
$REGENMODE
 70
     1
  9
$FILLMODE
 70
     1
  9
$QTEXTMODE
 70
     0
  9
$MIRRTEXT
 70
     1
  9
$LTSCALE
 40
1.0
  9
$ATTMODE
 70
     1
  9
$TEXTSIZE
 40
0.2
  9
$TRACEWID
 40
0.05
  9
$TEXTSTYLE
  7
Standard
  9
$CLAYER
  8
0
  9
$CELTYPE
  6
ByLayer
  9
$CECOLOR
 62
   256
  9
$CELTSCALE
 40
1.0
  9
$DISPSILH
 70
     0
  9
$LUNITS
 70
     2
  9
$LUPREC
 70
     4
  9
$SKETCHINC
 40
0.1
  9
$FILLETRAD
 40
0.5
  9
$AUNITS
 70
     0
  9
$AUPREC
 70
     0
  9
$MENU
  1
.
  9
$ELEVATION
 40
0.0
  9
$PELEVATION
 40
0.0
  9
$THICKNESS
 40
0.0
  9
$LIMCHECK
 70
     0
  9
$CHAMFERA
 40
0.5
  9
$CHAMFERB
 40
0.5
  9
$CHAMFERC
 40
1.0
  9
$CHAMFERD
 40
0.0
  9
$SKPOLY
 70
     0
  9
$ANGBASE
 50
0.0
  9
$ANGDIR
 70
     0
  9
$PDMODE
 70
     0
  9
$PDSIZE
 40
0.0
  9
$PLINEWID
 40
0.0
  9
$SPLFRAME
 70
     0
  9
$SPLINETYPE
 70
     6
  9
$SPLINESEGS
 70
     8
  9
$HANDSEED
  5
0002000C
  9
$SURFTAB1
 70
     6
  9
$SURFTAB2
 70
     6
  9
$SURFTYPE
 70
     6
  9
$SURFU
 70
     6
  9
$SURFV
 70
     6
  9
$UCSBASE
  2

  9
$UCSNAME
  2

  9
$UCSORG
 10
0.0
 20
0.0
 30
0.0
  9
$UCSXDIR
 10
1.0
 20
0.0
 30
0.0
  9
$UCSYDIR
 10
0.0
 20
1.0
 30
0.0
  9
$UCSORTHOREF
  2

  9
$UCSORTHOVIEW
 70
     0
  9
$UCSORGTOP
 10
0.0
 20
0.0
 30
0.0
  9
$UCSORGBOTTOM
 10
0.0
 20
0.0
 30
0.0
  9
$UCSORGLEFT
 10
0.0
 20
0.0
 30
0.0
  9
$UCSORGRIGHT
 10
0.0
 20
0.0
 30
0.0
  9
$UCSORGFRONT
 10
0.0
 20
0.0
 30
0.0
  9
$UCSORGBACK
 10
0.0
 20
0.0
 30
0.0
  9
$PUCSBASE
  2

  9
$PUCSNAME
  2

  9
$PUCSORG
 10
0.0
 20
0.0
 30
0.0
  9
$PUCSXDIR
 10
1.0
 20
0.0
 30
0.0
  9
$PUCSYDIR
 10
0.0
 20
1.0
 30
0.0
  9
$PUCSORTHOREF
  2

  9
$PUCSORTHOVIEW
 70
     0
  9
$PUCSORGTOP
 10
0.0
 20
0.0
 30
0.0
  9
$PUCSORGBOTTOM
 10
0.0
 20
0.0
 30
0.0
  9
$PUCSORGLEFT
 10
0.0
 20
0.0
 30
0.0
  9
$PUCSORGRIGHT
 10
0.0
 20
0.0
 30
0.0
  9
$PUCSORGFRONT
 10
0.0
 20
0.0
 30
0.0
  9
$PUCSORGBACK
 10
0.0
 20
0.0
 30
0.0
  9
$WORLDVIEW
 70
     1
  9
$SHADEDGE
 70
     3
  9
$SHADEDIF
 70
    70
  9
$TILEMODE
 70
     1
  9
$MAXACTVP
 70
    64
  9
$PINSBASE
 10
0.0
 20
0.0
 30
0.0
  9
$PLIMCHECK
 70
     0
  9
$PEXTMIN
 10
1.000000000000000E+20
 20
1.000000000000000E+20
 30
1.000000000000000E+20
  9
$PEXTMAX
 10
-1.000000000000000E+20
 20
-1.000000000000000E+20
 30
-1.000000000000000E+20
  9
$PLIMMIN
 10
0.0
 20
0.0
  9
$PLIMMAX
 10
12.0
 20
9.0
  9
$UNITMODE
 70
     0
  9
$VISRETAIN
 70
     1
  9
$PLINEGEN
 70
     0
  9
$PSLTSCALE
 70
     1
  9
$TREEDEPTH
 70
  3020
  9
$CMLSTYLE
  2
Standard
  9
$CMLJUST
 70
     0
  9
$CMLSCALE
 40
1.0
  9
$PROXYGRAPHICS
 70
     1
  9
$MEASUREMENT
 70
     0
  9
$CELWEIGHT
370
    -1
  9
$ENDCAPS
280
     0
  9
$JOINSTYLE
280
     0
  9
$LWDISPLAY
290
     0
  9
$INSUNITS
 70
     1
  9
$HYPERLINKBASE
  1

  9
$STYLESHEET
  1

  9
$XEDIT
290
     1
  9
$CEPSNTYPE
380
     0
  9
$PSTYLEMODE
290
     1
  9
$EXTNAMES
290
     1
  9
$PSVPSCALE
 40
0.0
  9
$OLESTARTUP
290
     0
  9
$SORTENTS
280
   127
  9
$INDEXCTL
280
     0
  9
$HIDETEXT
280
     1
  9
$XCLIPFRAME
290
     0
  9
$HALOGAP
280
     0
  9
$OBSCOLOR
 70
   257
  9
$OBSLTYPE
280
     0
  9
$INTERSECTIONDISPLAY
280
     0
  9
$INTERSECTIONCOLOR
 70
   257
  9
$DIMASSOC
280
     2
  9
$PROJECTNAME
  1

  0
ENDSEC
  0
SECTION
  2
CLASSES
  0
CLASS
  1
ACDBDICTIONARYWDFLT
  2
AcDbDictionaryWithDefault
  3
ObjectDBX Classes
 90
        0
 91
        4
280
     0
281
     0
  0
ENDSEC
  0
SECTION
  2
TABLES
  0
TABLE
  2
VPORT
  5
8
330
0
100
AcDbSymbolTable
 70
     1
  0
VPORT
  5
29
330
8
100
AcDbSymbolTableRecord
100
AcDbViewportTableRecord
  2
*Active
 70
     0
 10
0.0
 20
0.0
 11
1.0
 21
1.0
 12
80.25
 22
106.4409457059851
 13
0.0
 23
0.0
 14
0.5
 24
0.5
 15
0.5
 25
0.5
 16
0.0
 26
0.0
 36
1.0
 17
0.0
 27
0.0
 37
0.0
 40
113.3818914119703
 41
0.8863849310366128
 42
50.0
 43
0.0
 44
0.0
 50
0.0
 51
0.0
 71
     0
 72
  1000
 73
     1
 74
     3
 75
     0
 76
     0
 77
     0
 78
     0
281
     0
 65
     1
110
0.0
120
0.0
130
0.0
111
1.0
121
0.0
131
0.0
112
0.0
122
1.0
132
0.0
 79
     0
146
0.0
  0
ENDTAB
  0
TABLE
  2
LTYPE
  5
5
330
0
100
AcDbSymbolTable
 70
     1
  0
LTYPE
  5
14
330
5
100
AcDbSymbolTableRecord
100
AcDbLinetypeTableRecord
  2
ByBlock
 70
     0
  3

 72
    65
 73
     0
 40
0.0
  0
LTYPE
  5
15
330
5
100
AcDbSymbolTableRecord
100
AcDbLinetypeTableRecord
  2
ByLayer
 70
     0
  3

 72
    65
 73
     0
 40
0.0
  0
LTYPE
  5
16
330
5
100
AcDbSymbolTableRecord
100
AcDbLinetypeTableRecord
  2
Continuous
 70
     0
  3
Solid line
 72
    65
 73
     0
 40
0.0
  0
ENDTAB
  0
TABLE
  2
LAYER
  5
2
330
0
100
AcDbSymbolTable
 70
     1
  0
LAYER
  5
10
330
2
100
AcDbSymbolTableRecord
100
AcDbLayerTableRecord
  2
0
 70
     0
 62
     7
  6
Continuous
370
    -3
390
F
  0
ENDTAB
  0
TABLE
  2
STYLE
  5
3
330
0
100
AcDbSymbolTable
 70
     1
  0
STYLE
  5
11
330
3
100
AcDbSymbolTableRecord
100
AcDbTextStyleTableRecord
  2
Standard
 70
     0
 40
0.0
 41
1.0
 50
0.0
 71
     0
 42
0.2
  3
txt
  4

  0
ENDTAB
  0
TABLE
  2
VIEW
  5
6
330
0
100
AcDbSymbolTable
 70
     0
  0
ENDTAB
  0
TABLE
  2
UCS
  5
7
330
0
100
AcDbSymbolTable
 70
     0
  0
ENDTAB
  0
TABLE
  2
APPID
  5
9
330
0
100
AcDbSymbolTable
 70
     1
  0
APPID
  5
12
330
9
100
AcDbSymbolTableRecord
100
AcDbRegAppTableRecord
  2
ACAD
 70
     0
  0
ENDTAB
  0
TABLE
  2
DIMSTYLE
  5
A
330
0
100
AcDbSymbolTable
 70
     1
100
AcDbDimStyleTable
  0
DIMSTYLE
105
27
330
A
100
AcDbSymbolTableRecord
100
AcDbDimStyleTableRecord
  2
Standard
 70
     0
340
11
  0
ENDTAB
  0
TABLE
  2
BLOCK_RECORD
  5
1
330
0
100
AcDbSymbolTable
 70
     1
  0
BLOCK_RECORD
  5
1F
330
1
100
AcDbSymbolTableRecord
100
AcDbBlockTableRecord
  2
*Model_Space
340
22
  0
BLOCK_RECORD
  5
1B
330
1
100
AcDbSymbolTableRecord
100
AcDbBlockTableRecord
  2
*Paper_Space
340
1E
  0
ENDTAB
  0
ENDSEC
  0
SECTION
  2
BLOCKS
  0
BLOCK
  5
20
330
1F
100
AcDbEntity
  8
0
100
AcDbBlockBegin
  2
*Model_Space
 70
     0
 10
0.0
 20
0.0
 30
0.0
  3
*Model_Space
  1

  0
ENDBLK
  5
21
330
1F
100
AcDbEntity
  8
0
100
AcDbBlockEnd
  0
BLOCK
  5
1C
330
1B
100
AcDbEntity
 67
     1
  8
0
100
AcDbBlockBegin
  2
*Paper_Space
 70
     0
 10
0.0
 20
0.0
 30
0.0
  3
*Paper_Space
  1

  0
ENDBLK
  5
1D
330
1B
100
AcDbEntity
 67
     1
  8
0
100
AcDbBlockEnd
  0
ENDSEC
  0
SECTION
  2
ENTITIES
  0
HATCH
  5
20000
100
AcDbEntity
  8
0
100
AcDbHatch
 10
0
 20
0
 30
0
210
0
220
0
230
1
  2
SOLID
 70
1
 71
0
 91
1
 92
2
 72
0
 73
1
 93
11
 10
16.602510502723
 20
49.2709255691257
 10
16.602501004639
 20
49.2708143983144
 10
16.6025071593996
 20
49.2706037405499
 10
16.6024971911573
 20
49.2703943807622
 10
16.6025387002332
 20
49.2702202701698
 10
16.6021507892901
 20
49.2701865525201
 10
16.6017621612381
 20
49.2701704484476
 10
16.6017477513076
 20
49.270377862709
 10
16.6017159131451
 20
49.2707057979743
 10
16.6016983073541
 20
49.270895521975
 10
16.602510502723
 20
49.2709255691257
 97
0
 75
0
 76
1
 98
0
  0
HATCH
  5
20001
100
AcDbEntity
  8
0
100
AcDbHatch
 10
0
 20
0
 30
0
210
0
220
0
230
1
  2
SOLID
 70
1
 71
0
 91
1
 92
2
 72
0
 73
1
 93
10
 10
16.5569582996343
 20
49.2220915418492
 10
16.5568305350535
 20
49.2226184275678
 10
16.5572075921855
 20
49.2226495547217
 10
16.5571504530577
 20
49.2229503195444
 10
16.559986691988
 20
49.2232585936282
 10
16.5600463509285
 20
49.222991072353
 10
16.5603618217757
 20
49.223025437029
 10
16.5604706609082
 20
49.222521301986
 10
16.5591945067365
 20
49.2223531411636
 10
16.5569582996343
 20
49.2220915418492
 97
0
 75
0
 76
1
 98
0
  0
HATCH
  5
20002
100
AcDbEntity
  8
0
100
AcDbHatch
 10
0
 20
0
 30
0
210
0
220
0
230
1
  2
SOLID
 70
1
 71
0
 91
1
 92
2
 72
0
 73
1
 93
25
 10
16.5943050551218
 20
49.235271367645
 10
16.5946554069385
 20
49.2353706807633
 10
16.5946530226405
 20
49.2353747077001
 10
16.5949989253515
 20
49.2354590185586
 10
16.5949428749756
 20
49.235563694438
 10
16.5958635634884
 20
49.2357835373591
 10
16.5961831178067
 20
49.235858409913
 10
16.5966599141859
 20
49.2360091017746
 10
16.596830835358
 20
49.2360631468462
 10
16.5970728774816
 20
49.2361371434951
 10
16.5972528218304
 20
49.2359887931052
 10
16.5969809112072
 20
49.2357414951574
 10
16.5966814260094
 20
49.2355312971129
 10
16.5963634794327
 20
49.2353760775806
 10
16.5960733245824
 20
49.2351850634441
 10
16.5957226511432
 20
49.2349817867651
 10
16.5955313904488
 20
49.2347533409937
 10
16.5953293513372
 20
49.2345569415236
 10
16.595019221895
 20
49.2343998070513
 10
16.5949418050866
 20
49.2344237525963
 10
16.5945212621371
 20
49.2351170234856
 10
16.5944643010205
 20
49.2351040094436
 10
16.5944364140162
 20
49.2351510914801
 10
16.5943835005313
 20
49.2351395611126
 10
16.5943050551218
 20
49.235271367645
 97
0
 75
0
 76
1
 98
0
  0
HATCH
  5
20003
100
AcDbEntity
  8
0
100
AcDbHatch
 10
0
 20
0
 30
0
210
0
220
0
230
1
  2
SOLID
 70
1
 71
0
 91
1
 92
2
 72
0
 73
1
 93
106
 10
16.6493096498565
 20
49.2052999100622
 10
16.6494330720192
 20
49.2052731201428
 10
16.6495281745723
 20
49.205254648483
 10
16.6501049034147
 20
49.2051429752663
 10
16.6501378633061
 20
49.2051232124472
 10
16.6503074885177
 20
49.2050056084563
 10
16.6505262289755
 20
49.2049308194634
 10
16.6506233124924
 20
49.2047183508578
 10
16.6505477319561
 20
49.2046205844936
 10
16.6511455719818
 20
49.2044791215745
 10
16.651138568211
 20
49.2044106954826
 10
16.6511297864312
 20
49.2043480736181
 10
16.6511289819119
 20
49.2043298304244
 10
16.6511255205118
 20
49.2043032428592
 10
16.6511140409125
 20
49.204215747783
 10
16.6511025960136
 20
49.2041161998492
 10
16.6510940788859
 20
49.2041146898203
 10
16.6510899866105
 20
49.2040587258607
 10
16.6510870123591
 20
49.2040262014961
 10
16.6510855729434
 20
49.2040102289312
 10
16.6510840131555
 20
49.20399287042
 10
16.6510835791833
 20
49.2039896779131
 10
16.6508160906708
 20
49.2040021705013
 10
16.6505543921946
 20
49.2040146553647
 10
16.6505020262475
 20
49.2040172111958
 10
16.650382754273
 20
49.2040241471191
 10
16.6502313957977
 20
49.2040329152032
 10
16.6499015588009
 20
49.2040498427863
 10
16.6497445219723
 20
49.2040575398646
 10
16.6494395894612
 20
49.2040628545759
 10
16.6493941697987
 20
49.2040636736492
 10
16.6492156449823
 20
49.2040626624961
 10
16.6489832785622
 20
49.2040515014945
 10
16.6488966479774
 20
49.2040444023273
 10
16.6485051405387
 20
49.2040105295626
 10
16.648332446803
 20
49.2039924641249
 10
16.648154253876
 20
49.2039684891384
 10
16.6480586876349
 20
49.2039555787759
 10
16.6480042124257
 20
49.2039478857564
 10
16.6478715866831
 20
49.203928844515
 10
16.6478673727757
 20
49.2039282381405
 10
16.6478606989516
 20
49.2039271454188
 10
16.6478338084021
 20
49.2039227363436
 10
16.6478240986738
 20
49.2039211428972
 10
16.6473106127062
 20
49.2038367080424
 10
16.6471045604981
 20
49.203782361361
 10
16.6469402940737
 20
49.20370894514
 10
16.6466622326412
 20
49.2035440360092
 10
16.6465337708991
 20
49.2034698983523
 10
16.6464759911154
 20
49.2034362707895
 10
16.6462906714707
 20
49.203327258762
 10
16.6460022609347
 20
49.2035439932798
 10
16.6459135820508
 20
49.2036085261555
 10
16.645891465627
 20
49.2036244270633
 10
16.6458686832012
 20
49.2036439630149
 10
16.6458614670401
 20
49.2036501317309
 10
16.645745122995
 20
49.2038499176671
 10
16.645742718274
 20
49.2038496332394
 10
16.6457356186502
 20
49.2038617822392
 10
16.6457300198403
 20
49.2038603970819
 10
16.6457269114011
 20
49.2038658768258
 10
16.6457073832667
 20
49.2038990470526
 10
16.6457043111917
 20
49.20390443982
 10
16.6457098680247
 20
49.203905853674
 10
16.6457023690047
 20
49.203918686311
 10
16.6457047522938
 20
49.2039193029696
 10
16.6457016681982
 20
49.2039246008268
 10
16.6452134056269
 20
49.2047621627669
 10
16.6452755294018
 20
49.2047772801698
 10
16.6452728326269
 20
49.2047866988684
 10
16.6454674572713
 20
49.2048363202694
 10
16.6453624839887
 20
49.2050065410204
 10
16.6455739002892
 20
49.2050547323649
 10
16.6455998469567
 20
49.2050657067958
 10
16.6456210578785
 20
49.2050818571921
 10
16.6454659441796
 20
49.2053629950476
 10
16.6454605417844
 20
49.2053617829216
 10
16.6453449133754
 20
49.20534122778
 10
16.6453124203431
 20
49.2053754554838
 10
16.6451702789214
 20
49.20553230682
 10
16.6452692124318
 20
49.2055693333874
 10
16.6448389224057
 20
49.2060393240899
 10
16.6449118214416
 20
49.2060818302077
 10
16.6454606468703
 20
49.2063121899827
 10
16.6455212939893
 20
49.2063376213243
 10
16.6455250720944
 20
49.206339218165
 10
16.6455284116162
 20
49.2063405353574
 10
16.6455475061226
 20
49.2063480256408
 10
16.6457849692155
 20
49.2064412663533
 10
16.6459107314168
 20
49.2064851085667
 10
16.6460180069044
 20
49.2065176340619
 10
16.6461794498245
 20
49.2064310605277
 10
16.6463435640276
 20
49.2062705819344
 10
16.646417147394
 20
49.2061761241798
 10
16.6465755196654
 20
49.2059968296184
 10
16.6467345796079
 20
49.2058165848876
 10
16.6468176067955
 20
49.2057225422386
 10
16.6468568404965
 20
49.2056743363334
 10
16.646978956924
 20
49.2056718976797
 10
16.6471035314987
 20
49.205667199232
 10
16.6479927406966
 20
49.2056335435051
 10
16.6481646651491
 20
49.2056129223715
 10
16.6484915355889
 20
49.2055397622653
 10
16.6489742501272
 20
49.2053967337404
 10
16.6491900121883
 20
49.2053328816515
 10
16.6493096498565
 20
49.2052999100622
 97
0
 75
0
 76
1
 98
0
  0
HATCH
  5
20004
100
AcDbEntity
  8
0
100
AcDbHatch
 10
0
 20
0
 30
0
210
0
220
0
230
1
  2
SOLID
 70
1
 71
0
 91
1
 92
2
 72
0
 73
1
 93
8
 10
16.6494928002776
 20
49.2055382135734
 10
16.6494780808818
 20
49.2055013882795
 10
16.6494077375982
 20
49.2053243087639
 10
16.6483654107331
 20
49.2056167446475
 10
16.6480064632214
 20
49.2056786450115
 10
16.6479986215549
 20
49.2056935582615
 10
16.6484746102998
 20
49.2060161728881
 10
16.6494928002776
 20
49.2055382135734
 97
0
 75
0
 76
1
 98
0
  0
HATCH
  5
20005
100
AcDbEntity
  8
0
100
AcDbHatch
 10
0
 20
0
 30
0
210
0
220
0
230
1
  2
SOLID
 70
1
 71
0
 91
1
 92
2
 72
0
 73
1
 93
17
 10
16.7049176672406
 20
49.217507528195
 10
16.7031284205836
 20
49.2170909857762
 10
16.7028028441982
 20
49.2177030624973
 10
16.7029115615955
 20
49.2177307715692
 10
16.7024772017863
 20
49.2185506664842
 10
16.7022447367355
 20
49.2189915667341
 10
16.702423008751
 20
49.2190340511005
 10
16.7025550754332
 20
49.2190635619333
 10
16.7038055142358
 20
49.2193468101591
 10
16.7039091701943
 20
49.2193103947436
 10
16.704269401705
 20
49.2186398301045
 10
16.7043812652918
 20
49.218443909654
 10
16.7044412380093
 20
49.2183393530853
 10
16.7045160233623
 20
49.2182089135432
 10
16.7046319058706
 20
49.2180063349685
 10
16.7048487096141
 20
49.2176279636418
 10
16.7049176672406
 20
49.217507528195
 97
0
 75
0
 76
1
 98
0
  0
HATCH
  5
20006
100
AcDbEntity
  8
0
100
AcDbHatch
 10
0
 20
0
 30
0
210
0
220
0
230
1
  2
SOLID
 70
1
 71
0
 91
1
 92
2
 72
0
 73
1
 93
24
 10
16.6919555401019
 20
49.1773280975037
 10
16.6928282782845
 20
49.1769001162134
 10
16.6928154190227
 20
49.1768881110695
 10
16.6931519024702
 20
49.1767272684733
 10
16.6934385092378
 20
49.1765873419784
 10
16.6934209436476
 20
49.1765553227644
 10
16.6933976980865
 20
49.176524263584
 10
16.6933434535622
 20
49.1764715605788
 10
16.6930903583932
 20
49.1762324109895
 10
16.6927907840383
 20
49.176402603213
 10
16.6926248162048
 20
49.176499015384
 10
16.6924885896835
 20
49.1765817535279
 10
16.6924465148461
 20
49.1766060815074
 10
16.6922944633752
 20
49.1766918488741
 10
16.6921762993472
 20
49.1767586729331
 10
16.6920660605292
 20
49.1768209800677
 10
16.6919480620122
 20
49.1768877242007
 10
16.6916993904638
 20
49.1770283649434
 10
16.6918203968094
 20
49.1771303448482
 10
16.6918906931455
 20
49.1771996767974
 10
16.6918031196425
 20
49.1772353131739
 10
16.691825691074
 20
49.1772558001054
 10
16.6918529449507
 20
49.1772431158675
 10
16.6919555401019
 20
49.1773280975037
 97
0
 75
0
 76
1
 98
0
  0
HATCH
  5
20007
100
AcDbEntity
  8
0
100
AcDbHatch
 10
0
 20
0
 30
0
210
0
220
0
230
1
  2
SOLID
 70
1
 71
0
 91
1
 92
2
 72
0
 73
1
 93
22
 10
16.6689501027735
 20
49.1477800102665
 10
16.6689771813892
 20
49.1478500494311
 10
16.6690268974277
 20
49.1479790135563
 10
16.6690380381535
 20
49.1480067993677
 10
16.6691173973344
 20
49.1481988353745
 10
16.6691337391938
 20
49.14823645479
 10
16.6691804579775
 20
49.148225145729
 10
16.6692131465878
 20
49.1482260103268
 10
16.6692193906505
 20
49.148183376545
 10
16.6694713531073
 20
49.148133166843
 10
16.6695506131268
 20
49.1483087421318
 10
16.6713605530529
 20
49.1479480093415
 10
16.6717162273189
 20
49.1472678620019
 10
16.6716855834571
 20
49.1472384256267
 10
16.6715601047444
 20
49.1472661511193
 10
16.6714145201025
 20
49.1472984824165
 10
16.6711374269911
 20
49.1473598290853
 10
16.6709690655124
 20
49.1473965542752
 10
16.6709446415661
 20
49.147342649366
 10
16.6704079168364
 20
49.1474847133848
 10
16.6698685753563
 20
49.1476241933169
 10
16.6689501027735
 20
49.1477800102665
 97
0
 75
0
 76
1
 98
0
  0
HATCH
  5
20008
100
AcDbEntity
  8
0
100
AcDbHatch
 10
0
 20
0
 30
0
210
0
220
0
230
1
  2
SOLID
 70
1
 71
0
 91
1
 92
2
 72
0
 73
1
 93
46
 10
16.581867171692
 20
49.2544290728661
 10
16.5818302146908
 20
49.2544442553748
 10
16.5817295430411
 20
49.2545045959551
 10
16.5816749784754
 20
49.2544891321684
 10
16.5816104177772
 20
49.2545079989449
 10
16.5814238127427
 20
49.2545644602653
 10
16.5814362864018
 20
49.2551813798719
 10
16.5816944423841
 20
49.2553575539384
 10
16.5819931953472
 20
49.2554465833064
 10
16.5820005232457
 20
49.2554482523082
 10
16.5820933447344
 20
49.2554542679309
 10
16.5822167525705
 20
49.2554639618917
 10
16.5827726869209
 20
49.2553620097742
 10
16.5828051396696
 20
49.255354773606
 10
16.5831909842724
 20
49.2552915861743
 10
16.5833403617088
 20
49.2552602074373
 10
16.5834032974334
 20
49.2552530681227
 10
16.5834418446
 20
49.2551662739925
 10
16.5834554156251
 20
49.2550992155419
 10
16.5835300377922
 20
49.2550576601711
 10
16.5837270604641
 20
49.254905220902
 10
16.5839741540141
 20
49.2546479350184
 10
16.5840065694601
 20
49.254616462906
 10
16.5841950606082
 20
49.2544341490213
 10
16.5842981684763
 20
49.2543348064823
 10
16.5843102246504
 20
49.2539791112857
 10
16.5843090910439
 20
49.25397628651
 10
16.5838657898781
 20
49.2540517178241
 10
16.5837309769618
 20
49.2540746134414
 10
16.5836589007987
 20
49.2540867644906
 10
16.5835588298156
 20
49.2541045217378
 10
16.5834460100626
 20
49.2541245135114
 10
16.5832072261264
 20
49.2541668995243
 10
16.583200681482
 20
49.2541686609594
 10
16.5827694388809
 20
49.2542469243179
 10
16.5827296156957
 20
49.2542541129617
 10
16.5826885105019
 20
49.2542610242481
 10
16.5826362238735
 20
49.2542698760882
 10
16.5824902024361
 20
49.2542944502898
 10
16.5822883814471
 20
49.254328226305
 10
16.5820904895295
 20
49.2543727969242
 10
16.5820592147684
 20
49.2543797736751
 10
16.582027341323
 20
49.2543875029883
 10
16.5819622221421
 20
49.2544035208433
 10
16.5819128750057
 20
49.2544158129365
 10
16.581867171692
 20
49.2544290728661
 97
0
 75
0
 76
1
 98
0
  0
HATCH
  5
20009
100
AcDbEntity
  8
0
100
AcDbHatch
 10
0
 20
0
 30
0
210
0
220
0
230
1
  2
SOLID
 70
1
 71
0
 91
1
 92
2
 72
0
 73
1
 93
17
 10
16.4862899393609
 20
49.2045677112626
 10
16.4868280931201
 20
49.2046409562681
 10
16.4869693392088
 20
49.2046244251727
 10
16.4873308681318
 20
49.2045827517707
 10
16.4873162786522
 20
49.2045394708486
 10
16.4872908205278
 20
49.2044558443475
 10
16.4872521867444
 20
49.2043354507327
 10
16.4869501244194
 20
49.2033385255511
 10
16.486168102712
 20
49.2030840811325
 10
16.4860925030132
 20
49.2030969185462
 10
16.4860411250724
 20
49.2030813727818
 10
16.4859873848976
 20
49.2030741608725
 10
16.4859790401077
 20
49.2030695802776
 10
16.485488190805
 20
49.2029132370254
 10
16.4854849800178
 20
49.2029142726266
 10
16.4859385852034
 20
49.2045219897946
 10
16.4862899393609
 20
49.2045677112626
 97
0
 75
0
 76
1
 98
0
  0
HATCH
  5
2000A
100
AcDbEntity
  8
0
100
AcDbHatch
 10
0
 20
0
 30
0
210
0
220
0
230
1
  2
SOLID
 70
1
 71
0
 91
1
 92
2
 72
0
 73
1
 93
22
 10
16.6182898236689
 20
49.2619445965727
 10
16.618171865726
 20
49.2620910803507
 10
16.6180379851509
 20
49.2622551369937
 10
16.6179775138317
 20
49.2622337407646
 10
16.617777563524
 20
49.262463335083
 10
16.6175793564067
 20
49.2626935263222
 10
16.6176425059792
 20
49.2627816633245
 10
16.6176898838683
 20
49.2628417521645
 10
16.6178119757967
 20
49.2629764311667
 10
16.6179320326979
 20
49.2631033034591
 10
16.6182586709243
 20
49.2627914291342
 10
16.6188669196346
 20
49.2622024158624
 10
16.6191236931139
 20
49.2619542850104
 10
16.6191747993319
 20
49.2619026781645
 10
16.6194119039141
 20
49.2616753916973
 10
16.6191107785742
 20
49.2615408012351
 10
16.6189991982615
 20
49.2614909480786
 10
16.6189538045988
 20
49.261470508328
 10
16.6188373976097
 20
49.2614175290409
 10
16.6185758114987
 20
49.2616639370504
 10
16.6185315799622
 20
49.2617066744991
 10
16.6182898236689
 20
49.2619445965727
 97
0
 75
0
 76
1
 98
0
  0
HATCH
  5
2000B
100
AcDbEntity
  8
0
100
AcDbHatch
 10
0
 20
0
 30
0
210
0
220
0
230
1
  2
SOLID
 70
1
 71
0
 91
1
 92
2
 72
0
 73
1
 93
871
 10
16.589878708641
 20
49.1726544476185
 10
16.5898984697204
 20
49.1726534102723
 10
16.5905758791393
 20
49.1726180476518
 10
16.5908056469396
 20
49.172604249731
 10
16.590968904299
 20
49.1725930532748
 10
16.5909692792289
 20
49.1725957934778
 10
16.5911143445321
 20
49.172587827113
 10
16.5911964003941
 20
49.1725829826623
 10
16.5912015884023
 20
49.1726066878797
 10
16.5912137270905
 20
49.1726300727707
 10
16.5912300644067
 20
49.1726505900808
 10
16.5912494154442
 20
49.1726670702112
 10
16.5912716351848
 20
49.1726820355225
 10
16.5913001956755
 20
49.1726953708391
 10
16.5913270324571
 20
49.1727057796855
 10
16.5913582499003
 20
49.1727130625155
 10
16.5913895704113
 20
49.1727163736637
 10
16.5914226011371
 20
49.1727160054827
 10
16.5917029840282
 20
49.1727014594054
 10
16.5919275295212
 20
49.1726883737246
 10
16.5921699237029
 20
49.172673299077
 10
16.5921703759702
 20
49.1726764065729
 10
16.5921785833802
 20
49.1726759945462
 10
16.5921783958815
 20
49.1726746244467
 10
16.5922119516057
 20
49.1726727565492
 10
16.5922121391053
 20
49.1726741266487
 10
16.5922202101598
 20
49.1726737049342
 10
16.5922201590147
 20
49.1726723445196
 10
16.5922535636102
 20
49.1726705563282
 10
16.5922537658817
 20
49.1726718370245
 10
16.5922619732903
 20
49.172671424992
 10
16.5922617857894
 20
49.1726700548926
 10
16.5922953267365
 20
49.1726682763738
 10
16.5922955142383
 20
49.1726696464731
 10
16.5923036014258
 20
49.1726691354467
 10
16.5923035341441
 20
49.1726678643382
 10
16.5923369535042
 20
49.1726659867197
 10
16.5923371410072
 20
49.1726673568189
 10
16.5923453645486
 20
49.1726668554742
 10
16.5923451609111
 20
49.1726655746811
 10
16.5923778837239
 20
49.1726637380305
 10
16.592378071228
 20
49.1726651081297
 10
16.5923862786343
 20
49.1726646960881
 10
16.5923860909823
 20
49.1726633268831
 10
16.5924704354829
 20
49.1726588240762
 10
16.5924706243531
 20
49.172660194272
 10
16.5924788303944
 20
49.1726597821272
 10
16.5924786294806
 20
49.172658501528
 10
16.5926094341161
 20
49.1726525053515
 10
16.5927015619971
 20
49.1726476515617
 10
16.5928035630562
 20
49.1726423230305
 10
16.5930556116789
 20
49.1726289281045
 10
16.5930558007129
 20
49.1726302974054
 10
16.5930825259331
 20
49.172628848682
 10
16.5930823384096
 20
49.1726274785839
 10
16.5931289772638
 20
49.172624911438
 10
16.5931291647885
 20
49.1726262815359
 10
16.5931553016411
 20
49.1726250623669
 10
16.5931550516072
 20
49.1726232355697
 10
16.5931578228626
 20
49.1726231619282
 10
16.5931576354848
 20
49.1726217909362
 10
16.5931918876795
 20
49.1726198817689
 10
16.5931920899752
 20
49.1726211624636
 10
16.5932002973676
 20
49.1726207503642
 10
16.5932001096932
 20
49.1726193811604
 10
16.5932342256776
 20
49.1726174614028
 10
16.5932342768504
 20
49.1726188218171
 10
16.5932424990112
 20
49.1726183203115
 10
16.5932423114833
 20
49.1726169502137
 10
16.5932764273167
 20
49.1726150313377
 10
16.5932766148455
 20
49.1726164014354
 10
16.5932848222364
 20
49.17261598933
 10
16.5932846347074
 20
49.1726146192323
 10
16.5933186141828
 20
49.1726126906602
 10
16.5933188164817
 20
49.1726139713547
 10
16.5933270386408
 20
49.1726134698432
 10
16.5933268363417
 20
49.1726121891487
 10
16.5933608158138
 20
49.1726102605642
 10
16.5933610033448
 20
49.1726116306618
 10
16.5933692107343
 20
49.1726112185504
 10
16.593369023203
 20
49.1726098484528
 10
16.5934068944495
 20
49.1726077439752
 10
16.5934073694602
 20
49.1726090440364
 10
16.5934155768488
 20
49.1726086319217
 10
16.5934153893162
 20
49.1726072618241
 10
16.5934535331207
 20
49.172605177592
 10
16.593453720802
 20
49.1726065467955
 10
16.5934619429585
 20
49.1726060452743
 10
16.5934617554247
 20
49.1726046751769
 10
16.5934998993729
 20
49.1726025900354
 10
16.5934999504053
 20
49.1726039513435
 10
16.5935081727086
 20
49.172603448925
 10
16.5935079717684
 20
49.1726021683277
 10
16.5935461143493
 20
49.1726000830741
 10
16.593546316654
 20
49.1726013637682
 10
16.5935545240402
 20
49.1726009516436
 10
16.5935543365038
 20
49.1725995815464
 10
16.5935924802966
 20
49.1725974972683
 10
16.5935926679817
 20
49.1725988664715
 10
16.5936008901355
 20
49.1725983649404
 10
16.5936007025979
 20
49.1725969948431
 10
16.5936387101796
 20
49.1725948999726
 10
16.5936388975706
 20
49.1725962709638
 10
16.5936471051029
 20
49.1725958579386
 10
16.593646917564
 20
49.1725944878415
 10
16.5936857580388
 20
49.1725923616509
 10
16.5936859455788
 20
49.172593731748
 10
16.5936941529626
 20
49.1725933196134
 10
16.5936939654224
 20
49.1725919495163
 10
16.5937328058932
 20
49.17258982331
 10
16.5937329934346
 20
49.172591193407
 10
16.5937412155857
 20
49.1725906918659
 10
16.5937410131283
 20
49.1725894120661
 10
16.5937798537429
 20
49.1725872849498
 10
16.5937799196988
 20
49.1725885559606
 10
16.593788127081
 20
49.1725881438194
 10
16.5937879395381
 20
49.1725867737225
 10
16.593826780001
 20
49.1725846474844
 10
16.5938269675448
 20
49.1725860175812
 10
16.5938351749262
 20
49.1725856054367
 10
16.5938349873821
 20
49.1725842353398
 10
16.5938738278409
 20
49.1725821090859
 10
16.5938740167496
 20
49.1725834792795
 10
16.5938822227666
 20
49.1725830670347
 10
16.5938820352212
 20
49.172581696938
 10
16.5939210267987
 20
49.1725794909478
 10
16.5939214018916
 20
49.1725822311412
 10
16.5939296092716
 20
49.1725818189899
 10
16.5939294217249
 20
49.1725804488932
 10
16.5939674291324
 20
49.1725783548084
 10
16.5939676168278
 20
49.172579724011
 10
16.5939758389747
 20
49.1725792224532
 10
16.593975636659
 20
49.1725779417598
 10
16.5940136442104
 20
49.1725758467657
 10
16.5940138317593
 20
49.1725772168622
 10
16.5940220539054
 20
49.1725767153011
 10
16.5940218514408
 20
49.1725754355018
 10
16.594059859136
 20
49.1725733395985
 10
16.5940600614539
 20
49.1725746202917
 10
16.5940682686837
 20
49.1725742090246
 10
16.5940675150354
 20
49.1725679143269
 10
16.5940689096297
 20
49.1725678315493
 10
16.5940690958167
 20
49.172569201549
 10
16.594077181606
 20
49.1725686903013
 10
16.5940769940553
 20
49.1725673202048
 10
16.5941112904798
 20
49.1725651425547
 10
16.5941114778838
 20
49.1725665135452
 10
16.5941187309236
 20
49.1725660327084
 10
16.5941197001747
 20
49.172566011083
 10
16.5941195126228
 20
49.1725646409866
 10
16.5941322014915
 20
49.1725638234365
 10
16.5941323888961
 20
49.1725651944269
 10
16.5941406111866
 20
49.1725646919633
 10
16.5941404236341
 20
49.1725633218669
 10
16.5942005250668
 20
49.17256026304
 10
16.5942007126209
 20
49.1725616331363
 10
16.5942087997712
 20
49.1725611219763
 10
16.5942086108533
 20
49.1725597517832
 10
16.5942375928788
 20
49.1725580107917
 10
16.594237780434
 20
49.1725593808879
 10
16.5942460025748
 20
49.1725588793108
 10
16.5942458150194
 20
49.1725575092146
 10
16.5942749333971
 20
49.1725557778961
 10
16.5942751357205
 20
49.172557058589
 10
16.5942832215057
 20
49.1725565473269
 10
16.5942830191821
 20
49.172555266634
 10
16.5942851088058
 20
49.1725551436596
 10
16.5942862011601
 20
49.1725627287311
 10
16.5942944233009
 20
49.1725622271505
 10
16.5942942369601
 20
49.1725608580452
 10
16.5943332568213
 20
49.1725584721183
 10
16.5943334443791
 20
49.1725598422143
 10
16.594341666519
 20
49.1725593406304
 10
16.5943414788134
 20
49.1725579714285
 10
16.5943805000336
 20
49.1725555855823
 10
16.5943806875927
 20
49.1725569556783
 10
16.5943889110952
 20
49.1725564541879
 10
16.5943887221724
 20
49.172555083995
 10
16.5944277432404
 20
49.172552699027
 10
16.5944279308008
 20
49.1725540691229
 10
16.5944361529388
 20
49.1725535675322
 10
16.5944359653782
 20
49.1725521974363
 10
16.5944749864417
 20
49.1725498124523
 10
16.5944751753669
 20
49.1725511826449
 10
16.5944833961404
 20
49.1725506809541
 10
16.5944831950276
 20
49.1725494012524
 10
16.5945220489824
 20
49.172547184386
 10
16.5945222365453
 20
49.1725485544817
 10
16.5945304586815
 20
49.1725480528844
 10
16.5945302563515
 20
49.172546772192
 10
16.5945689751632
 20
49.1725445466185
 10
16.594569164091
 20
49.172545916811
 10
16.5945773700961
 20
49.1725455045168
 10
16.5945771838952
 20
49.172544134518
 10
16.594616037694
 20
49.172541918514
 10
16.5946162252595
 20
49.1725432886095
 10
16.5946244326272
 20
49.1725428764088
 10
16.5946242450615
 20
49.1725415063132
 10
16.5946632365745
 20
49.172539300072
 10
16.5946634241414
 20
49.1725406701676
 10
16.5946716315083
 20
49.1725402579634
 10
16.5946714439412
 20
49.172538887868
 10
16.5947101479741
 20
49.1725367516505
 10
16.5947103355422
 20
49.172538121746
 10
16.5947185429083
 20
49.1725377095385
 10
16.59471835534
 20
49.172536339443
 10
16.5947570593688
 20
49.1725342032098
 10
16.5947572469381
 20
49.1725355733052
 10
16.594765332715
 20
49.1725350620093
 10
16.5947652665862
 20
49.1725337918931
 10
16.5948039707587
 20
49.1725316547501
 10
16.5948040219745
 20
49.1725330151636
 10
16.5948122441052
 20
49.1725325135461
 10
16.5948120417681
 20
49.1725312328542
 10
16.5948507457889
 20
49.1725290965895
 10
16.5948509333609
 20
49.1725304666847
 10
16.5948591554907
 20
49.1725299650639
 10
16.5948589677709
 20
49.1725285958627
 10
16.5949017000562
 20
49.1725262924389
 10
16.5949018874819
 20
49.172527663428
 10
16.5949100949923
 20
49.1725272503129
 10
16.5949099074187
 20
49.1725258802177
 10
16.5949448558727
 20
49.1725239304285
 10
16.5949450449585
 20
49.1725252997264
 10
16.594953250957
 20
49.1725248874054
 10
16.5949530647458
 20
49.1725235174071
 10
16.5949913449241
 20
49.1725214414539
 10
16.5949915457546
 20
49.1725227229428
 10
16.5949997532635
 20
49.1725223098213
 10
16.5949995656874
 20
49.1725209397263
 10
16.5950378458618
 20
49.1725188637576
 10
16.5950380334389
 20
49.1725202338525
 10
16.5950462555652
 20
49.1725197322184
 10
16.5950460679878
 20
49.1725183621235
 10
16.5950843481583
 20
49.1725162861394
 10
16.5950845357367
 20
49.1725176562343
 10
16.5950926215072
 20
49.1725171449154
 10
16.5950925555177
 20
49.1725158739053
 10
16.5951306993295
 20
49.1725137882245
 10
16.5951309016747
 20
49.1725150689158
 10
16.5951391090336
 20
49.1725146566785
 10
16.5951389214537
 20
49.1725132865837
 10
16.5951776254465
 20
49.1725111502094
 10
16.5951778130275
 20
49.172512520304
 10
16.595186021749
 20
49.1725121081601
 10
16.5951858328043
 20
49.1725107379686
 10
16.5952239766082
 20
49.1725086522569
 10
16.5952241641904
 20
49.1725100223515
 10
16.5952323715476
 20
49.1725096101075
 10
16.5952321839652
 20
49.1725082400129
 10
16.5952703277652
 20
49.1725061542858
 10
16.5952705153487
 20
49.1725075243804
 10
16.5952787227051
 20
49.172507112133
 10
16.5952785351214
 20
49.1725057420385
 10
16.5953166641523
 20
49.1725037456995
 10
16.5953168665023
 20
49.1725050263905
 10
16.5953250738579
 20
49.1725046141399
 10
16.595324886273
 20
49.1725032440455
 10
16.595363302775
 20
49.1725011776499
 10
16.5953634917246
 20
49.1725025478411
 10
16.5953717124811
 20
49.172502046087
 10
16.5953715248948
 20
49.1725006759926
 10
16.5954099709233
 20
49.1724984307747
 10
16.5954101585106
 20
49.172499800869
 10
16.5954183819933
 20
49.1724992993051
 10
16.5954181782771
 20
49.1724980185174
 10
16.5954567754213
 20
49.1724956935615
 10
16.5954569630099
 20
49.1724970636557
 10
16.595465170363
 20
49.1724966513951
 10
16.5954649826265
 20
49.1724952821949
 10
16.5955032184668
 20
49.1724934742821
 10
16.5955034062043
 20
49.1724948434821
 10
16.5955116135567
 20
49.1724944312183
 10
16.5955114259666
 20
49.1724930611241
 10
16.5955493890937
 20
49.1724912338341
 10
16.5955495766849
 20
49.1724926039282
 10
16.5955577988014
 20
49.1724921022576
 10
16.5955575964451
 20
49.1724908215669
 10
16.5955954673608
 20
49.1724887172647
 10
16.5955956551008
 20
49.1724900864647
 10
16.5956038772165
 20
49.1724895847908
 10
16.5956036896238
 20
49.1724882146968
 10
16.5956415606832
 20
49.1724861094853
 10
16.5956417481292
 20
49.1724874804733
 10
16.5956499556269
 20
49.1724870673055
 10
16.595649768033
 20
49.1724856972115
 10
16.5956880629178
 20
49.1724835316236
 10
16.5956882505127
 20
49.1724849017175
 10
16.5956964726266
 20
49.172484400037
 10
16.5956962702668
 20
49.1724831193466
 10
16.5957344287926
 20
49.1724809440626
 10
16.5957346163888
 20
49.1724823141563
 10
16.5957428251008
 20
49.1724819019728
 10
16.5957426359931
 20
49.1724805326762
 10
16.5957812037273
 20
49.1724783855246
 10
16.5957813913248
 20
49.1724797556183
 10
16.5957896134369
 20
49.1724792539312
 10
16.5957894110747
 20
49.1724779732409
 10
16.5958278421547
 20
49.1724758181812
 10
16.5958280299011
 20
49.1724771873808
 10
16.5958362372479
 20
49.1724767750938
 10
16.5958360496489
 20
49.1724754050001
 10
16.5958741491055
 20
49.1724735872838
 10
16.5958742164785
 20
49.1724748583902
 10
16.5958825440515
 20
49.172474545087
 10
16.5958823564513
 20
49.1724731749935
 10
16.5959203343138
 20
49.1724712581779
 10
16.5959205219151
 20
49.1724726282714
 10
16.5959287292604
 20
49.1724722159778
 10
16.5959285416589
 20
49.1724708458843
 10
16.5959670649375
 20
49.172468967775
 10
16.5959671309493
 20
49.1724702387845
 10
16.5959753382938
 20
49.1724698264877
 10
16.5959751359268
 20
49.1724685457977
 10
16.5960136739659
 20
49.1724665782694
 10
16.5960138615697
 20
49.1724679483627
 10
16.5960220836775
 20
49.172467446659
 10
16.5960218960734
 20
49.1724660765656
 10
16.5960621589513
 20
49.1724636887638
 10
16.5960623465566
 20
49.172465058857
 10
16.5960705686634
 20
49.1724645571498
 10
16.596070366294
 20
49.1724632764601
 10
16.5961106291673
 20
49.1724608886412
 10
16.5961108181373
 20
49.1724622588312
 10
16.5961190388797
 20
49.1724617570238
 10
16.5961188526365
 20
49.1724603870274
 10
16.5961593868514
 20
49.1724580184551
 10
16.5961595758228
 20
49.1724593886451
 10
16.5961677818004
 20
49.1724589762376
 10
16.5961675955558
 20
49.1724576062413
 10
16.5962086602744
 20
49.1724553666698
 10
16.5962088480313
 20
49.1724567358688
 10
16.5962169337803
 20
49.1724562244711
 10
16.5962168677621
 20
49.1724549534617
 10
16.5962577976326
 20
49.1724527033954
 10
16.5962580000068
 20
49.1724539840848
 10
16.5962662073462
 20
49.1724535717672
 10
16.5962660197354
 20
49.1724522016742
 10
16.5963072223112
 20
49.1724499709504
 10
16.596307409923
 20
49.1724513410432
 10
16.5963156320251
 20
49.1724508393186
 10
16.5963154296495
 20
49.1724495586293
 10
16.596356359511
 20
49.1724473085279
 10
16.5963565471243
 20
49.1724486786208
 10
16.596364754462
 20
49.1724482662961
 10
16.5963645668485
 20
49.1724468962033
 10
16.5964054819423
 20
49.1724447354881
 10
16.5964055479654
 20
49.1724460064974
 10
16.5964137553022
 20
49.1724455941693
 10
16.5964137040423
 20
49.1724442337565
 10
16.5964544827769
 20
49.172442063344
 10
16.5964546851561
 20
49.1724433440331
 10
16.5964628924921
 20
49.1724429317015
 10
16.5964627048759
 20
49.1724415616089
 10
16.5965036199611
 20
49.1724394008589
 10
16.5965038223416
 20
49.1724406815478
 10
16.5965120296768
 20
49.1724402692127
 10
16.5965118420592
 20
49.1724388991202
 10
16.5965524844302
 20
49.1724367189934
 10
16.5965526720489
 20
49.1724380890858
 10
16.5965608793832
 20
49.1724376767473
 10
16.5965606917643
 20
49.1724363066548
 10
16.5965976855621
 20
49.1724345006656
 10
16.596597873182
 20
49.172435870758
 10
16.5966060805156
 20
49.1724354584162
 10
16.5966058928955
 20
49.1724340883238
 10
16.5966202179491
 20
49.1724333866552
 10
16.5966341339375
 20
49.1724326559462
 10
16.5966427503351
 20
49.1724322726406
 10
16.5966429527191
 20
49.1724335533293
 10
16.5966511600519
 20
49.1724331409843
 10
16.5966509724306
 20
49.172431770892
 10
16.5966878593924
 20
49.1724297763872
 10
16.5966880470148
 20
49.1724311464794
 10
16.5966962703256
 20
49.1724306457184
 10
16.5966960814871
 20
49.1724292746353
 10
16.5967329684453
 20
49.1724272801161
 10
16.5967331560689
 20
49.1724286502083
 10
16.5967413781629
 20
49.1724281484532
 10
16.5967411757764
 20
49.1724268677647
 10
16.5967741709795
 20
49.1724250492254
 10
16.5967789103859
 20
49.1724247525002
 10
16.5967790980108
 20
49.1724261225923
 10
16.5967868667512
 20
49.1724258600066
 10
16.5967906425631
 20
49.1724230526868
 10
16.5967891378041
 20
49.1724221318049
 10
16.5967962662159
 20
49.1724173925425
 10
16.5967987720224
 20
49.1724189262901
 10
16.5968054767531
 20
49.1724142464986
 10
16.5968024551998
 20
49.1724124943324
 10
16.5968377141434
 20
49.1723911180353
 10
16.5968402675819
 20
49.172393198777
 10
16.5968481256861
 20
49.172389053115
 10
16.5968450858783
 20
49.1723865760417
 10
16.5968521110895
 20
49.172382461707
 10
16.5968538133819
 20
49.172383848868
 10
16.5968584832571
 20
49.1723814668187
 10
16.5968594657829
 20
49.1723771957952
 10
16.5968567522331
 20
49.1723769118144
 10
16.5968573609882
 20
49.1723740605785
 10
16.5968590066107
 20
49.1723657654019
 10
16.5968617187963
 20
49.1723660492859
 10
16.5968630151215
 20
49.1723607133103
 10
16.596860301425
 20
49.1723604302237
 10
16.5968654103594
 20
49.1723403508401
 10
16.5968671072516
 20
49.1723334160761
 10
16.5968698195832
 20
49.1723336990658
 10
16.5968711143955
 20
49.1723283638874
 10
16.5968684032802
 20
49.1723280818885
 10
16.5968750862899
 20
49.1723009676667
 10
16.5968777986196
 20
49.1723012506562
 10
16.5968792297848
 20
49.1722959251569
 10
16.5968765174553
 20
49.1722956421675
 10
16.5968831721473
 20
49.172268707743
 10
16.5968858844753
 20
49.1722689907323
 10
16.5968871792842
 20
49.1722636555536
 10
16.5968844669564
 20
49.1722633725643
 10
16.5968916192775
 20
49.1722359307555
 10
16.5968939386664
 20
49.1722360953999
 10
16.59689523211
 20
49.1722307601244
 10
16.5968926561384
 20
49.1722304868146
 10
16.5968993121764
 20
49.1722035524857
 10
16.5969020229898
 20
49.1722038362719
 10
16.5969033179428
 20
49.1721985001989
 10
16.5969006056185
 20
49.1721982172101
 10
16.5969079385625
 20
49.1721705168683
 10
16.5969103634144
 20
49.1721708699022
 10
16.596911674344
 20
49.1721654454163
 10
16.5969089606579
 20
49.1721651623309
 10
16.5969161620949
 20
49.1721382667178
 10
16.5969188730525
 20
49.1721385496095
 10
16.5969203042085
 20
49.1721332241097
 10
16.5969175918877
 20
49.1721329411211
 10
16.5969227668112
 20
49.1721141327434
 10
16.5969250941845
 20
49.1721058859618
 10
16.5969279280957
 20
49.172106268033
 10
16.5969293444876
 20
49.1721010319366
 10
16.5969266187697
 20
49.1721008384487
 10
16.5969326050369
 20
49.172073766124
 10
16.5969353173546
 20
49.1720740491122
 10
16.5969366121531
 20
49.1720687139328
 10
16.5969338998357
 20
49.1720684309447
 10
16.5969404884297
 20
49.1720402255069
 10
16.5969430496294
 20
49.1720405882193
 10
16.5969444955423
 20
49.1720351733154
 10
16.5969417832266
 20
49.1720348903275
 10
16.596948437848
 20
49.1720079558982
 10
16.5969511501622
 20
49.1720082388859
 10
16.5969525813111
 20
49.1720029133855
 10
16.5969497340069
 20
49.1720026208154
 10
16.5969570801454
 20
49.1719748318634
 10
16.5969597926055
 20
49.1719751139569
 10
16.596961225116
 20
49.1719697885532
 10
16.5969585114403
 20
49.1719695054688
 10
16.5969651808059
 20
49.1719424816347
 10
16.5969678783545
 20
49.1719428540257
 10
16.5969693094996
 20
49.171937528525
 10
16.5969665985527
 20
49.1719372456345
 10
16.5969738675148
 20
49.1719090884934
 10
16.5969765650616
 20
49.1719094608842
 10
16.5969779962049
 20
49.1719041353834
 10
16.5969752838962
 20
49.1719038523963
 10
16.5969815883223
 20
49.1718765322065
 10
16.5969843021406
 20
49.1718768143962
 10
16.5969855955651
 20
49.1718714791194
 10
16.5969830196116
 20
49.1718712058116
 10
16.596988290829
 20
49.1718501429812
 10
16.5969898548283
 20
49.1718440128476
 10
16.5969925671337
 20
49.1718442958343
 10
16.5969938617724
 20
49.1718389615482
 10
16.5969911496148
 20
49.1718386776674
 10
16.5969980143467
 20
49.1718113058955
 10
16.5970007266504
 20
49.1718115888821
 10
16.5970020227985
 20
49.1718062537986
 10
16.5969993089839
 20
49.1718059716093
 10
16.5970061441826
 20
49.1717787786439
 10
16.5970088566322
 20
49.1717790607363
 10
16.597010151415
 20
49.1717737255559
 10
16.5970074404768
 20
49.1717734426663
 10
16.597014060645
 20
49.1717458726308
 10
16.5970167727975
 20
49.1717461565111
 10
16.5970180677263
 20
49.1717408204365
 10
16.5970153554264
 20
49.1717405374503
 10
16.5970220690162
 20
49.1717132454011
 10
16.5970247813146
 20
49.1717135283871
 10
16.597026076094
 20
49.1717081932064
 10
16.5970233637958
 20
49.1717079102204
 10
16.5970276352924
 20
49.1716903953898
 10
16.5970303477373
 20
49.1716906774816
 10
16.5970319264883
 20
49.1716844579436
 10
16.5970292141914
 20
49.1716841749577
 10
16.5970355404596
 20
49.1716583930902
 10
16.5970382527551
 20
49.1716586760759
 10
16.5970398315041
 20
49.1716524565378
 10
16.5970371192089
 20
49.1716521735521
 10
16.5970435670597
 20
49.1716264907666
 10
16.5970462807171
 20
49.171626773849
 10
16.5970478581005
 20
49.1716205542139
 10
16.5970451458069
 20
49.1716202712285
 10
16.5970521876217
 20
49.1715918266088
 10
16.5970616732629
 20
49.171592861759
 10
16.597070219218
 20
49.1715619912687
 10
16.5970607335825
 20
49.1715609561192
 10
16.5970673029998
 20
49.1715353724148
 10
16.5970700152888
 20
49.1715356553998
 10
16.5970712952968
 20
49.1715304096221
 10
16.5970687341225
 20
49.1715300469126
 10
16.5970700302559
 20
49.1715247118281
 10
16.5970727264189
 20
49.1715250841199
 10
16.5970741575407
 20
49.1715197586175
 10
16.5970714452525
 20
49.1715194756327
 10
16.5970741711433
 20
49.171508814949
 10
16.5970768834309
 20
49.1715090979338
 10
16.5970781781993
 20
49.1715037627524
 10
16.597075465912
 20
49.1715034797676
 10
16.5970773299858
 20
49.1714963759682
 10
16.5970800409092
 20
49.1714966588562
 10
16.597081335677
 20
49.1714913236747
 10
16.5970786233903
 20
49.17149104069
 10
16.5970854324742
 20
49.1714648408379
 10
16.5970993585249
 20
49.1714665539021
 10
16.5971177728216
 20
49.1713917904168
 10
16.5971123482588
 20
49.171391224449
 10
16.5971078633994
 20
49.1713908156377
 10
16.5971033933019
 20
49.1713903174226
 10
16.5970964688658
 20
49.1713896449848
 10
16.5971028133193
 20
49.1713645880206
 10
16.5971038128459
 20
49.1713610409118
 10
16.5971042753203
 20
49.1713590838073
 10
16.5971069862363
 20
49.1713593666947
 10
16.5971094132317
 20
49.171349680665
 10
16.597106715862
 20
49.1713493073833
 10
16.5971148787181
 20
49.1713174147324
 10
16.5971175909954
 20
49.1713176977162
 10
16.5971200328961
 20
49.1713079213887
 10
16.5971173206193
 20
49.1713076384049
 10
16.5971239060989
 20
49.1712819653894
 10
16.5971266170109
 20
49.1712822482763
 10
16.5971281957367
 20
49.1712760287366
 10
16.5971254834616
 20
49.171275745753
 10
16.597132082331
 20
49.1712499832365
 10
16.5971346581054
 20
49.1712502574351
 10
16.5971363733286
 20
49.1712440466802
 10
16.5971336624187
 20
49.1712437637935
 10
16.5971405403874
 20
49.1712163025102
 10
16.5971432526594
 20
49.1712165854935
 10
16.597144831381
 20
49.1712103659536
 10
16.5971421189618
 20
49.1712100838643
 10
16.5971487179613
 20
49.1711843204526
 10
16.59715141547
 20
49.1711846928393
 10
16.5971529941897
 20
49.1711784732992
 10
16.5971502819197
 20
49.1711781903162
 10
16.5971710744487
 20
49.1710965413385
 10
16.5971786805525
 20
49.1710655136817
 10
16.5971746195374
 20
49.1710650445062
 10
16.5971862462183
 20
49.1710180209788
 10
16.5971903219912
 20
49.1710184007502
 10
16.5971980642744
 20
49.1709873836647
 10
16.5971940034131
 20
49.1709869135958
 10
16.5971973379663
 20
49.17097340167
 10
16.5972000502254
 20
49.1709736846519
 10
16.5972014925812
 20
49.1709674554321
 10
16.5971987803225
 20
49.1709671724501
 10
16.5972064011505
 20
49.1709360553872
 10
16.5972091134075
 20
49.1709363383689
 10
16.597210692112
 20
49.1709301188277
 10
16.5972079797076
 20
49.1709298367401
 10
16.5972155859103
 20
49.1708988081859
 10
16.5972182981654
 20
49.1708990911674
 10
16.5972198768675
 20
49.1708928716261
 10
16.5972171646128
 20
49.1708925886447
 10
16.5972252169962
 20
49.1708596931856
 10
16.5972279292492
 20
49.1708599761669
 10
16.5972294931875
 20
49.1708538460291
 10
16.5972267809349
 20
49.1708535630479
 10
16.5972344017278
 20
49.1708224459825
 10
16.5972371139787
 20
49.1708227289635
 10
16.5972385563254
 20
49.170816499743
 10
16.5972359804254
 20
49.1708162264409
 10
16.5972457443312
 20
49.1707763068053
 10
16.5972484565797
 20
49.170776589786
 10
16.5972506144642
 20
49.1707676978128
 10
16.5972479022161
 20
49.1707674148321
 10
16.5972566700984
 20
49.1707318566176
 10
16.5972593823446
 20
49.1707321395981
 10
16.5972615253162
 20
49.1707233379224
 10
16.5972588132182
 20
49.1707230540478
 10
16.5972662568356
 20
49.1706930098239
 10
16.5972909249728
 20
49.1706956654057
 10
16.5973098509242
 20
49.1706203059857
 10
16.5972976532236
 20
49.1706189878763
 10
16.5973040677829
 20
49.1705926695677
 10
16.5973067800217
 20
49.1705929525472
 10
16.5973079383914
 20
49.1705876076837
 10
16.5973053625028
 20
49.1705873343831
 10
16.5973068048341
 20
49.1705811051615
 10
16.5973095170723
 20
49.1705813881408
 10
16.5973108117914
 20
49.170576052956
 10
16.5973080995535
 20
49.1705757699767
 10
16.5973102574185
 20
49.1705668780021
 10
16.5973129696559
 20
49.1705671609814
 10
16.5973142643743
 20
49.1705618257965
 10
16.5973115521371
 20
49.1705615428173
 10
16.5973129797057
 20
49.1705554029993
 10
16.5973156919426
 20
49.1705556859785
 10
16.5973169865127
 20
49.1705503516877
 10
16.5973142744238
 20
49.1705500678144
 10
16.5973210467318
 20
49.1705224181282
 10
16.5973251090674
 20
49.1705228873953
 10
16.5973320866574
 20
49.1704939859598
 10
16.5973280256877
 20
49.1704935167897
 10
16.5973336178554
 20
49.170469672746
 10
16.5973363300876
 20
49.1704699557248
 10
16.5973377724116
 20
49.1704637265027
 10
16.5973350600321
 20
49.170463444418
 10
16.5973415189821
 20
49.1704368570017
 10
16.5973442312126
 20
49.1704371399802
 10
16.5973458098841
 20
49.1704309204368
 10
16.5973430975064
 20
49.1704306383523
 10
16.5973494347117
 20
49.170403952747
 10
16.5973521470881
 20
49.1704042348313
 10
16.5973537257576
 20
49.1703980152877
 10
16.5973510135292
 20
49.1703977323094
 10
16.5973576199245
 20
49.170370251749
 10
16.5973603321515
 20
49.1703705347271
 10
16.5973619108189
 20
49.1703643151834
 10
16.5973591985923
 20
49.1703640322053
 10
16.5973656721297
 20
49.1703373562775
 10
16.5973683843549
 20
49.1703376392555
 10
16.597369826671
 20
49.1703314100329
 10
16.5973671158097
 20
49.1703311271517
 10
16.597373573214
 20
49.1703045405303
 10
16.5973763001985
 20
49.1703047341044
 10
16.5973777277516
 20
49.1702985942854
 10
16.5973750155285
 20
49.1702983113076
 10
16.5973814890488
 20
49.1702716353787
 10
16.5973842012705
 20
49.1702719183563
 10
16.5973857799318
 20
49.1702656988121
 10
16.5973830677105
 20
49.1702654158346
 10
16.5973894048731
 20
49.1702387302264
 10
16.5973921170931
 20
49.1702390132038
 10
16.5973936971158
 20
49.1702327937563
 10
16.5973909835327
 20
49.1702325106821
 10
16.5973974422749
 20
49.1702059241558
 10
16.5974001544931
 20
49.170206207133
 10
16.5974369989367
 20
49.1700256582406
 10
16.5974512453856
 20
49.1699677855952
 10
16.5974590908134
 20
49.1699361417672
 10
16.5975981840568
 20
49.1693768953417
 10
16.5976868231572
 20
49.1690204759565
 10
16.5976529286023
 20
49.1690168941184
 10
16.5976957001353
 20
49.1688380322907
 10
16.5976996732359
 20
49.168838314317
 10
16.5977036333198
 20
49.1688379649725
 10
16.5977073507289
 20
49.1688370050402
 10
16.5977106121596
 20
49.1688354899311
 10
16.5977132250476
 20
49.1688335081866
 10
16.5977150407123
 20
49.1688311749803
 10
16.5977265294232
 20
49.1687874874627
 10
16.5977270841998
 20
49.1687853469623
 10
16.5977268611765
 20
49.1687831801952
 10
16.5977258735932
 20
49.1687811074972
 10
16.5977241755581
 20
49.1687792439643
 10
16.5977218606496
 20
49.1687776912131
 10
16.5977190567572
 20
49.1687765352055
 10
16.5977159186391
 20
49.1687758411976
 10
16.5977126209221
 20
49.1687756460069
 10
16.5977226124513
 20
49.1687360138866
 10
16.5977262327798
 20
49.1687366028284
 10
16.5977299615361
 20
49.1687366269089
 10
16.5977335985107
 20
49.1687360872931
 10
16.5977369475421
 20
49.1687350107601
 10
16.5977398263911
 20
49.168733456735
 10
16.5977420819991
 20
49.1687315084226
 10
16.597743589272
 20
49.1687292718168
 10
16.5977543335163
 20
49.1686850801013
 10
16.5977536352815
 20
49.1686828506576
 10
16.5977521499556
 20
49.1686807932809
 10
16.5977499599841
 20
49.1686790268879
 10
16.597747193474
 20
49.1686776528325
 10
16.5977440072072
 20
49.1686767491778
 10
16.5977405842087
 20
49.1686763687142
 10
16.5977371225084
 20
49.1686765318301
 10
16.5977729142015
 20
49.1685366113907
 10
16.5977758114697
 20
49.1685370513189
 10
16.5977787853333
 20
49.1685370607079
 10
16.5977816896438
 20
49.1685366391333
 10
16.5977843815273
 20
49.1685358081113
 10
16.5977867260655
 20
49.1685346078134
 10
16.5977886099305
 20
49.1685330980338
 10
16.5977899381793
 20
49.1685313525347
 10
16.5977906468208
 20
49.1685294581301
 10
16.5977950767681
 20
49.1685101446148
 10
16.5977947160703
 20
49.168507976216
 10
16.5977935913649
 20
49.1685059236338
 10
16.5977917638724
 20
49.1685041006603
 10
16.5977893365673
 20
49.1685026104836
 10
16.5977864423143
 20
49.1685015339913
 10
16.5977832449373
 20
49.1685009316561
 10
16.5977799222315
 20
49.168500837807
 10
16.597786052319
 20
49.1684754038228
 10
16.5978160827598
 20
49.1683519888542
 10
16.5978225115092
 20
49.1683255811041
 10
16.5978257462218
 20
49.1683262747315
 10
16.5978291406857
 20
49.1683264351809
 10
16.5978324938851
 20
49.1683260518012
 10
16.59783560616
 20
49.168325147505
 10
16.5978382919206
 20
49.1683237769574
 10
16.5978403915876
 20
49.1683220210911
 10
16.597841781727
 20
49.1683199842088
 10
16.5978468933546
 20
49.1683007190818
 10
16.5978468925759
 20
49.1682985346237
 10
16.5978461204349
 20
49.168296410285
 10
16.5978446201322
 20
49.1682944603875
 10
16.5978424722364
 20
49.1682927901468
 10
16.597839792548
 20
49.1682914919028
 10
16.5978367281209
 20
49.1682906357917
 10
16.5978334452871
 20
49.1682902670873
 10
16.5978660148445
 20
49.1681481279986
 10
16.5978736795267
 20
49.1681489678403
 10
16.597880806853
 20
49.1681477986008
 10
16.5978859643128
 20
49.1681452928605
 10
16.5978873244847
 20
49.1681410477398
 10
16.59789846138
 20
49.1680969743484
 10
16.5978986820292
 20
49.1680949693252
 10
16.597898219732
 20
49.1680929818538
 10
16.5978970982354
 20
49.1680911104028
 10
16.5978953724627
 20
49.1680894484179
 10
16.5978931295466
 20
49.1680880780633
 10
16.5978904795805
 20
49.1680870677561
 10
16.5978875537769
 20
49.168086466609
 10
16.5978844975027
 20
49.1680863048396
 10
16.5978939018905
 20
49.1680510631643
 10
16.5978971476
 20
49.1680516065177
 10
16.5979004967508
 20
49.1680516235499
 10
16.5979037548851
 20
49.1680511140256
 10
16.5979067335819
 20
49.1680501079865
 10
16.5979092565014
 20
49.1680486625633
 10
16.5979111783251
 20
49.1680468642238
 10
16.5979123869699
 20
49.1680448153629
 10
16.5979128114735
 20
49.1680426366708
 10
16.5979228146657
 20
49.16799875416
 10
16.597922511069
 20
49.1679964821775
 10
16.5979214487088
 20
49.1679943110074
 10
16.5979196801469
 20
49.1679923484001
 10
16.5979172915178
 20
49.167990690921
 10
16.5979144029717
 20
49.1679894212689
 10
16.5979111571412
 20
49.1679886029347
 10
16.5979077157892
 20
49.1679882754408
 10
16.5979500089902
 20
49.1678148067533
 10
16.5981884131804
 20
49.1670073548421
 10
16.5981938717135
 20
49.1669843153789
 10
16.5981896599243
 20
49.1669839259651
 10
16.5982727566393
 20
49.1666225915269
 10
16.5984047507565
 20
49.1659909314622
 10
16.5984116414236
 20
49.165990968317
 10
16.598420695044
 20
49.1654890628458
 10
16.5984009080229
 20
49.1654869347021
 10
16.5983998974672
 20
49.1654913855418
 10
16.5983639124403
 20
49.1654871126483
 10
16.5983653944075
 20
49.1654831484326
 10
16.5981875398671
 20
49.1654642816052
 10
16.597844587438
 20
49.1654278162777
 10
16.5962088324256
 20
49.1652548833847
 10
16.5959280031717
 20
49.1652256261181
 10
16.5950129696701
 20
49.1651286307987
 10
16.5949208709822
 20
49.1651191961127
 10
16.5948505136223
 20
49.165119265064
 10
16.5934064979952
 20
49.1652837246369
 10
16.5933475870151
 20
49.1652904850713
 10
16.5931595007626
 20
49.165311859283
 10
16.592524287052
 20
49.165464829303
 10
16.5924679367165
 20
49.1654828063725
 10
16.5924571685813
 20
49.1654862022623
 10
16.5920970917959
 20
49.165586804605
 10
16.5918541653923
 20
49.1656545725335
 10
16.5918433971778
 20
49.1656579683659
 10
16.5917724425832
 20
49.1656783448293
 10
16.5910097409667
 20
49.165857345802
 10
16.5907649270879
 20
49.1659089683609
 10
16.5907278516502
 20
49.1659154689721
 10
16.5907394212752
 20
49.1661626842552
 10
16.5907394094419
 20
49.1661852965166
 10
16.5907451749273
 20
49.1663223788292
 10
16.5907454156467
 20
49.1663292703148
 10
16.5907571717291
 20
49.1667081061534
 10
16.5907589181283
 20
49.1667459488816
 10
16.5907767452856
 20
49.167208251309
 10
16.5907809706169
 20
49.1673246019209
 10
16.5907816143491
 20
49.1673482557293
 10
16.5907912734559
 20
49.1675035251039
 10
16.5907896588011
 20
49.167614305011
 10
16.5907870637618
 20
49.1677293569787
 10
16.5907821527804
 20
49.1679210384778
 10
16.5907767912657
 20
49.1683099646001
 10
16.5907080531304
 20
49.1689363482128
 10
16.5906930718243
 20
49.1691138368555
 10
16.5906802394764
 20
49.169269136435
 10
16.5906842181887
 20
49.1692826251489
 10
16.5906909557703
 20
49.1692894354853
 10
16.5907012940271
 20
49.1692953257491
 10
16.5907132730273
 20
49.1692987999114
 10
16.5907264985068
 20
49.1692997395091
 10
16.5907267961439
 20
49.1693021124161
 10
16.5907401364138
 20
49.1693015224771
 10
16.5907397022832
 20
49.1692991407775
 10
16.5907771951615
 20
49.1692976427145
 10
16.5907772678205
 20
49.1693005423521
 10
16.5907908806321
 20
49.1692999726742
 10
16.590790461567
 20
49.1692974997839
 10
16.5908271543892
 20
49.1692966693891
 10
16.5908276508592
 20
49.1692995086832
 10
16.5908411570173
 20
49.1692987496131
 10
16.59084116161
 20
49.1692962172734
 10
16.5908754014331
 20
49.1692952134985
 10
16.5908752149642
 20
49.1692980033694
 10
16.5908884336585
 20
49.169297314324
 10
16.5908889836294
 20
49.1692948207298
 10
16.5909257683286
 20
49.1692942690927
 10
16.590925885461
 20
49.1692968996275
 10
16.5909403312609
 20
49.1692962977531
 10
16.5909404278769
 20
49.1692940433083
 10
16.5909742722175
 20
49.1692929200513
 10
16.5909745415377
 20
49.1692954727543
 10
16.5909877590142
 20
49.1692947827066
 10
16.590987734055
 20
49.1692924291727
 10
16.59101726306
 20
49.1692915420463
 10
16.5910176821363
 20
49.1692940149358
 10
16.5910301749331
 20
49.1692935447576
 10
16.5910301976845
 20
49.1692917373273
 10
16.5910663598898
 20
49.1692907787087
 10
16.5910670040936
 20
49.1692927239727
 10
16.5910807386207
 20
49.1692922524556
 10
16.5910806841131
 20
49.1692900777276
 10
16.5911284765761
 20
49.1692888598904
 10
16.5911290321509
 20
49.1692913415715
 10
16.5911414032248
 20
49.1692907731863
 10
16.5911421963296
 20
49.1692884777689
 10
16.5911786459926
 20
49.1692874490843
 10
16.591178276697
 20
49.1692896841572
 10
16.5911910420338
 20
49.1692892342277
 10
16.5911912897554
 20
49.1692869000659
 10
16.591228527944
 20
49.1692861082874
 10
16.5912288403768
 20
49.1692883917902
 10
16.5912424976427
 20
49.1692875529563
 10
16.5912421704376
 20
49.1692853588564
 10
16.5912505942976
 20
49.1692861381912
 10
16.591283955732
 20
49.1692854328
 10
16.5913113128221
 20
49.1699539191549
 10
16.5913114923169
 20
49.1699570072837
 10
16.5906775947828
 20
49.1700707183569
 10
16.5906353416572
 20
49.1700784803599
 10
16.590084063705
 20
49.1701788820681
 10
16.5895269260304
 20
49.1702838398315
 10
16.589016882339
 20
49.1703801112839
 10
16.5886222616617
 20
49.1704549143154
 10
16.5881925250549
 20
49.1705351804108
 10
16.5881633322367
 20
49.1705407047522
 10
16.5883351104558
 20
49.1712248839491
 10
16.5883613460011
 20
49.1713323970069
 10
16.5886329634314
 20
49.1720919625713
 10
16.5888189988946
 20
49.1725689322284
 10
16.5888294846932
 20
49.1725664210193
 10
16.5888310826827
 20
49.1725792883791
 10
16.5889569190673
 20
49.1725724910402
 10
16.588957320658
 20
49.1725600371228
 10
16.5890286571566
 20
49.1725557893231
 10
16.589029031979
 20
49.1725585295324
 10
16.5895505791097
 20
49.1725321794902
 10
16.5895662400094
 20
49.1726711417705
 10
16.589878708641
 20
49.1726544476185
 97
0
 75
0
 76
1
 98
0
  0
ENDSEC
  0
SECTION
  2
OBJECTS
  0
DICTIONARY
  5
C
330
0
100
AcDbDictionary
281
     1
  3
ACAD_GROUP
350
D
  3
ACAD_LAYOUT
350
1A
  3
ACAD_MLEADERSTYLE
350
43
  3
ACAD_PLOTSETTINGS
350
19
  3
ACAD_PLOTSTYLENAME
350
E
  3
ACAD_TABLESTYLE
350
42
  0
DICTIONARY
  5
D
102
{ACAD_REACTORS
330
C
102
}
330
C
100
AcDbDictionary
281
     1
  0
DICTIONARY
  5
1A
102
{ACAD_REACTORS
330
C
102
}
330
C
100
AcDbDictionary
281
     1
  3
Layout1
350
1E
  3
Model
350
22
  0
DICTIONARY
  5
43
102
{ACAD_REACTORS
330
C
102
}
330
C
100
AcDbDictionary
281
     1
  0
DICTIONARY
  5
19
102
{ACAD_REACTORS
330
C
102
}
330
C
100
AcDbDictionary
281
     1
  0
ACDBDICTIONARYWDFLT
  5
E
102
{ACAD_REACTORS
330
C
102
}
330
C
100
AcDbDictionary
281
     1
  3
Normal
350
F
100
AcDbDictionaryWithDefault
340
F
  0
DICTIONARY
  5
42
102
{ACAD_REACTORS
330
C
102
}
330
C
100
AcDbDictionary
281
     1
  0
LAYOUT
  5
1E
102
{ACAD_REACTORS
330
1A
102
}
330
1A
100
AcDbPlotSettings
  1

  2
none_device
  4

  6

 40
0.0
 41
0.0
 42
0.0
 43
0.0
 44
0.0
 45
0.0
 46
0.0
 47
0.0
 48
0.0
 49
0.0
140
0.0
141
0.0
142
1.0
143
1.0
 70
   688
 72
     0
 73
     0
 74
     5
  7

 75
    16
 76
     0
 77
     2
 78
   300
147
1.0
148
0.0
149
0.0
100
AcDbLayout
  1
Layout1
 70
     1
 71
     1
 10
0.0
 20
0.0
 11
12.0
 21
9.0
 12
0.0
 22
0.0
 32
0.0
 14
1.000000000000000E+20
 24
1.000000000000000E+20
 34
1.000000000000000E+20
 15
-1.000000000000000E+20
 25
-1.000000000000000E+20
 35
-1.000000000000000E+20
146
0.0
 13
0.0
 23
0.0
 33
0.0
 16
1.0
 26
0.0
 36
0.0
 17
0.0
 27
1.0
 37
0.0
 76
     0
330
1B
  0
LAYOUT
  5
22
102
{ACAD_REACTORS
330
1A
102
}
330
1A
100
AcDbPlotSettings
  1

  2
none_device
  4

  6

 40
0.0
 41
0.0
 42
0.0
 43
0.0
 44
0.0
 45
0.0
 46
0.0
 47
0.0
 48
0.0
 49
0.0
140
0.0
141
0.0
142
1.0
143
1.0
 70
  1712
 72
     0
 73
     0
 74
     0
  7

 75
     0
 76
     0
 77
     2
 78
   300
147
1.0
148
0.0
149
0.0
100
AcDbLayout
  1
Model
 70
     1
 71
     0
 10
0.0
 20
0.0
 11
12.0
 21
9.0
 12
0.0
 22
0.0
 32
0.0
 14
30.0
 24
49.75
 34
0.0
 15
130.5
 25
163.1318914119703
 35
0.0
146
0.0
 13
0.0
 23
0.0
 33
0.0
 16
1.0
 26
0.0
 36
0.0
 17
0.0
 27
1.0
 37
0.0
 76
     0
330
1F
331
29
  0
ENDSEC
  0
EOF
