  0
SECTION
  2
HEADER
  9
$ACADVER
  1
AC1018
  9
$ACADMAINTVER
 70
     0
  9
$DWGCODEPAGE
  3
ANSI_1252
  9
$EXTMIN
 10
-602951.8894
 20
-1165649.53
 30
0.0
  9
$EXTMAX
 10
-592096.7572
 20
-1157083.36
 30
0.0
  9
$LIMMIN
 10
0.0
 20
0.0
  9
$LIMMAX
 10
12.0
 20
9.0
  9
$ORTHOMODE
 70
     0
  9
$REGENMODE
 70
     1
  9
$FILLMODE
 70
     1
  9
$QTEXTMODE
 70
     0
  9
$MIRRTEXT
 70
     1
  9
$LTSCALE
 40
1.0
  9
$ATTMODE
 70
     1
  9
$TEXTSIZE
 40
0.2
  9
$TRACEWID
 40
0.05
  9
$TEXTSTYLE
  7
Standard
  9
$CLAYER
  8
0
  9
$CELTYPE
  6
ByLayer
  9
$CECOLOR
 62
   256
  9
$CELTSCALE
 40
1.0
  9
$DISPSILH
 70
     0
  9
$LUNITS
 70
     2
  9
$LUPREC
 70
     4
  9
$SKETCHINC
 40
0.1
  9
$FILLETRAD
 40
0.5
  9
$AUNITS
 70
     0
  9
$AUPREC
 70
     0
  9
$MENU
  1
.
  9
$ELEVATION
 40
0.0
  9
$PELEVATION
 40
0.0
  9
$THICKNESS
 40
0.0
  9
$LIMCHECK
 70
     0
  9
$CHAMFERA
 40
0.5
  9
$CHAMFERB
 40
0.5
  9
$CHAMFERC
 40
1.0
  9
$CHAMFERD
 40
0.0
  9
$SKPOLY
 70
     0
  9
$ANGBASE
 50
0.0
  9
$ANGDIR
 70
     0
  9
$PDMODE
 70
     0
  9
$PDSIZE
 40
0.0
  9
$PLINEWID
 40
0.0
  9
$SPLFRAME
 70
     0
  9
$SPLINETYPE
 70
     6
  9
$SPLINESEGS
 70
     8
  9
$HANDSEED
  5
00020048
  9
$SURFTAB1
 70
     6
  9
$SURFTAB2
 70
     6
  9
$SURFTYPE
 70
     6
  9
$SURFU
 70
     6
  9
$SURFV
 70
     6
  9
$UCSBASE
  2

  9
$UCSNAME
  2

  9
$UCSORG
 10
0.0
 20
0.0
 30
0.0
  9
$UCSXDIR
 10
1.0
 20
0.0
 30
0.0
  9
$UCSYDIR
 10
0.0
 20
1.0
 30
0.0
  9
$UCSORTHOREF
  2

  9
$UCSORTHOVIEW
 70
     0
  9
$UCSORGTOP
 10
0.0
 20
0.0
 30
0.0
  9
$UCSORGBOTTOM
 10
0.0
 20
0.0
 30
0.0
  9
$UCSORGLEFT
 10
0.0
 20
0.0
 30
0.0
  9
$UCSORGRIGHT
 10
0.0
 20
0.0
 30
0.0
  9
$UCSORGFRONT
 10
0.0
 20
0.0
 30
0.0
  9
$UCSORGBACK
 10
0.0
 20
0.0
 30
0.0
  9
$PUCSBASE
  2

  9
$PUCSNAME
  2

  9
$PUCSORG
 10
0.0
 20
0.0
 30
0.0
  9
$PUCSXDIR
 10
1.0
 20
0.0
 30
0.0
  9
$PUCSYDIR
 10
0.0
 20
1.0
 30
0.0
  9
$PUCSORTHOREF
  2

  9
$PUCSORTHOVIEW
 70
     0
  9
$PUCSORGTOP
 10
0.0
 20
0.0
 30
0.0
  9
$PUCSORGBOTTOM
 10
0.0
 20
0.0
 30
0.0
  9
$PUCSORGLEFT
 10
0.0
 20
0.0
 30
0.0
  9
$PUCSORGRIGHT
 10
0.0
 20
0.0
 30
0.0
  9
$PUCSORGFRONT
 10
0.0
 20
0.0
 30
0.0
  9
$PUCSORGBACK
 10
0.0
 20
0.0
 30
0.0
  9
$WORLDVIEW
 70
     1
  9
$SHADEDGE
 70
     3
  9
$SHADEDIF
 70
    70
  9
$TILEMODE
 70
     1
  9
$MAXACTVP
 70
    64
  9
$PINSBASE
 10
0.0
 20
0.0
 30
0.0
  9
$PLIMCHECK
 70
     0
  9
$PEXTMIN
 10
1.000000000000000E+20
 20
1.000000000000000E+20
 30
1.000000000000000E+20
  9
$PEXTMAX
 10
-1.000000000000000E+20
 20
-1.000000000000000E+20
 30
-1.000000000000000E+20
  9
$PLIMMIN
 10
0.0
 20
0.0
  9
$PLIMMAX
 10
12.0
 20
9.0
  9
$UNITMODE
 70
     0
  9
$VISRETAIN
 70
     1
  9
$PLINEGEN
 70
     0
  9
$PSLTSCALE
 70
     1
  9
$TREEDEPTH
 70
  3020
  9
$CMLSTYLE
  2
Standard
  9
$CMLJUST
 70
     0
  9
$CMLSCALE
 40
1.0
  9
$PROXYGRAPHICS
 70
     1
  9
$MEASUREMENT
 70
     0
  9
$CELWEIGHT
370
    -1
  9
$ENDCAPS
280
     0
  9
$JOINSTYLE
280
     0
  9
$LWDISPLAY
290
     0
  9
$INSUNITS
 70
     1
  9
$HYPERLINKBASE
  1

  9
$STYLESHEET
  1

  9
$XEDIT
290
     1
  9
$CEPSNTYPE
380
     0
  9
$PSTYLEMODE
290
     1
  9
$EXTNAMES
290
     1
  9
$PSVPSCALE
 40
0.0
  9
$OLESTARTUP
290
     0
  9
$SORTENTS
280
   127
  9
$INDEXCTL
280
     0
  9
$HIDETEXT
280
     1
  9
$XCLIPFRAME
290
     0
  9
$HALOGAP
280
     0
  9
$OBSCOLOR
 70
   257
  9
$OBSLTYPE
280
     0
  9
$INTERSECTIONDISPLAY
280
     0
  9
$INTERSECTIONCOLOR
 70
   257
  9
$DIMASSOC
280
     2
  9
$PROJECTNAME
  1

  0
ENDSEC
  0
SECTION
  2
CLASSES
  0
CLASS
  1
ACDBDICTIONARYWDFLT
  2
AcDbDictionaryWithDefault
  3
ObjectDBX Classes
 90
        0
 91
        4
280
     0
281
     0
  0
ENDSEC
  0
SECTION
  2
TABLES
  0
TABLE
  2
VPORT
  5
8
330
0
100
AcDbSymbolTable
 70
     1
  0
VPORT
  5
29
330
8
100
AcDbSymbolTableRecord
100
AcDbViewportTableRecord
  2
*Active
 70
     0
 10
0.0
 20
0.0
 11
1.0
 21
1.0
 12
80.25
 22
106.4409457059851
 13
0.0
 23
0.0
 14
0.5
 24
0.5
 15
0.5
 25
0.5
 16
0.0
 26
0.0
 36
1.0
 17
0.0
 27
0.0
 37
0.0
 40
113.3818914119703
 41
0.8863849310366128
 42
50.0
 43
0.0
 44
0.0
 50
0.0
 51
0.0
 71
     0
 72
  1000
 73
     1
 74
     3
 75
     0
 76
     0
 77
     0
 78
     0
281
     0
 65
     1
110
0.0
120
0.0
130
0.0
111
1.0
121
0.0
131
0.0
112
0.0
122
1.0
132
0.0
 79
     0
146
0.0
  0
ENDTAB
  0
TABLE
  2
LTYPE
  5
5
330
0
100
AcDbSymbolTable
 70
     1
  0
LTYPE
  5
14
330
5
100
AcDbSymbolTableRecord
100
AcDbLinetypeTableRecord
  2
ByBlock
 70
     0
  3

 72
    65
 73
     0
 40
0.0
  0
LTYPE
  5
15
330
5
100
AcDbSymbolTableRecord
100
AcDbLinetypeTableRecord
  2
ByLayer
 70
     0
  3

 72
    65
 73
     0
 40
0.0
  0
LTYPE
  5
16
330
5
100
AcDbSymbolTableRecord
100
AcDbLinetypeTableRecord
  2
Continuous
 70
     0
  3
Solid line
 72
    65
 73
     0
 40
0.0
  0
ENDTAB
  0
TABLE
  2
LAYER
  5
2
330
0
100
AcDbSymbolTable
 70
     1
  0
LAYER
  5
10
330
2
100
AcDbSymbolTableRecord
100
AcDbLayerTableRecord
  2
0
 70
     0
 62
     7
  6
Continuous
370
    -3
390
F
  0
LAYER
  5
20047
330
2
100
AcDbSymbolTableRecord
100
AcDbLayerTableRecord
  2
kontaminace zemin
 70
     0
 62
     7
  6
Continuous
370
    -3
390
F
  0
ENDTAB
  0
TABLE
  2
STYLE
  5
3
330
0
100
AcDbSymbolTable
 70
     1
  0
STYLE
  5
11
330
3
100
AcDbSymbolTableRecord
100
AcDbTextStyleTableRecord
  2
Standard
 70
     0
 40
0.0
 41
1.0
 50
0.0
 71
     0
 42
0.2
  3
txt
  4

  0
ENDTAB
  0
TABLE
  2
VIEW
  5
6
330
0
100
AcDbSymbolTable
 70
     0
  0
ENDTAB
  0
TABLE
  2
UCS
  5
7
330
0
100
AcDbSymbolTable
 70
     0
  0
ENDTAB
  0
TABLE
  2
APPID
  5
9
330
0
100
AcDbSymbolTable
 70
     1
  0
APPID
  5
12
330
9
100
AcDbSymbolTableRecord
100
AcDbRegAppTableRecord
  2
ACAD
 70
     0
  0
ENDTAB
  0
TABLE
  2
DIMSTYLE
  5
A
330
0
100
AcDbSymbolTable
 70
     1
100
AcDbDimStyleTable
  0
DIMSTYLE
105
27
330
A
100
AcDbSymbolTableRecord
100
AcDbDimStyleTableRecord
  2
Standard
 70
     0
340
11
  0
ENDTAB
  0
TABLE
  2
BLOCK_RECORD
  5
1
330
0
100
AcDbSymbolTable
 70
     1
  0
BLOCK_RECORD
  5
1F
330
1
100
AcDbSymbolTableRecord
100
AcDbBlockTableRecord
  2
*Model_Space
340
22
  0
BLOCK_RECORD
  5
1B
330
1
100
AcDbSymbolTableRecord
100
AcDbBlockTableRecord
  2
*Paper_Space
340
1E
  0
ENDTAB
  0
ENDSEC
  0
SECTION
  2
BLOCKS
  0
BLOCK
  5
20
330
1F
100
AcDbEntity
  8
0
100
AcDbBlockBegin
  2
*Model_Space
 70
     0
 10
0.0
 20
0.0
 30
0.0
  3
*Model_Space
  1

  0
ENDBLK
  5
21
330
1F
100
AcDbEntity
  8
0
100
AcDbBlockEnd
  0
BLOCK
  5
1C
330
1B
100
AcDbEntity
 67
     1
  8
0
100
AcDbBlockBegin
  2
*Paper_Space
 70
     0
 10
0.0
 20
0.0
 30
0.0
  3
*Paper_Space
  1

  0
ENDBLK
  5
1D
330
1B
100
AcDbEntity
 67
     1
  8
0
100
AcDbBlockEnd
  0
ENDSEC
  0
SECTION
  2
ENTITIES
  0
HATCH
  5
20000
100
AcDbEntity
  8
kontaminace zemin
100
AcDbHatch
 10
0
 20
0
 30
0
210
0
220
0
230
1
  2
SOLID
 70
1
 71
0
 91
1
 92
2
 72
0
 73
1
 93
6
 10
-600396.34
 20
-1162978.065
 10
-600391.92
 20
-1162986.22
 10
-600391.91
 20
-1162987.71
 10
-600372.4459
 20
-1162990.6967
 10
-600370.7069
 20
-1162981.0346
 10
-600396.34
 20
-1162978.065
 97
0
 75
0
 76
1
 98
0
  0
HATCH
  5
20001
100
AcDbEntity
  8
kontaminace zemin
100
AcDbHatch
 10
0
 20
0
 30
0
210
0
220
0
230
1
  2
SOLID
 70
1
 71
0
 91
1
 92
2
 72
0
 73
1
 93
5
 10
-600351.8645
 20
-1162992.25
 10
-600343.2234
 20
-1162993.1439
 10
-600342.2358
 20
-1162986.4032
 10
-600350.6995
 20
-1162985.163
 10
-600351.8645
 20
-1162992.25
 97
0
 75
0
 76
1
 98
0
  0
HATCH
  5
20002
100
AcDbEntity
  8
kontaminace zemin
100
AcDbHatch
 10
0
 20
0
 30
0
210
0
220
0
230
1
  2
SOLID
 70
1
 71
0
 91
1
 92
2
 72
0
 73
1
 93
5
 10
-594955.6483
 20
-1162367.0617
 10
-594961.8282
 20
-1162386.2448
 10
-594935.7106
 20
-1162393.3338
 10
-594930.1514
 20
-1162372.8524
 10
-594955.6483
 20
-1162367.0617
 97
0
 75
0
 76
1
 98
0
  0
HATCH
  5
20003
100
AcDbEntity
  8
kontaminace zemin
100
AcDbHatch
 10
0
 20
0
 30
0
210
0
220
0
230
1
  2
SOLID
 70
1
 71
0
 91
1
 92
2
 72
0
 73
1
 93
6
 10
-597948.2182
 20
-1162725.9788
 10
-597938.0563
 20
-1162732.6765
 10
-597919.6053
 20
-1162723.6199
 10
-597920.7347
 20
-1162716.2788
 10
-597944.7539
 20
-1162719.974
 10
-597948.2182
 20
-1162725.9788
 97
0
 75
0
 76
1
 98
0
  0
HATCH
  5
20004
100
AcDbEntity
  8
kontaminace zemin
100
AcDbHatch
 10
0
 20
0
 30
0
210
0
220
0
230
1
  2
SOLID
 70
1
 71
0
 91
1
 92
2
 72
0
 73
1
 93
5
 10
-598163.5827
 20
-1163040.1915
 10
-598140.749
 20
-1163221.9577
 10
-598123.8586
 20
-1163219.8736
 10
-598146.0302
 20
-1163040.1915
 10
-598163.5827
 20
-1163040.1915
 97
0
 75
0
 76
1
 98
0
  0
HATCH
  5
20005
100
AcDbEntity
  8
kontaminace zemin
100
AcDbHatch
 10
0
 20
0
 30
0
210
0
220
0
230
1
  2
SOLID
 70
1
 71
0
 91
1
 92
2
 72
0
 73
1
 93
5
 10
-598133.5587
 20
-1163096.0823
 10
-598102.149
 20
-1163090.5394
 10
-598112.6163
 20
-1163031.2246
 10
-598143.4726
 20
-1163036.6698
 10
-598133.5587
 20
-1163096.0823
 97
0
 75
0
 76
1
 98
0
  0
HATCH
  5
20006
100
AcDbEntity
  8
kontaminace zemin
100
AcDbHatch
 10
0
 20
0
 30
0
210
0
220
0
230
1
  2
SOLID
 70
1
 71
0
 91
1
 92
2
 72
0
 73
1
 93
10
 10
-598717.8718
 20
-1163890.7944
 10
-598716.0242
 20
-1163949.2257
 10
-598705.4003
 20
-1163950.3805
 10
-598693.8526
 20
-1163936.5233
 10
-598657.5929
 20
-1163932.3661
 10
-598631.7261
 20
-1163922.2041
 10
-598629.4165
 20
-1163899.8016
 10
-598641.4261
 20
-1163872.5491
 10
-598698.9336
 20
-1163872.3181
 10
-598717.8718
 20
-1163890.7944
 97
0
 75
0
 76
1
 98
0
  0
HATCH
  5
20007
100
AcDbEntity
  8
kontaminace zemin
100
AcDbHatch
 10
0
 20
0
 30
0
210
0
220
0
230
1
  2
SOLID
 70
1
 71
0
 91
1
 92
2
 72
0
 73
1
 93
5
 10
-598546.5618
 20
-1164236.59
 10
-598525.8791
 20
-1164228.9496
 10
-598534.7976
 20
-1164211.5315
 10
-598540.4776
 20
-1164214.3672
 10
-598546.5618
 20
-1164236.59
 97
0
 75
0
 76
1
 98
0
  0
HATCH
  5
20008
100
AcDbEntity
  8
kontaminace zemin
100
AcDbHatch
 10
0
 20
0
 30
0
210
0
220
0
230
1
  2
SOLID
 70
1
 71
0
 91
1
 92
2
 72
0
 73
1
 93
14
 10
-597921.6585
 20
-1162755.5409
 10
-597910.6858
 20
-1162766.2628
 10
-597909.6489
 20
-1162770.7839
 10
-597855.1957
 20
-1162759.2688
 10
-597849.1268
 20
-1162746.0629
 10
-597829.5607
 20
-1162744.6064
 10
-597866.2296
 20
-1162706.1168
 10
-597878.5528
 20
-1162716.3768
 10
-597883.9103
 20
-1162728.0414
 10
-597877.0845
 20
-1162738.9122
 10
-597889.7869
 20
-1162740.7599
 10
-597901.7996
 20
-1162723.6758
 10
-597905.7227
 20
-1162721.8217
 10
-597921.6585
 20
-1162755.5409
 97
0
 75
0
 76
1
 98
0
  0
HATCH
  5
20009
100
AcDbEntity
  8
kontaminace zemin
100
AcDbHatch
 10
0
 20
0
 30
0
210
0
220
0
230
1
  2
SOLID
 70
1
 71
0
 91
1
 92
2
 72
0
 73
1
 93
8
 10
-602949.2609
 20
-1157084.7971
 10
-602951.8894
 20
-1157114.2522
 10
-602941.5
 20
-1157114.98
 10
-602938.2916
 20
-1157115.8756
 10
-602932.9395
 20
-1157109.5108
 10
-602930.54
 20
-1157084.35
 10
-602936.1
 20
-1157083.36
 10
-602949.2609
 20
-1157084.7971
 97
0
 75
0
 76
1
 98
0
  0
HATCH
  5
2000A
100
AcDbEntity
  8
kontaminace zemin
100
AcDbHatch
 10
0
 20
0
 30
0
210
0
220
0
230
1
  2
SOLID
 70
1
 71
0
 91
1
 92
2
 72
0
 73
1
 93
37
 10
-592096.7572
 20
-1160873.9981
 10
-592097.0004
 20
-1160871.2179
 10
-592097.7228
 20
-1160868.5221
 10
-592098.9022
 20
-1160865.9928
 10
-592100.503
 20
-1160863.7066
 10
-592102.4764
 20
-1160861.7332
 10
-592104.7625
 20
-1160860.1324
 10
-592107.2919
 20
-1160858.953
 10
-592109.9877
 20
-1160858.2306
 10
-592112.7679
 20
-1160857.9874
 10
-592115.5481
 20
-1160858.2306
 10
-592118.2439
 20
-1160858.953
 10
-592120.7732
 20
-1160860.1324
 10
-592123.0594
 20
-1160861.7332
 10
-592125.0328
 20
-1160863.7066
 10
-592126.6336
 20
-1160865.9928
 10
-592127.813
 20
-1160868.5221
 10
-592128.5353
 20
-1160871.2179
 10
-592128.7786
 20
-1160873.9981
 10
-592128.5353
 20
-1160876.7783
 10
-592127.813
 20
-1160879.4741
 10
-592126.6336
 20
-1160882.0034
 10
-592125.0328
 20
-1160884.2896
 10
-592123.0594
 20
-1160886.263
 10
-592120.7732
 20
-1160887.8638
 10
-592118.2439
 20
-1160889.0432
 10
-592115.5481
 20
-1160889.7656
 10
-592112.7679
 20
-1160890.0088
 10
-592109.9877
 20
-1160889.7656
 10
-592107.2919
 20
-1160889.0432
 10
-592104.7625
 20
-1160887.8638
 10
-592102.4764
 20
-1160886.263
 10
-592100.503
 20
-1160884.2896
 10
-592098.9022
 20
-1160882.0034
 10
-592097.7228
 20
-1160879.4741
 10
-592097.0004
 20
-1160876.7783
 10
-592096.7572
 20
-1160873.9981
 97
0
 75
0
 76
1
 98
0
  0
HATCH
  5
2000B
100
AcDbEntity
  8
kontaminace zemin
100
AcDbHatch
 10
0
 20
0
 30
0
210
0
220
0
230
1
  2
SOLID
 70
1
 71
0
 91
1
 92
2
 72
0
 73
1
 93
5
 10
-593269.7566
 20
-1161091.7517
 10
-593254.205
 20
-1161140.76
 10
-593130.082
 20
-1161108.0579
 10
-593143.96
 20
-1161056.01
 10
-593269.7566
 20
-1161091.7517
 97
0
 75
0
 76
1
 98
0
  0
HATCH
  5
2000C
100
AcDbEntity
  8
kontaminace zemin
100
AcDbHatch
 10
0
 20
0
 30
0
210
0
220
0
230
1
  2
SOLID
 70
1
 71
0
 91
1
 92
2
 72
0
 73
1
 93
37
 10
-599738.1175
 20
-1161416.8891
 10
-599738.1636
 20
-1161416.3627
 10
-599738.3003
 20
-1161415.8523
 10
-599738.5236
 20
-1161415.3734
 10
-599738.8267
 20
-1161414.9406
 10
-599739.2004
 20
-1161414.5669
 10
-599739.6332
 20
-1161414.2638
 10
-599740.1121
 20
-1161414.0405
 10
-599740.6225
 20
-1161413.9037
 10
-599741.1489
 20
-1161413.8577
 10
-599741.6753
 20
-1161413.9037
 10
-599742.1857
 20
-1161414.0405
 10
-599742.6646
 20
-1161414.2638
 10
-599743.0975
 20
-1161414.5669
 10
-599743.4711
 20
-1161414.9406
 10
-599743.7742
 20
-1161415.3734
 10
-599743.9975
 20
-1161415.8523
 10
-599744.1343
 20
-1161416.3627
 10
-599744.1803
 20
-1161416.8891
 10
-599744.1343
 20
-1161417.4155
 10
-599743.9975
 20
-1161417.9259
 10
-599743.7742
 20
-1161418.4048
 10
-599743.4711
 20
-1161418.8376
 10
-599743.0975
 20
-1161419.2113
 10
-599742.6646
 20
-1161419.5144
 10
-599742.1857
 20
-1161419.7377
 10
-599741.6753
 20
-1161419.8745
 10
-599741.1489
 20
-1161419.9205
 10
-599740.6225
 20
-1161419.8745
 10
-599740.1121
 20
-1161419.7377
 10
-599739.6332
 20
-1161419.5144
 10
-599739.2004
 20
-1161419.2113
 10
-599738.8267
 20
-1161418.8376
 10
-599738.5236
 20
-1161418.4048
 10
-599738.3003
 20
-1161417.9259
 10
-599738.1636
 20
-1161417.4155
 10
-599738.1175
 20
-1161416.8891
 97
0
 75
0
 76
1
 98
0
  0
HATCH
  5
2000D
100
AcDbEntity
  8
kontaminace zemin
100
AcDbHatch
 10
0
 20
0
 30
0
210
0
220
0
230
1
  2
SOLID
 70
1
 71
0
 91
1
 92
2
 72
0
 73
1
 93
37
 10
-599760.4724
 20
-1161438.9391
 10
-599760.5185
 20
-1161438.4127
 10
-599760.6552
 20
-1161437.9023
 10
-599760.8785
 20
-1161437.4234
 10
-599761.1816
 20
-1161436.9906
 10
-599761.5553
 20
-1161436.6169
 10
-599761.9881
 20
-1161436.3138
 10
-599762.467
 20
-1161436.0905
 10
-599762.9774
 20
-1161435.9537
 10
-599763.5038
 20
-1161435.9077
 10
-599764.0302
 20
-1161435.9537
 10
-599764.5406
 20
-1161436.0905
 10
-599765.0195
 20
-1161436.3138
 10
-599765.4524
 20
-1161436.6169
 10
-599765.826
 20
-1161436.9906
 10
-599766.1291
 20
-1161437.4234
 10
-599766.3524
 20
-1161437.9023
 10
-599766.4892
 20
-1161438.4127
 10
-599766.5352
 20
-1161438.9391
 10
-599766.4892
 20
-1161439.4655
 10
-599766.3524
 20
-1161439.9759
 10
-599766.1291
 20
-1161440.4548
 10
-599765.826
 20
-1161440.8876
 10
-599765.4524
 20
-1161441.2613
 10
-599765.0195
 20
-1161441.5644
 10
-599764.5406
 20
-1161441.7877
 10
-599764.0302
 20
-1161441.9245
 10
-599763.5038
 20
-1161441.9705
 10
-599762.9774
 20
-1161441.9245
 10
-599762.467
 20
-1161441.7877
 10
-599761.9881
 20
-1161441.5644
 10
-599761.5553
 20
-1161441.2613
 10
-599761.1816
 20
-1161440.8876
 10
-599760.8785
 20
-1161440.4548
 10
-599760.6552
 20
-1161439.9759
 10
-599760.5185
 20
-1161439.4655
 10
-599760.4724
 20
-1161438.9391
 97
0
 75
0
 76
1
 98
0
  0
HATCH
  5
2000E
100
AcDbEntity
  8
kontaminace zemin
100
AcDbHatch
 10
0
 20
0
 30
0
210
0
220
0
230
1
  2
SOLID
 70
1
 71
0
 91
1
 92
2
 72
0
 73
1
 93
37
 10
-592336.7772
 20
-1162785.0358
 10
-592336.824
 20
-1162784.5006
 10
-592336.9631
 20
-1162783.9817
 10
-592337.1901
 20
-1162783.4948
 10
-592337.4983
 20
-1162783.0547
 10
-592337.8781
 20
-1162782.6749
 10
-592338.3182
 20
-1162782.3667
 10
-592338.8051
 20
-1162782.1397
 10
-592339.324
 20
-1162782.0006
 10
-592339.8592
 20
-1162781.9538
 10
-592340.3944
 20
-1162782.0006
 10
-592340.9133
 20
-1162782.1397
 10
-592341.4002
 20
-1162782.3667
 10
-592341.8403
 20
-1162782.6749
 10
-592342.2201
 20
-1162783.0547
 10
-592342.5283
 20
-1162783.4948
 10
-592342.7553
 20
-1162783.9817
 10
-592342.8944
 20
-1162784.5006
 10
-592342.9412
 20
-1162785.0358
 10
-592342.8944
 20
-1162785.571
 10
-592342.7553
 20
-1162786.0899
 10
-592342.5283
 20
-1162786.5768
 10
-592342.2201
 20
-1162787.0169
 10
-592341.8403
 20
-1162787.3967
 10
-592341.4002
 20
-1162787.7049
 10
-592340.9133
 20
-1162787.9319
 10
-592340.3944
 20
-1162788.071
 10
-592339.8592
 20
-1162788.1178
 10
-592339.324
 20
-1162788.071
 10
-592338.8051
 20
-1162787.9319
 10
-592338.3182
 20
-1162787.7049
 10
-592337.8781
 20
-1162787.3967
 10
-592337.4983
 20
-1162787.0169
 10
-592337.1901
 20
-1162786.5768
 10
-592336.9631
 20
-1162786.0899
 10
-592336.824
 20
-1162785.571
 10
-592336.7772
 20
-1162785.0358
 97
0
 75
0
 76
1
 98
0
  0
HATCH
  5
2000F
100
AcDbEntity
  8
kontaminace zemin
100
AcDbHatch
 10
0
 20
0
 30
0
210
0
220
0
230
1
  2
SOLID
 70
1
 71
0
 91
1
 92
2
 72
0
 73
1
 93
5
 10
-593071.0994
 20
-1164244.3616
 10
-593050.3286
 20
-1164280.9982
 10
-593029.0298
 20
-1164271.0107
 10
-593051.2912
 20
-1164233.8281
 10
-593071.0994
 20
-1164244.3616
 97
0
 75
0
 76
1
 98
0
  0
HATCH
  5
20010
100
AcDbEntity
  8
kontaminace zemin
100
AcDbHatch
 10
0
 20
0
 30
0
210
0
220
0
230
1
  2
SOLID
 70
1
 71
0
 91
1
 92
2
 72
0
 73
1
 93
18
 10
-598858.8346
 20
-1161474.6746
 10
-598880.0556
 20
-1161501.4286
 10
-598887.6
 20
-1161598.85
 10
-598864.495
 20
-1161631.545
 10
-598894.955
 20
-1161675.005
 10
-598823.34
 20
-1161728.03
 10
-598790.235
 20
-1161693.575
 10
-598768.8248
 20
-1161640.6638
 10
-598802.2817
 20
-1161609.1496
 10
-598802.192
 20
-1161595.1999
 10
-598791.27
 20
-1161578.5
 10
-598765.1554
 20
-1161578.0671
 10
-598714.3828
 20
-1161565.1493
 10
-598712.0451
 20
-1161524.478
 10
-598751.45
 20
-1161514.14
 10
-598782.3465
 20
-1161510.6957
 10
-598824.325
 20
-1161500.615
 10
-598858.8346
 20
-1161474.6746
 97
0
 75
0
 76
1
 98
0
  0
HATCH
  5
20011
100
AcDbEntity
  8
kontaminace zemin
100
AcDbHatch
 10
0
 20
0
 30
0
210
0
220
0
230
1
  2
SOLID
 70
1
 71
0
 91
1
 92
2
 72
0
 73
1
 93
7
 10
-598622.6428
 20
-1163072.062
 10
-598605.4292
 20
-1163086.7254
 10
-598579.036
 20
-1163060.5261
 10
-598570.5391
 20
-1163051.6284
 10
-598559.5261
 20
-1163040.1848
 10
-598580.2462
 20
-1163024.5651
 10
-598622.6428
 20
-1163072.062
 97
0
 75
0
 76
1
 98
0
  0
HATCH
  5
20012
100
AcDbEntity
  8
kontaminace zemin
100
AcDbHatch
 10
0
 20
0
 30
0
210
0
220
0
230
1
  2
SOLID
 70
1
 71
0
 91
1
 92
2
 72
0
 73
1
 93
5
 10
-597989.7687
 20
-1161949.1227
 10
-597936.1901
 20
-1161923.1301
 10
-597950.9845
 20
-1161892.6344
 10
-598004.5631
 20
-1161918.627
 10
-597989.7687
 20
-1161949.1227
 97
0
 75
0
 76
1
 98
0
  0
HATCH
  5
20013
100
AcDbEntity
  8
kontaminace zemin
100
AcDbHatch
 10
0
 20
0
 30
0
210
0
220
0
230
1
  2
SOLID
 70
1
 71
0
 91
1
 92
2
 72
0
 73
1
 93
5
 10
-597925.675
 20
-1161915.9782
 10
-597896.1218
 20
-1161902.0878
 10
-597905.3123
 20
-1161884.8982
 10
-597932.3733
 20
-1161899.3665
 10
-597925.675
 20
-1161915.9782
 97
0
 75
0
 76
1
 98
0
  0
HATCH
  5
20014
100
AcDbEntity
  8
kontaminace zemin
100
AcDbHatch
 10
0
 20
0
 30
0
210
0
220
0
230
1
  2
SOLID
 70
1
 71
0
 91
1
 92
2
 72
0
 73
1
 93
5
 10
-597900.1901
 20
-1161931.9368
 10
-597891.6352
 20
-1161928.2597
 10
-597894.5316
 20
-1161921.7428
 10
-597902.6484
 20
-1161925.3814
 10
-597900.1901
 20
-1161931.9368
 97
0
 75
0
 76
1
 98
0
  0
HATCH
  5
20015
100
AcDbEntity
  8
kontaminace zemin
100
AcDbHatch
 10
0
 20
0
 30
0
210
0
220
0
230
1
  2
SOLID
 70
1
 71
0
 91
1
 92
2
 72
0
 73
1
 93
5
 10
-597745.3868
 20
-1161961.5044
 10
-597738.1486
 20
-1161983.9704
 10
-597730.0008
 20
-1161980.4432
 10
-597737.1243
 20
-1161958.773
 10
-597745.3868
 20
-1161961.5044
 97
0
 75
0
 76
1
 98
0
  0
HATCH
  5
20016
100
AcDbEntity
  8
kontaminace zemin
100
AcDbHatch
 10
0
 20
0
 30
0
210
0
220
0
230
1
  2
SOLID
 70
1
 71
0
 91
1
 92
2
 72
0
 73
1
 93
5
 10
-597681.2667
 20
-1161925.3814
 10
-597679.9819
 20
-1161928.9729
 10
-597675.1023
 20
-1161928.5938
 10
-597677.4365
 20
-1161923.2124
 10
-597681.2667
 20
-1161925.3814
 97
0
 75
0
 76
1
 98
0
  0
HATCH
  5
20017
100
AcDbEntity
  8
kontaminace zemin
100
AcDbHatch
 10
0
 20
0
 30
0
210
0
220
0
230
1
  2
SOLID
 70
1
 71
0
 91
1
 92
2
 72
0
 73
1
 93
5
 10
-597642.0709
 20
-1161930.298
 10
-597637.9037
 20
-1161936.416
 10
-597634.5051
 20
-1161934.0577
 10
-597638.7249
 20
-1161927.9763
 10
-597642.0709
 20
-1161930.298
 97
0
 75
0
 76
1
 98
0
  0
HATCH
  5
20018
100
AcDbEntity
  8
kontaminace zemin
100
AcDbHatch
 10
0
 20
0
 30
0
210
0
220
0
230
1
  2
SOLID
 70
1
 71
0
 91
1
 92
2
 72
0
 73
1
 93
5
 10
-597671.7068
 20
-1161943.1356
 10
-597670.5113
 20
-1161947.0958
 10
-597666.5511
 20
-1161945.9003
 10
-597667.7466
 20
-1161941.9401
 10
-597671.7068
 20
-1161943.1356
 97
0
 75
0
 76
1
 98
0
  0
HATCH
  5
20019
100
AcDbEntity
  8
kontaminace zemin
100
AcDbHatch
 10
0
 20
0
 30
0
210
0
220
0
230
1
  2
SOLID
 70
1
 71
0
 91
1
 92
2
 72
0
 73
1
 93
5
 10
-597673.2773
 20
-1161974.7518
 10
-597663.1711
 20
-1161974.2397
 10
-597663.4407
 20
-1161964.0554
 10
-597673.2773
 20
-1161964.7822
 10
-597673.2773
 20
-1161974.7518
 97
0
 75
0
 76
1
 98
0
  0
HATCH
  5
2001A
100
AcDbEntity
  8
kontaminace zemin
100
AcDbHatch
 10
0
 20
0
 30
0
210
0
220
0
230
1
  2
SOLID
 70
1
 71
0
 91
1
 92
2
 72
0
 73
1
 93
9
 10
-597664.9465
 20
-1162003.8415
 10
-597652.6551
 20
-1162009.714
 10
-597632.306
 20
-1161996.3301
 10
-597612.99
 20
-1161962.81
 10
-597616.5
 20
-1161960.7
 10
-597611.95
 20
-1161952.93
 10
-597624.36
 20
-1161945.73
 10
-597634.266
 20
-1161946.8573
 10
-597664.9465
 20
-1162003.8415
 97
0
 75
0
 76
1
 98
0
  0
HATCH
  5
2001B
100
AcDbEntity
  8
kontaminace zemin
100
AcDbHatch
 10
0
 20
0
 30
0
210
0
220
0
230
1
  2
SOLID
 70
1
 71
0
 91
1
 92
2
 72
0
 73
1
 93
11
 10
-597799.7227
 20
-1161995.4734
 10
-597797.06
 20
-1162002.07
 10
-597801.8065
 20
-1162012.4187
 10
-597799.947
 20
-1162016.884
 10
-597783.4219
 20
-1162009.7823
 10
-597785.5123
 20
-1162005.6814
 10
-597783.2308
 20
-1162004.8096
 10
-597784.918
 20
-1162000.3941
 10
-597787.6245
 20
-1162001.4283
 10
-597791.0488
 20
-1161992.8145
 10
-597799.7227
 20
-1161995.4734
 97
0
 75
0
 76
1
 98
0
  0
HATCH
  5
2001C
100
AcDbEntity
  8
kontaminace zemin
100
AcDbHatch
 10
0
 20
0
 30
0
210
0
220
0
230
1
  2
SOLID
 70
1
 71
0
 91
1
 92
2
 72
0
 73
1
 93
31
 10
-597968.6748
 20
-1162478.8639
 10
-597963.6943
 20
-1162474.3144
 10
-597959.3859
 20
-1162473.4408
 10
-597949.1727
 20
-1162480.2191
 10
-597925.8437
 20
-1162450.8617
 10
-597911.22
 20
-1162425.89
 10
-597930.9475
 20
-1162414.4617
 10
-597896.47
 20
-1162355.09
 10
-597876.5939
 20
-1162366.4143
 10
-597866.1588
 20
-1162352.2256
 10
-597891.64
 20
-1162337.04
 10
-597884.23
 20
-1162324.11
 10
-597858.1832
 20
-1162338.6912
 10
-597851.04
 20
-1162322.4
 10
-597816.67
 20
-1162263.15
 10
-597810.7019
 20
-1162260.5608
 10
-597773.0631
 20
-1162192.446
 10
-597782.1468
 20
-1162192.588
 10
-597803.5366
 20
-1162210.7327
 10
-597825.7554
 20
-1162226.4726
 10
-597847.715
 20
-1162238.2215
 10
-597882.4905
 20
-1162249.5318
 10
-597909.6829
 20
-1162254.6859
 10
-597949.1566
 20
-1162324.6981
 10
-597943.2467
 20
-1162328.6482
 10
-597962.9128
 20
-1162364.2667
 10
-597974.9008
 20
-1162395.1469
 10
-598000.9023
 20
-1162446.5643
 10
-597988.2471
 20
-1162454.6828
 10
-597993.9
 20
-1162464.88
 10
-597968.6748
 20
-1162478.8639
 97
0
 75
0
 76
1
 98
0
  0
HATCH
  5
2001D
100
AcDbEntity
  8
kontaminace zemin
100
AcDbHatch
 10
0
 20
0
 30
0
210
0
220
0
230
1
  2
SOLID
 70
1
 71
0
 91
1
 92
2
 72
0
 73
1
 93
7
 10
-592918.98
 20
-1165539.99
 10
-592932.08
 20
-1165584.29
 10
-592781.69
 20
-1165620.075
 10
-592780.7465
 20
-1165604.7123
 10
-592592.745
 20
-1165649.53
 10
-592581.3058
 20
-1165614.2611
 10
-592918.98
 20
-1165539.99
 97
0
 75
0
 76
1
 98
0
  0
HATCH
  5
2001E
100
AcDbEntity
  8
kontaminace zemin
100
AcDbHatch
 10
0
 20
0
 30
0
210
0
220
0
230
1
  2
SOLID
 70
1
 71
0
 91
1
 92
2
 72
0
 73
1
 93
21
 10
-598270.0883
 20
-1159585.6105
 10
-598270.5594
 20
-1159585.9456
 10
-598270.9098
 20
-1159586.5318
 10
-598271.1996
 20
-1159588.3585
 10
-598270.9135
 20
-1159590.8125
 10
-598270.0953
 20
-1159593.5201
 10
-598268.8693
 20
-1159596.0692
 10
-598267.4223
 20
-1159598.0716
 10
-598265.9745
 20
-1159599.2226
 10
-598265.3201
 20
-1159599.4181
 10
-598264.7464
 20
-1159599.3469
 10
-598264.2753
 20
-1159599.0118
 10
-598263.9249
 20
-1159598.4256
 10
-598263.6351
 20
-1159596.5989
 10
-598263.9211
 20
-1159594.1449
 10
-598264.7394
 20
-1159591.4373
 10
-598265.9654
 20
-1159588.8882
 10
-598267.4124
 20
-1159586.8858
 10
-598268.8602
 20
-1159585.7348
 10
-598269.5145
 20
-1159585.5393
 10
-598270.0883
 20
-1159585.6105
 97
0
 75
0
 76
1
 98
0
  0
HATCH
  5
2001F
100
AcDbEntity
  8
kontaminace zemin
100
AcDbHatch
 10
0
 20
0
 30
0
210
0
220
0
230
1
  2
SOLID
 70
1
 71
0
 91
1
 92
2
 72
0
 73
1
 93
6
 10
-598256.2802
 20
-1159563.3614
 10
-598242.68
 20
-1159602.73
 10
-598241.7505
 20
-1159600.222
 10
-598241.2735
 20
-1159597.2649
 10
-598252.5934
 20
-1159565.7579
 10
-598256.2802
 20
-1159563.3614
 97
0
 75
0
 76
1
 98
0
  0
HATCH
  5
20020
100
AcDbEntity
  8
kontaminace zemin
100
AcDbHatch
 10
0
 20
0
 30
0
210
0
220
0
230
1
  2
SOLID
 70
1
 71
0
 91
1
 92
2
 72
0
 73
1
 93
5
 10
-598256.354
 20
-1159595.5542
 10
-598255.1764
 20
-1159598.8404
 10
-598252.68
 20
-1159597.99
 10
-598253.832
 20
-1159594.7742
 10
-598256.354
 20
-1159595.5542
 97
0
 75
0
 76
1
 98
0
  0
HATCH
  5
20021
100
AcDbEntity
  8
kontaminace zemin
100
AcDbHatch
 10
0
 20
0
 30
0
210
0
220
0
230
1
  2
SOLID
 70
1
 71
0
 91
1
 92
2
 72
0
 73
1
 93
5
 10
-598236.7401
 20
-1159607.3267
 10
-598234.9889
 20
-1159606.7967
 10
-598235.7991
 20
-1159604.3291
 10
-598237.6121
 20
-1159604.9231
 10
-598236.7401
 20
-1159607.3267
 97
0
 75
0
 76
1
 98
0
  0
HATCH
  5
20022
100
AcDbEntity
  8
kontaminace zemin
100
AcDbHatch
 10
0
 20
0
 30
0
210
0
220
0
230
1
  2
SOLID
 70
1
 71
0
 91
1
 92
2
 72
0
 73
1
 93
5
 10
-598229.7306
 20
-1159594.6829
 10
-598227.2699
 20
-1159594.8626
 10
-598228.6181
 20
-1159590.1043
 10
-598230.8488
 20
-1159590.7364
 10
-598229.7306
 20
-1159594.6829
 97
0
 75
0
 76
1
 98
0
  0
HATCH
  5
20023
100
AcDbEntity
  8
kontaminace zemin
100
AcDbHatch
 10
0
 20
0
 30
0
210
0
220
0
230
1
  2
SOLID
 70
1
 71
0
 91
1
 92
2
 72
0
 73
1
 93
37
 10
-596151.2529
 20
-1159548.7861
 10
-596151.3001
 20
-1159548.2471
 10
-596151.4401
 20
-1159547.7245
 10
-596151.6688
 20
-1159547.2341
 10
-596151.9791
 20
-1159546.7909
 10
-596152.3617
 20
-1159546.4083
 10
-596152.8049
 20
-1159546.0979
 10
-596153.2953
 20
-1159545.8693
 10
-596153.8179
 20
-1159545.7292
 10
-596154.3569
 20
-1159545.6821
 10
-596154.8959
 20
-1159545.7292
 10
-596155.4185
 20
-1159545.8693
 10
-596155.9089
 20
-1159546.0979
 10
-596156.3521
 20
-1159546.4083
 10
-596156.7347
 20
-1159546.7909
 10
-596157.0451
 20
-1159547.2341
 10
-596157.2737
 20
-1159547.7245
 10
-596157.4138
 20
-1159548.2471
 10
-596157.4609
 20
-1159548.7861
 10
-596157.4138
 20
-1159549.3251
 10
-596157.2737
 20
-1159549.8477
 10
-596157.0451
 20
-1159550.3381
 10
-596156.7347
 20
-1159550.7813
 10
-596156.3521
 20
-1159551.1639
 10
-596155.9089
 20
-1159551.4743
 10
-596155.4185
 20
-1159551.7029
 10
-596154.8959
 20
-1159551.843
 10
-596154.3569
 20
-1159551.8901
 10
-596153.8179
 20
-1159551.843
 10
-596153.2953
 20
-1159551.7029
 10
-596152.8049
 20
-1159551.4743
 10
-596152.3617
 20
-1159551.1639
 10
-596151.9791
 20
-1159550.7813
 10
-596151.6688
 20
-1159550.3381
 10
-596151.4401
 20
-1159549.8477
 10
-596151.3001
 20
-1159549.3251
 10
-596151.2529
 20
-1159548.7861
 97
0
 75
0
 76
1
 98
0
  0
HATCH
  5
20024
100
AcDbEntity
  8
kontaminace zemin
100
AcDbHatch
 10
0
 20
0
 30
0
210
0
220
0
230
1
  2
SOLID
 70
1
 71
0
 91
1
 92
2
 72
0
 73
1
 93
37
 10
-596202.5968
 20
-1159548.7861
 10
-596202.644
 20
-1159548.2471
 10
-596202.784
 20
-1159547.7245
 10
-596203.0127
 20
-1159547.2341
 10
-596203.323
 20
-1159546.7909
 10
-596203.7056
 20
-1159546.4083
 10
-596204.1488
 20
-1159546.0979
 10
-596204.6392
 20
-1159545.8693
 10
-596205.1618
 20
-1159545.7292
 10
-596205.7008
 20
-1159545.6821
 10
-596206.2398
 20
-1159545.7292
 10
-596206.7624
 20
-1159545.8693
 10
-596207.2528
 20
-1159546.0979
 10
-596207.696
 20
-1159546.4083
 10
-596208.0786
 20
-1159546.7909
 10
-596208.389
 20
-1159547.2341
 10
-596208.6176
 20
-1159547.7245
 10
-596208.7577
 20
-1159548.2471
 10
-596208.8048
 20
-1159548.7861
 10
-596208.7577
 20
-1159549.3251
 10
-596208.6176
 20
-1159549.8477
 10
-596208.389
 20
-1159550.3381
 10
-596208.0786
 20
-1159550.7813
 10
-596207.696
 20
-1159551.1639
 10
-596207.2528
 20
-1159551.4743
 10
-596206.7624
 20
-1159551.7029
 10
-596206.2398
 20
-1159551.843
 10
-596205.7008
 20
-1159551.8901
 10
-596205.1618
 20
-1159551.843
 10
-596204.6392
 20
-1159551.7029
 10
-596204.1488
 20
-1159551.4743
 10
-596203.7056
 20
-1159551.1639
 10
-596203.323
 20
-1159550.7813
 10
-596203.0127
 20
-1159550.3381
 10
-596202.784
 20
-1159549.8477
 10
-596202.644
 20
-1159549.3251
 10
-596202.5968
 20
-1159548.7861
 97
0
 75
0
 76
1
 98
0
  0
HATCH
  5
20025
100
AcDbEntity
  8
kontaminace zemin
100
AcDbHatch
 10
0
 20
0
 30
0
210
0
220
0
230
1
  2
SOLID
 70
1
 71
0
 91
1
 92
2
 72
0
 73
1
 93
37
 10
-596242.0108
 20
-1159564.1893
 10
-596242.058
 20
-1159563.6503
 10
-596242.198
 20
-1159563.1277
 10
-596242.4267
 20
-1159562.6373
 10
-596242.737
 20
-1159562.1941
 10
-596243.1196
 20
-1159561.8115
 10
-596243.5628
 20
-1159561.5011
 10
-596244.0532
 20
-1159561.2725
 10
-596244.5758
 20
-1159561.1324
 10
-596245.1148
 20
-1159561.0853
 10
-596245.6538
 20
-1159561.1324
 10
-596246.1764
 20
-1159561.2725
 10
-596246.6668
 20
-1159561.5011
 10
-596247.11
 20
-1159561.8115
 10
-596247.4926
 20
-1159562.1941
 10
-596247.803
 20
-1159562.6373
 10
-596248.0316
 20
-1159563.1277
 10
-596248.1717
 20
-1159563.6503
 10
-596248.2188
 20
-1159564.1893
 10
-596248.1717
 20
-1159564.7283
 10
-596248.0316
 20
-1159565.2509
 10
-596247.803
 20
-1159565.7413
 10
-596247.4926
 20
-1159566.1845
 10
-596247.11
 20
-1159566.5671
 10
-596246.6668
 20
-1159566.8775
 10
-596246.1764
 20
-1159567.1061
 10
-596245.6538
 20
-1159567.2462
 10
-596245.1148
 20
-1159567.2933
 10
-596244.5758
 20
-1159567.2462
 10
-596244.0532
 20
-1159567.1061
 10
-596243.5628
 20
-1159566.8775
 10
-596243.1196
 20
-1159566.5671
 10
-596242.737
 20
-1159566.1845
 10
-596242.4267
 20
-1159565.7413
 10
-596242.198
 20
-1159565.2509
 10
-596242.058
 20
-1159564.7283
 10
-596242.0108
 20
-1159564.1893
 97
0
 75
0
 76
1
 98
0
  0
HATCH
  5
20026
100
AcDbEntity
  8
kontaminace zemin
100
AcDbHatch
 10
0
 20
0
 30
0
210
0
220
0
230
1
  2
SOLID
 70
1
 71
0
 91
1
 92
2
 72
0
 73
1
 93
37
 10
-596249.4104
 20
-1159578.6864
 10
-596249.4576
 20
-1159578.1474
 10
-596249.5976
 20
-1159577.6248
 10
-596249.8263
 20
-1159577.1344
 10
-596250.1366
 20
-1159576.6912
 10
-596250.5192
 20
-1159576.3086
 10
-596250.9624
 20
-1159575.9982
 10
-596251.4528
 20
-1159575.7696
 10
-596251.9754
 20
-1159575.6295
 10
-596252.5144
 20
-1159575.5824
 10
-596253.0534
 20
-1159575.6295
 10
-596253.576
 20
-1159575.7696
 10
-596254.0664
 20
-1159575.9982
 10
-596254.5096
 20
-1159576.3086
 10
-596254.8922
 20
-1159576.6912
 10
-596255.2026
 20
-1159577.1344
 10
-596255.4312
 20
-1159577.6248
 10
-596255.5713
 20
-1159578.1474
 10
-596255.6184
 20
-1159578.6864
 10
-596255.5713
 20
-1159579.2254
 10
-596255.4312
 20
-1159579.748
 10
-596255.2026
 20
-1159580.2384
 10
-596254.8922
 20
-1159580.6816
 10
-596254.5096
 20
-1159581.0642
 10
-596254.0664
 20
-1159581.3746
 10
-596253.576
 20
-1159581.6032
 10
-596253.0534
 20
-1159581.7433
 10
-596252.5144
 20
-1159581.7904
 10
-596251.9754
 20
-1159581.7433
 10
-596251.4528
 20
-1159581.6032
 10
-596250.9624
 20
-1159581.3746
 10
-596250.5192
 20
-1159581.0642
 10
-596250.1366
 20
-1159580.6816
 10
-596249.8263
 20
-1159580.2384
 10
-596249.5976
 20
-1159579.748
 10
-596249.4576
 20
-1159579.2254
 10
-596249.4104
 20
-1159578.6864
 97
0
 75
0
 76
1
 98
0
  0
HATCH
  5
20027
100
AcDbEntity
  8
kontaminace zemin
100
AcDbHatch
 10
0
 20
0
 30
0
210
0
220
0
230
1
  2
SOLID
 70
1
 71
0
 91
1
 92
2
 72
0
 73
1
 93
37
 10
-596259.3771
 20
-1159588.5021
 10
-596259.4243
 20
-1159587.9631
 10
-596259.5643
 20
-1159587.4405
 10
-596259.793
 20
-1159586.9501
 10
-596260.1033
 20
-1159586.5069
 10
-596260.4859
 20
-1159586.1243
 10
-596260.9291
 20
-1159585.8139
 10
-596261.4195
 20
-1159585.5853
 10
-596261.9421
 20
-1159585.4452
 10
-596262.4811
 20
-1159585.3981
 10
-596263.0201
 20
-1159585.4452
 10
-596263.5427
 20
-1159585.5853
 10
-596264.0331
 20
-1159585.8139
 10
-596264.4763
 20
-1159586.1243
 10
-596264.8589
 20
-1159586.5069
 10
-596265.1693
 20
-1159586.9501
 10
-596265.3979
 20
-1159587.4405
 10
-596265.538
 20
-1159587.9631
 10
-596265.5851
 20
-1159588.5021
 10
-596265.538
 20
-1159589.0411
 10
-596265.3979
 20
-1159589.5637
 10
-596265.1693
 20
-1159590.0541
 10
-596264.8589
 20
-1159590.4973
 10
-596264.4763
 20
-1159590.8799
 10
-596264.0331
 20
-1159591.1903
 10
-596263.5427
 20
-1159591.4189
 10
-596263.0201
 20
-1159591.559
 10
-596262.4811
 20
-1159591.6061
 10
-596261.9421
 20
-1159591.559
 10
-596261.4195
 20
-1159591.4189
 10
-596260.9291
 20
-1159591.1903
 10
-596260.4859
 20
-1159590.8799
 10
-596260.1033
 20
-1159590.4973
 10
-596259.793
 20
-1159590.0541
 10
-596259.5643
 20
-1159589.5637
 10
-596259.4243
 20
-1159589.0411
 10
-596259.3771
 20
-1159588.5021
 97
0
 75
0
 76
1
 98
0
  0
HATCH
  5
20028
100
AcDbEntity
  8
kontaminace zemin
100
AcDbHatch
 10
0
 20
0
 30
0
210
0
220
0
230
1
  2
SOLID
 70
1
 71
0
 91
1
 92
2
 72
0
 73
1
 93
37
 10
-596244.578
 20
-1159604.5093
 10
-596244.6252
 20
-1159603.9703
 10
-596244.7652
 20
-1159603.4477
 10
-596244.9939
 20
-1159602.9573
 10
-596245.3042
 20
-1159602.5141
 10
-596245.6868
 20
-1159602.1315
 10
-596246.13
 20
-1159601.8211
 10
-596246.6204
 20
-1159601.5925
 10
-596247.143
 20
-1159601.4524
 10
-596247.682
 20
-1159601.4053
 10
-596248.221
 20
-1159601.4524
 10
-596248.7436
 20
-1159601.5925
 10
-596249.234
 20
-1159601.8211
 10
-596249.6772
 20
-1159602.1315
 10
-596250.0598
 20
-1159602.5141
 10
-596250.3702
 20
-1159602.9573
 10
-596250.5988
 20
-1159603.4477
 10
-596250.7389
 20
-1159603.9703
 10
-596250.786
 20
-1159604.5093
 10
-596250.7389
 20
-1159605.0483
 10
-596250.5988
 20
-1159605.5709
 10
-596250.3702
 20
-1159606.0613
 10
-596250.0598
 20
-1159606.5045
 10
-596249.6772
 20
-1159606.8871
 10
-596249.234
 20
-1159607.1975
 10
-596248.7436
 20
-1159607.4261
 10
-596248.221
 20
-1159607.5662
 10
-596247.682
 20
-1159607.6133
 10
-596247.143
 20
-1159607.5662
 10
-596246.6204
 20
-1159607.4261
 10
-596246.13
 20
-1159607.1975
 10
-596245.6868
 20
-1159606.8871
 10
-596245.3042
 20
-1159606.5045
 10
-596244.9939
 20
-1159606.0613
 10
-596244.7652
 20
-1159605.5709
 10
-596244.6252
 20
-1159605.0483
 10
-596244.578
 20
-1159604.5093
 97
0
 75
0
 76
1
 98
0
  0
HATCH
  5
20029
100
AcDbEntity
  8
kontaminace zemin
100
AcDbHatch
 10
0
 20
0
 30
0
210
0
220
0
230
1
  2
SOLID
 70
1
 71
0
 91
1
 92
2
 72
0
 73
1
 93
37
 10
-596221.1712
 20
-1159582.7637
 10
-596221.2184
 20
-1159582.2247
 10
-596221.3584
 20
-1159581.7021
 10
-596221.5871
 20
-1159581.2117
 10
-596221.8974
 20
-1159580.7685
 10
-596222.28
 20
-1159580.3859
 10
-596222.7232
 20
-1159580.0755
 10
-596223.2136
 20
-1159579.8469
 10
-596223.7362
 20
-1159579.7068
 10
-596224.2752
 20
-1159579.6597
 10
-596224.8142
 20
-1159579.7068
 10
-596225.3368
 20
-1159579.8469
 10
-596225.8272
 20
-1159580.0755
 10
-596226.2704
 20
-1159580.3859
 10
-596226.653
 20
-1159580.7685
 10
-596226.9634
 20
-1159581.2117
 10
-596227.192
 20
-1159581.7021
 10
-596227.3321
 20
-1159582.2247
 10
-596227.3792
 20
-1159582.7637
 10
-596227.3321
 20
-1159583.3027
 10
-596227.192
 20
-1159583.8253
 10
-596226.9634
 20
-1159584.3157
 10
-596226.653
 20
-1159584.7589
 10
-596226.2704
 20
-1159585.1415
 10
-596225.8272
 20
-1159585.4519
 10
-596225.3368
 20
-1159585.6805
 10
-596224.8142
 20
-1159585.8206
 10
-596224.2752
 20
-1159585.8677
 10
-596223.7362
 20
-1159585.8206
 10
-596223.2136
 20
-1159585.6805
 10
-596222.7232
 20
-1159585.4519
 10
-596222.28
 20
-1159585.1415
 10
-596221.8974
 20
-1159584.7589
 10
-596221.5871
 20
-1159584.3157
 10
-596221.3584
 20
-1159583.8253
 10
-596221.2184
 20
-1159583.3027
 10
-596221.1712
 20
-1159582.7637
 97
0
 75
0
 76
1
 98
0
  0
HATCH
  5
2002A
100
AcDbEntity
  8
kontaminace zemin
100
AcDbHatch
 10
0
 20
0
 30
0
210
0
220
0
230
1
  2
SOLID
 70
1
 71
0
 91
1
 92
2
 72
0
 73
1
 93
37
 10
-596193.6871
 20
-1159595.7507
 10
-596193.7343
 20
-1159595.2117
 10
-596193.8743
 20
-1159594.6891
 10
-596194.103
 20
-1159594.1987
 10
-596194.4133
 20
-1159593.7555
 10
-596194.7959
 20
-1159593.3729
 10
-596195.2391
 20
-1159593.0625
 10
-596195.7295
 20
-1159592.8339
 10
-596196.2521
 20
-1159592.6938
 10
-596196.7911
 20
-1159592.6467
 10
-596197.3301
 20
-1159592.6938
 10
-596197.8527
 20
-1159592.8339
 10
-596198.3431
 20
-1159593.0625
 10
-596198.7863
 20
-1159593.3729
 10
-596199.1689
 20
-1159593.7555
 10
-596199.4793
 20
-1159594.1987
 10
-596199.7079
 20
-1159594.6891
 10
-596199.848
 20
-1159595.2117
 10
-596199.8951
 20
-1159595.7507
 10
-596199.848
 20
-1159596.2897
 10
-596199.7079
 20
-1159596.8123
 10
-596199.4793
 20
-1159597.3027
 10
-596199.1689
 20
-1159597.7459
 10
-596198.7863
 20
-1159598.1285
 10
-596198.3431
 20
-1159598.4389
 10
-596197.8527
 20
-1159598.6675
 10
-596197.3301
 20
-1159598.8076
 10
-596196.7911
 20
-1159598.8547
 10
-596196.2521
 20
-1159598.8076
 10
-596195.7295
 20
-1159598.6675
 10
-596195.2391
 20
-1159598.4389
 10
-596194.7959
 20
-1159598.1285
 10
-596194.4133
 20
-1159597.7459
 10
-596194.103
 20
-1159597.3027
 10
-596193.8743
 20
-1159596.8123
 10
-596193.7343
 20
-1159596.2897
 10
-596193.6871
 20
-1159595.7507
 97
0
 75
0
 76
1
 98
0
  0
HATCH
  5
2002B
100
AcDbEntity
  8
kontaminace zemin
100
AcDbHatch
 10
0
 20
0
 30
0
210
0
220
0
230
1
  2
SOLID
 70
1
 71
0
 91
1
 92
2
 72
0
 73
1
 93
37
 10
-596207.1271
 20
-1159608.5866
 10
-596207.1743
 20
-1159608.0476
 10
-596207.3143
 20
-1159607.525
 10
-596207.543
 20
-1159607.0346
 10
-596207.8533
 20
-1159606.5914
 10
-596208.2359
 20
-1159606.2088
 10
-596208.6791
 20
-1159605.8984
 10
-596209.1695
 20
-1159605.6698
 10
-596209.6921
 20
-1159605.5297
 10
-596210.2311
 20
-1159605.4826
 10
-596210.7701
 20
-1159605.5297
 10
-596211.2927
 20
-1159605.6698
 10
-596211.7831
 20
-1159605.8984
 10
-596212.2263
 20
-1159606.2088
 10
-596212.6089
 20
-1159606.5914
 10
-596212.9193
 20
-1159607.0346
 10
-596213.1479
 20
-1159607.525
 10
-596213.288
 20
-1159608.0476
 10
-596213.3351
 20
-1159608.5866
 10
-596213.288
 20
-1159609.1256
 10
-596213.1479
 20
-1159609.6482
 10
-596212.9193
 20
-1159610.1386
 10
-596212.6089
 20
-1159610.5818
 10
-596212.2263
 20
-1159610.9644
 10
-596211.7831
 20
-1159611.2748
 10
-596211.2927
 20
-1159611.5034
 10
-596210.7701
 20
-1159611.6435
 10
-596210.2311
 20
-1159611.6906
 10
-596209.6921
 20
-1159611.6435
 10
-596209.1695
 20
-1159611.5034
 10
-596208.6791
 20
-1159611.2748
 10
-596208.2359
 20
-1159610.9644
 10
-596207.8533
 20
-1159610.5818
 10
-596207.543
 20
-1159610.1386
 10
-596207.3143
 20
-1159609.6482
 10
-596207.1743
 20
-1159609.1256
 10
-596207.1271
 20
-1159608.5866
 97
0
 75
0
 76
1
 98
0
  0
HATCH
  5
2002C
100
AcDbEntity
  8
kontaminace zemin
100
AcDbHatch
 10
0
 20
0
 30
0
210
0
220
0
230
1
  2
SOLID
 70
1
 71
0
 91
1
 92
2
 72
0
 73
1
 93
37
 10
-596145.0614
 20
-1159642.8663
 10
-596145.1086
 20
-1159642.3273
 10
-596145.2486
 20
-1159641.8047
 10
-596145.4773
 20
-1159641.3143
 10
-596145.7876
 20
-1159640.8711
 10
-596146.1702
 20
-1159640.4885
 10
-596146.6134
 20
-1159640.1781
 10
-596147.1038
 20
-1159639.9495
 10
-596147.6264
 20
-1159639.8094
 10
-596148.1654
 20
-1159639.7623
 10
-596148.7044
 20
-1159639.8094
 10
-596149.227
 20
-1159639.9495
 10
-596149.7174
 20
-1159640.1781
 10
-596150.1606
 20
-1159640.4885
 10
-596150.5432
 20
-1159640.8711
 10
-596150.8536
 20
-1159641.3143
 10
-596151.0822
 20
-1159641.8047
 10
-596151.2223
 20
-1159642.3273
 10
-596151.2694
 20
-1159642.8663
 10
-596151.2223
 20
-1159643.4053
 10
-596151.0822
 20
-1159643.9279
 10
-596150.8536
 20
-1159644.4183
 10
-596150.5432
 20
-1159644.8615
 10
-596150.1606
 20
-1159645.2441
 10
-596149.7174
 20
-1159645.5545
 10
-596149.227
 20
-1159645.7831
 10
-596148.7044
 20
-1159645.9232
 10
-596148.1654
 20
-1159645.9703
 10
-596147.6264
 20
-1159645.9232
 10
-596147.1038
 20
-1159645.7831
 10
-596146.6134
 20
-1159645.5545
 10
-596146.1702
 20
-1159645.2441
 10
-596145.7876
 20
-1159644.8615
 10
-596145.4773
 20
-1159644.4183
 10
-596145.2486
 20
-1159643.9279
 10
-596145.1086
 20
-1159643.4053
 10
-596145.0614
 20
-1159642.8663
 97
0
 75
0
 76
1
 98
0
  0
HATCH
  5
2002D
100
AcDbEntity
  8
kontaminace zemin
100
AcDbHatch
 10
0
 20
0
 30
0
210
0
220
0
230
1
  2
SOLID
 70
1
 71
0
 91
1
 92
2
 72
0
 73
1
 93
37
 10
-596321.1408
 20
-1159708.1032
 10
-596321.188
 20
-1159707.5642
 10
-596321.328
 20
-1159707.0416
 10
-596321.5567
 20
-1159706.5512
 10
-596321.867
 20
-1159706.108
 10
-596322.2496
 20
-1159705.7254
 10
-596322.6928
 20
-1159705.415
 10
-596323.1832
 20
-1159705.1864
 10
-596323.7058
 20
-1159705.0463
 10
-596324.2448
 20
-1159704.9992
 10
-596324.7838
 20
-1159705.0463
 10
-596325.3064
 20
-1159705.1864
 10
-596325.7968
 20
-1159705.415
 10
-596326.24
 20
-1159705.7254
 10
-596326.6226
 20
-1159706.108
 10
-596326.933
 20
-1159706.5512
 10
-596327.1616
 20
-1159707.0416
 10
-596327.3017
 20
-1159707.5642
 10
-596327.3488
 20
-1159708.1032
 10
-596327.3017
 20
-1159708.6422
 10
-596327.1616
 20
-1159709.1648
 10
-596326.933
 20
-1159709.6552
 10
-596326.6226
 20
-1159710.0984
 10
-596326.24
 20
-1159710.481
 10
-596325.7968
 20
-1159710.7914
 10
-596325.3064
 20
-1159711.02
 10
-596324.7838
 20
-1159711.1601
 10
-596324.2448
 20
-1159711.2072
 10
-596323.7058
 20
-1159711.1601
 10
-596323.1832
 20
-1159711.02
 10
-596322.6928
 20
-1159710.7914
 10
-596322.2496
 20
-1159710.481
 10
-596321.867
 20
-1159710.0984
 10
-596321.5567
 20
-1159709.6552
 10
-596321.328
 20
-1159709.1648
 10
-596321.188
 20
-1159708.6422
 10
-596321.1408
 20
-1159708.1032
 97
0
 75
0
 76
1
 98
0
  0
HATCH
  5
2002E
100
AcDbEntity
  8
kontaminace zemin
100
AcDbHatch
 10
0
 20
0
 30
0
210
0
220
0
230
1
  2
SOLID
 70
1
 71
0
 91
1
 92
2
 72
0
 73
1
 93
37
 10
-596345.3027
 20
-1159729.5469
 10
-596345.3499
 20
-1159729.0079
 10
-596345.4899
 20
-1159728.4853
 10
-596345.7186
 20
-1159727.9949
 10
-596346.0289
 20
-1159727.5517
 10
-596346.4115
 20
-1159727.1691
 10
-596346.8547
 20
-1159726.8587
 10
-596347.3451
 20
-1159726.6301
 10
-596347.8677
 20
-1159726.49
 10
-596348.4067
 20
-1159726.4429
 10
-596348.9457
 20
-1159726.49
 10
-596349.4683
 20
-1159726.6301
 10
-596349.9587
 20
-1159726.8587
 10
-596350.4019
 20
-1159727.1691
 10
-596350.7845
 20
-1159727.5517
 10
-596351.0949
 20
-1159727.9949
 10
-596351.3235
 20
-1159728.4853
 10
-596351.4636
 20
-1159729.0079
 10
-596351.5107
 20
-1159729.5469
 10
-596351.4636
 20
-1159730.0859
 10
-596351.3235
 20
-1159730.6085
 10
-596351.0949
 20
-1159731.0989
 10
-596350.7845
 20
-1159731.5421
 10
-596350.4019
 20
-1159731.9247
 10
-596349.9587
 20
-1159732.2351
 10
-596349.4683
 20
-1159732.4637
 10
-596348.9457
 20
-1159732.6038
 10
-596348.4067
 20
-1159732.6509
 10
-596347.8677
 20
-1159732.6038
 10
-596347.3451
 20
-1159732.4637
 10
-596346.8547
 20
-1159732.2351
 10
-596346.4115
 20
-1159731.9247
 10
-596346.0289
 20
-1159731.5421
 10
-596345.7186
 20
-1159731.0989
 10
-596345.4899
 20
-1159730.6085
 10
-596345.3499
 20
-1159730.0859
 10
-596345.3027
 20
-1159729.5469
 97
0
 75
0
 76
1
 98
0
  0
HATCH
  5
2002F
100
AcDbEntity
  8
kontaminace zemin
100
AcDbHatch
 10
0
 20
0
 30
0
210
0
220
0
230
1
  2
SOLID
 70
1
 71
0
 91
1
 92
2
 72
0
 73
1
 93
37
 10
-596322.6509
 20
-1159774.5483
 10
-596322.6981
 20
-1159774.0093
 10
-596322.8381
 20
-1159773.4867
 10
-596323.0668
 20
-1159772.9963
 10
-596323.3771
 20
-1159772.5531
 10
-596323.7597
 20
-1159772.1705
 10
-596324.2029
 20
-1159771.8601
 10
-596324.6933
 20
-1159771.6315
 10
-596325.2159
 20
-1159771.4914
 10
-596325.7549
 20
-1159771.4443
 10
-596326.2939
 20
-1159771.4914
 10
-596326.8165
 20
-1159771.6315
 10
-596327.3069
 20
-1159771.8601
 10
-596327.7501
 20
-1159772.1705
 10
-596328.1327
 20
-1159772.5531
 10
-596328.4431
 20
-1159772.9963
 10
-596328.6717
 20
-1159773.4867
 10
-596328.8118
 20
-1159774.0093
 10
-596328.8589
 20
-1159774.5483
 10
-596328.8118
 20
-1159775.0873
 10
-596328.6717
 20
-1159775.6099
 10
-596328.4431
 20
-1159776.1003
 10
-596328.1327
 20
-1159776.5435
 10
-596327.7501
 20
-1159776.9261
 10
-596327.3069
 20
-1159777.2365
 10
-596326.8165
 20
-1159777.4651
 10
-596326.2939
 20
-1159777.6052
 10
-596325.7549
 20
-1159777.6523
 10
-596325.2159
 20
-1159777.6052
 10
-596324.6933
 20
-1159777.4651
 10
-596324.2029
 20
-1159777.2365
 10
-596323.7597
 20
-1159776.9261
 10
-596323.3771
 20
-1159776.5435
 10
-596323.0668
 20
-1159776.1003
 10
-596322.8381
 20
-1159775.6099
 10
-596322.6981
 20
-1159775.0873
 10
-596322.6509
 20
-1159774.5483
 97
0
 75
0
 76
1
 98
0
  0
HATCH
  5
20030
100
AcDbEntity
  8
kontaminace zemin
100
AcDbHatch
 10
0
 20
0
 30
0
210
0
220
0
230
1
  2
SOLID
 70
1
 71
0
 91
1
 92
2
 72
0
 73
1
 93
37
 10
-596148.3837
 20
-1159760.9572
 10
-596148.4309
 20
-1159760.4182
 10
-596148.5709
 20
-1159759.8956
 10
-596148.7996
 20
-1159759.4052
 10
-596149.1099
 20
-1159758.962
 10
-596149.4925
 20
-1159758.5794
 10
-596149.9357
 20
-1159758.269
 10
-596150.4261
 20
-1159758.0404
 10
-596150.9487
 20
-1159757.9003
 10
-596151.4877
 20
-1159757.8532
 10
-596152.0267
 20
-1159757.9003
 10
-596152.5493
 20
-1159758.0404
 10
-596153.0397
 20
-1159758.269
 10
-596153.4829
 20
-1159758.5794
 10
-596153.8655
 20
-1159758.962
 10
-596154.1759
 20
-1159759.4052
 10
-596154.4045
 20
-1159759.8956
 10
-596154.5446
 20
-1159760.4182
 10
-596154.5917
 20
-1159760.9572
 10
-596154.5446
 20
-1159761.4962
 10
-596154.4045
 20
-1159762.0188
 10
-596154.1759
 20
-1159762.5092
 10
-596153.8655
 20
-1159762.9524
 10
-596153.4829
 20
-1159763.335
 10
-596153.0397
 20
-1159763.6454
 10
-596152.5493
 20
-1159763.874
 10
-596152.0267
 20
-1159764.0141
 10
-596151.4877
 20
-1159764.0612
 10
-596150.9487
 20
-1159764.0141
 10
-596150.4261
 20
-1159763.874
 10
-596149.9357
 20
-1159763.6454
 10
-596149.4925
 20
-1159763.335
 10
-596149.1099
 20
-1159762.9524
 10
-596148.7996
 20
-1159762.5092
 10
-596148.5709
 20
-1159762.0188
 10
-596148.4309
 20
-1159761.4962
 10
-596148.3837
 20
-1159760.9572
 97
0
 75
0
 76
1
 98
0
  0
HATCH
  5
20031
100
AcDbEntity
  8
kontaminace zemin
100
AcDbHatch
 10
0
 20
0
 30
0
210
0
220
0
230
1
  2
SOLID
 70
1
 71
0
 91
1
 92
2
 72
0
 73
1
 93
37
 10
-596164.3909
 20
-1159773.9442
 10
-596164.4381
 20
-1159773.4052
 10
-596164.5781
 20
-1159772.8826
 10
-596164.8068
 20
-1159772.3922
 10
-596165.1171
 20
-1159771.949
 10
-596165.4997
 20
-1159771.5664
 10
-596165.9429
 20
-1159771.256
 10
-596166.4333
 20
-1159771.0274
 10
-596166.9559
 20
-1159770.8873
 10
-596167.4949
 20
-1159770.8402
 10
-596168.0339
 20
-1159770.8873
 10
-596168.5565
 20
-1159771.0274
 10
-596169.0469
 20
-1159771.256
 10
-596169.4901
 20
-1159771.5664
 10
-596169.8727
 20
-1159771.949
 10
-596170.1831
 20
-1159772.3922
 10
-596170.4117
 20
-1159772.8826
 10
-596170.5518
 20
-1159773.4052
 10
-596170.5989
 20
-1159773.9442
 10
-596170.5518
 20
-1159774.4832
 10
-596170.4117
 20
-1159775.0058
 10
-596170.1831
 20
-1159775.4962
 10
-596169.8727
 20
-1159775.9394
 10
-596169.4901
 20
-1159776.322
 10
-596169.0469
 20
-1159776.6324
 10
-596168.5565
 20
-1159776.861
 10
-596168.0339
 20
-1159777.0011
 10
-596167.4949
 20
-1159777.0482
 10
-596166.9559
 20
-1159777.0011
 10
-596166.4333
 20
-1159776.861
 10
-596165.9429
 20
-1159776.6324
 10
-596165.4997
 20
-1159776.322
 10
-596165.1171
 20
-1159775.9394
 10
-596164.8068
 20
-1159775.4962
 10
-596164.5781
 20
-1159775.0058
 10
-596164.4381
 20
-1159774.4832
 10
-596164.3909
 20
-1159773.9442
 97
0
 75
0
 76
1
 98
0
  0
HATCH
  5
20032
100
AcDbEntity
  8
kontaminace zemin
100
AcDbHatch
 10
0
 20
0
 30
0
210
0
220
0
230
1
  2
SOLID
 70
1
 71
0
 91
1
 92
2
 72
0
 73
1
 93
37
 10
-596139.927
 20
-1159786.9312
 10
-596139.9742
 20
-1159786.3922
 10
-596140.1142
 20
-1159785.8696
 10
-596140.3429
 20
-1159785.3792
 10
-596140.6532
 20
-1159784.936
 10
-596141.0358
 20
-1159784.5534
 10
-596141.479
 20
-1159784.243
 10
-596141.9694
 20
-1159784.0144
 10
-596142.492
 20
-1159783.8743
 10
-596143.031
 20
-1159783.8272
 10
-596143.57
 20
-1159783.8743
 10
-596144.0926
 20
-1159784.0144
 10
-596144.583
 20
-1159784.243
 10
-596145.0262
 20
-1159784.5534
 10
-596145.4088
 20
-1159784.936
 10
-596145.7192
 20
-1159785.3792
 10
-596145.9478
 20
-1159785.8696
 10
-596146.0879
 20
-1159786.3922
 10
-596146.135
 20
-1159786.9312
 10
-596146.0879
 20
-1159787.4702
 10
-596145.9478
 20
-1159787.9928
 10
-596145.7192
 20
-1159788.4832
 10
-596145.4088
 20
-1159788.9264
 10
-596145.0262
 20
-1159789.309
 10
-596144.583
 20
-1159789.6194
 10
-596144.0926
 20
-1159789.848
 10
-596143.57
 20
-1159789.9881
 10
-596143.031
 20
-1159790.0352
 10
-596142.492
 20
-1159789.9881
 10
-596141.9694
 20
-1159789.848
 10
-596141.479
 20
-1159789.6194
 10
-596141.0358
 20
-1159789.309
 10
-596140.6532
 20
-1159788.9264
 10
-596140.3429
 20
-1159788.4832
 10
-596140.1142
 20
-1159787.9928
 10
-596139.9742
 20
-1159787.4702
 10
-596139.927
 20
-1159786.9312
 97
0
 75
0
 76
1
 98
0
  0
HATCH
  5
20033
100
AcDbEntity
  8
kontaminace zemin
100
AcDbHatch
 10
0
 20
0
 30
0
210
0
220
0
230
1
  2
SOLID
 70
1
 71
0
 91
1
 92
2
 72
0
 73
1
 93
37
 10
-596127.2421
 20
-1159766.0916
 10
-596127.2893
 20
-1159765.5526
 10
-596127.4293
 20
-1159765.03
 10
-596127.658
 20
-1159764.5396
 10
-596127.9683
 20
-1159764.0964
 10
-596128.3509
 20
-1159763.7138
 10
-596128.7941
 20
-1159763.4034
 10
-596129.2845
 20
-1159763.1748
 10
-596129.8071
 20
-1159763.0347
 10
-596130.3461
 20
-1159762.9876
 10
-596130.8851
 20
-1159763.0347
 10
-596131.4077
 20
-1159763.1748
 10
-596131.8981
 20
-1159763.4034
 10
-596132.3413
 20
-1159763.7138
 10
-596132.7239
 20
-1159764.0964
 10
-596133.0343
 20
-1159764.5396
 10
-596133.2629
 20
-1159765.03
 10
-596133.403
 20
-1159765.5526
 10
-596133.4501
 20
-1159766.0916
 10
-596133.403
 20
-1159766.6306
 10
-596133.2629
 20
-1159767.1532
 10
-596133.0343
 20
-1159767.6436
 10
-596132.7239
 20
-1159768.0868
 10
-596132.3413
 20
-1159768.4694
 10
-596131.8981
 20
-1159768.7798
 10
-596131.4077
 20
-1159769.0084
 10
-596130.8851
 20
-1159769.1485
 10
-596130.3461
 20
-1159769.1956
 10
-596129.8071
 20
-1159769.1485
 10
-596129.2845
 20
-1159769.0084
 10
-596128.7941
 20
-1159768.7798
 10
-596128.3509
 20
-1159768.4694
 10
-596127.9683
 20
-1159768.0868
 10
-596127.658
 20
-1159767.6436
 10
-596127.4293
 20
-1159767.1532
 10
-596127.2893
 20
-1159766.6306
 10
-596127.2421
 20
-1159766.0916
 97
0
 75
0
 76
1
 98
0
  0
HATCH
  5
20034
100
AcDbEntity
  8
kontaminace zemin
100
AcDbHatch
 10
0
 20
0
 30
0
210
0
220
0
230
1
  2
SOLID
 70
1
 71
0
 91
1
 92
2
 72
0
 73
1
 93
37
 10
-596261.4019
 20
-1159871.7997
 10
-596261.4491
 20
-1159871.2607
 10
-596261.5891
 20
-1159870.7381
 10
-596261.8178
 20
-1159870.2477
 10
-596262.1281
 20
-1159869.8045
 10
-596262.5107
 20
-1159869.4219
 10
-596262.9539
 20
-1159869.1115
 10
-596263.4443
 20
-1159868.8829
 10
-596263.9669
 20
-1159868.7428
 10
-596264.5059
 20
-1159868.6957
 10
-596265.0449
 20
-1159868.7428
 10
-596265.5675
 20
-1159868.8829
 10
-596266.0579
 20
-1159869.1115
 10
-596266.5011
 20
-1159869.4219
 10
-596266.8837
 20
-1159869.8045
 10
-596267.1941
 20
-1159870.2477
 10
-596267.4227
 20
-1159870.7381
 10
-596267.5628
 20
-1159871.2607
 10
-596267.6099
 20
-1159871.7997
 10
-596267.5628
 20
-1159872.3387
 10
-596267.4227
 20
-1159872.8613
 10
-596267.1941
 20
-1159873.3517
 10
-596266.8837
 20
-1159873.7949
 10
-596266.5011
 20
-1159874.1775
 10
-596266.0579
 20
-1159874.4879
 10
-596265.5675
 20
-1159874.7165
 10
-596265.0449
 20
-1159874.8566
 10
-596264.5059
 20
-1159874.9037
 10
-596263.9669
 20
-1159874.8566
 10
-596263.4443
 20
-1159874.7165
 10
-596262.9539
 20
-1159874.4879
 10
-596262.5107
 20
-1159874.1775
 10
-596262.1281
 20
-1159873.7949
 10
-596261.8178
 20
-1159873.3517
 10
-596261.5891
 20
-1159872.8613
 10
-596261.4491
 20
-1159872.3387
 10
-596261.4019
 20
-1159871.7997
 97
0
 75
0
 76
1
 98
0
  0
HATCH
  5
20035
100
AcDbEntity
  8
kontaminace zemin
100
AcDbHatch
 10
0
 20
0
 30
0
210
0
220
0
230
1
  2
SOLID
 70
1
 71
0
 91
1
 92
2
 72
0
 73
1
 93
37
 10
-596243.5209
 20
-1159900.4919
 10
-596243.5681
 20
-1159899.9529
 10
-596243.7081
 20
-1159899.4303
 10
-596243.9368
 20
-1159898.9399
 10
-596244.2471
 20
-1159898.4967
 10
-596244.6297
 20
-1159898.1141
 10
-596245.0729
 20
-1159897.8037
 10
-596245.5633
 20
-1159897.5751
 10
-596246.0859
 20
-1159897.435
 10
-596246.6249
 20
-1159897.3879
 10
-596247.1639
 20
-1159897.435
 10
-596247.6865
 20
-1159897.5751
 10
-596248.1769
 20
-1159897.8037
 10
-596248.6201
 20
-1159898.1141
 10
-596249.0027
 20
-1159898.4967
 10
-596249.3131
 20
-1159898.9399
 10
-596249.5417
 20
-1159899.4303
 10
-596249.6818
 20
-1159899.9529
 10
-596249.7289
 20
-1159900.4919
 10
-596249.6818
 20
-1159901.0309
 10
-596249.5417
 20
-1159901.5535
 10
-596249.3131
 20
-1159902.0439
 10
-596249.0027
 20
-1159902.4871
 10
-596248.6201
 20
-1159902.8697
 10
-596248.1769
 20
-1159903.1801
 10
-596247.6865
 20
-1159903.4087
 10
-596247.1639
 20
-1159903.5488
 10
-596246.6249
 20
-1159903.5959
 10
-596246.0859
 20
-1159903.5488
 10
-596245.5633
 20
-1159903.4087
 10
-596245.0729
 20
-1159903.1801
 10
-596244.6297
 20
-1159902.8697
 10
-596244.2471
 20
-1159902.4871
 10
-596243.9368
 20
-1159902.0439
 10
-596243.7081
 20
-1159901.5535
 10
-596243.5681
 20
-1159901.0309
 10
-596243.5209
 20
-1159900.4919
 97
0
 75
0
 76
1
 98
0
  0
HATCH
  5
20036
100
AcDbEntity
  8
kontaminace zemin
100
AcDbHatch
 10
0
 20
0
 30
0
210
0
220
0
230
1
  2
SOLID
 70
1
 71
0
 91
1
 92
2
 72
0
 73
1
 93
37
 10
-596200.9357
 20
-1159900.4919
 10
-596200.9829
 20
-1159899.9529
 10
-596201.1229
 20
-1159899.4303
 10
-596201.3516
 20
-1159898.9399
 10
-596201.6619
 20
-1159898.4967
 10
-596202.0445
 20
-1159898.1141
 10
-596202.4877
 20
-1159897.8037
 10
-596202.9781
 20
-1159897.5751
 10
-596203.5007
 20
-1159897.435
 10
-596204.0397
 20
-1159897.3879
 10
-596204.5787
 20
-1159897.435
 10
-596205.1013
 20
-1159897.5751
 10
-596205.5917
 20
-1159897.8037
 10
-596206.0349
 20
-1159898.1141
 10
-596206.4175
 20
-1159898.4967
 10
-596206.7279
 20
-1159898.9399
 10
-596206.9565
 20
-1159899.4303
 10
-596207.0966
 20
-1159899.9529
 10
-596207.1437
 20
-1159900.4919
 10
-596207.0966
 20
-1159901.0309
 10
-596206.9565
 20
-1159901.5535
 10
-596206.7279
 20
-1159902.0439
 10
-596206.4175
 20
-1159902.4871
 10
-596206.0349
 20
-1159902.8697
 10
-596205.5917
 20
-1159903.1801
 10
-596205.1013
 20
-1159903.4087
 10
-596204.5787
 20
-1159903.5488
 10
-596204.0397
 20
-1159903.5959
 10
-596203.5007
 20
-1159903.5488
 10
-596202.9781
 20
-1159903.4087
 10
-596202.4877
 20
-1159903.1801
 10
-596202.0445
 20
-1159902.8697
 10
-596201.6619
 20
-1159902.4871
 10
-596201.3516
 20
-1159902.0439
 10
-596201.1229
 20
-1159901.5535
 10
-596200.9829
 20
-1159901.0309
 10
-596200.9357
 20
-1159900.4919
 97
0
 75
0
 76
1
 98
0
  0
HATCH
  5
20037
100
AcDbEntity
  8
kontaminace zemin
100
AcDbHatch
 10
0
 20
0
 30
0
210
0
220
0
230
1
  2
SOLID
 70
1
 71
0
 91
1
 92
2
 72
0
 73
1
 93
37
 10
-596393.6263
 20
-1159810.187
 10
-596393.6735
 20
-1159809.648
 10
-596393.8135
 20
-1159809.1254
 10
-596394.0422
 20
-1159808.635
 10
-596394.3525
 20
-1159808.1918
 10
-596394.7351
 20
-1159807.8092
 10
-596395.1783
 20
-1159807.4988
 10
-596395.6687
 20
-1159807.2702
 10
-596396.1913
 20
-1159807.1301
 10
-596396.7303
 20
-1159807.083
 10
-596397.2693
 20
-1159807.1301
 10
-596397.7919
 20
-1159807.2702
 10
-596398.2823
 20
-1159807.4988
 10
-596398.7255
 20
-1159807.8092
 10
-596399.1081
 20
-1159808.1918
 10
-596399.4185
 20
-1159808.635
 10
-596399.6471
 20
-1159809.1254
 10
-596399.7872
 20
-1159809.648
 10
-596399.8343
 20
-1159810.187
 10
-596399.7872
 20
-1159810.726
 10
-596399.6471
 20
-1159811.2486
 10
-596399.4185
 20
-1159811.739
 10
-596399.1081
 20
-1159812.1822
 10
-596398.7255
 20
-1159812.5648
 10
-596398.2823
 20
-1159812.8752
 10
-596397.7919
 20
-1159813.1038
 10
-596397.2693
 20
-1159813.2439
 10
-596396.7303
 20
-1159813.291
 10
-596396.1913
 20
-1159813.2439
 10
-596395.6687
 20
-1159813.1038
 10
-596395.1783
 20
-1159812.8752
 10
-596394.7351
 20
-1159812.5648
 10
-596394.3525
 20
-1159812.1822
 10
-596394.0422
 20
-1159811.739
 10
-596393.8135
 20
-1159811.2486
 10
-596393.6735
 20
-1159810.726
 10
-596393.6263
 20
-1159810.187
 97
0
 75
0
 76
1
 98
0
  0
HATCH
  5
20038
100
AcDbEntity
  8
kontaminace zemin
100
AcDbHatch
 10
0
 20
0
 30
0
210
0
220
0
230
1
  2
SOLID
 70
1
 71
0
 91
1
 92
2
 72
0
 73
1
 93
37
 10
-596379.7333
 20
-1159815.9254
 10
-596379.7805
 20
-1159815.3864
 10
-596379.9205
 20
-1159814.8638
 10
-596380.1492
 20
-1159814.3734
 10
-596380.4595
 20
-1159813.9302
 10
-596380.8421
 20
-1159813.5476
 10
-596381.2853
 20
-1159813.2372
 10
-596381.7757
 20
-1159813.0086
 10
-596382.2983
 20
-1159812.8685
 10
-596382.8373
 20
-1159812.8214
 10
-596383.3763
 20
-1159812.8685
 10
-596383.8989
 20
-1159813.0086
 10
-596384.3893
 20
-1159813.2372
 10
-596384.8325
 20
-1159813.5476
 10
-596385.2151
 20
-1159813.9302
 10
-596385.5255
 20
-1159814.3734
 10
-596385.7541
 20
-1159814.8638
 10
-596385.8942
 20
-1159815.3864
 10
-596385.9413
 20
-1159815.9254
 10
-596385.8942
 20
-1159816.4644
 10
-596385.7541
 20
-1159816.987
 10
-596385.5255
 20
-1159817.4774
 10
-596385.2151
 20
-1159817.9206
 10
-596384.8325
 20
-1159818.3032
 10
-596384.3893
 20
-1159818.6136
 10
-596383.8989
 20
-1159818.8422
 10
-596383.3763
 20
-1159818.9823
 10
-596382.8373
 20
-1159819.0294
 10
-596382.2983
 20
-1159818.9823
 10
-596381.7757
 20
-1159818.8422
 10
-596381.2853
 20
-1159818.6136
 10
-596380.8421
 20
-1159818.3032
 10
-596380.4595
 20
-1159817.9206
 10
-596380.1492
 20
-1159817.4774
 10
-596379.9205
 20
-1159816.987
 10
-596379.7805
 20
-1159816.4644
 10
-596379.7333
 20
-1159815.9254
 97
0
 75
0
 76
1
 98
0
  0
HATCH
  5
20039
100
AcDbEntity
  8
kontaminace zemin
100
AcDbHatch
 10
0
 20
0
 30
0
210
0
220
0
230
1
  2
SOLID
 70
1
 71
0
 91
1
 92
2
 72
0
 73
1
 93
37
 10
-596369.1625
 20
-1159832.5367
 10
-596369.2097
 20
-1159831.9977
 10
-596369.3497
 20
-1159831.4751
 10
-596369.5784
 20
-1159830.9847
 10
-596369.8887
 20
-1159830.5415
 10
-596370.2713
 20
-1159830.1589
 10
-596370.7145
 20
-1159829.8485
 10
-596371.2049
 20
-1159829.6199
 10
-596371.7275
 20
-1159829.4798
 10
-596372.2665
 20
-1159829.4327
 10
-596372.8055
 20
-1159829.4798
 10
-596373.3281
 20
-1159829.6199
 10
-596373.8185
 20
-1159829.8485
 10
-596374.2617
 20
-1159830.1589
 10
-596374.6443
 20
-1159830.5415
 10
-596374.9547
 20
-1159830.9847
 10
-596375.1833
 20
-1159831.4751
 10
-596375.3234
 20
-1159831.9977
 10
-596375.3705
 20
-1159832.5367
 10
-596375.3234
 20
-1159833.0757
 10
-596375.1833
 20
-1159833.5983
 10
-596374.9547
 20
-1159834.0887
 10
-596374.6443
 20
-1159834.5319
 10
-596374.2617
 20
-1159834.9145
 10
-596373.8185
 20
-1159835.2249
 10
-596373.3281
 20
-1159835.4535
 10
-596372.8055
 20
-1159835.5936
 10
-596372.2665
 20
-1159835.6407
 10
-596371.7275
 20
-1159835.5936
 10
-596371.2049
 20
-1159835.4535
 10
-596370.7145
 20
-1159835.2249
 10
-596370.2713
 20
-1159834.9145
 10
-596369.8887
 20
-1159834.5319
 10
-596369.5784
 20
-1159834.0887
 10
-596369.3497
 20
-1159833.5983
 10
-596369.2097
 20
-1159833.0757
 10
-596369.1625
 20
-1159832.5367
 97
0
 75
0
 76
1
 98
0
  0
HATCH
  5
2003A
100
AcDbEntity
  8
kontaminace zemin
100
AcDbHatch
 10
0
 20
0
 30
0
210
0
220
0
230
1
  2
SOLID
 70
1
 71
0
 91
1
 92
2
 72
0
 73
1
 93
37
 10
-596242.6148
 20
-1159864.5511
 10
-596242.662
 20
-1159864.0121
 10
-596242.802
 20
-1159863.4895
 10
-596243.0307
 20
-1159862.9991
 10
-596243.341
 20
-1159862.5559
 10
-596243.7236
 20
-1159862.1733
 10
-596244.1668
 20
-1159861.8629
 10
-596244.6572
 20
-1159861.6343
 10
-596245.1798
 20
-1159861.4942
 10
-596245.7188
 20
-1159861.4471
 10
-596246.2578
 20
-1159861.4942
 10
-596246.7804
 20
-1159861.6343
 10
-596247.2708
 20
-1159861.8629
 10
-596247.714
 20
-1159862.1733
 10
-596248.0966
 20
-1159862.5559
 10
-596248.407
 20
-1159862.9991
 10
-596248.6356
 20
-1159863.4895
 10
-596248.7757
 20
-1159864.0121
 10
-596248.8228
 20
-1159864.5511
 10
-596248.7757
 20
-1159865.0901
 10
-596248.6356
 20
-1159865.6127
 10
-596248.407
 20
-1159866.1031
 10
-596248.0966
 20
-1159866.5463
 10
-596247.714
 20
-1159866.9289
 10
-596247.2708
 20
-1159867.2393
 10
-596246.7804
 20
-1159867.4679
 10
-596246.2578
 20
-1159867.608
 10
-596245.7188
 20
-1159867.6551
 10
-596245.1798
 20
-1159867.608
 10
-596244.6572
 20
-1159867.4679
 10
-596244.1668
 20
-1159867.2393
 10
-596243.7236
 20
-1159866.9289
 10
-596243.341
 20
-1159866.5463
 10
-596243.0307
 20
-1159866.1031
 10
-596242.802
 20
-1159865.6127
 10
-596242.662
 20
-1159865.0901
 10
-596242.6148
 20
-1159864.5511
 97
0
 75
0
 76
1
 98
0
  0
HATCH
  5
2003B
100
AcDbEntity
  8
kontaminace zemin
100
AcDbHatch
 10
0
 20
0
 30
0
210
0
220
0
230
1
  2
SOLID
 70
1
 71
0
 91
1
 92
2
 72
0
 73
1
 93
37
 10
-597343.0974
 20
-1160352.8154
 10
-597343.1446
 20
-1160352.2764
 10
-597343.2846
 20
-1160351.7538
 10
-597343.5133
 20
-1160351.2634
 10
-597343.8236
 20
-1160350.8202
 10
-597344.2062
 20
-1160350.4376
 10
-597344.6494
 20
-1160350.1272
 10
-597345.1398
 20
-1160349.8986
 10
-597345.6624
 20
-1160349.7585
 10
-597346.2014
 20
-1160349.7114
 10
-597346.7404
 20
-1160349.7585
 10
-597347.263
 20
-1160349.8986
 10
-597347.7534
 20
-1160350.1272
 10
-597348.1966
 20
-1160350.4376
 10
-597348.5792
 20
-1160350.8202
 10
-597348.8896
 20
-1160351.2634
 10
-597349.1182
 20
-1160351.7538
 10
-597349.2583
 20
-1160352.2764
 10
-597349.3054
 20
-1160352.8154
 10
-597349.2583
 20
-1160353.3544
 10
-597349.1182
 20
-1160353.877
 10
-597348.8896
 20
-1160354.3674
 10
-597348.5792
 20
-1160354.8106
 10
-597348.1966
 20
-1160355.1932
 10
-597347.7534
 20
-1160355.5036
 10
-597347.263
 20
-1160355.7322
 10
-597346.7404
 20
-1160355.8723
 10
-597346.2014
 20
-1160355.9194
 10
-597345.6624
 20
-1160355.8723
 10
-597345.1398
 20
-1160355.7322
 10
-597344.6494
 20
-1160355.5036
 10
-597344.2062
 20
-1160355.1932
 10
-597343.8236
 20
-1160354.8106
 10
-597343.5133
 20
-1160354.3674
 10
-597343.2846
 20
-1160353.877
 10
-597343.1446
 20
-1160353.3544
 10
-597343.0974
 20
-1160352.8154
 97
0
 75
0
 76
1
 98
0
  0
HATCH
  5
2003C
100
AcDbEntity
  8
kontaminace zemin
100
AcDbHatch
 10
0
 20
0
 30
0
210
0
220
0
230
1
  2
SOLID
 70
1
 71
0
 91
1
 92
2
 72
0
 73
1
 93
5
 10
-596833.86
 20
-1160226.8866
 10
-596833.86
 20
-1160229.2906
 10
-596830.6075
 20
-1160229.2906
 10
-596830.6075
 20
-1160226.8866
 10
-596833.86
 20
-1160226.8866
 97
0
 75
0
 76
1
 98
0
  0
HATCH
  5
2003D
100
AcDbEntity
  8
kontaminace zemin
100
AcDbHatch
 10
0
 20
0
 30
0
210
0
220
0
230
1
  2
SOLID
 70
1
 71
0
 91
1
 92
2
 72
0
 73
1
 93
5
 10
-596814.557
 20
-1160228.0179
 10
-596814.557
 20
-1160230.634
 10
-596810.951
 20
-1160230.634
 10
-596810.951
 20
-1160228.0179
 10
-596814.557
 20
-1160228.0179
 97
0
 75
0
 76
1
 98
0
  0
HATCH
  5
2003E
100
AcDbEntity
  8
kontaminace zemin
100
AcDbHatch
 10
0
 20
0
 30
0
210
0
220
0
230
1
  2
SOLID
 70
1
 71
0
 91
1
 92
2
 72
0
 73
1
 93
5
 10
-596847.2235
 20
-1160248.8764
 10
-596847.2235
 20
-1160251.0683
 10
-596845.0316
 20
-1160251.0683
 10
-596845.0316
 20
-1160248.8764
 10
-596847.2235
 20
-1160248.8764
 97
0
 75
0
 76
1
 98
0
  0
HATCH
  5
2003F
100
AcDbEntity
  8
kontaminace zemin
100
AcDbHatch
 10
0
 20
0
 30
0
210
0
220
0
230
1
  2
SOLID
 70
1
 71
0
 91
1
 92
2
 72
0
 73
1
 93
37
 10
-596861.8669
 20
-1160557.7237
 10
-596861.9141
 20
-1160557.1847
 10
-596862.0541
 20
-1160556.6621
 10
-596862.2828
 20
-1160556.1717
 10
-596862.5931
 20
-1160555.7285
 10
-596862.9757
 20
-1160555.3459
 10
-596863.4189
 20
-1160555.0355
 10
-596863.9093
 20
-1160554.8069
 10
-596864.4319
 20
-1160554.6668
 10
-596864.9709
 20
-1160554.6197
 10
-596865.5099
 20
-1160554.6668
 10
-596866.0325
 20
-1160554.8069
 10
-596866.5229
 20
-1160555.0355
 10
-596866.9661
 20
-1160555.3459
 10
-596867.3487
 20
-1160555.7285
 10
-596867.6591
 20
-1160556.1717
 10
-596867.8877
 20
-1160556.6621
 10
-596868.0278
 20
-1160557.1847
 10
-596868.0749
 20
-1160557.7237
 10
-596868.0278
 20
-1160558.2627
 10
-596867.8877
 20
-1160558.7853
 10
-596867.6591
 20
-1160559.2757
 10
-596867.3487
 20
-1160559.7189
 10
-596866.9661
 20
-1160560.1015
 10
-596866.5229
 20
-1160560.4119
 10
-596866.0325
 20
-1160560.6405
 10
-596865.5099
 20
-1160560.7806
 10
-596864.9709
 20
-1160560.8277
 10
-596864.4319
 20
-1160560.7806
 10
-596863.9093
 20
-1160560.6405
 10
-596863.4189
 20
-1160560.4119
 10
-596862.9757
 20
-1160560.1015
 10
-596862.5931
 20
-1160559.7189
 10
-596862.2828
 20
-1160559.2757
 10
-596862.0541
 20
-1160558.7853
 10
-596861.9141
 20
-1160558.2627
 10
-596861.8669
 20
-1160557.7237
 97
0
 75
0
 76
1
 98
0
  0
HATCH
  5
20040
100
AcDbEntity
  8
kontaminace zemin
100
AcDbHatch
 10
0
 20
0
 30
0
210
0
220
0
230
1
  2
SOLID
 70
1
 71
0
 91
1
 92
2
 72
0
 73
1
 93
37
 10
-596822.1297
 20
-1160557.8651
 10
-596822.1769
 20
-1160557.3261
 10
-596822.3169
 20
-1160556.8035
 10
-596822.5456
 20
-1160556.3131
 10
-596822.8559
 20
-1160555.8699
 10
-596823.2385
 20
-1160555.4873
 10
-596823.6817
 20
-1160555.1769
 10
-596824.1721
 20
-1160554.9483
 10
-596824.6947
 20
-1160554.8082
 10
-596825.2337
 20
-1160554.7611
 10
-596825.7727
 20
-1160554.8082
 10
-596826.2953
 20
-1160554.9483
 10
-596826.7857
 20
-1160555.1769
 10
-596827.2289
 20
-1160555.4873
 10
-596827.6115
 20
-1160555.8699
 10
-596827.9219
 20
-1160556.3131
 10
-596828.1505
 20
-1160556.8035
 10
-596828.2906
 20
-1160557.3261
 10
-596828.3377
 20
-1160557.8651
 10
-596828.2906
 20
-1160558.4041
 10
-596828.1505
 20
-1160558.9267
 10
-596827.9219
 20
-1160559.4171
 10
-596827.6115
 20
-1160559.8603
 10
-596827.2289
 20
-1160560.2429
 10
-596826.7857
 20
-1160560.5533
 10
-596826.2953
 20
-1160560.7819
 10
-596825.7727
 20
-1160560.922
 10
-596825.2337
 20
-1160560.9691
 10
-596824.6947
 20
-1160560.922
 10
-596824.1721
 20
-1160560.7819
 10
-596823.6817
 20
-1160560.5533
 10
-596823.2385
 20
-1160560.2429
 10
-596822.8559
 20
-1160559.8603
 10
-596822.5456
 20
-1160559.4171
 10
-596822.3169
 20
-1160558.9267
 10
-596822.1769
 20
-1160558.4041
 10
-596822.1297
 20
-1160557.8651
 97
0
 75
0
 76
1
 98
0
  0
HATCH
  5
20041
100
AcDbEntity
  8
kontaminace zemin
100
AcDbHatch
 10
0
 20
0
 30
0
210
0
220
0
230
1
  2
SOLID
 70
1
 71
0
 91
1
 92
2
 72
0
 73
1
 93
37
 10
-596774.6148
 20
-1160558.0065
 10
-596774.662
 20
-1160557.4675
 10
-596774.802
 20
-1160556.9449
 10
-596775.0307
 20
-1160556.4545
 10
-596775.341
 20
-1160556.0113
 10
-596775.7236
 20
-1160555.6287
 10
-596776.1668
 20
-1160555.3183
 10
-596776.6572
 20
-1160555.0897
 10
-596777.1798
 20
-1160554.9496
 10
-596777.7188
 20
-1160554.9025
 10
-596778.2578
 20
-1160554.9496
 10
-596778.7804
 20
-1160555.0897
 10
-596779.2708
 20
-1160555.3183
 10
-596779.714
 20
-1160555.6287
 10
-596780.0966
 20
-1160556.0113
 10
-596780.407
 20
-1160556.4545
 10
-596780.6356
 20
-1160556.9449
 10
-596780.7757
 20
-1160557.4675
 10
-596780.8228
 20
-1160558.0065
 10
-596780.7757
 20
-1160558.5455
 10
-596780.6356
 20
-1160559.0681
 10
-596780.407
 20
-1160559.5585
 10
-596780.0966
 20
-1160560.0017
 10
-596779.714
 20
-1160560.3843
 10
-596779.2708
 20
-1160560.6947
 10
-596778.7804
 20
-1160560.9233
 10
-596778.2578
 20
-1160561.0634
 10
-596777.7188
 20
-1160561.1105
 10
-596777.1798
 20
-1160561.0634
 10
-596776.6572
 20
-1160560.9233
 10
-596776.1668
 20
-1160560.6947
 10
-596775.7236
 20
-1160560.3843
 10
-596775.341
 20
-1160560.0017
 10
-596775.0307
 20
-1160559.5585
 10
-596774.802
 20
-1160559.0681
 10
-596774.662
 20
-1160558.5455
 10
-596774.6148
 20
-1160558.0065
 97
0
 75
0
 76
1
 98
0
  0
HATCH
  5
20042
100
AcDbEntity
  8
kontaminace zemin
100
AcDbHatch
 10
0
 20
0
 30
0
210
0
220
0
230
1
  2
SOLID
 70
1
 71
0
 91
1
 92
2
 72
0
 73
1
 93
37
 10
-596779.2814
 20
-1160585.5821
 10
-596779.3286
 20
-1160585.0431
 10
-596779.4686
 20
-1160584.5205
 10
-596779.6973
 20
-1160584.0301
 10
-596780.0076
 20
-1160583.5869
 10
-596780.3902
 20
-1160583.2043
 10
-596780.8334
 20
-1160582.8939
 10
-596781.3238
 20
-1160582.6653
 10
-596781.8464
 20
-1160582.5252
 10
-596782.3854
 20
-1160582.4781
 10
-596782.9244
 20
-1160582.5252
 10
-596783.447
 20
-1160582.6653
 10
-596783.9374
 20
-1160582.8939
 10
-596784.3806
 20
-1160583.2043
 10
-596784.7632
 20
-1160583.5869
 10
-596785.0736
 20
-1160584.0301
 10
-596785.3022
 20
-1160584.5205
 10
-596785.4423
 20
-1160585.0431
 10
-596785.4894
 20
-1160585.5821
 10
-596785.4423
 20
-1160586.1211
 10
-596785.3022
 20
-1160586.6437
 10
-596785.0736
 20
-1160587.1341
 10
-596784.7632
 20
-1160587.5773
 10
-596784.3806
 20
-1160587.9599
 10
-596783.9374
 20
-1160588.2703
 10
-596783.447
 20
-1160588.4989
 10
-596782.9244
 20
-1160588.639
 10
-596782.3854
 20
-1160588.6861
 10
-596781.8464
 20
-1160588.639
 10
-596781.3238
 20
-1160588.4989
 10
-596780.8334
 20
-1160588.2703
 10
-596780.3902
 20
-1160587.9599
 10
-596780.0076
 20
-1160587.5773
 10
-596779.6973
 20
-1160587.1341
 10
-596779.4686
 20
-1160586.6437
 10
-596779.3286
 20
-1160586.1211
 10
-596779.2814
 20
-1160585.5821
 97
0
 75
0
 76
1
 98
0
  0
HATCH
  5
20043
100
AcDbEntity
  8
kontaminace zemin
100
AcDbHatch
 10
0
 20
0
 30
0
210
0
220
0
230
1
  2
SOLID
 70
1
 71
0
 91
1
 92
2
 72
0
 73
1
 93
6
 10
-597367.9268
 20
-1160275.6321
 10
-597366.8395
 20
-1160281.9017
 10
-597361.0787
 20
-1160280.9116
 10
-597362.1705
 20
-1160275.1534
 10
-597364.3444
 20
-1160275.2679
 10
-597367.9268
 20
-1160275.6321
 97
0
 75
0
 76
1
 98
0
  0
HATCH
  5
20044
100
AcDbEntity
  8
kontaminace zemin
100
AcDbHatch
 10
0
 20
0
 30
0
210
0
220
0
230
1
  2
SOLID
 70
1
 71
0
 91
1
 92
2
 72
0
 73
1
 93
5
 10
-597368.7892
 20
-1160321.7173
 10
-597366.7277
 20
-1160337.0434
 10
-597360.7438
 20
-1160336.0967
 10
-597362.8517
 20
-1160320.8095
 10
-597368.7892
 20
-1160321.7173
 97
0
 75
0
 76
1
 98
0
  0
HATCH
  5
20045
100
AcDbEntity
  8
kontaminace zemin
100
AcDbHatch
 10
0
 20
0
 30
0
210
0
220
0
230
1
  2
SOLID
 70
1
 71
0
 91
1
 92
2
 72
0
 73
1
 93
6
 10
-596090.57
 20
-1160768.2
 10
-596076.5
 20
-1160803.32
 10
-596060.57
 20
-1160839.81
 10
-596032.06
 20
-1160827.41
 10
-596061.9153
 20
-1160756.2938
 10
-596090.57
 20
-1160768.2
 97
0
 75
0
 76
1
 98
0
  0
HATCH
  5
20046
100
AcDbEntity
  8
kontaminace zemin
100
AcDbHatch
 10
0
 20
0
 30
0
210
0
220
0
230
1
  2
SOLID
 70
1
 71
0
 91
1
 92
2
 72
0
 73
1
 93
5
 10
-596152.7654
 20
-1160573.855
 10
-596150.667
 20
-1160578.458
 10
-596143.1722
 20
-1160574.9604
 10
-596145.3114
 20
-1160570.3765
 10
-596152.7654
 20
-1160573.855
 97
0
 75
0
 76
1
 98
0
  0
ENDSEC
  0
SECTION
  2
OBJECTS
  0
DICTIONARY
  5
C
330
0
100
AcDbDictionary
281
     1
  3
ACAD_GROUP
350
D
  3
ACAD_LAYOUT
350
1A
  3
ACAD_MLEADERSTYLE
350
43
  3
ACAD_PLOTSETTINGS
350
19
  3
ACAD_PLOTSTYLENAME
350
E
  3
ACAD_TABLESTYLE
350
42
  0
DICTIONARY
  5
D
102
{ACAD_REACTORS
330
C
102
}
330
C
100
AcDbDictionary
281
     1
  0
DICTIONARY
  5
1A
102
{ACAD_REACTORS
330
C
102
}
330
C
100
AcDbDictionary
281
     1
  3
Layout1
350
1E
  3
Model
350
22
  0
DICTIONARY
  5
43
102
{ACAD_REACTORS
330
C
102
}
330
C
100
AcDbDictionary
281
     1
  0
DICTIONARY
  5
19
102
{ACAD_REACTORS
330
C
102
}
330
C
100
AcDbDictionary
281
     1
  0
ACDBDICTIONARYWDFLT
  5
E
102
{ACAD_REACTORS
330
C
102
}
330
C
100
AcDbDictionary
281
     1
  3
Normal
350
F
100
AcDbDictionaryWithDefault
340
F
  0
DICTIONARY
  5
42
102
{ACAD_REACTORS
330
C
102
}
330
C
100
AcDbDictionary
281
     1
  0
LAYOUT
  5
1E
102
{ACAD_REACTORS
330
1A
102
}
330
1A
100
AcDbPlotSettings
  1

  2
none_device
  4

  6

 40
0.0
 41
0.0
 42
0.0
 43
0.0
 44
0.0
 45
0.0
 46
0.0
 47
0.0
 48
0.0
 49
0.0
140
0.0
141
0.0
142
1.0
143
1.0
 70
   688
 72
     0
 73
     0
 74
     5
  7

 75
    16
 76
     0
 77
     2
 78
   300
147
1.0
148
0.0
149
0.0
100
AcDbLayout
  1
Layout1
 70
     1
 71
     1
 10
0.0
 20
0.0
 11
12.0
 21
9.0
 12
0.0
 22
0.0
 32
0.0
 14
1.000000000000000E+20
 24
1.000000000000000E+20
 34
1.000000000000000E+20
 15
-1.000000000000000E+20
 25
-1.000000000000000E+20
 35
-1.000000000000000E+20
146
0.0
 13
0.0
 23
0.0
 33
0.0
 16
1.0
 26
0.0
 36
0.0
 17
0.0
 27
1.0
 37
0.0
 76
     0
330
1B
  0
LAYOUT
  5
22
102
{ACAD_REACTORS
330
1A
102
}
330
1A
100
AcDbPlotSettings
  1

  2
none_device
  4

  6

 40
0.0
 41
0.0
 42
0.0
 43
0.0
 44
0.0
 45
0.0
 46
0.0
 47
0.0
 48
0.0
 49
0.0
140
0.0
141
0.0
142
1.0
143
1.0
 70
  1712
 72
     0
 73
     0
 74
     0
  7

 75
     0
 76
     0
 77
     2
 78
   300
147
1.0
148
0.0
149
0.0
100
AcDbLayout
  1
Model
 70
     1
 71
     0
 10
0.0
 20
0.0
 11
12.0
 21
9.0
 12
0.0
 22
0.0
 32
0.0
 14
30.0
 24
49.75
 34
0.0
 15
130.5
 25
163.1318914119703
 35
0.0
146
0.0
 13
0.0
 23
0.0
 33
0.0
 16
1.0
 26
0.0
 36
0.0
 17
0.0
 27
1.0
 37
0.0
 76
     0
330
1F
331
29
  0
ENDSEC
  0
EOF
