  0
SECTION
  2
HEADER
  9
$ACADVER
  1
AC1018
  9
$ACADMAINTVER
 70
     0
  9
$DWGCODEPAGE
  3
ANSI_1252
  9
$EXTMIN
 10
16.5372374934195
 20
49.1566854249751
 30
0.0
  9
$EXTMAX
 10
16.6912331913142
 20
49.2232814576134
 30
0.0
  9
$LIMMIN
 10
0.0
 20
0.0
  9
$LIMMAX
 10
12.0
 20
9.0
  9
$ORTHOMODE
 70
     0
  9
$REGENMODE
 70
     1
  9
$FILLMODE
 70
     1
  9
$QTEXTMODE
 70
     0
  9
$MIRRTEXT
 70
     1
  9
$LTSCALE
 40
1.0
  9
$ATTMODE
 70
     1
  9
$TEXTSIZE
 40
0.2
  9
$TRACEWID
 40
0.05
  9
$TEXTSTYLE
  7
Standard
  9
$CLAYER
  8
0
  9
$CELTYPE
  6
ByLayer
  9
$CECOLOR
 62
   256
  9
$CELTSCALE
 40
1.0
  9
$DISPSILH
 70
     0
  9
$LUNITS
 70
     2
  9
$LUPREC
 70
     4
  9
$SKETCHINC
 40
0.1
  9
$FILLETRAD
 40
0.5
  9
$AUNITS
 70
     0
  9
$AUPREC
 70
     0
  9
$MENU
  1
.
  9
$ELEVATION
 40
0.0
  9
$PELEVATION
 40
0.0
  9
$THICKNESS
 40
0.0
  9
$LIMCHECK
 70
     0
  9
$CHAMFERA
 40
0.5
  9
$CHAMFERB
 40
0.5
  9
$CHAMFERC
 40
1.0
  9
$CHAMFERD
 40
0.0
  9
$SKPOLY
 70
     0
  9
$ANGBASE
 50
0.0
  9
$ANGDIR
 70
     0
  9
$PDMODE
 70
     0
  9
$PDSIZE
 40
0.0
  9
$PLINEWID
 40
0.0
  9
$SPLFRAME
 70
     0
  9
$SPLINETYPE
 70
     6
  9
$SPLINESEGS
 70
     8
  9
$HANDSEED
  5
00020048
  9
$SURFTAB1
 70
     6
  9
$SURFTAB2
 70
     6
  9
$SURFTYPE
 70
     6
  9
$SURFU
 70
     6
  9
$SURFV
 70
     6
  9
$UCSBASE
  2

  9
$UCSNAME
  2

  9
$UCSORG
 10
0.0
 20
0.0
 30
0.0
  9
$UCSXDIR
 10
1.0
 20
0.0
 30
0.0
  9
$UCSYDIR
 10
0.0
 20
1.0
 30
0.0
  9
$UCSORTHOREF
  2

  9
$UCSORTHOVIEW
 70
     0
  9
$UCSORGTOP
 10
0.0
 20
0.0
 30
0.0
  9
$UCSORGBOTTOM
 10
0.0
 20
0.0
 30
0.0
  9
$UCSORGLEFT
 10
0.0
 20
0.0
 30
0.0
  9
$UCSORGRIGHT
 10
0.0
 20
0.0
 30
0.0
  9
$UCSORGFRONT
 10
0.0
 20
0.0
 30
0.0
  9
$UCSORGBACK
 10
0.0
 20
0.0
 30
0.0
  9
$PUCSBASE
  2

  9
$PUCSNAME
  2

  9
$PUCSORG
 10
0.0
 20
0.0
 30
0.0
  9
$PUCSXDIR
 10
1.0
 20
0.0
 30
0.0
  9
$PUCSYDIR
 10
0.0
 20
1.0
 30
0.0
  9
$PUCSORTHOREF
  2

  9
$PUCSORTHOVIEW
 70
     0
  9
$PUCSORGTOP
 10
0.0
 20
0.0
 30
0.0
  9
$PUCSORGBOTTOM
 10
0.0
 20
0.0
 30
0.0
  9
$PUCSORGLEFT
 10
0.0
 20
0.0
 30
0.0
  9
$PUCSORGRIGHT
 10
0.0
 20
0.0
 30
0.0
  9
$PUCSORGFRONT
 10
0.0
 20
0.0
 30
0.0
  9
$PUCSORGBACK
 10
0.0
 20
0.0
 30
0.0
  9
$WORLDVIEW
 70
     1
  9
$SHADEDGE
 70
     3
  9
$SHADEDIF
 70
    70
  9
$TILEMODE
 70
     1
  9
$MAXACTVP
 70
    64
  9
$PINSBASE
 10
0.0
 20
0.0
 30
0.0
  9
$PLIMCHECK
 70
     0
  9
$PEXTMIN
 10
1.000000000000000E+20
 20
1.000000000000000E+20
 30
1.000000000000000E+20
  9
$PEXTMAX
 10
-1.000000000000000E+20
 20
-1.000000000000000E+20
 30
-1.000000000000000E+20
  9
$PLIMMIN
 10
0.0
 20
0.0
  9
$PLIMMAX
 10
12.0
 20
9.0
  9
$UNITMODE
 70
     0
  9
$VISRETAIN
 70
     1
  9
$PLINEGEN
 70
     0
  9
$PSLTSCALE
 70
     1
  9
$TREEDEPTH
 70
  3020
  9
$CMLSTYLE
  2
Standard
  9
$CMLJUST
 70
     0
  9
$CMLSCALE
 40
1.0
  9
$PROXYGRAPHICS
 70
     1
  9
$MEASUREMENT
 70
     0
  9
$CELWEIGHT
370
    -1
  9
$ENDCAPS
280
     0
  9
$JOINSTYLE
280
     0
  9
$LWDISPLAY
290
     0
  9
$INSUNITS
 70
     1
  9
$HYPERLINKBASE
  1

  9
$STYLESHEET
  1

  9
$XEDIT
290
     1
  9
$CEPSNTYPE
380
     0
  9
$PSTYLEMODE
290
     1
  9
$EXTNAMES
290
     1
  9
$PSVPSCALE
 40
0.0
  9
$OLESTARTUP
290
     0
  9
$SORTENTS
280
   127
  9
$INDEXCTL
280
     0
  9
$HIDETEXT
280
     1
  9
$XCLIPFRAME
290
     0
  9
$HALOGAP
280
     0
  9
$OBSCOLOR
 70
   257
  9
$OBSLTYPE
280
     0
  9
$INTERSECTIONDISPLAY
280
     0
  9
$INTERSECTIONCOLOR
 70
   257
  9
$DIMASSOC
280
     2
  9
$PROJECTNAME
  1

  0
ENDSEC
  0
SECTION
  2
CLASSES
  0
CLASS
  1
ACDBDICTIONARYWDFLT
  2
AcDbDictionaryWithDefault
  3
ObjectDBX Classes
 90
        0
 91
        4
280
     0
281
     0
  0
ENDSEC
  0
SECTION
  2
TABLES
  0
TABLE
  2
VPORT
  5
8
330
0
100
AcDbSymbolTable
 70
     1
  0
VPORT
  5
29
330
8
100
AcDbSymbolTableRecord
100
AcDbViewportTableRecord
  2
*Active
 70
     0
 10
0.0
 20
0.0
 11
1.0
 21
1.0
 12
80.25
 22
106.4409457059851
 13
0.0
 23
0.0
 14
0.5
 24
0.5
 15
0.5
 25
0.5
 16
0.0
 26
0.0
 36
1.0
 17
0.0
 27
0.0
 37
0.0
 40
113.3818914119703
 41
0.8863849310366128
 42
50.0
 43
0.0
 44
0.0
 50
0.0
 51
0.0
 71
     0
 72
  1000
 73
     1
 74
     3
 75
     0
 76
     0
 77
     0
 78
     0
281
     0
 65
     1
110
0.0
120
0.0
130
0.0
111
1.0
121
0.0
131
0.0
112
0.0
122
1.0
132
0.0
 79
     0
146
0.0
  0
ENDTAB
  0
TABLE
  2
LTYPE
  5
5
330
0
100
AcDbSymbolTable
 70
     1
  0
LTYPE
  5
14
330
5
100
AcDbSymbolTableRecord
100
AcDbLinetypeTableRecord
  2
ByBlock
 70
     0
  3

 72
    65
 73
     0
 40
0.0
  0
LTYPE
  5
15
330
5
100
AcDbSymbolTableRecord
100
AcDbLinetypeTableRecord
  2
ByLayer
 70
     0
  3

 72
    65
 73
     0
 40
0.0
  0
LTYPE
  5
16
330
5
100
AcDbSymbolTableRecord
100
AcDbLinetypeTableRecord
  2
Continuous
 70
     0
  3
Solid line
 72
    65
 73
     0
 40
0.0
  0
ENDTAB
  0
TABLE
  2
LAYER
  5
2
330
0
100
AcDbSymbolTable
 70
     1
  0
LAYER
  5
10
330
2
100
AcDbSymbolTableRecord
100
AcDbLayerTableRecord
  2
0
 70
     0
 62
     7
  6
Continuous
370
    -3
390
F
  0
LAYER
  5
20047
330
2
100
AcDbSymbolTableRecord
100
AcDbLayerTableRecord
  2
kontaminace zemin
 70
     0
 62
     7
  6
Continuous
370
    -3
390
F
  0
ENDTAB
  0
TABLE
  2
STYLE
  5
3
330
0
100
AcDbSymbolTable
 70
     1
  0
STYLE
  5
11
330
3
100
AcDbSymbolTableRecord
100
AcDbTextStyleTableRecord
  2
Standard
 70
     0
 40
0.0
 41
1.0
 50
0.0
 71
     0
 42
0.2
  3
txt
  4

  0
ENDTAB
  0
TABLE
  2
VIEW
  5
6
330
0
100
AcDbSymbolTable
 70
     0
  0
ENDTAB
  0
TABLE
  2
UCS
  5
7
330
0
100
AcDbSymbolTable
 70
     0
  0
ENDTAB
  0
TABLE
  2
APPID
  5
9
330
0
100
AcDbSymbolTable
 70
     1
  0
APPID
  5
12
330
9
100
AcDbSymbolTableRecord
100
AcDbRegAppTableRecord
  2
ACAD
 70
     0
  0
ENDTAB
  0
TABLE
  2
DIMSTYLE
  5
A
330
0
100
AcDbSymbolTable
 70
     1
100
AcDbDimStyleTable
  0
DIMSTYLE
105
27
330
A
100
AcDbSymbolTableRecord
100
AcDbDimStyleTableRecord
  2
Standard
 70
     0
340
11
  0
ENDTAB
  0
TABLE
  2
BLOCK_RECORD
  5
1
330
0
100
AcDbSymbolTable
 70
     1
  0
BLOCK_RECORD
  5
1F
330
1
100
AcDbSymbolTableRecord
100
AcDbBlockTableRecord
  2
*Model_Space
340
22
  0
BLOCK_RECORD
  5
1B
330
1
100
AcDbSymbolTableRecord
100
AcDbBlockTableRecord
  2
*Paper_Space
340
1E
  0
ENDTAB
  0
ENDSEC
  0
SECTION
  2
BLOCKS
  0
BLOCK
  5
20
330
1F
100
AcDbEntity
  8
0
100
AcDbBlockBegin
  2
*Model_Space
 70
     0
 10
0.0
 20
0.0
 30
0.0
  3
*Model_Space
  1

  0
ENDBLK
  5
21
330
1F
100
AcDbEntity
  8
0
100
AcDbBlockEnd
  0
BLOCK
  5
1C
330
1B
100
AcDbEntity
 67
     1
  8
0
100
AcDbBlockBegin
  2
*Paper_Space
 70
     0
 10
0.0
 20
0.0
 30
0.0
  3
*Paper_Space
  1

  0
ENDBLK
  5
1D
330
1B
100
AcDbEntity
 67
     1
  8
0
100
AcDbBlockEnd
  0
ENDSEC
  0
SECTION
  2
ENTITIES
  0
HATCH
  5
20000
100
AcDbEntity
  8
kontaminace zemin
100
AcDbHatch
 10
0
 20
0
 30
0
210
0
220
0
230
1
  2
SOLID
 70
1
 71
0
 91
1
 92
2
 72
0
 73
1
 93
6
 10
16.5808087223409
 20
49.1730533856147
 10
16.5808810530876
 20
49.1729847652892
 10
16.5808833933733
 20
49.1729714541581
 10
16.5811532105603
 20
49.1729636289598
 10
16.5811626312123
 20
49.1730516961151
 10
16.5808087223409
 20
49.1730533856147
 97
0
 75
0
 76
1
 98
0
  0
HATCH
  5
20001
100
AcDbEntity
  8
kontaminace zemin
100
AcDbHatch
 10
0
 20
0
 30
0
210
0
220
0
230
1
  2
SOLID
 70
1
 71
0
 91
1
 92
2
 72
0
 73
1
 93
5
 10
16.5814361423575
 20
49.1729697014647
 10
16.5815552888331
 20
49.1729700895409
 10
16.5815587854218
 20
49.17303131021
 10
16.5814415455167
 20
49.1730341901497
 10
16.5814361423575
 20
49.1729697014647
 97
0
 75
0
 76
1
 98
0
  0
HATCH
  5
20002
100
AcDbEntity
  8
kontaminace zemin
100
AcDbHatch
 10
0
 20
0
 30
0
210
0
220
0
230
1
  2
SOLID
 70
1
 71
0
 91
1
 92
2
 72
0
 73
1
 93
5
 10
16.6541065663054
 20
49.1837690991332
 10
16.6540504018645
 20
49.1835916416303
 10
16.6544170317826
 20
49.1835533611946
 10
16.6544628277426
 20
49.1837418301607
 10
16.6541065663054
 20
49.1837690991332
 97
0
 75
0
 76
1
 98
0
  0
HATCH
  5
20003
100
AcDbEntity
  8
kontaminace zemin
100
AcDbHatch
 10
0
 20
0
 30
0
210
0
220
0
230
1
  2
SOLID
 70
1
 71
0
 91
1
 92
2
 72
0
 73
1
 93
6
 10
16.6138199319388
 20
49.1776766095599
 10
16.6139683804382
 20
49.1776265438445
 10
16.6142066587187
 20
49.1777253367692
 10
16.614180441214
 20
49.1777898795633
 10
16.6138583284073
 20
49.1777336421522
 10
16.6138199319388
 20
49.1776766095599
 97
0
 75
0
 76
1
 98
0
  0
HATCH
  5
20004
100
AcDbEntity
  8
kontaminace zemin
100
AcDbHatch
 10
0
 20
0
 30
0
210
0
220
0
230
1
  2
SOLID
 70
1
 71
0
 91
1
 92
2
 72
0
 73
1
 93
5
 10
16.6113460437414
 20
49.1746593152321
 10
16.6119252643489
 20
49.173056287321
 10
16.6121525103566
 20
49.1730912387681
 10
16.6115853966157
 20
49.1746762745366
 10
16.6113460437414
 20
49.1746593152321
 97
0
 75
0
 76
1
 98
0
  0
HATCH
  5
20005
100
AcDbEntity
  8
kontaminace zemin
100
AcDbHatch
 10
0
 20
0
 30
0
210
0
220
0
230
1
  2
SOLID
 70
1
 71
0
 91
1
 92
2
 72
0
 73
1
 93
5
 10
16.6118378247808
 20
49.1741886297894
 10
16.6122579686769
 20
49.1742685324133
 10
16.6120278288152
 20
49.1747887268615
 10
16.6116150832971
 20
49.1747102315837
 10
16.6118378247808
 20
49.1741886297894
 97
0
 75
0
 76
1
 98
0
  0
HATCH
  5
20006
100
AcDbEntity
  8
kontaminace zemin
100
AcDbHatch
 10
0
 20
0
 30
0
210
0
220
0
230
1
  2
SOLID
 70
1
 71
0
 91
1
 92
2
 72
0
 73
1
 93
10
 10
16.6050421133085
 20
49.1665187217305
 10
16.6051534651665
 20
49.1659981047416
 10
16.6053000130817
 20
49.1659980529799
 10
16.6054370205973
 20
49.1661331087414
 10
16.6059252537696
 20
49.1662053352099
 10
16.6062629383685
 20
49.166321197496
 10
16.6062613977876
 20
49.1665237197711
 10
16.6060574767176
 20
49.1667557591388
 10
16.6052730730245
 20
49.1667022209274
 10
16.6050421133085
 20
49.1665187217305
 97
0
 75
0
 76
1
 98
0
  0
HATCH
  5
20007
100
AcDbEntity
  8
kontaminace zemin
100
AcDbHatch
 10
0
 20
0
 30
0
210
0
220
0
230
1
  2
SOLID
 70
1
 71
0
 91
1
 92
2
 72
0
 73
1
 93
5
 10
16.6078875014708
 20
49.1635927602627
 10
16.6081582131036
 20
49.1636810615237
 10
16.6080109505024
 20
49.1638281676616
 10
16.6079376928982
 20
49.1637973246555
 10
16.6078875014708
 20
49.1635927602627
 97
0
 75
0
 76
1
 98
0
  0
HATCH
  5
20008
100
AcDbEntity
  8
kontaminace zemin
100
AcDbHatch
 10
0
 20
0
 30
0
210
0
220
0
230
1
  2
SOLID
 70
1
 71
0
 91
1
 92
2
 72
0
 73
1
 93
14
 10
16.614225687162
 20
49.177437961489
 10
16.6143911201898
 20
49.1773526996912
 10
16.614411921235
 20
49.1773132799367
 10
16.6151375473502
 20
49.1774688232695
 10
16.6152008568547
 20
49.1775927529292
 10
16.615465539752
 20
49.1776246708041
 10
16.6149087746915
 20
49.1779333769627
 10
16.6147558336948
 20
49.1778297447482
 10
16.6146999559417
 20
49.1777202820545
 10
16.6148090560179
 20
49.1776296832273
 10
16.6146385519351
 20
49.1776008954911
 10
16.6144495626959
 20
49.1777420349099
 10
16.6143933306502
 20
49.1777548224916
 10
16.614225687162
 20
49.177437961489
 97
0
 75
0
 76
1
 98
0
  0
HATCH
  5
20009
100
AcDbEntity
  8
kontaminace zemin
100
AcDbHatch
 10
0
 20
0
 30
0
210
0
220
0
230
1
  2
SOLID
 70
1
 71
0
 91
1
 92
2
 72
0
 73
1
 93
8
 10
16.5372374934195
 20
49.2232557791867
 10
16.537245463742
 20
49.2229899019485
 10
16.5373883441525
 20
49.2229935250938
 10
16.5374334662825
 20
49.2229886469067
 10
16.5374970391844
 20
49.2230507632263
 10
16.537492336762
 20
49.223278028215
 10
16.5374149784544
 20
49.2232814576134
 10
16.5372374934195
 20
49.2232557791867
 97
0
 75
0
 76
1
 98
0
  0
HATCH
  5
2000A
100
AcDbEntity
  8
kontaminace zemin
100
AcDbHatch
 10
0
 20
0
 30
0
210
0
220
0
230
1
  2
SOLID
 70
1
 71
0
 91
1
 92
2
 72
0
 73
1
 93
37
 10
16.6909238015457
 20
49.199860668232
 10
16.6909164237299
 20
49.1998852947594
 10
16.6909026305089
 20
49.1999087081176
 10
16.6908828446667
 20
49.1999301954466
 10
16.690857663801
 20
49.1999491058853
 10
16.6908278555517
 20
49.1999648628991
 10
16.6907943245654
 20
49.1999769890952
 10
16.6907580890582
 20
49.1999851145279
 10
16.690720250312
 20
49.1999889944573
 10
16.6906819596337
 20
49.1999885088405
 10
16.6906443791766
 20
49.1999836740558
 10
16.6906086500669
 20
49.1999746352407
 10
16.6905758601429
 20
49.199961669456
 10
16.6905470026268
 20
49.1999451683172
 10
16.6905229573125
 20
49.1999256348664
 10
16.690504452844
 20
49.1999036610293
 10
16.6904920533117
 20
49.1998799167273
 10
16.69048613398
 20
49.1998551210425
 10
16.690486873781
 20
49.1998300290298
 10
16.6904942531665
 20
49.1998054026254
 10
16.6905080451871
 20
49.1997819892199
 10
16.6905278311326
 20
49.1997605019547
 10
16.6905530120282
 20
49.1997415915873
 10
16.6905828202306
 20
49.1997258346439
 10
16.6906163524631
 20
49.1997137086045
 10
16.6906525864306
 20
49.1997055831202
 10
16.6906904249658
 20
49.1997017032128
 10
16.6907287154226
 20
49.1997021888267
 10
16.6907662956745
 20
49.1997070235841
 10
16.6908020246201
 20
49.1997160623508
 10
16.6908348158053
 20
49.1997290281674
 10
16.690863671927
 20
49.1997455291391
 10
16.6908877172882
 20
49.1997650625196
 10
16.6909062218749
 20
49.1997870362958
 10
16.6909186215824
 20
49.1998107805536
 10
16.6909245424897
 20
49.1998355763121
 10
16.6909238015457
 20
49.199860668232
 97
0
 75
0
 76
1
 98
0
  0
HATCH
  5
2000B
100
AcDbEntity
  8
kontaminace zemin
100
AcDbHatch
 10
0
 20
0
 30
0
210
0
220
0
230
1
  2
SOLID
 70
1
 71
0
 91
1
 92
2
 72
0
 73
1
 93
5
 10
16.6752372847842
 20
49.1967902159194
 10
16.6755211555361
 20
49.19636692499
 10
16.6771668198347
 20
49.1967783017038
 10
16.6769013495835
 20
49.1972303788731
 10
16.6752372847842
 20
49.1967902159194
 97
0
 75
0
 76
1
 98
0
  0
HATCH
  5
2000C
100
AcDbEntity
  8
kontaminace zemin
100
AcDbHatch
 10
0
 20
0
 30
0
210
0
220
0
230
1
  2
SOLID
 70
1
 71
0
 91
1
 92
2
 72
0
 73
1
 93
37
 10
16.5874765432467
 20
49.1876486921299
 10
16.5874751362361
 20
49.1876533535885
 10
16.5874725171408
 20
49.1876577842085
 10
16.5874687634338
 20
49.1876618492927
 10
16.5874639894483
 20
49.1876654249032
 10
16.5874583398867
 20
49.1876684037321
 10
16.587451988605
 20
49.1876706941109
 10
16.5874451265185
 20
49.187672226387
 10
16.5874379626693
 20
49.187672954809
 10
16.5874307148274
 20
49.1876728559538
 10
16.5874236029992
 20
49.1876719345982
 10
16.5874168436431
 20
49.187670216975
 10
16.5874106418144
 20
49.1876677565475
 10
16.5874051853808
 20
49.1876646272665
 10
16.5874006421463
 20
49.1876609242705
 10
16.5873971478714
 20
49.1876567612254
 10
16.587394810184
 20
49.1876522633662
 10
16.5873936988835
 20
49.1876475677129
 10
16.5873938497041
 20
49.1876428170058
 10
16.5873952553581
 20
49.1876381554513
 10
16.5873978758231
 20
49.1876337249299
 10
16.5874016295338
 20
49.187629659848
 10
16.5874064035204
 20
49.1876260842401
 10
16.5874120517164
 20
49.1876231053167
 10
16.5874184043577
 20
49.187620815037
 10
16.5874252664379
 20
49.1876192827625
 10
16.5874324302795
 20
49.1876185543414
 10
16.5874396781135
 20
49.1876186531964
 10
16.5874467899344
 20
49.1876195745511
 10
16.5874535492846
 20
49.1876212921725
 10
16.5874597511096
 20
49.1876237525976
 10
16.5874652061782
 20
49.1876268817792
 10
16.5874697507784
 20
49.1876305848696
 10
16.5874732450575
 20
49.1876347479126
 10
16.5874755827513
 20
49.1876392457702
 10
16.5874766926953
 20
49.1876439413258
 10
16.5874765432467
 20
49.1876486921299
 97
0
 75
0
 76
1
 98
0
  0
HATCH
  5
2000D
100
AcDbEntity
  8
kontaminace zemin
100
AcDbHatch
 10
0
 20
0
 30
0
210
0
220
0
230
1
  2
SOLID
 70
1
 71
0
 91
1
 92
2
 72
0
 73
1
 93
37
 10
16.5872042335327
 20
49.1874298971854
 10
16.5872028265027
 20
49.1874345586409
 10
16.5872002073947
 20
49.1874389892549
 10
16.587196453682
 20
49.1874430543303
 10
16.5871916796978
 20
49.1874466299296
 10
16.5871860301448
 20
49.1874496087453
 10
16.5871796788787
 20
49.1874518991092
 10
16.587172816814
 20
49.1874534313692
 10
16.5871656529925
 20
49.1874541597742
 10
16.5871584051831
 20
49.187454060902
 10
16.5871512933914
 20
49.1874531395296
 10
16.5871445340746
 20
49.1874514218904
 10
16.5871383322868
 20
49.1874489614482
 10
16.5871328758945
 20
49.1874458321542
 10
16.5871283327003
 20
49.1874421291473
 10
16.5871248384637
 20
49.1874379660938
 10
16.5871225008114
 20
49.187433468229
 10
16.5871213895416
 20
49.187428772573
 10
16.5871215403876
 20
49.1874240218661
 10
16.5871229460609
 20
49.1874193603147
 10
16.5871255665388
 20
49.1874149297994
 10
16.5871293202552
 20
49.1874108647262
 10
16.5871340942404
 20
49.1874072891295
 10
16.5871397424277
 20
49.1874043102194
 10
16.5871460950535
 20
49.1874020199546
 10
16.5871529571119
 20
49.1874004876961
 10
16.5871601209259
 20
49.1873997592919
 10
16.5871673687273
 20
49.187399858164
 10
16.5871744805117
 20
49.1874007795355
 10
16.5871812398227
 20
49.187402497173
 10
16.5871874416068
 20
49.1874049576128
 10
16.5871928966341
 20
49.1874080868073
 10
16.5871974411939
 20
49.1874117899086
 10
16.5872009354347
 20
49.1874159529599
 10
16.5872032730934
 20
49.1874204508231
 10
16.5872043830068
 20
49.1874251463815
 10
16.5872042335327
 20
49.1874298971854
 97
0
 75
0
 76
1
 98
0
  0
HATCH
  5
2000E
100
AcDbEntity
  8
kontaminace zemin
100
AcDbHatch
 10
0
 20
0
 30
0
210
0
220
0
230
1
  2
SOLID
 70
1
 71
0
 91
1
 92
2
 72
0
 73
1
 93
37
 10
16.6904392381891
 20
49.1825434014025
 10
16.690437818612
 20
49.1825481421344
 10
16.6904351638459
 20
49.1825526488
 10
16.6904313568238
 20
49.1825567852276
 10
16.6904265105376
 20
49.182560425493
 10
16.6904207756379
 20
49.1825634580713
 10
16.6904143227524
 20
49.1825657927355
 10
16.6904073500357
 20
49.1825673565647
 10
16.6904000691416
 20
49.182568103812
 10
16.6903927006427
 20
49.1825680101575
 10
16.6903854687709
 20
49.1825670795742
 10
16.6903785939624
 20
49.1825653392834
 10
16.6903722839447
 20
49.1825628436507
 10
16.6903667308116
 20
49.1825596667463
 10
16.6903621046915
 20
49.182555907327
 10
16.690358543223
 20
49.1825516772452
 10
16.6903561576449
 20
49.1825471063975
 10
16.6903550177422
 20
49.1825423335302
 10
16.6903551606139
 20
49.1825375032355
 10
16.6903565801985
 20
49.1825327625047
 10
16.6903592349708
 20
49.1825282558408
 10
16.6903630419967
 20
49.1825241194156
 10
16.690367888284
 20
49.1825204791529
 10
16.690373623182
 20
49.1825174465772
 10
16.6903800760631
 20
49.1825151119152
 10
16.6903870487733
 20
49.1825135480877
 10
16.6903943296595
 20
49.1825128008412
 10
16.6904016981502
 20
49.1825128944956
 10
16.6904089300145
 20
49.1825138250778
 10
16.6904158048169
 20
49.1825155653669
 10
16.6904221148307
 20
49.1825180609972
 10
16.6904276679627
 20
49.182521237899
 10
16.6904322940846
 20
49.1825249973156
 10
16.6904358555575
 20
49.1825292273952
 10
16.690438241142
 20
49.1825337982412
 10
16.6904393810525
 20
49.1825385711078
 10
16.6904392381891
 20
49.1825434014025
 97
0
 75
0
 76
1
 98
0
  0
HATCH
  5
2000F
100
AcDbEntity
  8
kontaminace zemin
100
AcDbHatch
 10
0
 20
0
 30
0
210
0
220
0
230
1
  2
SOLID
 70
1
 71
0
 91
1
 92
2
 72
0
 73
1
 93
5
 10
16.6825553415901
 20
49.1687918452431
 10
16.6828920884641
 20
49.1684841543145
 10
16.6831679334235
 20
49.1685938560434
 10
16.6828100638762
 20
49.1689050021599
 10
16.6825553415901
 20
49.1687918452431
 97
0
 75
0
 76
1
 98
0
  0
HATCH
  5
20010
100
AcDbEntity
  8
kontaminace zemin
100
AcDbHatch
 10
0
 20
0
 30
0
210
0
220
0
230
1
  2
SOLID
 70
1
 71
0
 91
1
 92
2
 72
0
 73
1
 93
18
 10
16.5995550333088
 20
49.187983504921
 10
16.5993050789203
 20
49.18772378019
 10
16.5993459945834
 20
49.1868454963774
 10
16.5997093989888
 20
49.1865755475508
 10
16.5993580984697
 20
49.1861575252782
 10
16.6004131459999
 20
49.185752754303
 10
16.6008138195708
 20
49.1860928241043
 10
16.601027748376
 20
49.186586584375
 10
16.600524898835
 20
49.186835965196
 10
16.6005055321904
 20
49.1869607677085
 10
16.6006298543817
 20
49.1871206382479
 10
16.6009854086204
 20
49.187149773472
 10
16.6016588641472
 20
49.1873143813027
 10
16.6016307254398
 20
49.1876802604632
 10
16.6010779931601
 20
49.1877345660289
 10
16.600651487799
 20
49.1877354683845
 10
16.6000640302939
 20
49.1877849788121
 10
16.5995550333088
 20
49.187983504921
 97
0
 75
0
 76
1
 98
0
  0
HATCH
  5
20011
100
AcDbEntity
  8
kontaminace zemin
100
AcDbHatch
 10
0
 20
0
 30
0
210
0
220
0
230
1
  2
SOLID
 70
1
 71
0
 91
1
 92
2
 72
0
 73
1
 93
7
 10
16.6051331788835
 20
49.1739306558733
 10
16.6053895298227
 20
49.1738162027231
 10
16.6057107928023
 20
49.1740759564655
 10
16.6058135362683
 20
49.1741637215798
 10
16.6059468357217
 20
49.1742766808688
 10
16.6056412580422
 20
49.1743962946213
 10
16.6051331788835
 20
49.1739306558733
 97
0
 75
0
 76
1
 98
0
  0
HATCH
  5
20012
100
AcDbEntity
  8
kontaminace zemin
100
AcDbHatch
 10
0
 20
0
 30
0
210
0
220
0
230
1
  2
SOLID
 70
1
 71
0
 91
1
 92
2
 72
0
 73
1
 93
5
 10
16.6121084764297
 20
49.1845819957079
 10
16.6128009367083
 20
49.1848661452796
 10
16.6125542082029
 20
49.1851245012177
 10
16.6118617457317
 20
49.1848403501755
 10
16.6121084764297
 20
49.1845819957079
 97
0
 75
0
 76
1
 98
0
  0
HATCH
  5
20013
100
AcDbEntity
  8
kontaminace zemin
100
AcDbHatch
 10
0
 20
0
 30
0
210
0
220
0
230
1
  2
SOLID
 70
1
 71
0
 91
1
 92
2
 72
0
 73
1
 93
5
 10
16.6129338146628
 20
49.1849402451805
 10
16.613316428735
 20
49.1850929816455
 10
16.6131657446187
 20
49.1852377882169
 10
16.6128179734135
 20
49.1850822920926
 10
16.6129338146628
 20
49.1849402451805
 97
0
 75
0
 76
1
 98
0
  0
HATCH
  5
20014
100
AcDbEntity
  8
kontaminace zemin
100
AcDbHatch
 10
0
 20
0
 30
0
210
0
220
0
230
1
  2
SOLID
 70
1
 71
0
 91
1
 92
2
 72
0
 73
1
 93
5
 10
16.6133049273835
 20
49.1848221851084
 10
16.613416190917
 20
49.1848633242861
 10
16.613367082615
 20
49.184918791141
 10
16.6132617376133
 20
49.1848784193286
 10
16.6133049273835
 20
49.1848221851084
 97
0
 75
0
 76
1
 98
0
  0
HATCH
  5
20015
100
AcDbEntity
  8
kontaminace zemin
100
AcDbHatch
 10
0
 20
0
 30
0
210
0
220
0
230
1
  2
SOLID
 70
1
 71
0
 91
1
 92
2
 72
0
 73
1
 93
5
 10
16.6154598922653
 20
49.1847073521186
 10
16.6155917136426
 20
49.1845134830706
 10
16.6156976466994
 20
49.1845528867134
 10
16.6155685624628
 20
49.1847397517327
 10
16.6154598922653
 20
49.1847073521186
 97
0
 75
0
 76
1
 98
0
  0
HATCH
  5
20016
100
AcDbEntity
  8
kontaminace zemin
100
AcDbHatch
 10
0
 20
0
 30
0
210
0
220
0
230
1
  2
SOLID
 70
1
 71
0
 91
1
 92
2
 72
0
 73
1
 93
5
 10
16.6162812291903
 20
49.1850922326628
 10
16.6163040437644
 20
49.1850613631695
 10
16.6163700398944
 20
49.1850694644266
 10
16.6163302754739
 20
49.1851153233712
 10
16.6162812291903
 20
49.1850922326628
 97
0
 75
0
 76
1
 98
0
  0
HATCH
  5
20017
100
AcDbEntity
  8
kontaminace zemin
100
AcDbHatch
 10
0
 20
0
 30
0
210
0
220
0
230
1
  2
SOLID
 70
1
 71
0
 91
1
 92
2
 72
0
 73
1
 93
5
 10
16.6168230775181
 20
49.1850861228917
 10
16.6168889274254
 20
49.1850354480099
 10
16.6169318083463
 20
49.1850598141815
 10
16.6168652949319
 20
49.1851101110728
 10
16.6168230775181
 20
49.1850861228917
 97
0
 75
0
 76
1
 98
0
  0
HATCH
  5
20018
100
AcDbEntity
  8
kontaminace zemin
100
AcDbHatch
 10
0
 20
0
 30
0
210
0
220
0
230
1
  2
SOLID
 70
1
 71
0
 91
1
 92
2
 72
0
 73
1
 93
5
 10
16.6164377738409
 20
49.1849427308553
 10
16.6164599133864
 20
49.1849084787035
 10
16.616512166728
 20
49.1849229911955
 10
16.6164900272121
 20
49.1849572433573
 10
16.6164377738409
 20
49.1849427308553
 97
0
 75
0
 76
1
 98
0
  0
HATCH
  5
20019
100
AcDbEntity
  8
kontaminace zemin
100
AcDbHatch
 10
0
 20
0
 30
0
210
0
220
0
230
1
  2
SOLID
 70
1
 71
0
 91
1
 92
2
 72
0
 73
1
 93
5
 10
16.6164629268164
 20
49.1846585467125
 10
16.6166000134172
 20
49.1846728837891
 10
16.6165813341768
 20
49.1847636771868
 10
16.6164482407491
 20
49.1847476808721
 10
16.6164629268164
 20
49.1846585467125
 97
0
 75
0
 76
1
 98
0
  0
HATCH
  5
2001A
100
AcDbEntity
  8
kontaminace zemin
100
AcDbHatch
 10
0
 20
0
 30
0
210
0
220
0
230
1
  2
SOLID
 70
1
 71
0
 91
1
 92
2
 72
0
 73
1
 93
9
 10
16.6166194033544
 20
49.1844065116892
 10
16.6167956982631
 20
49.184365876403
 10
16.6170535291537
 20
49.1845051847701
 10
16.61726761143
 20
49.1848235249155
 10
16.6172166295458
 20
49.184839000614
 10
16.617267243639
 20
49.1849128622371
 10
16.6170873741664
 20
49.1849652523778
 10
16.6169539234016
 20
49.1849456089267
 10
16.6166194033544
 20
49.1844065116892
 97
0
 75
0
 76
1
 98
0
  0
HATCH
  5
2001B
100
AcDbEntity
  8
kontaminace zemin
100
AcDbHatch
 10
0
 20
0
 30
0
210
0
220
0
230
1
  2
SOLID
 70
1
 71
0
 91
1
 92
2
 72
0
 73
1
 93
11
 10
16.6147688423016
 20
49.1843511734901
 10
16.6148148784398
 20
49.1842947677601
 10
16.6147653879436
 20
49.1841976602138
 10
16.6147973288554
 20
49.1841595337932
 10
16.615012252846
 20
49.1842389869807
 10
16.6149776996625
 20
49.1842736325135
 10
16.6150075328389
 20
49.1842836303516
 10
16.6149780154018
 20
49.1843214779944
 10
16.6149426248546
 20
49.1843096177373
 10
16.6148832292259
 20
49.184383322895
 10
16.6147688423016
 20
49.1843511734901
 97
0
 75
0
 76
1
 98
0
  0
HATCH
  5
2001C
100
AcDbEntity
  8
kontaminace zemin
100
AcDbHatch
 10
0
 20
0
 30
0
210
0
220
0
230
1
  2
SOLID
 70
1
 71
0
 91
1
 92
2
 72
0
 73
1
 93
31
 10
16.6131768444242
 20
49.1798661961748
 10
16.6132380640148
 20
49.1799116824082
 10
16.61329553418
 20
49.179923654759
 10
16.613444808324
 20
49.1798729186825
 10
16.6137197100819
 20
49.1801579251627
 10
16.6138823538117
 20
49.1803953117712
 10
16.6135964705914
 20
49.1804784317559
 10
16.61397919771
 20
49.1810425512283
 10
16.6142669569468
 20
49.1809605036513
 10
16.6143883679156
 20
49.1810974376668
 10
16.6140184750776
 20
49.1812085938136
 10
16.6141004833678
 20
49.1813313526752
 10
16.6144772002522
 20
49.181226146235
 10
16.6145506188589
 20
49.1813786981472
 10
16.6149320769432
 20
49.1819416224911
 10
16.6150096581107
 20
49.1819705353705
 10
16.6154226482602
 20
49.1826158714501
 10
16.615298967971
 20
49.1826058293626
 10
16.6150339721498
 20
49.1824229476347
 10
16.614754128894
 20
49.1822607649331
 10
16.6144719423693
 20
49.1821345137258
 10
16.6140143218019
 20
49.1819998043796
 10
16.6136510540302
 20
49.1819274580129
 10
16.6132158637943
 20
49.1812633792107
 10
16.6133022851497
 20
49.1812337720249
 10
16.6130865612715
 20
49.180896325294
 10
16.6129685723106
 20
49.1806086584704
 10
16.6126897332313
 20
49.1801238398231
 10
16.6128742872881
 20
49.1800634814689
 10
16.6128122201856
 20
49.179966851902
 10
16.6131768444242
 20
49.1798661961748
 97
0
 75
0
 76
1
 98
0
  0
HATCH
  5
2001D
100
AcDbEntity
  8
kontaminace zemin
100
AcDbHatch
 10
0
 20
0
 30
0
210
0
220
0
230
1
  2
SOLID
 70
1
 71
0
 91
1
 92
2
 72
0
 73
1
 93
7
 10
16.6865212683374
 20
49.1573526562986
 10
16.6864073377649
 20
49.1569440055231
 10
16.6885098285683
 20
49.1567679892242
 10
16.6885002729989
 20
49.1569062586401
 10
16.6911286899018
 20
49.1566854249751
 10
16.6912331913142
 20
49.157011729732
 10
16.6865212683374
 20
49.1573526562986
 97
0
 75
0
 76
1
 98
0
  0
HATCH
  5
2001E
100
AcDbEntity
  8
kontaminace zemin
100
AcDbHatch
 10
0
 20
0
 30
0
210
0
220
0
230
1
  2
SOLID
 70
1
 71
0
 91
1
 92
2
 72
0
 73
1
 93
21
 10
16.6047985814486
 20
49.205441980339
 10
16.6047926479566
 20
49.2054385288558
 10
16.6047887319603
 20
49.2054329491495
 10
16.6047874735763
 20
49.2054163374556
 10
16.6047949989634
 20
49.2053946743283
 10
16.6048101589618
 20
49.2053712584457
 10
16.604830649345
 20
49.2053496539546
 10
16.6048533483739
 20
49.2053331508897
 10
16.6048748018164
 20
49.2053242604661
 10
16.6048840194284
 20
49.2053231454066
 10
16.6048917423199
 20
49.2053243367208
 10
16.6048976758052
 20
49.2053277881989
 10
16.6049015918053
 20
49.2053333679015
 10
16.6049028502255
 20
49.2053499795944
 10
16.6048953262569
 20
49.2053716428257
 10
16.6048801649341
 20
49.2053950586227
 10
16.6048596745537
 20
49.2054166631225
 10
16.6048369754886
 20
49.2054331661883
 10
16.6048155219922
 20
49.2054420566048
 10
16.604806305721
 20
49.2054431717555
 10
16.6047985814486
 20
49.205441980339
 97
0
 75
0
 76
1
 98
0
  0
HATCH
  5
2001F
100
AcDbEntity
  8
kontaminace zemin
100
AcDbHatch
 10
0
 20
0
 30
0
210
0
220
0
230
1
  2
SOLID
 70
1
 71
0
 91
1
 92
2
 72
0
 73
1
 93
6
 10
16.6049541546228
 20
49.2056542487664
 10
16.6051978245363
 20
49.2053154277407
 10
16.6052068061642
 20
49.2053387490935
 10
16.6052089508129
 20
49.2053656480482
 10
16.6050079969638
 20
49.2056363880727
 10
16.6049541546228
 20
49.2056542487664
 97
0
 75
0
 76
1
 98
0
  0
HATCH
  5
20020
100
AcDbEntity
  8
kontaminace zemin
100
AcDbHatch
 10
0
 20
0
 30
0
210
0
220
0
230
1
  2
SOLID
 70
1
 71
0
 91
1
 92
2
 72
0
 73
1
 93
5
 10
16.6050006570257
 20
49.2053663602729
 10
16.6050215747052
 20
49.2053381189631
 10
16.605054382382
 20
49.205348135821
 10
16.6050339179155
 20
49.2053757724853
 10
16.6050006570257
 20
49.2053663602729
 97
0
 75
0
 76
1
 98
0
  0
HATCH
  5
20021
100
AcDbEntity
  8
kontaminace zemin
100
AcDbHatch
 10
0
 20
0
 30
0
210
0
220
0
230
1
  2
SOLID
 70
1
 71
0
 91
1
 92
2
 72
0
 73
1
 93
5
 10
16.6052856561764
 20
49.2052800748137
 10
16.6053087686519
 20
49.2052865065288
 10
16.6052940722441
 20
49.205307784511
 10
16.6052702109636
 20
49.2053007208493
 10
16.6052856561764
 20
49.2052800748137
 97
0
 75
0
 76
1
 98
0
  0
HATCH
  5
20022
100
AcDbEntity
  8
kontaminace zemin
100
AcDbHatch
 10
0
 20
0
 30
0
210
0
220
0
230
1
  2
SOLID
 70
1
 71
0
 91
1
 92
2
 72
0
 73
1
 93
5
 10
16.6053626402609
 20
49.205399893431
 10
16.605396481047
 20
49.2054006661411
 10
16.6053710633786
 20
49.2054419037605
 10
16.605341558837
 20
49.2054340955998
 10
16.6053626402609
 20
49.205399893431
 97
0
 75
0
 76
1
 98
0
  0
HATCH
  5
20023
100
AcDbEntity
  8
kontaminace zemin
100
AcDbHatch
 10
0
 20
0
 30
0
210
0
220
0
230
1
  2
SOLID
 70
1
 71
0
 91
1
 92
2
 72
0
 73
1
 93
37
 10
16.6336565717558
 20
49.2078164915172
 10
16.6336551349751
 20
49.2078212651184
 10
16.6336524559684
 20
49.2078258026707
 10
16.6336486139204
 20
49.2078299668602
 10
16.6336437277773
 20
49.2078336304164
 10
16.6336379441535
 20
49.2078366824942
 10
16.6336314397665
 20
49.2078390306541
 10
16.6336244115911
 20
49.2078406019765
 10
16.6336170741702
 20
49.2078413510118
 10
16.6336096497287
 20
49.2078412527511
 10
16.6336023638254
 20
49.2078403122683
 10
16.6335954384895
 20
49.207838556095
 10
16.6335890827095
 20
49.2078360396895
 10
16.6335834913213
 20
49.207832837409
 10
16.6335788330622
 20
49.2078290479972
 10
16.6335752491653
 20
49.2078247863449
 10
16.6335728509245
 20
49.207820181509
 10
16.6335717077069
 20
49.2078153740576
 10
16.6335718576823
 20
49.207810509591
 10
16.6335732931061
 20
49.2078057358944
 10
16.6335759734836
 20
49.2078011984403
 10
16.6335798141709
 20
49.2077970341569
 10
16.6335847016797
 20
49.2077933706997
 10
16.6335904853018
 20
49.2077903186246
 10
16.6335969896842
 20
49.207787970467
 10
16.6336040178531
 20
49.2077863991462
 10
16.633611355266
 20
49.2077856501117
 10
16.6336187796992
 20
49.2077857483723
 10
16.6336260655948
 20
49.2077866888541
 10
16.6336329909245
 20
49.2077884450256
 10
16.6336393467007
 20
49.2077909614287
 10
16.6336449380878
 20
49.2077941637065
 10
16.6336495963486
 20
49.2077979531156
 10
16.6336531788853
 20
49.2078022146693
 10
16.6336555784974
 20
49.2078068195999
 10
16.6336567203582
 20
49.2078116269541
 10
16.6336565717558
 20
49.2078164915172
 97
0
 75
0
 76
1
 98
0
  0
HATCH
  5
20024
100
AcDbEntity
  8
kontaminace zemin
100
AcDbHatch
 10
0
 20
0
 30
0
210
0
220
0
230
1
  2
SOLID
 70
1
 71
0
 91
1
 92
2
 72
0
 73
1
 93
37
 10
16.632955935948
 20
49.207767015514
 10
16.6329544991013
 20
49.2077717891065
 10
16.6329518200331
 20
49.2077763266425
 10
16.63294797793
 20
49.2077804908087
 10
16.63294309174
 20
49.2077841543354
 10
16.6329373080788
 20
49.207787206378
 10
16.6329308036652
 20
49.2077895544984
 10
16.6329237754745
 20
49.2077911257782
 10
16.6329164380505
 20
49.207791874769
 10
16.6329090136178
 20
49.2077917764632
 10
16.632901727735
 20
49.2077908359361
 10
16.6328948024309
 20
49.2077890797208
 10
16.6328884466928
 20
49.2077865632767
 10
16.6328828553555
 20
49.2077833609623
 10
16.6328781971547
 20
49.2077795715222
 10
16.6328746133217
 20
49.2077753098481
 10
16.6328722151483
 20
49.2077707049977
 10
16.6328710719999
 20
49.2077658975392
 10
16.6328712220439
 20
49.2077610330735
 10
16.6328726575338
 20
49.2077562593856
 10
16.6328753379727
 20
49.2077517219478
 10
16.6328791787151
 20
49.2077475576877
 10
16.6328840662708
 20
49.2077438942601
 10
16.6328898499302
 20
49.2077408422201
 10
16.6328963543394
 20
49.207738494102
 10
16.6329033825234
 20
49.2077369228239
 10
16.6329107199395
 20
49.2077361738339
 10
16.6329181443639
 20
49.2077362721396
 10
16.6329254302389
 20
49.2077372126657
 10
16.6329323555369
 20
49.2077389688791
 10
16.6329387112711
 20
49.2077414853208
 10
16.6329443026073
 20
49.2077446876325
 10
16.6329489608099
 20
49.20774847707
 10
16.6329525432828
 20
49.2077527386454
 10
16.6329549428273
 20
49.2077573435906
 10
16.6329560846191
 20
49.2077621509518
 10
16.632955935948
 20
49.207767015514
 97
0
 75
0
 76
1
 98
0
  0
HATCH
  5
20025
100
AcDbEntity
  8
kontaminace zemin
100
AcDbHatch
 10
0
 20
0
 30
0
210
0
220
0
230
1
  2
SOLID
 70
1
 71
0
 91
1
 92
2
 72
0
 73
1
 93
37
 10
16.6324407521707
 20
49.2075913160803
 10
16.6324393152795
 20
49.2075960896666
 10
16.6324366361736
 20
49.2076006271907
 10
16.6324327940409
 20
49.2076047913399
 10
16.6324279078301
 20
49.2076084548448
 10
16.6324221241577
 20
49.2076115068617
 10
16.6324156197428
 20
49.2076138549531
 10
16.6324085915607
 20
49.2076154262016
 10
16.6324012541549
 20
49.2076161751597
 10
16.6323938297496
 20
49.2076160768208
 10
16.6323865439025
 20
49.2076151362611
 10
16.6323796186412
 20
49.2076133800148
 10
16.6323732629518
 20
49.2076108635423
 10
16.6323676716676
 20
49.2076076612029
 10
16.6323630135227
 20
49.2076038717419
 10
16.6323594297467
 20
49.2075996100517
 10
16.6323570316298
 20
49.2075950051905
 10
16.6323558885354
 20
49.2075901977268
 10
16.6323560386294
 20
49.2075853332616
 10
16.6323574741638
 20
49.20758055958
 10
16.6323601546404
 20
49.2075760221541
 10
16.6323639954124
 20
49.207571857911
 10
16.6323688829889
 20
49.2075681945051
 10
16.6323746666595
 20
49.2075651424908
 10
16.63238117107
 20
49.2075627944016
 10
16.6323881992455
 20
49.2075612231548
 10
16.6323955366433
 20
49.2075604741976
 10
16.6324029610404
 20
49.2075605725364
 10
16.6324102468798
 20
49.207561513095
 10
16.6324171721349
 20
49.2075632693395
 10
16.6324235278204
 20
49.2075657858096
 10
16.6324291191035
 20
49.2075689881463
 10
16.6324337772501
 20
49.2075727776047
 10
16.632437359666
 20
49.2075770391963
 10
16.6324397591541
 20
49.2075816441522
 10
16.6324409008919
 20
49.2075864515186
 10
16.6324407521707
 20
49.2075913160803
 97
0
 75
0
 76
1
 98
0
  0
HATCH
  5
20026
100
AcDbEntity
  8
kontaminace zemin
100
AcDbHatch
 10
0
 20
0
 30
0
210
0
220
0
230
1
  2
SOLID
 70
1
 71
0
 91
1
 92
2
 72
0
 73
1
 93
37
 10
16.6323611019652
 20
49.2074545696847
 10
16.6323596650702
 20
49.2074593432701
 10
16.6323569859644
 20
49.2074638807925
 10
16.6323531438356
 20
49.2074680449391
 10
16.6323482576325
 20
49.2074717084407
 10
16.6323424739711
 20
49.2074747604536
 10
16.6323359695704
 20
49.2074771085407
 10
16.6323289414052
 20
49.2074786797843
 10
16.6323216040184
 20
49.2074794287373
 10
16.6323141796337
 20
49.2074793303933
 10
16.6323068938082
 20
49.2074783898286
 10
16.6322999685689
 20
49.2074766335775
 10
16.6322936129011
 20
49.2074741171006
 10
16.6322880216375
 20
49.2074709147572
 10
16.6322833635115
 20
49.207467125293
 10
16.6322797797523
 20
49.2074628636001
 10
16.6322773816493
 20
49.2074582587371
 10
16.6322762385658
 20
49.2074534512726
 10
16.6322763886673
 20
49.2074485868075
 10
16.6322778242054
 20
49.2074438131268
 10
16.6322805046819
 20
49.2074392757025
 10
16.63228434545
 20
49.207435111462
 10
16.6322892330188
 20
49.2074314480594
 10
16.6322950166784
 20
49.2074283960491
 10
16.6323015210747
 20
49.2074260479643
 10
16.6323085492333
 20
49.2074244767224
 10
16.6323158866121
 20
49.2074237277701
 10
16.6323233109885
 20
49.2074238261141
 10
16.6323305968063
 20
49.2074247666777
 10
16.6323375220394
 20
49.207426522927
 10
16.6323438777033
 20
49.2074290394015
 10
16.6323494689658
 20
49.2074322417422
 10
16.6323541270936
 20
49.2074360312039
 10
16.6323577094927
 20
49.207440292798
 10
16.6323601089668
 20
49.2074448977557
 10
16.6323612506937
 20
49.2074497051231
 10
16.6323611019652
 20
49.2074545696847
 97
0
 75
0
 76
1
 98
0
  0
HATCH
  5
20027
100
AcDbEntity
  8
kontaminace zemin
100
AcDbHatch
 10
0
 20
0
 30
0
210
0
220
0
230
1
  2
SOLID
 70
1
 71
0
 91
1
 92
2
 72
0
 73
1
 93
37
 10
16.6322395361683
 20
49.2073572045073
 10
16.6322380992645
 20
49.2073619780912
 10
16.6322354201528
 20
49.2073665156109
 10
16.6322315780214
 20
49.2073706797535
 10
16.6322266918188
 20
49.2073743432501
 10
16.6322209081614
 20
49.207377395257
 10
16.6322144037676
 20
49.2073797433372
 10
16.6322073756124
 20
49.2073813145734
 10
16.6322000382382
 20
49.2073820635187
 10
16.6321926138684
 20
49.2073819651669
 10
16.6321853280595
 20
49.2073810245945
 10
16.6321784028381
 20
49.2073792683361
 10
16.632172047189
 20
49.2073767518525
 10
16.6321664559442
 20
49.2073735495031
 10
16.6321617978367
 20
49.2073697600339
 10
16.6321582140949
 20
49.2073654983373
 10
16.632155816008
 20
49.2073608934717
 10
16.6321546729385
 20
49.2073560860058
 10
16.6321548230516
 20
49.2073512215408
 10
16.6321562585986
 20
49.2073464478615
 10
16.6321589390809
 20
49.20734191044
 10
16.6321627798517
 20
49.2073377462035
 10
16.6321676674199
 20
49.207334082806
 10
16.6321734510756
 20
49.2073310308017
 10
16.6321799554649
 20
49.2073286827238
 10
16.6321869836135
 20
49.2073271114892
 10
16.6321943209797
 20
49.2073263625447
 10
16.6322017453413
 20
49.2073264608964
 10
16.6322090311424
 20
49.2073274014678
 10
16.6322159563577
 20
49.2073291577243
 10
16.6322223120029
 20
49.2073316742056
 10
16.6322279032466
 20
49.2073348765522
 10
16.6322325613559
 20
49.2073386660188
 10
16.6322361437375
 20
49.2073429276168
 10
16.6322385431956
 20
49.2073475325771
 10
16.6322396849085
 20
49.2073523399457
 10
16.6322395361683
 20
49.2073572045073
 97
0
 75
0
 76
1
 98
0
  0
HATCH
  5
20028
100
AcDbEntity
  8
kontaminace zemin
100
AcDbHatch
 10
0
 20
0
 30
0
210
0
220
0
230
1
  2
SOLID
 70
1
 71
0
 91
1
 92
2
 72
0
 73
1
 93
37
 10
16.6324650263357
 20
49.207228350234
 10
16.6324635894573
 20
49.2072331238209
 10
16.6324609103733
 20
49.2072376613459
 10
16.6324570682708
 20
49.2072418254961
 10
16.6324521820976
 20
49.2072454890023
 10
16.6324463984691
 20
49.2072485410206
 10
16.632439894103
 20
49.2072508891135
 10
16.6324328659732
 20
49.2072524603635
 10
16.6324255286215
 20
49.2072532093232
 10
16.6324181042705
 20
49.2072531109859
 10
16.6324108184763
 20
49.2072521704277
 10
16.6324038932649
 20
49.2072504141828
 10
16.6323975376208
 20
49.2072478977115
 10
16.632391946376
 20
49.207244695373
 10
16.6323872882633
 20
49.2072409059128
 10
16.6323837045115
 20
49.2072366442231
 10
16.6323813064098
 20
49.2072320393621
 10
16.6323801633215
 20
49.2072272318984
 10
16.632380313412
 20
49.207222367433
 10
16.6323817489335
 20
49.2072175937508
 10
16.6323844293883
 20
49.207213056324
 10
16.6323882701301
 20
49.2072088920798
 10
16.6323931576689
 20
49.2072052286727
 10
16.6323989412957
 20
49.207202176657
 10
16.6324054456574
 20
49.2071998285664
 10
16.6324124737806
 20
49.207198257318
 10
16.6324198111243
 20
49.2071975083591
 10
16.632427235467
 20
49.2071976066964
 10
16.6324345212535
 20
49.2071985472535
 10
16.6324414464587
 20
49.2072003034966
 10
16.6324478020989
 20
49.2072028199655
 10
16.6324533933426
 20
49.2072060223013
 10
16.6324580514571
 20
49.2072098117589
 10
16.6324616338488
 20
49.2072140733499
 10
16.6324640333216
 20
49.2072186783056
 10
16.6324651750533
 20
49.2072234856721
 10
16.6324650263357
 20
49.207228350234
 97
0
 75
0
 76
1
 98
0
  0
HATCH
  5
20029
100
AcDbEntity
  8
kontaminace zemin
100
AcDbHatch
 10
0
 20
0
 30
0
210
0
220
0
230
1
  2
SOLID
 70
1
 71
0
 91
1
 92
2
 72
0
 73
1
 93
37
 10
16.6327524464692
 20
49.2074453298424
 10
16.6327510096122
 20
49.2074501034326
 10
16.6327483305428
 20
49.2074546409641
 10
16.6327444884476
 20
49.2074588051237
 10
16.6327396022743
 20
49.207462468642
 10
16.6327338186381
 20
49.2074655206746
 10
16.6327273142571
 20
49.2074678687836
 10
16.6327202861056
 20
49.2074694400511
 10
16.6327129487262
 20
49.207470189029
 10
16.6327055243421
 20
49.2074700907102
 10
16.6326982385105
 20
49.2074691501702
 10
16.6326913132585
 20
49.2074673939425
 10
16.6326849575721
 20
49.2074648774872
 10
16.6326793662842
 20
49.2074616751627
 10
16.6326747081292
 20
49.2074578857142
 10
16.6326711243369
 20
49.2074536240336
 10
16.6326687261981
 20
49.2074490191787
 10
16.6326675830768
 20
49.207444211718
 10
16.6326677331398
 20
49.2074393472523
 10
16.6326691686399
 20
49.2074345735668
 10
16.6326718490801
 20
49.2074300361334
 10
16.6326756898145
 20
49.2074258718798
 10
16.6326805773536
 20
49.2074222084607
 10
16.632686360988
 20
49.2074191564307
 10
16.6326928653645
 20
49.207416808324
 10
16.6326998935094
 20
49.2074152370581
 10
16.6327072308809
 20
49.207414488081
 10
16.6327146552567
 20
49.2074145863998
 10
16.6327219410806
 20
49.2074155269387
 10
16.6327288663263
 20
49.2074172831646
 10
16.632735222009
 20
49.2074197996175
 10
16.6327408132957
 20
49.2074230019393
 10
16.6327454714525
 20
49.2074267913851
 10
16.6327490538846
 20
49.2074310529671
 10
16.6327514533947
 20
49.2074356579167
 10
16.6327525951593
 20
49.2074404652802
 10
16.6327524464692
 20
49.2074453298424
 97
0
 75
0
 76
1
 98
0
  0
HATCH
  5
2002A
100
AcDbEntity
  8
kontaminace zemin
100
AcDbHatch
 10
0
 20
0
 30
0
210
0
220
0
230
1
  2
SOLID
 70
1
 71
0
 91
1
 92
2
 72
0
 73
1
 93
37
 10
16.633146590808
 20
49.2073557013861
 10
16.6331451539916
 20
49.2073604749813
 10
16.6331424749631
 20
49.207365012522
 10
16.633138632908
 20
49.2073691766948
 10
16.6331337467727
 20
49.2073728402298
 10
16.6331279631712
 20
49.2073758922822
 10
16.6331214588206
 20
49.2073782404135
 10
16.6331144306944
 20
49.207379811705
 10
16.6331070933341
 20
49.207380560708
 10
16.6330996689626
 20
49.2073804624145
 10
16.6330923831368
 20
49.2073795218994
 10
16.6330854578834
 20
49.2073777656954
 10
16.6330791021883
 20
49.2073752492617
 10
16.6330735108851
 20
49.2073720469563
 10
16.6330688527083
 20
49.2073682575236
 10
16.6330652688887
 20
49.2073639958552
 10
16.6330628707175
 20
49.2073593910084
 10
16.6330617275601
 20
49.2073545835515
 10
16.6330618775841
 20
49.2073497190852
 10
16.6330633130436
 20
49.2073449453947
 10
16.6330659934429
 20
49.2073404079521
 10
16.6330698341373
 20
49.2073362436854
 10
16.6330747216383
 20
49.2073325802495
 10
16.633080505238
 20
49.2073295281997
 10
16.6330870095841
 20
49.2073271800707
 10
16.6330940377038
 20
49.2073256087808
 10
16.6331013750561
 20
49.2073248597787
 10
16.6331087994192
 20
49.207324958072
 10
16.6331160852374
 20
49.2073258985861
 10
16.6331230104846
 20
49.2073276547883
 10
16.6331293661758
 20
49.2073301712196
 10
16.6331349574779
 20
49.2073333735223
 10
16.6331396156565
 20
49.2073371629523
 10
16.633143198116
 20
49.2073414245221
 10
16.6331455976583
 20
49.2073460294636
 10
16.6331467394591
 20
49.2073508368233
 10
16.633146590808
 20
49.2073557013861
 97
0
 75
0
 76
1
 98
0
  0
HATCH
  5
2002B
100
AcDbEntity
  8
kontaminace zemin
100
AcDbHatch
 10
0
 20
0
 30
0
210
0
220
0
230
1
  2
SOLID
 70
1
 71
0
 91
1
 92
2
 72
0
 73
1
 93
37
 10
16.6329820698336
 20
49.207227987038
 10
16.632980633005
 20
49.2072327606313
 10
16.6329779539684
 20
49.2072372981683
 10
16.6329741119093
 20
49.2072414623357
 10
16.6329692257744
 20
49.2072451258638
 10
16.6329634421777
 20
49.207248177908
 10
16.6329569378361
 20
49.2072505260302
 10
16.6329499097228
 20
49.2072520973116
 10
16.632942572379
 20
49.2072528463042
 10
16.632935148027
 20
49.2072527480001
 10
16.632927862223
 20
49.2072518074746
 10
16.6329209369933
 20
49.2072500512607
 10
16.632914581323
 20
49.2072475348179
 10
16.6329089900448
 20
49.2072443325045
 10
16.6329043318926
 20
49.207240543065
 10
16.6329007480963
 20
49.2072362813914
 10
16.6328983499466
 20
49.2072316765412
 10
16.6328972068081
 20
49.2072268690826
 10
16.6328973568479
 20
49.2072220046164
 10
16.6328987923196
 20
49.2072172309278
 10
16.6329014727269
 20
49.207212693489
 10
16.6329053134253
 20
49.2072085292276
 10
16.6329102009259
 20
49.2072048657986
 10
16.6329159845207
 20
49.207201813757
 10
16.6329224888579
 20
49.2071994656372
 10
16.6329295169647
 20
49.2071978943573
 10
16.6329368543006
 20
49.2071971453656
 10
16.6329442786442
 20
49.2071972436696
 10
16.6329515644405
 20
49.2071981841941
 10
16.632958489664
 20
49.2071999404061
 10
16.6329648453304
 20
49.2072024568466
 10
16.6329704366076
 20
49.2072056591573
 10
16.6329750947615
 20
49.2072094485941
 10
16.6329786771977
 20
49.2072137101691
 10
16.6329810767185
 20
49.207218315114
 10
16.6329822185004
 20
49.2072231224754
 10
16.6329820698336
 20
49.207227987038
 97
0
 75
0
 76
1
 98
0
  0
HATCH
  5
2002C
100
AcDbEntity
  8
kontaminace zemin
100
AcDbHatch
 10
0
 20
0
 30
0
210
0
220
0
230
1
  2
SOLID
 70
1
 71
0
 91
1
 92
2
 72
0
 73
1
 93
37
 10
16.6338794179134
 20
49.2069813065698
 10
16.6338779811785
 20
49.2069860801744
 10
16.6338753022374
 20
49.2069906177324
 10
16.6338714602728
 20
49.2069947819299
 10
16.6338665742286
 20
49.2069984454961
 10
16.633860790716
 20
49.2070014975854
 10
16.6338542864493
 20
49.2070038457582
 10
16.6338472583993
 20
49.2070054170944
 10
16.6338399211056
 20
49.2070061661441
 10
16.6338324967887
 20
49.2070060678977
 10
16.633825211004
 20
49.2070051274288
 10
16.6338182857769
 20
49.2070033712687
 10
16.6338119300927
 20
49.2070008548752
 10
16.6338063387843
 20
49.2069976526051
 10
16.6338016805866
 20
49.2069938632018
 10
16.633798096731
 20
49.2069896015558
 10
16.6337956985098
 20
49.206984996724
 10
16.6337945552899
 20
49.2069801892741
 10
16.6337947052408
 20
49.2069753248066
 10
16.6337961406189
 20
49.2069705511065
 10
16.6337988209308
 20
49.2069660136467
 10
16.6338026615346
 20
49.2069618493553
 10
16.6338075489445
 20
49.2069581858881
 10
16.6338133324553
 20
49.2069551338015
 10
16.6338198367176
 20
49.206952785631
 10
16.6338268647609
 20
49.2069512142964
 10
16.6338342020468
 20
49.2069504652476
 10
16.6338416263553
 20
49.2069505634938
 10
16.6338489121323
 20
49.2069515039617
 10
16.6338558373532
 20
49.20695326012
 10
16.6338621930336
 20
49.2069557765111
 10
16.6338677843409
 20
49.2069589787785
 10
16.6338724425403
 20
49.2069627681792
 10
16.6338760250358
 20
49.2069670297265
 10
16.6338784246281
 20
49.206971634653
 10
16.6338795664914
 20
49.2069764420057
 10
16.6338794179134
 20
49.2069813065698
 97
0
 75
0
 76
1
 98
0
  0
HATCH
  5
2002D
100
AcDbEntity
  8
kontaminace zemin
100
AcDbHatch
 10
0
 20
0
 30
0
210
0
220
0
230
1
  2
SOLID
 70
1
 71
0
 91
1
 92
2
 72
0
 73
1
 93
37
 10
16.63157265903
 20
49.2062283525417
 10
16.6315712220947
 20
49.2062331261182
 10
16.6315685429831
 20
49.2062376636232
 10
16.6315647008832
 20
49.2062418277444
 10
16.6315598147427
 20
49.2062454912133
 10
16.6315540311759
 20
49.2062485431875
 10
16.6315475268988
 20
49.2062508912305
 10
16.6315404988826
 20
49.2062524624264
 10
16.6315331616655
 20
49.2062532113295
 10
16.6315257374662
 20
49.2062531129348
 10
16.631518451836
 20
49.2062521723202
 10
16.6315115267959
 20
49.2062504160215
 10
16.6315051713255
 20
49.2062478995007
 10
16.6314995802512
 20
49.2062446971185
 10
16.6314949223008
 20
49.2062409076217
 10
16.631491338698
 20
49.2062366459036
 10
16.6314889407276
 20
49.2062320410234
 10
16.6314877977488
 20
49.2062272335502
 10
16.6314879479239
 20
49.2062223690851
 10
16.6314893835024
 20
49.2062175954133
 10
16.6314920639847
 20
49.2062130580065
 10
16.6314959047239
 20
49.2062088937913
 10
16.6315007922301
 20
49.2062052304215
 10
16.631506575795
 20
49.20620217845
 10
16.6315130800677
 20
49.2061998304092
 10
16.6315201080773
 20
49.2061982592149
 10
16.6315274452864
 20
49.2061975103127
 10
16.6315348694775
 20
49.2061976087073
 10
16.6315421551
 20
49.2061985493208
 10
16.6315490801338
 20
49.2062003056177
 10
16.6315554356004
 20
49.2062028221361
 10
16.6315610266736
 20
49.2062060245156
 10
16.6315656846258
 20
49.2062098140097
 10
16.6315692668685
 20
49.2062140756291
 10
16.63157166621
 20
49.2062186806041
 10
16.6315728078322
 20
49.2062234879802
 10
16.63157265903
 20
49.2062283525417
 97
0
 75
0
 76
1
 98
0
  0
HATCH
  5
2002E
100
AcDbEntity
  8
kontaminace zemin
100
AcDbHatch
 10
0
 20
0
 30
0
210
0
220
0
230
1
  2
SOLID
 70
1
 71
0
 91
1
 92
2
 72
0
 73
1
 93
37
 10
16.6312745033623
 20
49.2060133413597
 10
16.6312730664045
 20
49.2060181149326
 10
16.6312703872773
 20
49.2060226524308
 10
16.631266545169
 20
49.2060268165422
 10
16.6312616590277
 20
49.2060304799987
 10
16.6312558754677
 20
49.2060335319579
 10
16.6312493712047
 20
49.2060358799842
 10
16.6312423432095
 20
49.2060374511621
 10
16.6312350060198
 20
49.2060382000463
 10
16.6312275818532
 20
49.2060381016324
 10
16.6312202962603
 20
49.2060371609989
 10
16.6312133712609
 20
49.2060354046823
 10
16.6312070158332
 20
49.206032888145
 10
16.6312014248024
 20
49.2060296857483
 10
16.631196766895
 20
49.2060258962393
 10
16.6311931833334
 20
49.2060216345119
 10
16.6311907854011
 20
49.2060170296253
 10
16.6311896424562
 20
49.2060122221489
 10
16.6311897926599
 20
49.2060073576841
 10
16.6311912282609
 20
49.2060025840158
 10
16.6311939087588
 20
49.2059980466158
 10
16.6311977495064
 20
49.2059938824104
 10
16.6312026370134
 20
49.205990219053
 10
16.6312084205716
 20
49.2059871670964
 10
16.6312149248302
 20
49.2059848190724
 10
16.6312219528187
 20
49.2059832478962
 10
16.6312292900005
 20
49.2059824990128
 10
16.6312367141587
 20
49.2059825974266
 10
16.631243999744
 20
49.205983538059
 10
16.6312509247372
 20
49.2059852943739
 10
16.6312572801611
 20
49.2059878109087
 10
16.6312628711907
 20
49.2059910133027
 10
16.6312675290999
 20
49.2059948028091
 10
16.6312711113014
 20
49.2059990644379
 10
16.6312735106048
 20
49.2060036694192
 10
16.6312746521931
 20
49.2060084767984
 10
16.6312745033623
 20
49.2060133413597
 97
0
 75
0
 76
1
 98
0
  0
HATCH
  5
2002F
100
AcDbEntity
  8
kontaminace zemin
100
AcDbHatch
 10
0
 20
0
 30
0
210
0
220
0
230
1
  2
SOLID
 70
1
 71
0
 91
1
 92
2
 72
0
 73
1
 93
37
 10
16.6316497927712
 20
49.2056328274002
 10
16.6316483558606
 20
49.2056376009781
 10
16.6316456767883
 20
49.2056421384853
 10
16.631641834741
 20
49.2056463026094
 10
16.631636948665
 20
49.205649966082
 10
16.6316311651726
 20
49.2056530180603
 10
16.6316246609773
 20
49.2056553661079
 10
16.631617633048
 20
49.2056569373087
 10
16.6316102959203
 20
49.2056576862168
 10
16.63160287181
 20
49.2056575878271
 10
16.6315955862658
 20
49.2056566472173
 10
16.6315886613063
 20
49.205654890923
 10
16.6315823059083
 20
49.2056523744063
 10
16.6315767148962
 20
49.2056491720276
 10
16.6315720569958
 20
49.2056453825335
 10
16.6315684734294
 20
49.2056411208174
 10
16.6315660754807
 20
49.2056365159384
 10
16.6315649325082
 20
49.2056317084654
 10
16.6315650826738
 20
49.2056268439998
 10
16.6315665182276
 20
49.2056220703266
 10
16.6315691986706
 20
49.2056175329176
 10
16.6315730393572
 20
49.2056133686994
 10
16.6315779267989
 20
49.2056097053259
 10
16.6315837102895
 20
49.2056066533503
 10
16.6315902144803
 20
49.2056043053049
 10
16.631597242403
 20
49.2056027341058
 10
16.6316045795228
 20
49.2056019851985
 10
16.6316120036248
 20
49.2056020835881
 10
16.6316192891612
 20
49.2056030241969
 10
16.6316262141146
 20
49.2056047804893
 10
16.6316325695087
 20
49.2056072970037
 10
16.6316381605197
 20
49.2056104993798
 10
16.6316428184219
 20
49.2056142888711
 10
16.6316464006281
 20
49.2056185504885
 10
16.631648799948
 20
49.2056231554623
 10
16.631649941564
 20
49.2056279628381
 10
16.6316497927712
 20
49.2056328274002
 97
0
 75
0
 76
1
 98
0
  0
HATCH
  5
20030
100
AcDbEntity
  8
kontaminace zemin
100
AcDbHatch
 10
0
 20
0
 30
0
210
0
220
0
230
1
  2
SOLID
 70
1
 71
0
 91
1
 92
2
 72
0
 73
1
 93
37
 10
16.6340077451018
 20
49.2059222795867
 10
16.6340063084099
 20
49.2059270531937
 10
16.6340036295379
 20
49.2059315907556
 10
16.6339997876663
 20
49.205935754958
 10
16.633994901736
 20
49.2059394185303
 10
16.6339891183549
 20
49.2059424706266
 10
16.6339826142333
 20
49.205944818807
 10
16.6339755863377
 20
49.2059463901513
 10
16.6339682492027
 20
49.2059471392093
 10
16.6339608250443
 20
49.2059470409712
 10
16.6339535394127
 20
49.2059461005102
 10
16.6339466143291
 20
49.2059443443575
 10
16.6339402587742
 20
49.2059418279707
 10
16.633934667577
 20
49.2059386257063
 10
16.6339300094691
 20
49.2059348363075
 10
16.6339264256789
 20
49.2059305746649
 10
16.633924027497
 20
49.205925969835
 10
16.633922884289
 20
49.2059211623856
 10
16.6339230342241
 20
49.205916297917
 10
16.6339244695591
 20
49.2059115242146
 10
16.6339271498019
 20
49.205906986751
 10
16.6339309903128
 20
49.2059028224546
 10
16.6339358776087
 20
49.2058991589814
 10
16.633941660988
 20
49.2058961068877
 10
16.6339481651052
 20
49.2058937587096
 10
16.6339551929942
 20
49.2058921873669
 10
16.6339625301213
 20
49.2058914383098
 10
16.6339699542714
 20
49.2058915365478
 10
16.6339772398952
 20
49.2058924770077
 10
16.6339841649726
 20
49.2058942331585
 10
16.6339905205237
 20
49.205896749543
 10
16.6339961117198
 20
49.2058999518047
 10
16.6340007698295
 20
49.2059037412008
 10
16.6340043522596
 20
49.2059080027448
 10
16.6340067518126
 20
49.2059126076694
 10
16.634007893664
 20
49.2059174150217
 10
16.6340077451018
 20
49.2059222795867
 97
0
 75
0
 76
1
 98
0
  0
HATCH
  5
20031
100
AcDbEntity
  8
kontaminace zemin
100
AcDbHatch
 10
0
 20
0
 30
0
210
0
220
0
230
1
  2
SOLID
 70
1
 71
0
 91
1
 92
2
 72
0
 73
1
 93
37
 10
16.6338084183981
 20
49.2057907418367
 10
16.6338069816909
 20
49.2057955154414
 10
16.6338043028077
 20
49.2058000529986
 10
16.6338004609296
 20
49.2058042171945
 10
16.6337955749975
 20
49.2058078807585
 10
16.6337897916195
 20
49.2058109328448
 10
16.6337832875058
 20
49.2058132810141
 10
16.6337762596224
 20
49.2058148523463
 10
16.6337689225039
 20
49.2058156013916
 10
16.6337614983656
 20
49.2058155031407
 10
16.6337542127572
 20
49.2058145626672
 10
16.6337472876991
 20
49.2058128065025
 10
16.6337409321711
 20
49.2058102901046
 10
16.6337353410016
 20
49.2058070878305
 10
16.6337306829213
 20
49.2058032984237
 10
16.6337270991578
 20
49.2057990367747
 10
16.6337247010008
 20
49.2057944319405
 10
16.6337235578152
 20
49.205789624489
 10
16.6337237077694
 20
49.2057847600206
 10
16.6337251431198
 20
49.2057799863207
 10
16.6337278233737
 20
49.2057754488616
 10
16.6337316638912
 20
49.2057712845717
 10
16.6337365511889
 20
49.2057676211069
 10
16.6337423345651
 20
49.2057645690231
 10
16.6337488386744
 20
49.2057622208561
 10
16.6337558665511
 20
49.2057606495256
 10
16.6337632036617
 20
49.2057599004811
 10
16.6337706277917
 20
49.2057599987319
 10
16.6337779133924
 20
49.2057609392044
 10
16.6337848384444
 20
49.2057626953672
 10
16.6337911939685
 20
49.2057652117627
 10
16.6337967851368
 20
49.2057684140341
 10
16.6338014432189
 20
49.2057722034384
 10
16.6338050256223
 20
49.2057764649887
 10
16.6338074251505
 20
49.2057810699175
 10
16.6338085669795
 20
49.2057858772719
 10
16.6338084183981
 20
49.2057907418367
 97
0
 75
0
 76
1
 98
0
  0
HATCH
  5
20032
100
AcDbEntity
  8
kontaminace zemin
100
AcDbHatch
 10
0
 20
0
 30
0
210
0
220
0
230
1
  2
SOLID
 70
1
 71
0
 91
1
 92
2
 72
0
 73
1
 93
37
 10
16.6341613358846
 20
49.2056981997352
 10
16.6341598992141
 20
49.2057029733444
 10
16.6341572203682
 20
49.2057075109099
 10
16.6341533785269
 20
49.2057116751176
 10
16.6341484926301
 20
49.2057153386965
 10
16.6341427092846
 20
49.2057183908006
 10
16.6341362051997
 20
49.2057207389898
 10
16.6341291773407
 20
49.2057223103435
 10
16.6341218402412
 20
49.2057230594113
 10
16.6341144161161
 20
49.2057229611831
 10
16.6341071305146
 20
49.2057220207318
 10
16.6341002054568
 20
49.2057202645882
 10
16.6340938499228
 20
49.2057177482098
 10
16.6340882587409
 20
49.2057145459527
 10
16.6340836006423
 20
49.2057107565601
 10
16.6340800168552
 20
49.205706494922
 10
16.6340776186699
 20
49.2057018900951
 10
16.6340764754521
 20
49.205697082647
 10
16.6340766253714
 20
49.2056922181781
 10
16.6340780606851
 20
49.2056874444737
 10
16.6340807409017
 20
49.2056829070063
 10
16.6340845813823
 20
49.2056787427046
 10
16.6340894686448
 20
49.2056750792247
 10
16.6340952519885
 20
49.2056720271233
 10
16.634101756069
 20
49.2056696789364
 10
16.6341087839214
 20
49.2056681075843
 10
16.6341161210129
 20
49.2056673585174
 10
16.6341235451297
 20
49.2056674567455
 10
16.6341308307235
 20
49.2056683971957
 10
16.6341377557751
 20
49.2056701533374
 10
16.6341441113052
 20
49.2056726697135
 10
16.634149702486
 20
49.2056758719679
 10
16.6341543605864
 20
49.2056796613579
 10
16.6341579430134
 20
49.2056839228973
 10
16.6341603425699
 20
49.2056885278189
 10
16.634161484431
 20
49.2056933351698
 10
16.6341613358846
 20
49.2056981997352
 97
0
 75
0
 76
1
 98
0
  0
HATCH
  5
20033
100
AcDbEntity
  8
kontaminace zemin
100
AcDbHatch
 10
0
 20
0
 30
0
210
0
220
0
230
1
  2
SOLID
 70
1
 71
0
 91
1
 92
2
 72
0
 73
1
 93
37
 10
16.6343037817681
 20
49.2058967443296
 10
16.6343023451055
 20
49.2059015179403
 10
16.6342996662619
 20
49.205906055509
 10
16.6342958244172
 20
49.2059102197214
 10
16.6342909385113
 20
49.2059138833062
 10
16.6342851551515
 20
49.2059169354174
 10
16.6342786510472
 20
49.2059192836145
 10
16.6342716231646
 20
49.2059208549768
 10
16.6342642860379
 20
49.2059216040536
 10
16.6342568618826
 20
49.2059215058346
 10
16.6342495762493
 20
49.2059205653923
 10
16.6342426511587
 20
49.2059188092574
 10
16.634236295592
 20
49.2059162928868
 10
16.6342307043785
 20
49.2059130906367
 10
16.6342260462504
 20
49.20590930125
 10
16.6342224624366
 20
49.2059050396164
 10
16.6342200642284
 20
49.2059004347926
 10
16.6342189209923
 20
49.2058956273461
 10
16.6342190708982
 20
49.2058907628772
 10
16.634220506204
 20
49.2058859891711
 10
16.6342231864183
 20
49.2058814517006
 10
16.6342270269023
 20
49.2058772873943
 10
16.6342319141739
 20
49.2058736239085
 10
16.634237697532
 20
49.2058705718
 10
16.6342442016317
 20
49.2058682236051
 10
16.6342512295078
 20
49.2058666522444
 10
16.6342585666266
 20
49.2058659031685
 10
16.6342659907735
 20
49.2058660013874
 10
16.6342732763991
 20
49.2058669418286
 10
16.6342802014835
 20
49.2058686979618
 10
16.6342865570464
 20
49.2058712143299
 10
16.6342921482587
 20
49.2058744165773
 10
16.6342968063887
 20
49.2058782059615
 10
16.6343003888423
 20
49.2058824674963
 10
16.6343027884216
 20
49.2058870724148
 10
16.6343039303012
 20
49.2058918797642
 10
16.6343037817681
 20
49.2058967443296
 97
0
 75
0
 76
1
 98
0
  0
HATCH
  5
20034
100
AcDbEntity
  8
kontaminace zemin
100
AcDbHatch
 10
0
 20
0
 30
0
210
0
220
0
230
1
  2
SOLID
 70
1
 71
0
 91
1
 92
2
 72
0
 73
1
 93
37
 10
16.6326285922557
 20
49.2048223544639
 10
16.632627155463
 20
49.2048271280546
 10
16.6326244765241
 20
49.2048316655852
 10
16.632620634622
 20
49.2048358297425
 10
16.6326157486983
 20
49.204839493257
 10
16.6326099653607
 20
49.2048425452847
 10
16.6326034613182
 20
49.2048448933879
 10
16.6325964335349
 20
49.2048464646485
 10
16.6325890965419
 20
49.2048472136189
 10
16.6325816725511
 20
49.2048471152922
 10
16.6325743871075
 20
49.204846174744
 10
16.6325674622265
 20
49.2048444185083
 10
16.6325611068827
 20
49.2048419020451
 10
16.6325555158987
 20
49.2048386997134
 10
16.6325508579997
 20
49.2048349102584
 10
16.6325472744077
 20
49.2048306485722
 10
16.6325448764071
 20
49.2048260437129
 10
16.6325437333583
 20
49.2048212362489
 10
16.6325438834254
 20
49.2048163717814
 10
16.6325453188613
 20
49.2048115980953
 10
16.6325479991708
 20
49.204807060663
 10
16.6325518397123
 20
49.2048028964118
 10
16.6325567270017
 20
49.2047992329963
 10
16.6325625103375
 20
49.2047961809712
 10
16.6325690143755
 20
49.2047938328703
 10
16.6325760421523
 20
49.2047922616113
 10
16.6325833791372
 20
49.2047915126417
 10
16.6325908031198
 20
49.2047916109684
 10
16.6325980885556
 20
49.2047925515155
 10
16.6326050134305
 20
49.2047943077494
 10
16.6326113687704
 20
49.2047968242102
 10
16.6326169597533
 20
49.2048000265392
 10
16.6326216176541
 20
49.2048038159916
 10
16.6326251998861
 20
49.2048080775791
 10
16.6326275992577
 20
49.2048126825332
 10
16.63262874095
 20
49.2048174898999
 10
16.6326285922557
 20
49.2048223544639
 97
0
 75
0
 76
1
 98
0
  0
HATCH
  5
20035
100
AcDbEntity
  8
kontaminace zemin
100
AcDbHatch
 10
0
 20
0
 30
0
210
0
220
0
230
1
  2
SOLID
 70
1
 71
0
 91
1
 92
2
 72
0
 73
1
 93
37
 10
16.6329147786211
 20
49.2045830555438
 10
16.6329133418628
 20
49.2045878291383
 10
16.6329106629631
 20
49.2045923666757
 10
16.6329068211036
 20
49.2045965308427
 10
16.6329019352246
 20
49.2046001943695
 10
16.6328961519326
 20
49.2046032464117
 10
16.6328896479351
 20
49.204605594531
 10
16.6328826201948
 20
49.2046071658091
 10
16.6328752832416
 20
49.2046079147978
 10
16.632867859286
 20
49.2046078164894
 10
16.6328605738722
 20
49.2046068759594
 10
16.6328536490145
 20
49.2046051197408
 10
16.6328472936868
 20
49.2046026032932
 10
16.6328417027113
 20
49.2045994009753
 10
16.6328370448128
 20
49.2045956115317
 10
16.6328334612135
 20
49.2045913498541
 10
16.632831063198
 20
49.2045867450006
 10
16.6328299201269
 20
49.2045819375393
 10
16.6328300701651
 20
49.2045770730712
 10
16.6328315055665
 20
49.2045722993815
 10
16.6328341858369
 20
49.2045677619422
 10
16.6328380263358
 20
49.2045635976813
 10
16.6328429135804
 20
49.2045599342536
 10
16.6328486968706
 20
49.204556882214
 10
16.6328552008637
 20
49.2045545340969
 10
16.6328622285974
 20
49.2045529628205
 10
16.6328695655427
 20
49.2045522138326
 10
16.6328769894899
 20
49.2045523121409
 10
16.632884274896
 20
49.20455325267
 10
16.6328911997476
 20
49.2045550088867
 10
16.6328975550714
 20
49.2045575253318
 10
16.6329031460458
 20
49.2045607276471
 10
16.632907803946
 20
49.2045645170881
 10
16.6329113861853
 20
49.2045687786669
 10
16.6329137855719
 20
49.2045733836152
 10
16.6329149272865
 20
49.2045781909793
 10
16.6329147786211
 20
49.2045830555438
 97
0
 75
0
 76
1
 98
0
  0
HATCH
  5
20036
100
AcDbEntity
  8
kontaminace zemin
100
AcDbHatch
 10
0
 20
0
 30
0
210
0
220
0
230
1
  2
SOLID
 70
1
 71
0
 91
1
 92
2
 72
0
 73
1
 93
37
 10
16.6334958562574
 20
49.2046240920111
 10
16.633494419554
 20
49.2046288656128
 10
16.6334917407053
 20
49.2046334031636
 10
16.6334878988914
 20
49.2046375673499
 10
16.6334830130513
 20
49.2046412309013
 10
16.6334772297903
 20
49.2046442829726
 10
16.6334707258148
 20
49.2046466311247
 10
16.6334636980871
 20
49.2046482024382
 10
16.6334563611366
 20
49.2046489514638
 10
16.6334489371737
 20
49.2046488531928
 10
16.6334416517428
 20
49.2046479126994
 10
16.6334347268588
 20
49.2046461565157
 10
16.6334283714963
 20
49.2046436401002
 10
16.6334227804786
 20
49.2046404378103
 10
16.6334181225319
 20
49.2046366483902
 10
16.6334145388796
 20
49.2046323867308
 10
16.633412140808
 20
49.2046277818893
 10
16.6334109976796
 20
49.2046229744338
 10
16.633411147661
 20
49.204618109965
 10
16.6334125830076
 20
49.2046133362679
 10
16.633415263227
 20
49.2046087988153
 10
16.6334191036802
 20
49.2046046345351
 10
16.6334239908859
 20
49.2046009710827
 10
16.6334297741452
 20
49.204597919014
 10
16.6334362781161
 20
49.2045955708642
 10
16.6334433058373
 20
49.2045939995524
 10
16.6334506427798
 20
49.2045932505276
 10
16.6334580667344
 20
49.2045933487985
 10
16.6334653521576
 20
49.2045942892909
 10
16.6334722770355
 20
49.2045960454727
 10
16.6334786323941
 20
49.2045985618859
 10
16.6334842234106
 20
49.204601764173
 10
16.6334888813592
 20
49.2046055535906
 10
16.6334924636514
 20
49.2046098151513
 10
16.633494863094
 20
49.2046144200875
 10
16.6334960048659
 20
49.2046192274458
 10
16.6334958562574
 20
49.2046240920111
 97
0
 75
0
 76
1
 98
0
  0
HATCH
  5
20037
100
AcDbEntity
  8
kontaminace zemin
100
AcDbHatch
 10
0
 20
0
 30
0
210
0
220
0
230
1
  2
SOLID
 70
1
 71
0
 91
1
 92
2
 72
0
 73
1
 93
37
 10
16.6307337417072
 20
49.2052457794454
 10
16.6307323047196
 20
49.2052505530122
 10
16.6307296255844
 20
49.2052550904984
 10
16.6307257834902
 20
49.2052592545923
 10
16.6307208973846
 20
49.2052629180263
 10
16.630715113881
 20
49.2052659699588
 10
16.6307086096931
 20
49.205268317955
 10
16.6307015817897
 20
49.2052698891001
 10
16.6306942447055
 20
49.2052706379501
 10
16.630686820655
 20
49.2052705395014
 10
16.6306795351852
 20
49.2052695988337
 10
16.6306726103123
 20
49.2052678424844
 10
16.6306662550104
 20
49.2052653259171
 10
16.6306606641012
 20
49.2052621234938
 10
16.6306560063073
 20
49.2052583339626
 10
16.6306524228477
 20
49.2052540722178
 10
16.6306500250028
 20
49.2052494673195
 10
16.630648882128
 20
49.2052446598372
 10
16.6306490323825
 20
49.2052397953724
 10
16.6306504680132
 20
49.2052350217103
 10
16.6306531485192
 20
49.2052304843223
 10
16.6306569892527
 20
49.2052263201345
 10
16.6306618767239
 20
49.2052226567995
 10
16.6306676602258
 20
49.2052196048696
 10
16.6306741644092
 20
49.2052172568757
 10
16.630681192306
 20
49.2052156857323
 10
16.6306885293822
 20
49.2052149368832
 10
16.6306959534244
 20
49.2052150353317
 10
16.6307032388865
 20
49.2052159759984
 10
16.6307101637533
 20
49.2052177323458
 10
16.6307165190512
 20
49.2052202489107
 10
16.6307221099594
 20
49.2052234513314
 10
16.630726767755
 20
49.2052272408599
 10
16.6307303498546
 20
49.205231502506
 10
16.6307327490706
 20
49.2052361074991
 10
16.6307338905888
 20
49.2052409148842
 10
16.6307337417072
 20
49.2052457794454
 97
0
 75
0
 76
1
 98
0
  0
HATCH
  5
20038
100
AcDbEntity
  8
kontaminace zemin
100
AcDbHatch
 10
0
 20
0
 30
0
210
0
220
0
230
1
  2
SOLID
 70
1
 71
0
 91
1
 92
2
 72
0
 73
1
 93
37
 10
16.6309317560541
 20
49.2052078654783
 10
16.6309303190867
 20
49.2052126390475
 10
16.6309276399716
 20
49.2052171765384
 10
16.630923797897
 20
49.2052213406389
 10
16.6309189118099
 20
49.2052250040813
 10
16.6309131283228
 20
49.2052280560238
 10
16.6309066241493
 20
49.2052304040312
 10
16.6308995962575
 20
49.2052319751883
 10
16.6308922591819
 20
49.2052327240508
 10
16.6308848351367
 20
49.2052326256149
 10
16.6308775496688
 20
49.2052316849598
 10
16.6308706247941
 20
49.2052299286223
 10
16.630864269487
 20
49.2052274120659
 10
16.6308586785693
 20
49.2052242096522
 10
16.6308540207638
 20
49.2052204201289
 10
16.6308504372899
 20
49.2052161583903
 10
16.6308480394284
 20
49.205211553496
 10
16.6308468965353
 20
49.2052067460156
 10
16.6308470467702
 20
49.2052018815506
 10
16.6308484823808
 20
49.205197107886
 10
16.6308511628665
 20
49.2051925704934
 10
16.6308550035805
 20
49.2051884062989
 10
16.6308598910333
 20
49.2051847429555
 10
16.6308656745186
 20
49.2051816910157
 10
16.6308721786876
 20
49.2051793430106
 10
16.6308792065728
 20
49.2051777718551
 10
16.6308865436404
 20
49.2051770229934
 10
16.6308939676773
 20
49.2051771214292
 10
16.6309012531376
 20
49.2051780620834
 10
16.6309081780061
 20
49.2051798184189
 10
16.6309145333093
 20
49.205182334973
 10
16.6309201242259
 20
49.205185537384
 10
16.6309247820332
 20
49.2051893269047
 10
16.630928364147
 20
49.2051935885446
 10
16.6309307633796
 20
49.2051981935336
 10
16.6309319049161
 20
49.2052030009168
 10
16.6309317560541
 20
49.2052078654783
 97
0
 75
0
 76
1
 98
0
  0
HATCH
  5
20039
100
AcDbEntity
  8
kontaminace zemin
100
AcDbHatch
 10
0
 20
0
 30
0
210
0
220
0
230
1
  2
SOLID
 70
1
 71
0
 91
1
 92
2
 72
0
 73
1
 93
37
 10
16.6311004327093
 20
49.2050695370413
 10
16.6310989957621
 20
49.2050743106127
 10
16.63109631667
 20
49.2050788481076
 10
16.6310924746203
 20
49.2050830122139
 10
16.6310875885592
 20
49.2050866756635
 10
16.6310818050987
 20
49.2050897276145
 10
16.6310753009514
 20
49.2050920756314
 10
16.6310682730846
 20
49.2050936467989
 10
16.631060936032
 20
49.2050943956722
 10
16.6310535120072
 20
49.2050942972471
 10
16.6310462265563
 20
49.2050933566025
 10
16.631039301695
 20
49.2050916002752
 10
16.6310329463971
 20
49.205089083728
 10
16.6310273554841
 20
49.2050858813224
 10
16.6310226976787
 20
49.2050820918059
 10
16.6310191142003
 20
49.2050778300724
 10
16.6310167163298
 20
49.2050732251815
 10
16.6310155734236
 20
49.2050684177027
 10
16.6310157236414
 20
49.2050635532374
 10
16.6310171592318
 20
49.2050587795705
 10
16.6310198396946
 20
49.2050542421739
 10
16.6310236803836
 20
49.2050500779737
 10
16.6310285678103
 20
49.2050464146231
 10
16.6310343512691
 20
49.2050433626747
 10
16.631040855412
 20
49.2050410146601
 10
16.6310478832722
 20
49.2050394434942
 10
16.6310552203168
 20
49.2050386946218
 10
16.6310626443333
 20
49.2050387930468
 10
16.6310699297764
 20
49.2050397336903
 10
16.6310768546316
 20
49.2050414900158
 10
16.6310832099256
 20
49.2050440065606
 10
16.6310888008375
 20
49.2050472089635
 10
16.6310934586447
 20
49.2050509984774
 10
16.631097040763
 20
49.2050552601122
 10
16.6310994400046
 20
49.2050598650978
 10
16.6311005815543
 20
49.2050646724795
 10
16.6311004327093
 20
49.2050695370413
 97
0
 75
0
 76
1
 98
0
  0
HATCH
  5
2003A
100
AcDbEntity
  8
kontaminace zemin
100
AcDbHatch
 10
0
 20
0
 30
0
210
0
220
0
230
1
  2
SOLID
 70
1
 71
0
 91
1
 92
2
 72
0
 73
1
 93
37
 10
16.6328742837042
 20
49.2049052674326
 10
16.6328728469327
 20
49.2049100410264
 10
16.6328701680119
 20
49.2049145785626
 10
16.632866326124
 20
49.204918742728
 10
16.6328614402102
 20
49.2049224062529
 10
16.6328556568781
 20
49.2049254582929
 10
16.6328491528363
 20
49.2049278064098
 10
16.632842125049
 20
49.2049293776854
 10
16.6328347880475
 20
49.2049301266714
 10
16.6328273640437
 20
49.2049300283605
 10
16.6328200785833
 20
49.2049290878279
 10
16.632813153682
 20
49.2049273316069
 10
16.6328067983151
 20
49.2049248151573
 10
16.6328012073058
 20
49.2049216128375
 10
16.6327965493802
 20
49.2049178233924
 10
16.6327929657611
 20
49.2049135617139
 10
16.6327905677337
 20
49.2049089568597
 10
16.6327894246591
 20
49.2049041493983
 10
16.6327895747023
 20
49.2048992849305
 10
16.632791010117
 20
49.2048945112415
 10
16.6327936904085
 20
49.2048899738035
 10
16.6327975309358
 20
49.2048858095441
 10
16.6328024182152
 20
49.2048821461182
 10
16.6328082015455
 20
49.2048790940809
 10
16.6328147055828
 20
49.2048767459662
 10
16.6328217333635
 20
49.2048751746923
 10
16.6328290703571
 20
49.2048744257071
 10
16.6328364943525
 20
49.2048745240179
 10
16.6328437798053
 20
49.2048754645495
 10
16.6328507047004
 20
49.2048772207687
 10
16.6328570600635
 20
49.2048797372158
 10
16.6328626510716
 20
49.204882939533
 10
16.632867308999
 20
49.2048867289754
 10
16.6328708912581
 20
49.2048909905553
 10
16.6328732906565
 20
49.2048955955041
 10
16.6328744323746
 20
49.2049004028684
 10
16.6328742837042
 20
49.2049052674326
 97
0
 75
0
 76
1
 98
0
  0
HATCH
  5
2003B
100
AcDbEntity
  8
kontaminace zemin
100
AcDbHatch
 10
0
 20
0
 30
0
210
0
220
0
230
1
  2
SOLID
 70
1
 71
0
 91
1
 92
2
 72
0
 73
1
 93
37
 10
16.6185777161529
 20
49.199478414037
 10
16.618576278162
 20
49.1994831874564
 10
16.6185735982259
 20
49.1994877246644
 10
16.6185697555579
 20
49.1994918883572
 10
16.6185648691229
 20
49.1994955512797
 10
16.6185590855443
 20
49.1994986026059
 10
16.618552581538
 20
49.1995009499191
 10
16.6185455540676
 20
49.1995025203255
 10
16.6185382176542
 20
49.1995032684034
 10
16.6185307944924
 20
49.1995031691729
 10
16.6185235101016
 20
49.1995022277373
 10
16.6185165864658
 20
49.1995004706573
 10
16.6185102325212
 20
49.1994979534187
 10
16.6185046430483
 20
49.199494750404
 10
16.6184999867262
 20
49.1994909603791
 10
16.618496404729
 20
49.1994866982534
 10
16.6184940082927
 20
49.1994820930987
 10
16.61849286673
 20
49.199477285492
 10
16.6184930181598
 20
49.199472421039
 10
16.6184944547941
 20
49.1994676475241
 10
16.6184971361007
 20
49.1994631104145
 10
16.6185009774082
 20
49.1994589466276
 10
16.6185058652087
 20
49.1994552838042
 10
16.6185116487855
 20
49.1994522324808
 10
16.6185181527874
 20
49.1994498851698
 10
16.6185251802511
 20
49.199448314765
 10
16.6185325166566
 20
49.1994475666879
 10
16.6185399398101
 20
49.1994476659183
 10
16.6185472241931
 20
49.1994486073529
 10
16.6185541478228
 20
49.199450364431
 10
16.6185605017636
 20
49.1994528816673
 10
16.6185660912353
 20
49.1994560846794
 10
16.6185707475592
 20
49.1994598747016
 10
16.6185743281965
 20
49.1994641367284
 10
16.6185767260038
 20
49.199468741978
 10
16.6185778662101
 20
49.1994735494874
 10
16.6185777161529
 20
49.199478414037
 97
0
 75
0
 76
1
 98
0
  0
HATCH
  5
2003C
100
AcDbEntity
  8
kontaminace zemin
100
AcDbHatch
 10
0
 20
0
 30
0
210
0
220
0
230
1
  2
SOLID
 70
1
 71
0
 91
1
 92
2
 72
0
 73
1
 93
5
 10
16.6253401370129
 20
49.2010956934458
 10
16.6253436756298
 20
49.2010742000356
 10
16.6253880525326
 20
49.2010773372646
 10
16.6253845139348
 20
49.2010988306762
 10
16.6253401370129
 20
49.2010956934458
 97
0
 75
0
 76
1
 98
0
  0
HATCH
  5
2003D
100
AcDbEntity
  8
kontaminace zemin
100
AcDbHatch
 10
0
 20
0
 30
0
210
0
220
0
230
1
  2
SOLID
 70
1
 71
0
 91
1
 92
2
 72
0
 73
1
 93
5
 10
16.6256051712982
 20
49.2011041974892
 10
16.6256090219954
 20
49.2010808077506
 10
16.6256582220553
 20
49.2010842858371
 10
16.6256543713811
 20
49.2011076755775
 10
16.6256051712982
 20
49.2011041974892
 97
0
 75
0
 76
1
 98
0
  0
HATCH
  5
2003E
100
AcDbEntity
  8
kontaminace zemin
100
AcDbHatch
 10
0
 20
0
 30
0
210
0
220
0
230
1
  2
SOLID
 70
1
 71
0
 91
1
 92
2
 72
0
 73
1
 93
5
 10
16.6251901751862
 20
49.2008861995106
 10
16.6251934016439
 20
49.2008666024235
 10
16.6252233076555
 20
49.2008687166819
 10
16.6252200812095
 20
49.2008883137697
 10
16.6251901751862
 20
49.2008861995106
 97
0
 75
0
 76
1
 98
0
  0
HATCH
  5
2003F
100
AcDbEntity
  8
kontaminace zemin
100
AcDbHatch
 10
0
 20
0
 30
0
210
0
220
0
230
1
  2
SOLID
 70
1
 71
0
 91
1
 92
2
 72
0
 73
1
 93
37
 10
16.6254449887842
 20
49.1981107675347
 10
16.6254435514945
 20
49.1981155410409
 10
16.6254408722611
 20
49.1981200784094
 10
16.6254370302761
 20
49.1981242423319
 10
16.6254321444834
 20
49.1981279055462
 10
16.6254263614871
 20
49.1981309572172
 10
16.6254198579855
 20
49.1981333049182
 10
16.6254128309265
 20
49.1981348757432
 10
16.625405494819
 20
49.1981356242579
 10
16.6253980718481
 20
49.1981355254691
 10
16.6253907875277
 20
49.1981345844668
 10
16.6253838638392
 20
49.1981328277985
 10
16.6253775097209
 20
49.1981303109374
 10
16.6253719199583
 20
49.1981271082546
 10
16.6253672632392
 20
49.1981233185059
 10
16.6253636807502
 20
49.1981190565924
 10
16.6253612837416
 20
49.1981144515792
 10
16.6253601415442
 20
49.1981096440393
 10
16.6253602922957
 20
49.1981047795761
 10
16.6253617282288
 20
49.1981000059745
 10
16.6253644088327
 20
49.1980954687042
 10
16.6253682494572
 20
49.1980913046877
 10
16.6253731366153
 20
49.1980876415725
 10
16.6253789196099
 20
49.1980845899041
 10
16.6253854231071
 20
49.1980822422055
 10
16.6253924501594
 20
49.1980806713822
 10
16.625399786259
 20
49.1980799228682
 10
16.6254072092216
 20
49.1980800216569
 10
16.6254144935343
 20
49.1980809626582
 10
16.6254214172166
 20
49.1980827193247
 10
16.625427771331
 20
49.1980852361834
 10
16.6254333610926
 20
49.1980884388635
 10
16.6254380178134
 20
49.1980922286095
 10
16.6254415989426
 20
49.1980964904243
 10
16.625443997322
 20
49.1981010955323
 10
16.6254451381631
 20
49.1981059029749
 10
16.6254449887842
 20
49.1981107675347
 97
0
 75
0
 76
1
 98
0
  0
HATCH
  5
20040
100
AcDbEntity
  8
kontaminace zemin
100
AcDbHatch
 10
0
 20
0
 30
0
210
0
220
0
230
1
  2
SOLID
 70
1
 71
0
 91
1
 92
2
 72
0
 73
1
 93
37
 10
16.6259873367628
 20
49.1981478305698
 10
16.6259858995242
 20
49.1981526040827
 10
16.6259832203385
 20
49.1981571414638
 10
16.6259793783961
 20
49.1981613054043
 10
16.6259744926399
 20
49.1981649686416
 10
16.6259687096726
 20
49.1981680203398
 10
16.6259622061918
 20
49.1981703680713
 10
16.6259551791447
 20
49.1981719389293
 10
16.6259478430399
 20
49.1981726874785
 10
16.6259404200623
 20
49.1981725887247
 10
16.6259331357262
 20
49.1981716477565
 10
16.6259262120133
 20
49.1981698911208
 10
16.6259198578627
 20
49.1981673742895
 10
16.6259142680608
 20
49.198164171633
 10
16.6259096112968
 20
49.1981603819062
 10
16.6259060287584
 20
49.1981561200096
 10
16.6259036316977
 20
49.1981515150077
 10
16.6259024894468
 20
49.1981467074731
 10
16.6259026401452
 20
49.1981418430093
 10
16.6259040760271
 20
49.1981370694009
 10
16.6259067565833
 20
49.1981325321181
 10
16.6259105971652
 20
49.1981283680835
 10
16.6259154842869
 20
49.1981247049454
 10
16.6259212672524
 20
49.1981216532498
 10
16.6259277707288
 20
49.1981193055207
 10
16.6259347977692
 20
49.1981177346642
 10
16.6259421338661
 20
49.1981169861159
 10
16.6259495568354
 20
49.1981170848696
 10
16.6259568411638
 20
49.1981180258367
 10
16.6259637648705
 20
49.1981197824706
 10
16.6259701190173
 20
49.1981222992995
 10
16.625975708818
 20
49.1981255019533
 10
16.6259803655838
 20
49.1981292916775
 10
16.6259839467624
 20
49.1981335534754
 10
16.625986345194
 20
49.1981381585721
 10
16.6259874860886
 20
49.1981429660094
 10
16.6259873367628
 20
49.1981478305698
 97
0
 75
0
 76
1
 98
0
  0
HATCH
  5
20041
100
AcDbEntity
  8
kontaminace zemin
100
AcDbHatch
 10
0
 20
0
 30
0
210
0
220
0
230
1
  2
SOLID
 70
1
 71
0
 91
1
 92
2
 72
0
 73
1
 93
37
 10
16.6266357980001
 20
49.1981923919916
 10
16.6266343608226
 20
49.1981971655127
 10
16.6266316816939
 20
49.1982017029088
 10
16.6266278398026
 20
49.1982058668709
 10
16.6266229540898
 20
49.1982095301355
 10
16.6266171711573
 20
49.1982125818663
 10
16.6266106677013
 20
49.1982149296342
 10
16.6266036406685
 20
49.1982165005318
 10
16.6265963045668
 20
49.1982172491222
 10
16.6265888815812
 20
49.1982171504101
 10
16.6265815972262
 20
49.1982162094829
 10
16.6265746734841
 20
49.198214452886
 10
16.6265683192948
 20
49.1982119360905
 10
16.626562729446
 20
49.1982087334654
 10
16.6265580726282
 20
49.1982049437648
 10
16.6265544900308
 20
49.1982006818883
 10
16.6265520929077
 20
49.1981960768998
 10
16.6265509505928
 20
49.1981912693717
 10
16.6265511012277
 20
49.1981864049071
 10
16.6265525370485
 20
49.1981816312907
 10
16.6265552175478
 20
49.1981770939928
 10
16.6265590580786
 20
49.1981729299367
 10
16.6265639451568
 20
49.1981692667711
 10
16.6265697280875
 20
49.1981662150431
 10
16.6265762315391
 20
49.1981638672773
 10
16.6265832585653
 20
49.1981622963815
 10
16.626590594659
 20
49.1981615477919
 10
16.6265980176363
 20
49.1981616465039
 10
16.6266053019836
 20
49.19816258743
 10
16.6266122257196
 20
49.1981643440251
 10
16.6266185799049
 20
49.1981668608182
 10
16.6266241697527
 20
49.1981700634406
 10
16.6266288265722
 20
49.1981738531386
 10
16.6266324078098
 20
49.1981781149163
 10
16.6266348063038
 20
49.1981827199996
 10
16.6266359472623
 20
49.1981875274304
 10
16.6266357980001
 20
49.1981923919916
 97
0
 75
0
 76
1
 98
0
  0
HATCH
  5
20042
100
AcDbEntity
  8
kontaminace zemin
100
AcDbHatch
 10
0
 20
0
 30
0
210
0
220
0
230
1
  2
SOLID
 70
1
 71
0
 91
1
 92
2
 72
0
 73
1
 93
37
 10
16.6266127125659
 20
49.1979413461097
 10
16.6266112753936
 20
49.1979461196306
 10
16.6266085962763
 20
49.1979506570264
 10
16.6266047544025
 20
49.1979548209879
 10
16.6265998687128
 20
49.1979584842517
 10
16.6265940858082
 20
49.1979615359814
 10
16.626587582384
 20
49.1979638837481
 10
16.6265805553861
 20
49.1979654546443
 10
16.6265732193212
 20
49.1979662032334
 10
16.6265657963733
 20
49.1979661045198
 10
16.6265585120556
 20
49.1979651635911
 10
16.6265515883494
 20
49.1979634069928
 10
16.6265452341935
 20
49.1979608901959
 10
16.6265396443745
 20
49.1979576875696
 10
16.626534987582
 20
49.1979538978679
 10
16.6265314050047
 20
49.1979496359905
 10
16.6265290078959
 20
49.1979450310014
 10
16.626527865589
 20
49.1979402234729
 10
16.6265280162254
 20
49.197935359008
 10
16.6265294520412
 20
49.1979305853917
 10
16.6265321325289
 20
49.1979260480942
 10
16.6265359730422
 20
49.1979218840386
 10
16.6265408600973
 20
49.197918220874
 10
16.6265466430002
 20
49.1979151691469
 10
16.6265531464199
 20
49.1979128213824
 10
16.6265601734113
 20
49.1979112504879
 10
16.6265675094682
 20
49.1979105018997
 10
16.6265749324078
 20
49.1979106006132
 10
16.6265822167178
 20
49.1979115415408
 10
16.6265891404178
 20
49.1979132981373
 10
16.6265954945699
 20
49.1979158149318
 10
16.6266010843878
 20
49.1979190175555
 10
16.626605741182
 20
49.1979228072545
 10
16.6266093223995
 20
49.1979270690331
 10
16.6266117208792
 20
49.197931674117
 10
16.6266128618297
 20
49.1979364815483
 10
16.6266127125659
 20
49.1979413461097
 97
0
 75
0
 76
1
 98
0
  0
HATCH
  5
20043
100
AcDbEntity
  8
kontaminace zemin
100
AcDbHatch
 10
0
 20
0
 30
0
210
0
220
0
230
1
  2
SOLID
 70
1
 71
0
 91
1
 92
2
 72
0
 73
1
 93
6
 10
16.6181252515012
 20
49.2001445089318
 10
16.6181493227466
 20
49.2000895046683
 10
16.6182264617277
 20
49.2001039182749
 10
16.6182030825751
 20
49.200154345989
 10
16.6181735915643
 20
49.2001512235905
 10
16.6181252515012
 20
49.2001445089318
 97
0
 75
0
 76
1
 98
0
  0
HATCH
  5
20044
100
AcDbEntity
  8
kontaminace zemin
100
AcDbHatch
 10
0
 20
0
 30
0
210
0
220
0
230
1
  2
SOLID
 70
1
 71
0
 91
1
 92
2
 72
0
 73
1
 93
5
 10
16.618181379606
 20
49.1997316472039
 10
16.6182320841367
 20
49.1995966129026
 10
16.6183123301528
 20
49.1996108538121
 10
16.6182610500787
 20
49.1997454955646
 10
16.618181379606
 20
49.1997316472039
 97
0
 75
0
 76
1
 98
0
  0
HATCH
  5
20045
100
AcDbEntity
  8
kontaminace zemin
100
AcDbHatch
 10
0
 20
0
 30
0
210
0
220
0
230
1
  2
SOLID
 70
1
 71
0
 91
1
 92
2
 72
0
 73
1
 93
6
 10
16.6362774299619
 20
49.1969724097514
 10
16.6365210077854
 20
49.196671960669
 10
16.6367919719597
 20
49.1963610536794
 10
16.6371627058958
 20
49.1964993805776
 10
16.6366508669779
 20
49.1971064626837
 10
16.6362774299619
 20
49.1969724097514
 97
0
 75
0
 76
1
 98
0
  0
HATCH
  5
20046
100
AcDbEntity
  8
kontaminace zemin
100
AcDbHatch
 10
0
 20
0
 30
0
210
0
220
0
230
1
  2
SOLID
 70
1
 71
0
 91
1
 92
2
 72
0
 73
1
 93
5
 10
16.6351431956105
 20
49.1986500990138
 10
16.6351785920244
 20
49.198610966042
 10
16.6352757051239
 20
49.198649457884
 10
16.6352397801846
 20
49.1986883808094
 10
16.6351431956105
 20
49.1986500990138
 97
0
 75
0
 76
1
 98
0
  0
ENDSEC
  0
SECTION
  2
OBJECTS
  0
DICTIONARY
  5
C
330
0
100
AcDbDictionary
281
     1
  3
ACAD_GROUP
350
D
  3
ACAD_LAYOUT
350
1A
  3
ACAD_MLEADERSTYLE
350
43
  3
ACAD_PLOTSETTINGS
350
19
  3
ACAD_PLOTSTYLENAME
350
E
  3
ACAD_TABLESTYLE
350
42
  0
DICTIONARY
  5
D
102
{ACAD_REACTORS
330
C
102
}
330
C
100
AcDbDictionary
281
     1
  0
DICTIONARY
  5
1A
102
{ACAD_REACTORS
330
C
102
}
330
C
100
AcDbDictionary
281
     1
  3
Layout1
350
1E
  3
Model
350
22
  0
DICTIONARY
  5
43
102
{ACAD_REACTORS
330
C
102
}
330
C
100
AcDbDictionary
281
     1
  0
DICTIONARY
  5
19
102
{ACAD_REACTORS
330
C
102
}
330
C
100
AcDbDictionary
281
     1
  0
ACDBDICTIONARYWDFLT
  5
E
102
{ACAD_REACTORS
330
C
102
}
330
C
100
AcDbDictionary
281
     1
  3
Normal
350
F
100
AcDbDictionaryWithDefault
340
F
  0
DICTIONARY
  5
42
102
{ACAD_REACTORS
330
C
102
}
330
C
100
AcDbDictionary
281
     1
  0
LAYOUT
  5
1E
102
{ACAD_REACTORS
330
1A
102
}
330
1A
100
AcDbPlotSettings
  1

  2
none_device
  4

  6

 40
0.0
 41
0.0
 42
0.0
 43
0.0
 44
0.0
 45
0.0
 46
0.0
 47
0.0
 48
0.0
 49
0.0
140
0.0
141
0.0
142
1.0
143
1.0
 70
   688
 72
     0
 73
     0
 74
     5
  7

 75
    16
 76
     0
 77
     2
 78
   300
147
1.0
148
0.0
149
0.0
100
AcDbLayout
  1
Layout1
 70
     1
 71
     1
 10
0.0
 20
0.0
 11
12.0
 21
9.0
 12
0.0
 22
0.0
 32
0.0
 14
1.000000000000000E+20
 24
1.000000000000000E+20
 34
1.000000000000000E+20
 15
-1.000000000000000E+20
 25
-1.000000000000000E+20
 35
-1.000000000000000E+20
146
0.0
 13
0.0
 23
0.0
 33
0.0
 16
1.0
 26
0.0
 36
0.0
 17
0.0
 27
1.0
 37
0.0
 76
     0
330
1B
  0
LAYOUT
  5
22
102
{ACAD_REACTORS
330
1A
102
}
330
1A
100
AcDbPlotSettings
  1

  2
none_device
  4

  6

 40
0.0
 41
0.0
 42
0.0
 43
0.0
 44
0.0
 45
0.0
 46
0.0
 47
0.0
 48
0.0
 49
0.0
140
0.0
141
0.0
142
1.0
143
1.0
 70
  1712
 72
     0
 73
     0
 74
     0
  7

 75
     0
 76
     0
 77
     2
 78
   300
147
1.0
148
0.0
149
0.0
100
AcDbLayout
  1
Model
 70
     1
 71
     0
 10
0.0
 20
0.0
 11
12.0
 21
9.0
 12
0.0
 22
0.0
 32
0.0
 14
30.0
 24
49.75
 34
0.0
 15
130.5
 25
163.1318914119703
 35
0.0
146
0.0
 13
0.0
 23
0.0
 33
0.0
 16
1.0
 26
0.0
 36
0.0
 17
0.0
 27
1.0
 37
0.0
 76
     0
330
1F
331
29
  0
ENDSEC
  0
EOF
