  0
SECTION
  2
HEADER
  9
$ACADVER
  1
AC1018
  9
$ACADMAINTVER
 70
     0
  9
$DWGCODEPAGE
  3
ANSI_1252
  9
$EXTMIN
 10
-599132.7161
 20
-1166204.5
 30
0.0
  9
$EXTMAX
 10
-593062.0103
 20
-1156604.15
 30
0.0
  9
$LIMMIN
 10
0.0
 20
0.0
  9
$LIMMAX
 10
12.0
 20
9.0
  9
$ORTHOMODE
 70
     0
  9
$REGENMODE
 70
     1
  9
$FILLMODE
 70
     1
  9
$QTEXTMODE
 70
     0
  9
$MIRRTEXT
 70
     1
  9
$LTSCALE
 40
1.0
  9
$ATTMODE
 70
     1
  9
$TEXTSIZE
 40
0.2
  9
$TRACEWID
 40
0.05
  9
$TEXTSTYLE
  7
Standard
  9
$CLAYER
  8
0
  9
$CELTYPE
  6
ByLayer
  9
$CECOLOR
 62
   256
  9
$CELTSCALE
 40
1.0
  9
$DISPSILH
 70
     0
  9
$LUNITS
 70
     2
  9
$LUPREC
 70
     4
  9
$SKETCHINC
 40
0.1
  9
$FILLETRAD
 40
0.5
  9
$AUNITS
 70
     0
  9
$AUPREC
 70
     0
  9
$MENU
  1
.
  9
$ELEVATION
 40
0.0
  9
$PELEVATION
 40
0.0
  9
$THICKNESS
 40
0.0
  9
$LIMCHECK
 70
     0
  9
$CHAMFERA
 40
0.5
  9
$CHAMFERB
 40
0.5
  9
$CHAMFERC
 40
1.0
  9
$CHAMFERD
 40
0.0
  9
$SKPOLY
 70
     0
  9
$ANGBASE
 50
0.0
  9
$ANGDIR
 70
     0
  9
$PDMODE
 70
     0
  9
$PDSIZE
 40
0.0
  9
$PLINEWID
 40
0.0
  9
$SPLFRAME
 70
     0
  9
$SPLINETYPE
 70
     6
  9
$SPLINESEGS
 70
     8
  9
$HANDSEED
  5
00020011
  9
$SURFTAB1
 70
     6
  9
$SURFTAB2
 70
     6
  9
$SURFTYPE
 70
     6
  9
$SURFU
 70
     6
  9
$SURFV
 70
     6
  9
$UCSBASE
  2

  9
$UCSNAME
  2

  9
$UCSORG
 10
0.0
 20
0.0
 30
0.0
  9
$UCSXDIR
 10
1.0
 20
0.0
 30
0.0
  9
$UCSYDIR
 10
0.0
 20
1.0
 30
0.0
  9
$UCSORTHOREF
  2

  9
$UCSORTHOVIEW
 70
     0
  9
$UCSORGTOP
 10
0.0
 20
0.0
 30
0.0
  9
$UCSORGBOTTOM
 10
0.0
 20
0.0
 30
0.0
  9
$UCSORGLEFT
 10
0.0
 20
0.0
 30
0.0
  9
$UCSORGRIGHT
 10
0.0
 20
0.0
 30
0.0
  9
$UCSORGFRONT
 10
0.0
 20
0.0
 30
0.0
  9
$UCSORGBACK
 10
0.0
 20
0.0
 30
0.0
  9
$PUCSBASE
  2

  9
$PUCSNAME
  2

  9
$PUCSORG
 10
0.0
 20
0.0
 30
0.0
  9
$PUCSXDIR
 10
1.0
 20
0.0
 30
0.0
  9
$PUCSYDIR
 10
0.0
 20
1.0
 30
0.0
  9
$PUCSORTHOREF
  2

  9
$PUCSORTHOVIEW
 70
     0
  9
$PUCSORGTOP
 10
0.0
 20
0.0
 30
0.0
  9
$PUCSORGBOTTOM
 10
0.0
 20
0.0
 30
0.0
  9
$PUCSORGLEFT
 10
0.0
 20
0.0
 30
0.0
  9
$PUCSORGRIGHT
 10
0.0
 20
0.0
 30
0.0
  9
$PUCSORGFRONT
 10
0.0
 20
0.0
 30
0.0
  9
$PUCSORGBACK
 10
0.0
 20
0.0
 30
0.0
  9
$WORLDVIEW
 70
     1
  9
$SHADEDGE
 70
     3
  9
$SHADEDIF
 70
    70
  9
$TILEMODE
 70
     1
  9
$MAXACTVP
 70
    64
  9
$PINSBASE
 10
0.0
 20
0.0
 30
0.0
  9
$PLIMCHECK
 70
     0
  9
$PEXTMIN
 10
1.000000000000000E+20
 20
1.000000000000000E+20
 30
1.000000000000000E+20
  9
$PEXTMAX
 10
-1.000000000000000E+20
 20
-1.000000000000000E+20
 30
-1.000000000000000E+20
  9
$PLIMMIN
 10
0.0
 20
0.0
  9
$PLIMMAX
 10
12.0
 20
9.0
  9
$UNITMODE
 70
     0
  9
$VISRETAIN
 70
     1
  9
$PLINEGEN
 70
     0
  9
$PSLTSCALE
 70
     1
  9
$TREEDEPTH
 70
  3020
  9
$CMLSTYLE
  2
Standard
  9
$CMLJUST
 70
     0
  9
$CMLSCALE
 40
1.0
  9
$PROXYGRAPHICS
 70
     1
  9
$MEASUREMENT
 70
     0
  9
$CELWEIGHT
370
    -1
  9
$ENDCAPS
280
     0
  9
$JOINSTYLE
280
     0
  9
$LWDISPLAY
290
     0
  9
$INSUNITS
 70
     1
  9
$HYPERLINKBASE
  1

  9
$STYLESHEET
  1

  9
$XEDIT
290
     1
  9
$CEPSNTYPE
380
     0
  9
$PSTYLEMODE
290
     1
  9
$EXTNAMES
290
     1
  9
$PSVPSCALE
 40
0.0
  9
$OLESTARTUP
290
     0
  9
$SORTENTS
280
   127
  9
$INDEXCTL
280
     0
  9
$HIDETEXT
280
     1
  9
$XCLIPFRAME
290
     0
  9
$HALOGAP
280
     0
  9
$OBSCOLOR
 70
   257
  9
$OBSLTYPE
280
     0
  9
$INTERSECTIONDISPLAY
280
     0
  9
$INTERSECTIONCOLOR
 70
   257
  9
$DIMASSOC
280
     2
  9
$PROJECTNAME
  1

  0
ENDSEC
  0
SECTION
  2
CLASSES
  0
CLASS
  1
ACDBDICTIONARYWDFLT
  2
AcDbDictionaryWithDefault
  3
ObjectDBX Classes
 90
        0
 91
        4
280
     0
281
     0
  0
ENDSEC
  0
SECTION
  2
TABLES
  0
TABLE
  2
VPORT
  5
8
330
0
100
AcDbSymbolTable
 70
     1
  0
VPORT
  5
29
330
8
100
AcDbSymbolTableRecord
100
AcDbViewportTableRecord
  2
*Active
 70
     0
 10
0.0
 20
0.0
 11
1.0
 21
1.0
 12
80.25
 22
106.4409457059851
 13
0.0
 23
0.0
 14
0.5
 24
0.5
 15
0.5
 25
0.5
 16
0.0
 26
0.0
 36
1.0
 17
0.0
 27
0.0
 37
0.0
 40
113.3818914119703
 41
0.8863849310366128
 42
50.0
 43
0.0
 44
0.0
 50
0.0
 51
0.0
 71
     0
 72
  1000
 73
     1
 74
     3
 75
     0
 76
     0
 77
     0
 78
     0
281
     0
 65
     1
110
0.0
120
0.0
130
0.0
111
1.0
121
0.0
131
0.0
112
0.0
122
1.0
132
0.0
 79
     0
146
0.0
  0
ENDTAB
  0
TABLE
  2
LTYPE
  5
5
330
0
100
AcDbSymbolTable
 70
     1
  0
LTYPE
  5
14
330
5
100
AcDbSymbolTableRecord
100
AcDbLinetypeTableRecord
  2
ByBlock
 70
     0
  3

 72
    65
 73
     0
 40
0.0
  0
LTYPE
  5
15
330
5
100
AcDbSymbolTableRecord
100
AcDbLinetypeTableRecord
  2
ByLayer
 70
     0
  3

 72
    65
 73
     0
 40
0.0
  0
LTYPE
  5
16
330
5
100
AcDbSymbolTableRecord
100
AcDbLinetypeTableRecord
  2
Continuous
 70
     0
  3
Solid line
 72
    65
 73
     0
 40
0.0
  0
ENDTAB
  0
TABLE
  2
LAYER
  5
2
330
0
100
AcDbSymbolTable
 70
     1
  0
LAYER
  5
10
330
2
100
AcDbSymbolTableRecord
100
AcDbLayerTableRecord
  2
0
 70
     0
 62
     7
  6
Continuous
370
    -3
390
F
  0
LAYER
  5
20010
330
2
100
AcDbSymbolTableRecord
100
AcDbLayerTableRecord
  2
CIU
 70
     0
 62
     7
  6
Continuous
370
    -3
390
F
  0
ENDTAB
  0
TABLE
  2
STYLE
  5
3
330
0
100
AcDbSymbolTable
 70
     1
  0
STYLE
  5
11
330
3
100
AcDbSymbolTableRecord
100
AcDbTextStyleTableRecord
  2
Standard
 70
     0
 40
0.0
 41
1.0
 50
0.0
 71
     0
 42
0.2
  3
txt
  4

  0
ENDTAB
  0
TABLE
  2
VIEW
  5
6
330
0
100
AcDbSymbolTable
 70
     0
  0
ENDTAB
  0
TABLE
  2
UCS
  5
7
330
0
100
AcDbSymbolTable
 70
     0
  0
ENDTAB
  0
TABLE
  2
APPID
  5
9
330
0
100
AcDbSymbolTable
 70
     1
  0
APPID
  5
12
330
9
100
AcDbSymbolTableRecord
100
AcDbRegAppTableRecord
  2
ACAD
 70
     0
  0
ENDTAB
  0
TABLE
  2
DIMSTYLE
  5
A
330
0
100
AcDbSymbolTable
 70
     1
100
AcDbDimStyleTable
  0
DIMSTYLE
105
27
330
A
100
AcDbSymbolTableRecord
100
AcDbDimStyleTableRecord
  2
Standard
 70
     0
340
11
  0
ENDTAB
  0
TABLE
  2
BLOCK_RECORD
  5
1
330
0
100
AcDbSymbolTable
 70
     1
  0
BLOCK_RECORD
  5
1F
330
1
100
AcDbSymbolTableRecord
100
AcDbBlockTableRecord
  2
*Model_Space
340
22
  0
BLOCK_RECORD
  5
1B
330
1
100
AcDbSymbolTableRecord
100
AcDbBlockTableRecord
  2
*Paper_Space
340
1E
  0
ENDTAB
  0
ENDSEC
  0
SECTION
  2
BLOCKS
  0
BLOCK
  5
20
330
1F
100
AcDbEntity
  8
0
100
AcDbBlockBegin
  2
*Model_Space
 70
     0
 10
0.0
 20
0.0
 30
0.0
  3
*Model_Space
  1

  0
ENDBLK
  5
21
330
1F
100
AcDbEntity
  8
0
100
AcDbBlockEnd
  0
BLOCK
  5
1C
330
1B
100
AcDbEntity
 67
     1
  8
0
100
AcDbBlockBegin
  2
*Paper_Space
 70
     0
 10
0.0
 20
0.0
 30
0.0
  3
*Paper_Space
  1

  0
ENDBLK
  5
1D
330
1B
100
AcDbEntity
 67
     1
  8
0
100
AcDbBlockEnd
  0
ENDSEC
  0
SECTION
  2
ENTITIES
  0
HATCH
  5
20000
100
AcDbEntity
  8
CIU
100
AcDbHatch
 10
0
 20
0
 30
0
210
0
220
0
230
1
  2
SOLID
 70
1
 71
0
 91
1
 92
2
 72
0
 73
1
 93
49
 10
-598934.5126
 20
-1165092.2428
 10
-598929.5849
 20
-1165103.369
 10
-598909.721
 20
-1165121.073
 10
-598888.2107
 20
-1165140.5871
 10
-598873.03
 20
-1165154.045
 10
-598858.2477
 20
-1165169.4549
 10
-598849.63
 20
-1165185.58
 10
-598833.9961
 20
-1165216.9002
 10
-598823.2939
 20
-1165228.122
 10
-598804.0727
 20
-1165241.7338
 10
-598779.4189
 20
-1165262.6422
 10
-598768.61
 20
-1165280.79
 10
-598755.5933
 20
-1165319.487
 10
-598751.9408
 20
-1165371.565
 10
-598752.379
 20
-1165404.0053
 10
-598754.9073
 20
-1165426.1208
 10
-598760.4144
 20
-1165491.8942
 10
-598757.861
 20
-1165581.7791
 10
-598754.2914
 20
-1165614.6056
 10
-598741.8805
 20
-1165692.1559
 10
-598732.8031
 20
-1165713.4788
 10
-598677.3768
 20
-1165725.121
 10
-598337.8257
 20
-1165777.6817
 10
-598188.9813
 20
-1165803.2643
 10
-598153.1657
 20
-1165812.5671
 10
-598248.9068
 20
-1165755.9644
 10
-598297.9994
 20
-1165721.0332
 10
-598438.4405
 20
-1165623.4985
 10
-598518.5901
 20
-1165569.2996
 10
-598546.8289
 20
-1165550.0694
 10
-598570.8601
 20
-1165523.716
 10
-598580.8627
 20
-1165498.9529
 10
-598588.3586
 20
-1165450.7395
 10
-598590.2928
 20
-1165434.6965
 10
-598600.6289
 20
-1165396.2681
 10
-598613.1877
 20
-1165369.2901
 10
-598652.4628
 20
-1165315.5586
 10
-598710.1103
 20
-1165252.054
 10
-598757.6304
 20
-1165209.5939
 10
-598784.7227
 20
-1165187.0389
 10
-598832.2404
 20
-1165151.978
 10
-598850.8419
 20
-1165139.3363
 10
-598873.0198
 20
-1165124.5144
 10
-598881.7582
 20
-1165116.8162
 10
-598889.6644
 20
-1165107.8697
 10
-598904.49
 20
-1165092.85
 10
-598914.8112
 20
-1165089.2058
 10
-598925.2849
 20
-1165088.888
 10
-598934.5126
 20
-1165092.2428
 97
0
 75
0
 76
1
 98
0
  0
HATCH
  5
20001
100
AcDbEntity
  8
CIU
100
AcDbHatch
 10
0
 20
0
 30
0
210
0
220
0
230
1
  2
SOLID
 70
1
 71
0
 91
1
 92
2
 72
0
 73
1
 93
7
 10
-598928.0865
 20
-1165145.0933
 10
-598913.202
 20
-1165185.0952
 10
-598898.7827
 20
-1165253.4706
 10
-598844.3615
 20
-1165249.2843
 10
-598867.1533
 20
-1165188.3512
 10
-598893.6662
 20
-1165145.0933
 10
-598928.0865
 20
-1165145.0933
 97
0
 75
0
 76
1
 98
0
  0
HATCH
  5
20002
100
AcDbEntity
  8
CIU
100
AcDbHatch
 10
0
 20
0
 30
0
210
0
220
0
230
1
  2
SOLID
 70
1
 71
0
 91
1
 92
2
 72
0
 73
1
 93
14
 10
-597715.7029
 20
-1165571.1761
 10
-597724.1038
 20
-1165581.8173
 10
-597718.5032
 20
-1165603.193
 10
-597711.4
 20
-1165620.71
 10
-597691.9618
 20
-1165659.8885
 10
-597673.736
 20
-1165690.8305
 10
-597619.9018
 20
-1165816.1491
 10
-597582.7494
 20
-1165815.4933
 10
-597595.3383
 20
-1165765.4918
 10
-597627.3316
 20
-1165682.3184
 10
-597657.4563
 20
-1165614.1142
 10
-597670.3378
 20
-1165587.2312
 10
-597683.0089
 20
-1165557.4592
 10
-597715.7029
 20
-1165571.1761
 97
0
 75
0
 76
1
 98
0
  0
HATCH
  5
20003
100
AcDbEntity
  8
CIU
100
AcDbHatch
 10
0
 20
0
 30
0
210
0
220
0
230
1
  2
SOLID
 70
1
 71
0
 91
1
 92
2
 72
0
 73
1
 93
13
 10
-598207.5216
 20
-1164073.5943
 10
-598053.21
 20
-1164149.88
 10
-597944.0791
 20
-1164204.4433
 10
-597679.4829
 20
-1164292.2033
 10
-597622.8413
 20
-1164070.6149
 10
-597594.3968
 20
-1163871.0647
 10
-597684.8291
 20
-1163857.3212
 10
-597858.7859
 20
-1163822.2154
 10
-598029.295
 20
-1163766.6111
 10
-598111.794
 20
-1163911.9019
 10
-598139.5953
 20
-1163963.4688
 10
-598161.1331
 20
-1164018.9584
 10
-598207.5216
 20
-1164073.5943
 97
0
 75
0
 76
1
 98
0
  0
HATCH
  5
20004
100
AcDbEntity
  8
CIU
100
AcDbHatch
 10
0
 20
0
 30
0
210
0
220
0
230
1
  2
SOLID
 70
1
 71
0
 91
1
 92
2
 72
0
 73
1
 93
10
 10
-598711.254
 20
-1163915.7497
 10
-598677.1626
 20
-1163939.8019
 10
-598659.015
 20
-1163951.7756
 10
-598645.838
 20
-1163933.179
 10
-598631.6996
 20
-1163915.839
 10
-598644.4162
 20
-1163902.5419
 10
-598688.7616
 20
-1163859.5135
 10
-598690.9657
 20
-1163864.3502
 10
-598705.6357
 20
-1163901.7335
 10
-598711.254
 20
-1163915.7497
 97
0
 75
0
 76
1
 98
0
  0
HATCH
  5
20005
100
AcDbEntity
  8
CIU
100
AcDbHatch
 10
0
 20
0
 30
0
210
0
220
0
230
1
  2
SOLID
 70
1
 71
0
 91
1
 92
2
 72
0
 73
1
 93
11
 10
-599132.7161
 20
-1163987.7841
 10
-599018.1584
 20
-1164097.439
 10
-598948.3765
 20
-1164159.0627
 10
-598888.7114
 20
-1164203.9571
 10
-598816.8431
 20
-1164256.5432
 10
-598712.652
 20
-1164177.69
 10
-598813.4417
 20
-1164116.4652
 10
-598890.45
 20
-1164059.44
 10
-598956.3884
 20
-1164004.8525
 10
-599068.0556
 20
-1163894.8361
 10
-599132.7161
 20
-1163987.7841
 97
0
 75
0
 76
1
 98
0
  0
HATCH
  5
20006
100
AcDbEntity
  8
CIU
100
AcDbHatch
 10
0
 20
0
 30
0
210
0
220
0
230
1
  2
SOLID
 70
1
 71
0
 91
1
 92
2
 72
0
 73
1
 93
8
 10
-596244.89
 20
-1159335.55
 10
-596212.3
 20
-1159362.935
 10
-596179.78
 20
-1159390.28
 10
-596165.2946
 20
-1159371.7855
 10
-596208.0498
 20
-1159343.8328
 10
-596211.523
 20
-1159341.5203
 10
-596236.137
 20
-1159324.9582
 10
-596244.89
 20
-1159335.55
 97
0
 75
0
 76
1
 98
0
  0
HATCH
  5
20007
100
AcDbEntity
  8
CIU
100
AcDbHatch
 10
0
 20
0
 30
0
210
0
220
0
230
1
  2
SOLID
 70
1
 71
0
 91
1
 92
2
 72
0
 73
1
 93
41
 10
-597774.9935
 20
-1157687.4328
 10
-597775.1063
 20
-1157686.1257
 10
-597775.4464
 20
-1157684.8243
 10
-597776.0069
 20
-1157683.5548
 10
-597776.7883
 20
-1157682.3159
 10
-597778.9677
 20
-1157680.004
 10
-597781.9007
 20
-1157677.9776
 10
-597785.4747
 20
-1157676.3143
 10
-597789.5524
 20
-1157675.0783
 10
-597793.977
 20
-1157674.3169
 10
-597798.5784
 20
-1157674.0594
 10
-597803.18
 20
-1157674.3158
 10
-597807.6047
 20
-1157675.0762
 10
-597811.6826
 20
-1157676.3112
 10
-597815.2571
 20
-1157677.9736
 10
-597818.1906
 20
-1157679.9994
 10
-597820.3705
 20
-1157682.3108
 10
-597821.1486
 20
-1157683.5427
 10
-597821.713
 20
-1157684.8188
 10
-597822.0522
 20
-1157686.1132
 10
-597822.1665
 20
-1157687.4273
 10
-597822.0537
 20
-1157688.7343
 10
-597821.7136
 20
-1157690.0358
 10
-597821.1531
 20
-1157691.3053
 10
-597820.3717
 20
-1157692.5442
 10
-597818.1923
 20
-1157694.856
 10
-597815.2593
 20
-1157696.8825
 10
-597811.6853
 20
-1157698.5457
 10
-597807.6076
 20
-1157699.7818
 10
-597803.183
 20
-1157700.5432
 10
-597798.5816
 20
-1157700.8006
 10
-597793.98
 20
-1157700.5442
 10
-597789.5553
 20
-1157699.7839
 10
-597785.4773
 20
-1157698.5488
 10
-597781.9029
 20
-1157696.8864
 10
-597778.9694
 20
-1157694.8606
 10
-597776.7895
 20
-1157692.5493
 10
-597776.0114
 20
-1157691.3173
 10
-597775.447
 20
-1157690.0412
 10
-597775.1078
 20
-1157688.7468
 10
-597774.9935
 20
-1157687.4328
 97
0
 75
0
 76
1
 98
0
  0
HATCH
  5
20008
100
AcDbEntity
  8
CIU
100
AcDbHatch
 10
0
 20
0
 30
0
210
0
220
0
230
1
  2
SOLID
 70
1
 71
0
 91
1
 92
2
 72
0
 73
1
 93
37
 10
-597906.1828
 20
-1157792.202
 10
-597901.6284
 20
-1157799.1434
 10
-597895.8804
 20
-1157801.3236
 10
-597875.2868
 20
-1157801.3971
 10
-597859.6083
 20
-1157803.9003
 10
-597836.0216
 20
-1157807.6663
 10
-597810.8985
 20
-1157814.009
 10
-597803.7136
 20
-1157814.009
 10
-597797.1728
 20
-1157816.9821
 10
-597764.8262
 20
-1157821.5463
 10
-597729.5838
 20
-1157822.9283
 10
-597709.3666
 20
-1157823.7212
 10
-597687.7619
 20
-1157817.9731
 10
-597664.3733
 20
-1157807.4681
 10
-597653.0831
 20
-1157792.0023
 10
-597656.4729
 20
-1157781.7327
 10
-597666.3554
 20
-1157777.3405
 10
-597676.0676
 20
-1157782.0975
 10
-597689.5458
 20
-1157794.5846
 10
-597702.8257
 20
-1157802.1165
 10
-597721.8537
 20
-1157804.8914
 10
-597749.9992
 20
-1157805.6842
 10
-597761.2971
 20
-1157802.9093
 10
-597772.595
 20
-1157800.1344
 10
-597790.9839
 20
-1157792.0547
 10
-597797.9656
 20
-1157785.8634
 10
-597808.4706
 20
-1157776.5476
 10
-597818.296
 20
-1157775.0189
 10
-597825.3822
 20
-1157776.9672
 10
-597838.9947
 20
-1157780.71
 10
-597847.6798
 20
-1157782.8121
 10
-597858.8332
 20
-1157780.7487
 10
-597873.4829
 20
-1157777.1423
 10
-597885.3698
 20
-1157776.5545
 10
-597894.6112
 20
-1157780.1669
 10
-597902.5313
 20
-1157786.1441
 10
-597906.1828
 20
-1157792.202
 97
0
 75
0
 76
1
 98
0
  0
HATCH
  5
20009
100
AcDbEntity
  8
CIU
100
AcDbHatch
 10
0
 20
0
 30
0
210
0
220
0
230
1
  2
SOLID
 70
1
 71
0
 91
1
 92
2
 72
0
 73
1
 93
5
 10
-598972.4584
 20
-1156639.6332
 10
-598777.5601
 20
-1156647.9523
 10
-598772.1783
 20
-1156612.874
 10
-598978.67
 20
-1156604.15
 10
-598972.4584
 20
-1156639.6332
 97
0
 75
0
 76
1
 98
0
  0
HATCH
  5
2000A
100
AcDbEntity
  8
CIU
100
AcDbHatch
 10
0
 20
0
 30
0
210
0
220
0
230
1
  2
SOLID
 70
1
 71
0
 91
1
 92
2
 72
0
 73
1
 93
9
 10
-593148.2189
 20
-1160993.1214
 10
-593141.0359
 20
-1161024.7572
 10
-593091.8247
 20
-1161035.761
 10
-593062.0103
 20
-1161051.9103
 10
-593069.4226
 20
-1161024.0782
 10
-593124.0718
 20
-1160998.3176
 10
-593083.2663
 20
-1160965.3064
 10
-593088.8562
 20
-1160951.1072
 10
-593148.2189
 20
-1160993.1214
 97
0
 75
0
 76
1
 98
0
  0
HATCH
  5
2000B
100
AcDbEntity
  8
CIU
100
AcDbHatch
 10
0
 20
0
 30
0
210
0
220
0
230
1
  2
SOLID
 70
1
 71
0
 91
1
 92
2
 72
0
 73
1
 93
20
 10
-598727.5823
 20
-1165716.3612
 10
-598714.7842
 20
-1165749.4253
 10
-598670.1583
 20
-1165786.7529
 10
-598585.06
 20
-1165844.9518
 10
-598498.2693
 20
-1165896.6853
 10
-598355.9402
 20
-1165959.8355
 10
-598213.7316
 20
-1166017.9542
 10
-598091.4081
 20
-1166082.2795
 10
-597964.38
 20
-1166159.25
 10
-597905.755
 20
-1166204.5
 10
-597823.865
 20
-1166141.41
 10
-597767.2207
 20
-1166099.3928
 10
-597778.97
 20
-1166069.685
 10
-597860.665
 20
-1165981.11
 10
-597916.45
 20
-1165929.35
 10
-598017.93
 20
-1165877.43
 10
-598153.1657
 20
-1165812.5671
 10
-598188.9502
 20
-1165803.2175
 10
-598337.8257
 20
-1165777.6817
 10
-598727.5823
 20
-1165716.3612
 97
0
 75
0
 76
1
 98
0
  0
HATCH
  5
2000C
100
AcDbEntity
  8
CIU
100
AcDbHatch
 10
0
 20
0
 30
0
210
0
220
0
230
1
  2
SOLID
 70
1
 71
0
 91
1
 92
2
 72
0
 73
1
 93
10
 10
-598962.9825
 20
-1161666.5659
 10
-598857.6688
 20
-1161732.1149
 10
-598784.528
 20
-1161801.4726
 10
-598713.2972
 20
-1161747.9416
 10
-598646.88
 20
-1161658.855
 10
-598681.73
 20
-1161552.97
 10
-598920.55
 20
-1161468.86
 10
-598935.12
 20
-1161494.89
 10
-598951.11
 20
-1161543.04
 10
-598962.9825
 20
-1161666.5659
 97
0
 75
0
 76
1
 98
0
  0
HATCH
  5
2000D
100
AcDbEntity
  8
CIU
100
AcDbHatch
 10
0
 20
0
 30
0
210
0
220
0
230
1
  2
SOLID
 70
1
 71
0
 91
1
 92
2
 72
0
 73
1
 93
13
 10
-598928.6198
 20
-1162958.8353
 10
-598970.6117
 20
-1162954.1695
 10
-599021.6435
 20
-1162954.2542
 10
-599018.5814
 20
-1163030.8086
 10
-598977.25
 20
-1163045.41
 10
-598905.8741
 20
-1163067.0229
 10
-598896.0357
 20
-1163069.3437
 10
-598856.6155
 20
-1163079.4046
 10
-598850.4754
 20
-1163060.6775
 10
-598841.4637
 20
-1163019.5461
 10
-598829.065
 20
-1162966.375
 10
-598908.207
 20
-1162960.0017
 10
-598928.6198
 20
-1162958.8353
 97
0
 75
0
 76
1
 98
0
  0
HATCH
  5
2000E
100
AcDbEntity
  8
CIU
100
AcDbHatch
 10
0
 20
0
 30
0
210
0
220
0
230
1
  2
SOLID
 70
1
 71
0
 91
1
 92
2
 72
0
 73
1
 93
26
 10
-596393.9371
 20
-1159831.3201
 10
-596348.8429
 20
-1159860.7255
 10
-596302.9226
 20
-1159887.7374
 10
-596283.3839
 20
-1159855.6303
 10
-596223.0172
 20
-1159761.5652
 10
-596203.1879
 20
-1159729.9709
 10
-596189.0563
 20
-1159711.1946
 10
-596163.3803
 20
-1159688.2332
 10
-596151.6169
 20
-1159679.75
 10
-596144.9711
 20
-1159676.0015
 10
-596131.7298
 20
-1159668.9659
 10
-596122.8108
 20
-1159664.2773
 10
-596113.9742
 20
-1159660.1027
 10
-596141.2815
 20
-1159610.6039
 10
-596168.8532
 20
-1159621.0032
 10
-596189.5441
 20
-1159629.2222
 10
-596212.5959
 20
-1159639.2171
 10
-596226.6894
 20
-1159646.3276
 10
-596245.3703
 20
-1159657.6052
 10
-596261.6339
 20
-1159668.0797
 10
-596274.2366
 20
-1159676.6523
 10
-596293.1268
 20
-1159690.9035
 10
-596305.1719
 20
-1159700.5762
 10
-596315.7729
 20
-1159710.1943
 10
-596325.0219
 20
-1159720.8947
 10
-596393.9371
 20
-1159831.3201
 97
0
 75
0
 76
1
 98
0
  0
HATCH
  5
2000F
100
AcDbEntity
  8
CIU
100
AcDbHatch
 10
0
 20
0
 30
0
210
0
220
0
230
1
  2
SOLID
 70
1
 71
0
 91
1
 92
2
 72
0
 73
1
 93
12
 10
-596323.75
 20
-1161128.175
 10
-596310.7181
 20
-1161165.3945
 10
-596276.88
 20
-1161247.13
 10
-596235.5609
 20
-1161225.4553
 10
-596171.18
 20
-1161196.36
 10
-596126.27
 20
-1161189.72
 10
-596114.19
 20
-1161072.93
 10
-596153.15
 20
-1161074.725
 10
-596204.86
 20
-1161075.41
 10
-596224.2928
 20
-1161081.2554
 10
-596273.03
 20
-1161099.07
 10
-596323.75
 20
-1161128.175
 97
0
 75
0
 76
1
 98
0
  0
ENDSEC
  0
SECTION
  2
OBJECTS
  0
DICTIONARY
  5
C
330
0
100
AcDbDictionary
281
     1
  3
ACAD_GROUP
350
D
  3
ACAD_LAYOUT
350
1A
  3
ACAD_MLEADERSTYLE
350
43
  3
ACAD_PLOTSETTINGS
350
19
  3
ACAD_PLOTSTYLENAME
350
E
  3
ACAD_TABLESTYLE
350
42
  0
DICTIONARY
  5
D
102
{ACAD_REACTORS
330
C
102
}
330
C
100
AcDbDictionary
281
     1
  0
DICTIONARY
  5
1A
102
{ACAD_REACTORS
330
C
102
}
330
C
100
AcDbDictionary
281
     1
  3
Layout1
350
1E
  3
Model
350
22
  0
DICTIONARY
  5
43
102
{ACAD_REACTORS
330
C
102
}
330
C
100
AcDbDictionary
281
     1
  0
DICTIONARY
  5
19
102
{ACAD_REACTORS
330
C
102
}
330
C
100
AcDbDictionary
281
     1
  0
ACDBDICTIONARYWDFLT
  5
E
102
{ACAD_REACTORS
330
C
102
}
330
C
100
AcDbDictionary
281
     1
  3
Normal
350
F
100
AcDbDictionaryWithDefault
340
F
  0
DICTIONARY
  5
42
102
{ACAD_REACTORS
330
C
102
}
330
C
100
AcDbDictionary
281
     1
  0
LAYOUT
  5
1E
102
{ACAD_REACTORS
330
1A
102
}
330
1A
100
AcDbPlotSettings
  1

  2
none_device
  4

  6

 40
0.0
 41
0.0
 42
0.0
 43
0.0
 44
0.0
 45
0.0
 46
0.0
 47
0.0
 48
0.0
 49
0.0
140
0.0
141
0.0
142
1.0
143
1.0
 70
   688
 72
     0
 73
     0
 74
     5
  7

 75
    16
 76
     0
 77
     2
 78
   300
147
1.0
148
0.0
149
0.0
100
AcDbLayout
  1
Layout1
 70
     1
 71
     1
 10
0.0
 20
0.0
 11
12.0
 21
9.0
 12
0.0
 22
0.0
 32
0.0
 14
1.000000000000000E+20
 24
1.000000000000000E+20
 34
1.000000000000000E+20
 15
-1.000000000000000E+20
 25
-1.000000000000000E+20
 35
-1.000000000000000E+20
146
0.0
 13
0.0
 23
0.0
 33
0.0
 16
1.0
 26
0.0
 36
0.0
 17
0.0
 27
1.0
 37
0.0
 76
     0
330
1B
  0
LAYOUT
  5
22
102
{ACAD_REACTORS
330
1A
102
}
330
1A
100
AcDbPlotSettings
  1

  2
none_device
  4

  6

 40
0.0
 41
0.0
 42
0.0
 43
0.0
 44
0.0
 45
0.0
 46
0.0
 47
0.0
 48
0.0
 49
0.0
140
0.0
141
0.0
142
1.0
143
1.0
 70
  1712
 72
     0
 73
     0
 74
     0
  7

 75
     0
 76
     0
 77
     2
 78
   300
147
1.0
148
0.0
149
0.0
100
AcDbLayout
  1
Model
 70
     1
 71
     0
 10
0.0
 20
0.0
 11
12.0
 21
9.0
 12
0.0
 22
0.0
 32
0.0
 14
30.0
 24
49.75
 34
0.0
 15
130.5
 25
163.1318914119703
 35
0.0
146
0.0
 13
0.0
 23
0.0
 33
0.0
 16
1.0
 26
0.0
 36
0.0
 17
0.0
 27
1.0
 37
0.0
 76
     0
330
1F
331
29
  0
ENDSEC
  0
EOF
