  0
SECTION
  2
HEADER
  9
$ACADVER
  1
AC1018
  9
$ACADMAINTVER
 70
     0
  9
$DWGCODEPAGE
  3
ANSI_1252
  9
$EXTMIN
 10
16.5907227298141
 20
49.1466174464696
 30
0.0
  9
$EXTMAX
 10
16.678013468045
 20
49.2315333657561
 30
0.0
  9
$LIMMIN
 10
0.0
 20
0.0
  9
$LIMMAX
 10
12.0
 20
9.0
  9
$ORTHOMODE
 70
     0
  9
$REGENMODE
 70
     1
  9
$FILLMODE
 70
     1
  9
$QTEXTMODE
 70
     0
  9
$MIRRTEXT
 70
     1
  9
$LTSCALE
 40
1.0
  9
$ATTMODE
 70
     1
  9
$TEXTSIZE
 40
0.2
  9
$TRACEWID
 40
0.05
  9
$TEXTSTYLE
  7
Standard
  9
$CLAYER
  8
0
  9
$CELTYPE
  6
ByLayer
  9
$CECOLOR
 62
   256
  9
$CELTSCALE
 40
1.0
  9
$DISPSILH
 70
     0
  9
$LUNITS
 70
     2
  9
$LUPREC
 70
     4
  9
$SKETCHINC
 40
0.1
  9
$FILLETRAD
 40
0.5
  9
$AUNITS
 70
     0
  9
$AUPREC
 70
     0
  9
$MENU
  1
.
  9
$ELEVATION
 40
0.0
  9
$PELEVATION
 40
0.0
  9
$THICKNESS
 40
0.0
  9
$LIMCHECK
 70
     0
  9
$CHAMFERA
 40
0.5
  9
$CHAMFERB
 40
0.5
  9
$CHAMFERC
 40
1.0
  9
$CHAMFERD
 40
0.0
  9
$SKPOLY
 70
     0
  9
$ANGBASE
 50
0.0
  9
$ANGDIR
 70
     0
  9
$PDMODE
 70
     0
  9
$PDSIZE
 40
0.0
  9
$PLINEWID
 40
0.0
  9
$SPLFRAME
 70
     0
  9
$SPLINETYPE
 70
     6
  9
$SPLINESEGS
 70
     8
  9
$HANDSEED
  5
00020011
  9
$SURFTAB1
 70
     6
  9
$SURFTAB2
 70
     6
  9
$SURFTYPE
 70
     6
  9
$SURFU
 70
     6
  9
$SURFV
 70
     6
  9
$UCSBASE
  2

  9
$UCSNAME
  2

  9
$UCSORG
 10
0.0
 20
0.0
 30
0.0
  9
$UCSXDIR
 10
1.0
 20
0.0
 30
0.0
  9
$UCSYDIR
 10
0.0
 20
1.0
 30
0.0
  9
$UCSORTHOREF
  2

  9
$UCSORTHOVIEW
 70
     0
  9
$UCSORGTOP
 10
0.0
 20
0.0
 30
0.0
  9
$UCSORGBOTTOM
 10
0.0
 20
0.0
 30
0.0
  9
$UCSORGLEFT
 10
0.0
 20
0.0
 30
0.0
  9
$UCSORGRIGHT
 10
0.0
 20
0.0
 30
0.0
  9
$UCSORGFRONT
 10
0.0
 20
0.0
 30
0.0
  9
$UCSORGBACK
 10
0.0
 20
0.0
 30
0.0
  9
$PUCSBASE
  2

  9
$PUCSNAME
  2

  9
$PUCSORG
 10
0.0
 20
0.0
 30
0.0
  9
$PUCSXDIR
 10
1.0
 20
0.0
 30
0.0
  9
$PUCSYDIR
 10
0.0
 20
1.0
 30
0.0
  9
$PUCSORTHOREF
  2

  9
$PUCSORTHOVIEW
 70
     0
  9
$PUCSORGTOP
 10
0.0
 20
0.0
 30
0.0
  9
$PUCSORGBOTTOM
 10
0.0
 20
0.0
 30
0.0
  9
$PUCSORGLEFT
 10
0.0
 20
0.0
 30
0.0
  9
$PUCSORGRIGHT
 10
0.0
 20
0.0
 30
0.0
  9
$PUCSORGFRONT
 10
0.0
 20
0.0
 30
0.0
  9
$PUCSORGBACK
 10
0.0
 20
0.0
 30
0.0
  9
$WORLDVIEW
 70
     1
  9
$SHADEDGE
 70
     3
  9
$SHADEDIF
 70
    70
  9
$TILEMODE
 70
     1
  9
$MAXACTVP
 70
    64
  9
$PINSBASE
 10
0.0
 20
0.0
 30
0.0
  9
$PLIMCHECK
 70
     0
  9
$PEXTMIN
 10
1.000000000000000E+20
 20
1.000000000000000E+20
 30
1.000000000000000E+20
  9
$PEXTMAX
 10
-1.000000000000000E+20
 20
-1.000000000000000E+20
 30
-1.000000000000000E+20
  9
$PLIMMIN
 10
0.0
 20
0.0
  9
$PLIMMAX
 10
12.0
 20
9.0
  9
$UNITMODE
 70
     0
  9
$VISRETAIN
 70
     1
  9
$PLINEGEN
 70
     0
  9
$PSLTSCALE
 70
     1
  9
$TREEDEPTH
 70
  3020
  9
$CMLSTYLE
  2
Standard
  9
$CMLJUST
 70
     0
  9
$CMLSCALE
 40
1.0
  9
$PROXYGRAPHICS
 70
     1
  9
$MEASUREMENT
 70
     0
  9
$CELWEIGHT
370
    -1
  9
$ENDCAPS
280
     0
  9
$JOINSTYLE
280
     0
  9
$LWDISPLAY
290
     0
  9
$INSUNITS
 70
     1
  9
$HYPERLINKBASE
  1

  9
$STYLESHEET
  1

  9
$XEDIT
290
     1
  9
$CEPSNTYPE
380
     0
  9
$PSTYLEMODE
290
     1
  9
$EXTNAMES
290
     1
  9
$PSVPSCALE
 40
0.0
  9
$OLESTARTUP
290
     0
  9
$SORTENTS
280
   127
  9
$INDEXCTL
280
     0
  9
$HIDETEXT
280
     1
  9
$XCLIPFRAME
290
     0
  9
$HALOGAP
280
     0
  9
$OBSCOLOR
 70
   257
  9
$OBSLTYPE
280
     0
  9
$INTERSECTIONDISPLAY
280
     0
  9
$INTERSECTIONCOLOR
 70
   257
  9
$DIMASSOC
280
     2
  9
$PROJECTNAME
  1

  0
ENDSEC
  0
SECTION
  2
CLASSES
  0
CLASS
  1
ACDBDICTIONARYWDFLT
  2
AcDbDictionaryWithDefault
  3
ObjectDBX Classes
 90
        0
 91
        4
280
     0
281
     0
  0
ENDSEC
  0
SECTION
  2
TABLES
  0
TABLE
  2
VPORT
  5
8
330
0
100
AcDbSymbolTable
 70
     1
  0
VPORT
  5
29
330
8
100
AcDbSymbolTableRecord
100
AcDbViewportTableRecord
  2
*Active
 70
     0
 10
0.0
 20
0.0
 11
1.0
 21
1.0
 12
80.25
 22
106.4409457059851
 13
0.0
 23
0.0
 14
0.5
 24
0.5
 15
0.5
 25
0.5
 16
0.0
 26
0.0
 36
1.0
 17
0.0
 27
0.0
 37
0.0
 40
113.3818914119703
 41
0.8863849310366128
 42
50.0
 43
0.0
 44
0.0
 50
0.0
 51
0.0
 71
     0
 72
  1000
 73
     1
 74
     3
 75
     0
 76
     0
 77
     0
 78
     0
281
     0
 65
     1
110
0.0
120
0.0
130
0.0
111
1.0
121
0.0
131
0.0
112
0.0
122
1.0
132
0.0
 79
     0
146
0.0
  0
ENDTAB
  0
TABLE
  2
LTYPE
  5
5
330
0
100
AcDbSymbolTable
 70
     1
  0
LTYPE
  5
14
330
5
100
AcDbSymbolTableRecord
100
AcDbLinetypeTableRecord
  2
ByBlock
 70
     0
  3

 72
    65
 73
     0
 40
0.0
  0
LTYPE
  5
15
330
5
100
AcDbSymbolTableRecord
100
AcDbLinetypeTableRecord
  2
ByLayer
 70
     0
  3

 72
    65
 73
     0
 40
0.0
  0
LTYPE
  5
16
330
5
100
AcDbSymbolTableRecord
100
AcDbLinetypeTableRecord
  2
Continuous
 70
     0
  3
Solid line
 72
    65
 73
     0
 40
0.0
  0
ENDTAB
  0
TABLE
  2
LAYER
  5
2
330
0
100
AcDbSymbolTable
 70
     1
  0
LAYER
  5
10
330
2
100
AcDbSymbolTableRecord
100
AcDbLayerTableRecord
  2
0
 70
     0
 62
     7
  6
Continuous
370
    -3
390
F
  0
LAYER
  5
20010
330
2
100
AcDbSymbolTableRecord
100
AcDbLayerTableRecord
  2
CIU
 70
     0
 62
     7
  6
Continuous
370
    -3
390
F
  0
ENDTAB
  0
TABLE
  2
STYLE
  5
3
330
0
100
AcDbSymbolTable
 70
     1
  0
STYLE
  5
11
330
3
100
AcDbSymbolTableRecord
100
AcDbTextStyleTableRecord
  2
Standard
 70
     0
 40
0.0
 41
1.0
 50
0.0
 71
     0
 42
0.2
  3
txt
  4

  0
ENDTAB
  0
TABLE
  2
VIEW
  5
6
330
0
100
AcDbSymbolTable
 70
     0
  0
ENDTAB
  0
TABLE
  2
UCS
  5
7
330
0
100
AcDbSymbolTable
 70
     0
  0
ENDTAB
  0
TABLE
  2
APPID
  5
9
330
0
100
AcDbSymbolTable
 70
     1
  0
APPID
  5
12
330
9
100
AcDbSymbolTableRecord
100
AcDbRegAppTableRecord
  2
ACAD
 70
     0
  0
ENDTAB
  0
TABLE
  2
DIMSTYLE
  5
A
330
0
100
AcDbSymbolTable
 70
     1
100
AcDbDimStyleTable
  0
DIMSTYLE
105
27
330
A
100
AcDbSymbolTableRecord
100
AcDbDimStyleTableRecord
  2
Standard
 70
     0
340
11
  0
ENDTAB
  0
TABLE
  2
BLOCK_RECORD
  5
1
330
0
100
AcDbSymbolTable
 70
     1
  0
BLOCK_RECORD
  5
1F
330
1
100
AcDbSymbolTableRecord
100
AcDbBlockTableRecord
  2
*Model_Space
340
22
  0
BLOCK_RECORD
  5
1B
330
1
100
AcDbSymbolTableRecord
100
AcDbBlockTableRecord
  2
*Paper_Space
340
1E
  0
ENDTAB
  0
ENDSEC
  0
SECTION
  2
BLOCKS
  0
BLOCK
  5
20
330
1F
100
AcDbEntity
  8
0
100
AcDbBlockBegin
  2
*Model_Space
 70
     0
 10
0.0
 20
0.0
 30
0.0
  3
*Model_Space
  1

  0
ENDBLK
  5
21
330
1F
100
AcDbEntity
  8
0
100
AcDbBlockEnd
  0
BLOCK
  5
1C
330
1B
100
AcDbEntity
 67
     1
  8
0
100
AcDbBlockBegin
  2
*Paper_Space
 70
     0
 10
0.0
 20
0.0
 30
0.0
  3
*Paper_Space
  1

  0
ENDBLK
  5
1D
330
1B
100
AcDbEntity
 67
     1
  8
0
100
AcDbBlockEnd
  0
ENDSEC
  0
SECTION
  2
ENTITIES
  0
HATCH
  5
20000
100
AcDbEntity
  8
CIU
100
AcDbHatch
 10
0
 20
0
 30
0
210
0
220
0
230
1
  2
SOLID
 70
1
 71
0
 91
1
 92
2
 72
0
 73
1
 93
49
 10
16.6038603415713
 20
49.1555677057741
 10
16.6039439163044
 20
49.1554729978592
 10
16.6042407837515
 20
49.1553339255996
 10
16.604562760181
 20
49.1551802615127
 10
16.6047895280072
 20
49.1550746212383
 10
16.6050137420899
 20
49.1549511434432
 10
16.6051549808713
 20
49.1548153101322
 10
16.6054142554885
 20
49.1545504091203
 10
16.605576677097
 20
49.1544604287521
 10
16.6058587411957
 20
49.154357317172
 10
16.6062256095095
 20
49.1541942220181
 10
16.6063996916855
 20
49.1540424217084
 10
16.6066341546145
 20
49.1537090352614
 10
16.6067606983266
 20
49.1532469624221
 10
16.6068025387831
 20
49.1529565058587
 10
16.6068006727414
 20
49.1527563376756
 10
16.6068225506995
 20
49.1521629656264
 10
16.6069898280099
 20
49.15136181668
 10
16.6070868603114
 20
49.1510717815715
 10
16.6073703061175
 20
49.1503904391067
 10
16.6075254508075
 20
49.1502085761243
 10
16.6082980448907
 20
49.1501580651526
 10
16.61300342628
 20
49.1500162515696
 10
16.6150697949222
 20
49.1499312965582
 10
16.6155716456972
 20
49.1498827126031
 10
16.6141833841528
 20
49.1502963089285
 10
16.6134628252714
 20
49.1505611952023
 10
16.6114049789798
 20
49.1512975339387
 10
16.610232697605
 20
49.1517046557291
 10
16.6098194694653
 20
49.1518492951311
 10
16.6094530939184
 20
49.1520616847826
 10
16.6092802710148
 20
49.1522734134081
 10
16.6091070607952
 20
49.1526972228862
 10
16.6090570582744
 20
49.1528387866407
 10
16.6088595492813
 20
49.1531723674772
 10
16.6086486139249
 20
49.1534014269125
 10
16.6080340928373
 20
49.1538438528164
 10
16.6071547277986
 20
49.1543558914025
 10
16.606444409316
 20
49.1546895660284
 10
16.606041872036
 20
49.1548650256455
 10
16.6053424794501
 20
49.1551325432179
 10
16.6050702871347
 20
49.15522757958
 10
16.6047461297438
 20
49.1553386489752
 10
16.6046156672643
 20
49.1553990245056
 10
16.6044947077158
 20
49.155471365052
 10
16.6042704750821
 20
49.1555913113792
 10
16.6041244135529
 20
49.1556139109976
 10
16.6039811778238
 20
49.1556066233571
 10
16.6038603415713
 20
49.1555677057741
 97
0
 75
0
 76
1
 98
0
  0
HATCH
  5
20001
100
AcDbEntity
  8
CIU
100
AcDbHatch
 10
0
 20
0
 30
0
210
0
220
0
230
1
  2
SOLID
 70
1
 71
0
 91
1
 92
2
 72
0
 73
1
 93
7
 10
16.6040258614777
 20
49.1551014119106
 10
16.6042877288777
 20
49.1547581701854
 10
16.6045850832879
 20
49.1541608051897
 10
16.6053207077236
 20
49.1542508567127
 10
16.6049202095619
 20
49.1547735898275
 10
16.6044950405429
 20
49.1551346983076
 10
16.6040258614777
 20
49.1551014119106
 97
0
 75
0
 76
1
 98
0
  0
HATCH
  5
20002
100
AcDbEntity
  8
CIU
100
AcDbHatch
 10
0
 20
0
 30
0
210
0
220
0
230
1
  2
SOLID
 70
1
 71
0
 91
1
 92
2
 72
0
 73
1
 93
14
 10
16.6211790320341
 20
49.1524632302177
 10
16.6210801800009
 20
49.1523599830602
 10
16.6211879680963
 20
49.1521742742992
 10
16.6213105593077
 20
49.1520245149883
 10
16.6216331477176
 20
49.1516929899421
 10
16.621927089816
 20
49.1514339342081
 10
16.6228451987923
 20
49.150365441551
 10
16.6233506196005
 20
49.1504071506471
 10
16.6231054880615
 20
49.1508420544755
 10
16.6225470711279
 20
49.1515548155573
 10
16.6220361293562
 20
49.1521355417022
 10
16.6218210004443
 20
49.1523634645328
 10
16.6216044871244
 20
49.1526174196857
 10
16.6211790320341
 20
49.1524632302177
 97
0
 75
0
 76
1
 98
0
  0
HATCH
  5
20003
100
AcDbEntity
  8
CIU
100
AcDbHatch
 10
0
 20
0
 30
0
210
0
220
0
230
1
  2
SOLID
 70
1
 71
0
 91
1
 92
2
 72
0
 73
1
 93
13
 10
16.6122696345464
 20
49.1653776678897
 10
16.6144858622693
 20
49.1648446910743
 10
16.6160540776767
 20
49.1644622557896
 10
16.619790689497
 20
49.1639330772884
 10
16.6202367892269
 20
49.1659688956717
 10
16.6203309031778
 20
49.1677804614203
 10
16.6190776582338
 20
49.1678160493256
 10
16.61665412927
 20
49.167961971221
 10
16.6142474002206
 20
49.1682944409023
 10
16.6133365888263
 20
49.166915768018
 10
16.613033504511
 20
49.1664278740405
 10
16.6128216017134
 20
49.1659109589008
 10
16.6122696345464
 20
49.1653776678897
 97
0
 75
0
 76
1
 98
0
  0
HATCH
  5
20004
100
AcDbEntity
  8
CIU
100
AcDbHatch
 10
0
 20
0
 30
0
210
0
220
0
230
1
  2
SOLID
 70
1
 71
0
 91
1
 92
2
 72
0
 73
1
 93
10
 10
16.6051691391303
 20
49.1663020086397
 10
16.6056694052312
 20
49.1661199341084
 10
16.6059344828547
 20
49.1660304298908
 10
16.6060867182142
 20
49.1662094327181
 10
16.6062539151214
 20
49.1663781302244
 10
16.6060609314306
 20
49.1664847179625
 10
16.6053928780511
 20
49.1668265357667
 10
16.6053699590382
 20
49.1667811621626
 10
16.605225071159
 20
49.166432752725
 10
16.6051691391303
 20
49.1663020086397
 97
0
 75
0
 76
1
 98
0
  0
HATCH
  5
20005
100
AcDbEntity
  8
CIU
100
AcDbHatch
 10
0
 20
0
 30
0
210
0
220
0
230
1
  2
SOLID
 70
1
 71
0
 91
1
 92
2
 72
0
 73
1
 93
11
 10
16.59952927522
 20
49.1652503164399
 10
16.6012528778827
 20
49.1643807922458
 10
16.6022951386039
 20
49.1638973531697
 10
16.6031747821405
 20
49.1635536874533
 10
16.6042321235503
 20
49.1631530489791
 10
16.6055363109015
 20
49.163958785089
 10
16.604071925696
 20
49.1644087008926
 10
16.6029379325652
 20
49.1648440539093
 10
16.6019584383503
 20
49.1652683099784
 10
16.6002736924097
 20
49.1661438732043
 10
16.59952927522
 20
49.1652503164399
 97
0
 75
0
 76
1
 98
0
  0
HATCH
  5
20006
100
AcDbEntity
  8
CIU
100
AcDbHatch
 10
0
 20
0
 30
0
210
0
220
0
230
1
  2
SOLID
 70
1
 71
0
 91
1
 92
2
 72
0
 73
1
 93
8
 10
16.6320651457513
 20
49.2096327513209
 10
16.6325501642614
 20
49.2094193167257
 10
16.6330341645175
 20
49.2092061702596
 10
16.6332046354467
 20
49.2093854841459
 10
16.6325800664155
 20
49.209594200991
 10
16.6325292681445
 20
49.2096115293611
 10
16.6321690124476
 20
49.2097358858656
 10
16.6320651457513
 20
49.2096327513209
 97
0
 75
0
 76
1
 98
0
  0
HATCH
  5
20007
100
AcDbEntity
  8
CIU
100
AcDbHatch
 10
0
 20
0
 30
0
210
0
220
0
230
1
  2
SOLID
 70
1
 71
0
 91
1
 92
2
 72
0
 73
1
 93
41
 10
16.6087540672236
 20
49.2228911411373
 10
16.6087505987701
 20
49.2229027181667
 10
16.6087440361657
 20
49.2229140245449
 10
16.6087345122521
 20
49.2229248327008
 10
16.6087220182846
 20
49.2229351537732
 10
16.6086888587742
 20
49.2229537167331
 10
16.6086458341636
 20
49.2229689988078
 10
16.6085945959121
 20
49.2229804150408
 10
16.6085371128592
 20
49.2229875241515
 10
16.6084755950802
 20
49.2229900548036
 10
16.6084124076328
 20
49.222987909448
 10
16.6083499758182
 20
49.2229811693736
 10
16.608290702394
 20
49.2229700942726
 10
16.6082368630597
 20
49.2229551112209
 10
16.6081905256999
 20
49.2229367935824
 10
16.6081534740567
 20
49.222915846557
 10
16.6081271302584
 20
49.222893074558
 10
16.6081183274485
 20
49.2228813087282
 10
16.60811250679
 20
49.2228693542923
 10
16.6081097870298
 20
49.2228574539239
 10
16.6081101661369
 20
49.2228455948165
 10
16.6081136345886
 20
49.2228340187004
 10
16.6081201974738
 20
49.2228227114639
 10
16.6081297215018
 20
49.2228119033584
 10
16.6081422155616
 20
49.22280158235
 10
16.6081753750273
 20
49.2227830204408
 10
16.608218399769
 20
49.2227677376468
 10
16.6082696377396
 20
49.2227563224745
 10
16.60832712071
 20
49.2227492126026
 10
16.6083886381975
 20
49.2227466820295
 10
16.6084518251884
 20
49.2227488282921
 10
16.6085142567241
 20
49.2227555683116
 10
16.6085735300892
 20
49.2227666424042
 10
16.608627370538
 20
49.22278162629
 10
16.6086737065492
 20
49.222799943657
 10
16.6087107583258
 20
49.2228208905158
 10
16.6087371025017
 20
49.2228436614879
 10
16.6087459053044
 20
49.2228554281646
 10
16.6087517261142
 20
49.2228673825687
 10
16.6087544460291
 20
49.222879282922
 10
16.6087540672236
 20
49.2228911411373
 97
0
 75
0
 76
1
 98
0
  0
HATCH
  5
20008
100
AcDbEntity
  8
CIU
100
AcDbHatch
 10
0
 20
0
 30
0
210
0
220
0
230
1
  2
SOLID
 70
1
 71
0
 91
1
 92
2
 72
0
 73
1
 93
37
 10
16.6071180170864
 20
49.2218276491859
 10
16.6071904260136
 20
49.2217699929122
 10
16.6072720997362
 20
49.2217560575962
 10
16.6075532961132
 20
49.2217753078912
 10
16.6077709906893
 20
49.2217680838318
 10
16.6080984900814
 20
49.221757213487
 10
16.6084507623823
 20
49.2217247904004
 10
16.6085488312048
 20
49.2217317349744
 10
16.6086424956465
 20
49.2217114760888
 10
16.6090907387297
 20
49.2217019333484
 10
16.6095738121874
 20
49.2217236377604
 10
16.6098509330605
 20
49.2217360869335
 10
16.6101373423858
 20
49.2218083558265
 10
16.6104410839099
 20
49.2219248767333
 10
16.6105723722199
 20
49.2220740580802
 10
16.6105109529202
 20
49.2221625975026
 10
16.6103695823972
 20
49.2221923161406
 10
16.6102440342559
 20
49.2221404010905
 10
16.6100784872545
 20
49.222015735923
 10
16.6099083369721
 20
49.2219355639131
 10
16.6096527108161
 20
49.2218923663822
 10
16.6092697126453
 20
49.2218580775226
 10
16.6091114093139
 20
49.2218719673008
 10
16.6089531058937
 20
49.2218858568621
 10
16.6086901871265
 20
49.2219403198632
 10
16.6085857554377
 20
49.22198892477
 10
16.6084286220251
 20
49.2220620585191
 10
16.608292255513
 20
49.2220662288542
 10
16.6081984083446
 20
49.2220419608113
 10
16.6080181295941
 20
49.2219953407392
 10
16.6079026857166
 20
49.2219681519049
 10
16.6077474039915
 20
49.221975818371
 10
16.6075421228378
 20
49.2219938999715
 10
16.6073790069225
 20
49.2219876643967
 10
16.6072581992751
 20
49.2219464344253
 10
16.6071589168167
 20
49.2218853393283
 10
16.6071180170864
 20
49.2218276491859
 97
0
 75
0
 76
1
 98
0
  0
HATCH
  5
20009
100
AcDbEntity
  8
CIU
100
AcDbHatch
 10
0
 20
0
 30
0
210
0
220
0
230
1
  2
SOLID
 70
1
 71
0
 91
1
 92
2
 72
0
 73
1
 93
5
 10
16.5908600113936
 20
49.2311001660892
 10
16.5935329828891
 20
49.2312145461946
 10
16.5935545861405
 20
49.2315333657561
 10
16.5907227298141
 20
49.2314113761795
 10
16.5908600113936
 20
49.2311001660892
 97
0
 75
0
 76
1
 98
0
  0
HATCH
  5
2000A
100
AcDbEntity
  8
CIU
100
AcDbHatch
 10
0
 20
0
 30
0
210
0
220
0
230
1
  2
SOLID
 70
1
 71
0
 91
1
 92
2
 72
0
 73
1
 93
9
 10
16.6767512619525
 20
49.1977886056754
 10
16.6768955366916
 20
49.1975126237228
 10
16.6775830652921
 20
49.1974614002154
 10
16.678013468045
 20
49.1973455764667
 10
16.6778716339431
 20
49.1975873298199
 10
16.677088325533
 20
49.1977652887891
 10
16.6775968003875
 20
49.1980995622154
 10
16.6774997651189
 20
49.1982211650126
 10
16.6767512619525
 20
49.1977886056754
 97
0
 75
0
 76
1
 98
0
  0
HATCH
  5
2000B
100
AcDbEntity
  8
CIU
100
AcDbHatch
 10
0
 20
0
 30
0
210
0
220
0
230
1
  2
SOLID
 70
1
 71
0
 91
1
 92
2
 72
0
 73
1
 93
20
 10
16.6076008558711
 20
49.1501878527237
 10
16.6078240124332
 20
49.1499046134498
 10
16.6084872441736
 20
49.1496140199842
 10
16.6097328310288
 20
49.1491759360801
 10
16.6109919385452
 20
49.1487972783643
 10
16.6130247840308
 20
49.1483701886006
 10
16.6150485446515
 20
49.1479879313362
 10
16.6168103943891
 20
49.1475309472466
 10
16.6186549387138
 20
49.1469654212275
 10
16.6195205165591
 20
49.1466174464696
 10
16.6205437656278
 20
49.1472605543374
 10
16.6212539623574
 20
49.1476908844671
 10
16.6210501244316
 20
49.1479451543434
 10
16.6198063577273
 20
49.1486582287583
 10
16.6189698741214
 20
49.1490671508499
 10
16.6175103370307
 20
49.1494333809194
 10
16.6155716456972
 20
49.1498827126031
 10
16.6150701499014
 20
49.1499317450151
 10
16.61300342628
 20
49.1500162515696
 10
16.6076008558711
 20
49.1501878527237
 97
0
 75
0
 76
1
 98
0
  0
HATCH
  5
2000C
100
AcDbEntity
  8
CIU
100
AcDbHatch
 10
0
 20
0
 30
0
210
0
220
0
230
1
  2
SOLID
 70
1
 71
0
 91
1
 92
2
 72
0
 73
1
 93
10
 10
16.5984177914519
 20
49.1861671443538
 10
16.5999509575789
 20
49.1856830193123
 10
16.6010509058385
 20
49.1851336981809
 10
16.6019434326483
 20
49.1856811942829
 10
16.602717858393
 20
49.1865419094877
 10
16.6020862646638
 20
49.1874548554608
 10
16.5987046623264
 20
49.1879757699379
 10
16.5985443613896
 20
49.1877289526027
 10
16.5983973522397
 20
49.1872830000716
 10
16.5984177914519
 20
49.1861671443538
 97
0
 75
0
 76
1
 98
0
  0
HATCH
  5
2000D
100
AcDbEntity
  8
CIU
100
AcDbHatch
 10
0
 20
0
 30
0
210
0
220
0
230
1
  2
SOLID
 70
1
 71
0
 91
1
 92
2
 72
0
 73
1
 93
13
 10
16.6007938047864
 20
49.1746470080634
 10
16.60021431064
 20
49.1746480950218
 10
16.5995185579318
 20
49.1745979606372
 10
16.599673292884
 20
49.1739164971235
 10
16.6002584337315
 20
49.1738259455684
 10
16.6012636029384
 20
49.1737017714556
 10
16.6014011829955
 20
49.1736905402307
 10
16.6019535581499
 20
49.173638725146
 10
16.6020096549165
 20
49.1738120928451
 10
16.6020718549095
 20
49.1741885422206
 10
16.6021624787241
 20
49.1746759078467
 10
16.6010738786687
 20
49.1746563283242
 10
16.6007938047864
 20
49.1746470080634
 97
0
 75
0
 76
1
 98
0
  0
HATCH
  5
2000E
100
AcDbEntity
  8
CIU
100
AcDbHatch
 10
0
 20
0
 30
0
210
0
220
0
230
1
  2
SOLID
 70
1
 71
0
 91
1
 92
2
 72
0
 73
1
 93
26
 10
16.6307605900381
 20
49.2050565340982
 10
16.6314191622989
 20
49.2048370931325
 10
16.6320854803968
 20
49.2046398442937
 10
16.6323048632292
 20
49.2049457369051
 10
16.6329902338844
 20
49.2058449269515
 10
16.6332143471889
 20
49.2061465129862
 10
16.6333795660208
 20
49.2063280052785
 10
16.6336961615591
 20
49.2065580393929
 10
16.6338442049544
 20
49.2066452206744
 10
16.6339293786347
 20
49.2066851387871
 10
16.6340997185459
 20
49.2067608010773
 10
16.6342145295483
 20
49.2068113144998
 10
16.6343289722265
 20
49.2068571528477
 10
16.6338835521603
 20
49.2072733999483
 10
16.6335226082289
 20
49.2071538546998
 10
16.6332523529733
 20
49.2070604324571
 10
16.6329524945333
 20
49.206948856552
 10
16.6327706370454
 20
49.206871701657
 10
16.6325323112156
 20
49.2067528684742
 10
16.6323257907841
 20
49.2066435447713
 10
16.6321664288312
 20
49.2065547533594
 10
16.6319296239543
 20
49.2064091309507
 10
16.6317794904076
 20
49.2063110406727
 10
16.6316489825678
 20
49.2062148302119
 10
16.6315385159426
 20
49.2061102461177
 10
16.6307605900381
 20
49.2050565340982
 97
0
 75
0
 76
1
 98
0
  0
HATCH
  5
2000F
100
AcDbEntity
  8
CIU
100
AcDbHatch
 10
0
 20
0
 30
0
210
0
220
0
230
1
  2
SOLID
 70
1
 71
0
 91
1
 92
2
 72
0
 73
1
 93
12
 10
16.6336254531526
 20
49.1935292871545
 10
16.6338579551019
 20
49.1932090720185
 10
16.6344397316172
 20
49.1925108941345
 10
16.6349715357834
 20
49.1927444928121
 10
16.6358070448825
 20
49.1930666517884
 10
16.6364099456862
 20
49.193169280287
 10
16.6364030898854
 20
49.1942251169087
 10
16.6358742260194
 20
49.1941715384771
 10
16.6351697934025
 20
49.1941155987063
 10
16.6349132800789
 20
49.1940446141645
 10
16.6342745888057
 20
49.1938383803467
 10
16.6336254531526
 20
49.1935292871545
 97
0
 75
0
 76
1
 98
0
  0
ENDSEC
  0
SECTION
  2
OBJECTS
  0
DICTIONARY
  5
C
330
0
100
AcDbDictionary
281
     1
  3
ACAD_GROUP
350
D
  3
ACAD_LAYOUT
350
1A
  3
ACAD_MLEADERSTYLE
350
43
  3
ACAD_PLOTSETTINGS
350
19
  3
ACAD_PLOTSTYLENAME
350
E
  3
ACAD_TABLESTYLE
350
42
  0
DICTIONARY
  5
D
102
{ACAD_REACTORS
330
C
102
}
330
C
100
AcDbDictionary
281
     1
  0
DICTIONARY
  5
1A
102
{ACAD_REACTORS
330
C
102
}
330
C
100
AcDbDictionary
281
     1
  3
Layout1
350
1E
  3
Model
350
22
  0
DICTIONARY
  5
43
102
{ACAD_REACTORS
330
C
102
}
330
C
100
AcDbDictionary
281
     1
  0
DICTIONARY
  5
19
102
{ACAD_REACTORS
330
C
102
}
330
C
100
AcDbDictionary
281
     1
  0
ACDBDICTIONARYWDFLT
  5
E
102
{ACAD_REACTORS
330
C
102
}
330
C
100
AcDbDictionary
281
     1
  3
Normal
350
F
100
AcDbDictionaryWithDefault
340
F
  0
DICTIONARY
  5
42
102
{ACAD_REACTORS
330
C
102
}
330
C
100
AcDbDictionary
281
     1
  0
LAYOUT
  5
1E
102
{ACAD_REACTORS
330
1A
102
}
330
1A
100
AcDbPlotSettings
  1

  2
none_device
  4

  6

 40
0.0
 41
0.0
 42
0.0
 43
0.0
 44
0.0
 45
0.0
 46
0.0
 47
0.0
 48
0.0
 49
0.0
140
0.0
141
0.0
142
1.0
143
1.0
 70
   688
 72
     0
 73
     0
 74
     5
  7

 75
    16
 76
     0
 77
     2
 78
   300
147
1.0
148
0.0
149
0.0
100
AcDbLayout
  1
Layout1
 70
     1
 71
     1
 10
0.0
 20
0.0
 11
12.0
 21
9.0
 12
0.0
 22
0.0
 32
0.0
 14
1.000000000000000E+20
 24
1.000000000000000E+20
 34
1.000000000000000E+20
 15
-1.000000000000000E+20
 25
-1.000000000000000E+20
 35
-1.000000000000000E+20
146
0.0
 13
0.0
 23
0.0
 33
0.0
 16
1.0
 26
0.0
 36
0.0
 17
0.0
 27
1.0
 37
0.0
 76
     0
330
1B
  0
LAYOUT
  5
22
102
{ACAD_REACTORS
330
1A
102
}
330
1A
100
AcDbPlotSettings
  1

  2
none_device
  4

  6

 40
0.0
 41
0.0
 42
0.0
 43
0.0
 44
0.0
 45
0.0
 46
0.0
 47
0.0
 48
0.0
 49
0.0
140
0.0
141
0.0
142
1.0
143
1.0
 70
  1712
 72
     0
 73
     0
 74
     0
  7

 75
     0
 76
     0
 77
     2
 78
   300
147
1.0
148
0.0
149
0.0
100
AcDbLayout
  1
Model
 70
     1
 71
     0
 10
0.0
 20
0.0
 11
12.0
 21
9.0
 12
0.0
 22
0.0
 32
0.0
 14
30.0
 24
49.75
 34
0.0
 15
130.5
 25
163.1318914119703
 35
0.0
146
0.0
 13
0.0
 23
0.0
 33
0.0
 16
1.0
 26
0.0
 36
0.0
 17
0.0
 27
1.0
 37
0.0
 76
     0
330
1F
331
29
  0
ENDSEC
  0
EOF
