  0
SECTION
  2
HEADER
  9
$ACADVER
  1
AC1018
  9
$ACADMAINTVER
 70
     0
  9
$DWGCODEPAGE
  3
ANSI_1252
  9
$EXTMIN
 10
-598964.573
 20
-1165149.5714
 30
0.0
  9
$EXTMAX
 10
-593078.9358
 20
-1157619.6659
 30
0.0
  9
$LIMMIN
 10
0.0
 20
0.0
  9
$LIMMAX
 10
12.0
 20
9.0
  9
$ORTHOMODE
 70
     0
  9
$REGENMODE
 70
     1
  9
$FILLMODE
 70
     1
  9
$QTEXTMODE
 70
     0
  9
$MIRRTEXT
 70
     1
  9
$LTSCALE
 40
1.0
  9
$ATTMODE
 70
     1
  9
$TEXTSIZE
 40
0.2
  9
$TRACEWID
 40
0.05
  9
$TEXTSTYLE
  7
Standard
  9
$CLAYER
  8
0
  9
$CELTYPE
  6
ByLayer
  9
$CECOLOR
 62
   256
  9
$CELTSCALE
 40
1.0
  9
$DISPSILH
 70
     0
  9
$LUNITS
 70
     2
  9
$LUPREC
 70
     4
  9
$SKETCHINC
 40
0.1
  9
$FILLETRAD
 40
0.5
  9
$AUNITS
 70
     0
  9
$AUPREC
 70
     0
  9
$MENU
  1
.
  9
$ELEVATION
 40
0.0
  9
$PELEVATION
 40
0.0
  9
$THICKNESS
 40
0.0
  9
$LIMCHECK
 70
     0
  9
$CHAMFERA
 40
0.5
  9
$CHAMFERB
 40
0.5
  9
$CHAMFERC
 40
1.0
  9
$CHAMFERD
 40
0.0
  9
$SKPOLY
 70
     0
  9
$ANGBASE
 50
0.0
  9
$ANGDIR
 70
     0
  9
$PDMODE
 70
     0
  9
$PDSIZE
 40
0.0
  9
$PLINEWID
 40
0.0
  9
$SPLFRAME
 70
     0
  9
$SPLINETYPE
 70
     6
  9
$SPLINESEGS
 70
     8
  9
$HANDSEED
  5
00020016
  9
$SURFTAB1
 70
     6
  9
$SURFTAB2
 70
     6
  9
$SURFTYPE
 70
     6
  9
$SURFU
 70
     6
  9
$SURFV
 70
     6
  9
$UCSBASE
  2

  9
$UCSNAME
  2

  9
$UCSORG
 10
0.0
 20
0.0
 30
0.0
  9
$UCSXDIR
 10
1.0
 20
0.0
 30
0.0
  9
$UCSYDIR
 10
0.0
 20
1.0
 30
0.0
  9
$UCSORTHOREF
  2

  9
$UCSORTHOVIEW
 70
     0
  9
$UCSORGTOP
 10
0.0
 20
0.0
 30
0.0
  9
$UCSORGBOTTOM
 10
0.0
 20
0.0
 30
0.0
  9
$UCSORGLEFT
 10
0.0
 20
0.0
 30
0.0
  9
$UCSORGRIGHT
 10
0.0
 20
0.0
 30
0.0
  9
$UCSORGFRONT
 10
0.0
 20
0.0
 30
0.0
  9
$UCSORGBACK
 10
0.0
 20
0.0
 30
0.0
  9
$PUCSBASE
  2

  9
$PUCSNAME
  2

  9
$PUCSORG
 10
0.0
 20
0.0
 30
0.0
  9
$PUCSXDIR
 10
1.0
 20
0.0
 30
0.0
  9
$PUCSYDIR
 10
0.0
 20
1.0
 30
0.0
  9
$PUCSORTHOREF
  2

  9
$PUCSORTHOVIEW
 70
     0
  9
$PUCSORGTOP
 10
0.0
 20
0.0
 30
0.0
  9
$PUCSORGBOTTOM
 10
0.0
 20
0.0
 30
0.0
  9
$PUCSORGLEFT
 10
0.0
 20
0.0
 30
0.0
  9
$PUCSORGRIGHT
 10
0.0
 20
0.0
 30
0.0
  9
$PUCSORGFRONT
 10
0.0
 20
0.0
 30
0.0
  9
$PUCSORGBACK
 10
0.0
 20
0.0
 30
0.0
  9
$WORLDVIEW
 70
     1
  9
$SHADEDGE
 70
     3
  9
$SHADEDIF
 70
    70
  9
$TILEMODE
 70
     1
  9
$MAXACTVP
 70
    64
  9
$PINSBASE
 10
0.0
 20
0.0
 30
0.0
  9
$PLIMCHECK
 70
     0
  9
$PEXTMIN
 10
1.000000000000000E+20
 20
1.000000000000000E+20
 30
1.000000000000000E+20
  9
$PEXTMAX
 10
-1.000000000000000E+20
 20
-1.000000000000000E+20
 30
-1.000000000000000E+20
  9
$PLIMMIN
 10
0.0
 20
0.0
  9
$PLIMMAX
 10
12.0
 20
9.0
  9
$UNITMODE
 70
     0
  9
$VISRETAIN
 70
     1
  9
$PLINEGEN
 70
     0
  9
$PSLTSCALE
 70
     1
  9
$TREEDEPTH
 70
  3020
  9
$CMLSTYLE
  2
Standard
  9
$CMLJUST
 70
     0
  9
$CMLSCALE
 40
1.0
  9
$PROXYGRAPHICS
 70
     1
  9
$MEASUREMENT
 70
     0
  9
$CELWEIGHT
370
    -1
  9
$ENDCAPS
280
     0
  9
$JOINSTYLE
280
     0
  9
$LWDISPLAY
290
     0
  9
$INSUNITS
 70
     1
  9
$HYPERLINKBASE
  1

  9
$STYLESHEET
  1

  9
$XEDIT
290
     1
  9
$CEPSNTYPE
380
     0
  9
$PSTYLEMODE
290
     1
  9
$EXTNAMES
290
     1
  9
$PSVPSCALE
 40
0.0
  9
$OLESTARTUP
290
     0
  9
$SORTENTS
280
   127
  9
$INDEXCTL
280
     0
  9
$HIDETEXT
280
     1
  9
$XCLIPFRAME
290
     0
  9
$HALOGAP
280
     0
  9
$OBSCOLOR
 70
   257
  9
$OBSLTYPE
280
     0
  9
$INTERSECTIONDISPLAY
280
     0
  9
$INTERSECTIONCOLOR
 70
   257
  9
$DIMASSOC
280
     2
  9
$PROJECTNAME
  1

  0
ENDSEC
  0
SECTION
  2
CLASSES
  0
CLASS
  1
ACDBDICTIONARYWDFLT
  2
AcDbDictionaryWithDefault
  3
ObjectDBX Classes
 90
        0
 91
        4
280
     0
281
     0
  0
ENDSEC
  0
SECTION
  2
TABLES
  0
TABLE
  2
VPORT
  5
8
330
0
100
AcDbSymbolTable
 70
     1
  0
VPORT
  5
29
330
8
100
AcDbSymbolTableRecord
100
AcDbViewportTableRecord
  2
*Active
 70
     0
 10
0.0
 20
0.0
 11
1.0
 21
1.0
 12
80.25
 22
106.4409457059851
 13
0.0
 23
0.0
 14
0.5
 24
0.5
 15
0.5
 25
0.5
 16
0.0
 26
0.0
 36
1.0
 17
0.0
 27
0.0
 37
0.0
 40
113.3818914119703
 41
0.8863849310366128
 42
50.0
 43
0.0
 44
0.0
 50
0.0
 51
0.0
 71
     0
 72
  1000
 73
     1
 74
     3
 75
     0
 76
     0
 77
     0
 78
     0
281
     0
 65
     1
110
0.0
120
0.0
130
0.0
111
1.0
121
0.0
131
0.0
112
0.0
122
1.0
132
0.0
 79
     0
146
0.0
  0
ENDTAB
  0
TABLE
  2
LTYPE
  5
5
330
0
100
AcDbSymbolTable
 70
     1
  0
LTYPE
  5
14
330
5
100
AcDbSymbolTableRecord
100
AcDbLinetypeTableRecord
  2
ByBlock
 70
     0
  3

 72
    65
 73
     0
 40
0.0
  0
LTYPE
  5
15
330
5
100
AcDbSymbolTableRecord
100
AcDbLinetypeTableRecord
  2
ByLayer
 70
     0
  3

 72
    65
 73
     0
 40
0.0
  0
LTYPE
  5
16
330
5
100
AcDbSymbolTableRecord
100
AcDbLinetypeTableRecord
  2
Continuous
 70
     0
  3
Solid line
 72
    65
 73
     0
 40
0.0
  0
ENDTAB
  0
TABLE
  2
LAYER
  5
2
330
0
100
AcDbSymbolTable
 70
     1
  0
LAYER
  5
10
330
2
100
AcDbSymbolTableRecord
100
AcDbLayerTableRecord
  2
0
 70
     0
 62
     7
  6
Continuous
370
    -3
390
F
  0
LAYER
  5
20015
330
2
100
AcDbSymbolTableRecord
100
AcDbLayerTableRecord
  2
NEL
 70
     0
 62
     7
  6
Continuous
370
    -3
390
F
  0
ENDTAB
  0
TABLE
  2
STYLE
  5
3
330
0
100
AcDbSymbolTable
 70
     1
  0
STYLE
  5
11
330
3
100
AcDbSymbolTableRecord
100
AcDbTextStyleTableRecord
  2
Standard
 70
     0
 40
0.0
 41
1.0
 50
0.0
 71
     0
 42
0.2
  3
txt
  4

  0
ENDTAB
  0
TABLE
  2
VIEW
  5
6
330
0
100
AcDbSymbolTable
 70
     0
  0
ENDTAB
  0
TABLE
  2
UCS
  5
7
330
0
100
AcDbSymbolTable
 70
     0
  0
ENDTAB
  0
TABLE
  2
APPID
  5
9
330
0
100
AcDbSymbolTable
 70
     1
  0
APPID
  5
12
330
9
100
AcDbSymbolTableRecord
100
AcDbRegAppTableRecord
  2
ACAD
 70
     0
  0
ENDTAB
  0
TABLE
  2
DIMSTYLE
  5
A
330
0
100
AcDbSymbolTable
 70
     1
100
AcDbDimStyleTable
  0
DIMSTYLE
105
27
330
A
100
AcDbSymbolTableRecord
100
AcDbDimStyleTableRecord
  2
Standard
 70
     0
340
11
  0
ENDTAB
  0
TABLE
  2
BLOCK_RECORD
  5
1
330
0
100
AcDbSymbolTable
 70
     1
  0
BLOCK_RECORD
  5
1F
330
1
100
AcDbSymbolTableRecord
100
AcDbBlockTableRecord
  2
*Model_Space
340
22
  0
BLOCK_RECORD
  5
1B
330
1
100
AcDbSymbolTableRecord
100
AcDbBlockTableRecord
  2
*Paper_Space
340
1E
  0
ENDTAB
  0
ENDSEC
  0
SECTION
  2
BLOCKS
  0
BLOCK
  5
20
330
1F
100
AcDbEntity
  8
0
100
AcDbBlockBegin
  2
*Model_Space
 70
     0
 10
0.0
 20
0.0
 30
0.0
  3
*Model_Space
  1

  0
ENDBLK
  5
21
330
1F
100
AcDbEntity
  8
0
100
AcDbBlockEnd
  0
BLOCK
  5
1C
330
1B
100
AcDbEntity
 67
     1
  8
0
100
AcDbBlockBegin
  2
*Paper_Space
 70
     0
 10
0.0
 20
0.0
 30
0.0
  3
*Paper_Space
  1

  0
ENDBLK
  5
1D
330
1B
100
AcDbEntity
 67
     1
  8
0
100
AcDbBlockEnd
  0
ENDSEC
  0
SECTION
  2
ENTITIES
  0
HATCH
  5
20000
100
AcDbEntity
  8
NEL
100
AcDbHatch
 10
0
 20
0
 30
0
210
0
220
0
230
1
  2
SOLID
 70
1
 71
0
 91
1
 92
2
 72
0
 73
1
 93
5
 10
-596230.4351
 20
-1163554.3183
 10
-596171.0627
 20
-1163587.1734
 10
-596153.6207
 20
-1163552.9199
 10
-596210.36
 20
-1163521.41
 10
-596230.4351
 20
-1163554.3183
 97
0
 75
0
 76
1
 98
0
  0
HATCH
  5
20001
100
AcDbEntity
  8
NEL
100
AcDbHatch
 10
0
 20
0
 30
0
210
0
220
0
230
1
  2
SOLID
 70
1
 71
0
 91
1
 92
2
 72
0
 73
1
 93
5
 10
-598884.1561
 20
-1165061.8307
 10
-598872.2237
 20
-1165086.0749
 10
-598865.4727
 20
-1165123.2619
 10
-598840.8087
 20
-1165080.5212
 10
-598884.1561
 20
-1165061.8307
 97
0
 75
0
 76
1
 98
0
  0
HATCH
  5
20002
100
AcDbEntity
  8
NEL
100
AcDbHatch
 10
0
 20
0
 30
0
210
0
220
0
230
1
  2
SOLID
 70
1
 71
0
 91
1
 92
2
 72
0
 73
1
 93
5
 10
-598890.0601
 20
-1165036.0475
 10
-598892.4516
 20
-1165043.9693
 10
-598866.73
 20
-1165050.81
 10
-598864.2205
 20
-1165041.3742
 10
-598890.0601
 20
-1165036.0475
 97
0
 75
0
 76
1
 98
0
  0
HATCH
  5
20003
100
AcDbEntity
  8
NEL
100
AcDbHatch
 10
0
 20
0
 30
0
210
0
220
0
230
1
  2
SOLID
 70
1
 71
0
 91
1
 92
2
 72
0
 73
1
 93
6
 10
-598964.573
 20
-1165138.0259
 10
-598942.0155
 20
-1165149.5714
 10
-598933.6814
 20
-1165136.9489
 10
-598925.3473
 20
-1165124.3265
 10
-598949.3549
 20
-1165111.8107
 10
-598964.573
 20
-1165138.0259
 97
0
 75
0
 76
1
 98
0
  0
HATCH
  5
20004
100
AcDbEntity
  8
NEL
100
AcDbHatch
 10
0
 20
0
 30
0
210
0
220
0
230
1
  2
SOLID
 70
1
 71
0
 91
1
 92
2
 72
0
 73
1
 93
5
 10
-598214.8683
 20
-1163951.6129
 10
-598213.6051
 20
-1163971.281
 10
-598151.0105
 20
-1164002.3304
 10
-598130.7002
 20
-1163968.2878
 10
-598214.8683
 20
-1163951.6129
 97
0
 75
0
 76
1
 98
0
  0
HATCH
  5
20005
100
AcDbEntity
  8
NEL
100
AcDbHatch
 10
0
 20
0
 30
0
210
0
220
0
230
1
  2
SOLID
 70
1
 71
0
 91
1
 92
2
 72
0
 73
1
 93
8
 10
-598702.4606
 20
-1163893.4681
 10
-598678.3903
 20
-1163909.6565
 10
-598631.713
 20
-1163938.7224
 10
-598617.7781
 20
-1163924.8635
 10
-598612.2301
 20
-1163918.8611
 10
-598649.6741
 20
-1163899.9134
 10
-598696.5906
 20
-1163878.6733
 10
-598702.4606
 20
-1163893.4681
 97
0
 75
0
 76
1
 98
0
  0
HATCH
  5
20006
100
AcDbEntity
  8
NEL
100
AcDbHatch
 10
0
 20
0
 30
0
210
0
220
0
230
1
  2
SOLID
 70
1
 71
0
 91
1
 92
2
 72
0
 73
1
 93
18
 10
-598132.4913
 20
-1157619.6659
 10
-598136.1858
 20
-1157623.2652
 10
-598144.6213
 20
-1157628.0647
 10
-598156.6927
 20
-1157633.0097
 10
-598161.0559
 20
-1157638.1
 10
-598162.1482
 20
-1157643.5252
 10
-598160.2924
 20
-1157652.3807
 10
-598153.4931
 20
-1157663.9882
 10
-598143.6578
 20
-1157671.9147
 10
-598131.6954
 20
-1157675.078
 10
-598121.351
 20
-1157675.587
 10
-598112.1156
 20
-1157673.0273
 10
-598105.7033
 20
-1157668.7444
 10
-598090.3473
 20
-1157654.8974
 10
-598078.1192
 20
-1157638.6804
 10
-598074.2287
 20
-1157627.3375
 10
-598076.7453
 20
-1157623.6796
 10
-598132.4913
 20
-1157619.6659
 97
0
 75
0
 76
1
 98
0
  0
HATCH
  5
20007
100
AcDbEntity
  8
NEL
100
AcDbHatch
 10
0
 20
0
 30
0
210
0
220
0
230
1
  2
SOLID
 70
1
 71
0
 91
1
 92
2
 72
0
 73
1
 93
25
 10
-598158.0192
 20
-1157750.111
 10
-598158.423
 20
-1157749.4173
 10
-598159.075
 20
-1157748.8468
 10
-598159.9502
 20
-1157748.4216
 10
-598161.0148
 20
-1157748.158
 10
-598163.5431
 20
-1157748.1494
 10
-598166.275
 20
-1157748.8223
 10
-598168.7947
 20
-1157750.0743
 10
-598170.7186
 20
-1157751.7148
 10
-598171.3607
 20
-1157752.6039
 10
-598171.7537
 20
-1157753.4939
 10
-598171.8826
 20
-1157754.3506
 10
-598171.7425
 20
-1157755.141
 10
-598171.3386
 20
-1157755.8347
 10
-598170.6866
 20
-1157756.4052
 10
-598169.8115
 20
-1157756.8304
 10
-598168.7469
 20
-1157757.094
 10
-598166.2186
 20
-1157757.1026
 10
-598163.4867
 20
-1157756.4297
 10
-598160.967
 20
-1157755.1777
 10
-598159.0431
 20
-1157753.5373
 10
-598158.401
 20
-1157752.6481
 10
-598158.008
 20
-1157751.7581
 10
-598157.8791
 20
-1157750.9014
 10
-598158.0192
 20
-1157750.111
 97
0
 75
0
 76
1
 98
0
  0
HATCH
  5
20008
100
AcDbEntity
  8
NEL
100
AcDbHatch
 10
0
 20
0
 30
0
210
0
220
0
230
1
  2
SOLID
 70
1
 71
0
 91
1
 92
2
 72
0
 73
1
 93
21
 10
-597953.4351
 20
-1157775.6433
 10
-597953.9559
 20
-1157775.2365
 10
-597954.7225
 20
-1157775.0481
 10
-597956.8665
 20
-1157775.347
 10
-597959.5409
 20
-1157776.4946
 10
-597962.3384
 20
-1157778.3161
 10
-597964.8332
 20
-1157780.5342
 10
-597966.6454
 20
-1157782.8113
 10
-597967.4991
 20
-1157784.8007
 10
-597967.5196
 20
-1157785.5898
 10
-597967.2645
 20
-1157786.1994
 10
-597966.7436
 20
-1157786.6063
 10
-597965.9771
 20
-1157786.7947
 10
-597963.833
 20
-1157786.4957
 10
-597961.1587
 20
-1157785.3482
 10
-597958.3611
 20
-1157783.5266
 10
-597955.8664
 20
-1157781.3085
 10
-597954.0542
 20
-1157779.0314
 10
-597953.2004
 20
-1157777.0421
 10
-597953.18
 20
-1157776.253
 10
-597953.4351
 20
-1157775.6433
 97
0
 75
0
 76
1
 98
0
  0
HATCH
  5
20009
100
AcDbEntity
  8
NEL
100
AcDbHatch
 10
0
 20
0
 30
0
210
0
220
0
230
1
  2
SOLID
 70
1
 71
0
 91
1
 92
2
 72
0
 73
1
 93
33
 10
-597876.84
 20
-1157777.3157
 10
-597877.5036
 20
-1157776.3233
 10
-597878.8188
 20
-1157775.5704
 10
-597880.7348
 20
-1157775.0859
 10
-597883.1781
 20
-1157774.8885
 10
-597886.0548
 20
-1157774.9858
 10
-597889.2544
 20
-1157775.3739
 10
-597892.6538
 20
-1157776.0381
 10
-597896.1225
 20
-1157776.9527
 10
-597899.5271
 20
-1157778.0827
 10
-597902.7369
 20
-1157779.3846
 10
-597905.6284
 20
-1157780.8083
 10
-597908.0905
 20
-1157782.2992
 10
-597910.0287
 20
-1157783.7999
 10
-597911.3684
 20
-1157785.2529
 10
-597912.0582
 20
-1157786.6022
 10
-597912.0715
 20
-1157787.796
 10
-597911.4078
 20
-1157788.7884
 10
-597910.0927
 20
-1157789.5413
 10
-597908.1767
 20
-1157790.0257
 10
-597905.7334
 20
-1157790.2231
 10
-597902.8567
 20
-1157790.1259
 10
-597899.6571
 20
-1157789.7377
 10
-597896.2577
 20
-1157789.0736
 10
-597892.789
 20
-1157788.1589
 10
-597889.3844
 20
-1157787.029
 10
-597886.1746
 20
-1157785.7271
 10
-597883.2831
 20
-1157784.3034
 10
-597880.821
 20
-1157782.8125
 10
-597878.8828
 20
-1157781.3117
 10
-597877.5431
 20
-1157779.8588
 10
-597876.8533
 20
-1157778.5095
 10
-597876.84
 20
-1157777.3157
 97
0
 75
0
 76
1
 98
0
  0
HATCH
  5
2000A
100
AcDbEntity
  8
NEL
100
AcDbHatch
 10
0
 20
0
 30
0
210
0
220
0
230
1
  2
SOLID
 70
1
 71
0
 91
1
 92
2
 72
0
 73
1
 93
33
 10
-597830.8894
 20
-1157714.761
 10
-597831.0765
 20
-1157713.6639
 10
-597831.7547
 20
-1157712.5805
 10
-597832.8977
 20
-1157711.5524
 10
-597834.4618
 20
-1157710.619
 10
-597836.3867
 20
-1157709.8164
 10
-597838.5986
 20
-1157709.1752
 10
-597841.0124
 20
-1157708.7202
 10
-597843.5354
 20
-1157708.4689
 10
-597846.0705
 20
-1157708.4308
 10
-597848.5205
 20
-1157708.6075
 10
-597850.791
 20
-1157708.9922
 10
-597852.795
 20
-1157709.5701
 10
-597854.4553
 20
-1157710.3189
 10
-597855.7082
 20
-1157711.21
 10
-597856.5054
 20
-1157712.209
 10
-597856.8165
 20
-1157713.2776
 10
-597856.6293
 20
-1157714.3746
 10
-597855.9512
 20
-1157715.4581
 10
-597854.8082
 20
-1157716.4862
 10
-597853.2441
 20
-1157717.4195
 10
-597851.3192
 20
-1157718.2222
 10
-597849.1073
 20
-1157718.8633
 10
-597846.6935
 20
-1157719.3183
 10
-597844.1705
 20
-1157719.5697
 10
-597841.6353
 20
-1157719.6077
 10
-597839.1854
 20
-1157719.431
 10
-597836.9148
 20
-1157719.0464
 10
-597834.9109
 20
-1157718.4685
 10
-597833.2506
 20
-1157717.7196
 10
-597831.9977
 20
-1157716.8286
 10
-597831.2004
 20
-1157715.8296
 10
-597830.8894
 20
-1157714.761
 97
0
 75
0
 76
1
 98
0
  0
HATCH
  5
2000B
100
AcDbEntity
  8
NEL
100
AcDbHatch
 10
0
 20
0
 30
0
210
0
220
0
230
1
  2
SOLID
 70
1
 71
0
 91
1
 92
2
 72
0
 73
1
 93
33
 10
-597898.581
 20
-1157913.336
 10
-597897.9946
 20
-1157912.3927
 10
-597897.6893
 20
-1157911.2633
 10
-597897.6768
 20
-1157909.991
 10
-597897.9578
 20
-1157908.6248
 10
-597898.5213
 20
-1157907.2172
 10
-597899.3456
 20
-1157905.8223
 10
-597900.3993
 20
-1157904.4936
 10
-597901.6416
 20
-1157903.2824
 10
-597903.0249
 20
-1157902.235
 10
-597904.4961
 20
-1157901.3917
 10
-597905.9985
 20
-1157900.785
 10
-597907.4745
 20
-1157900.4381
 10
-597908.8673
 20
-1157900.3645
 10
-597910.1235
 20
-1157900.5669
 10
-597911.1946
 20
-1157901.0375
 10
-597912.0397
 20
-1157901.7583
 10
-597912.6261
 20
-1157902.7015
 10
-597912.9314
 20
-1157903.831
 10
-597912.9438
 20
-1157905.1033
 10
-597912.6629
 20
-1157906.4695
 10
-597912.0994
 20
-1157907.8771
 10
-597911.275
 20
-1157909.272
 10
-597910.2214
 20
-1157910.6006
 10
-597908.9791
 20
-1157911.8119
 10
-597907.5958
 20
-1157912.8593
 10
-597906.1246
 20
-1157913.7026
 10
-597904.6222
 20
-1157914.3093
 10
-597903.1462
 20
-1157914.6562
 10
-597901.7533
 20
-1157914.7298
 10
-597900.4972
 20
-1157914.5274
 10
-597899.426
 20
-1157914.0568
 10
-597898.581
 20
-1157913.336
 97
0
 75
0
 76
1
 98
0
  0
HATCH
  5
2000C
100
AcDbEntity
  8
NEL
100
AcDbHatch
 10
0
 20
0
 30
0
210
0
220
0
230
1
  2
SOLID
 70
1
 71
0
 91
1
 92
2
 72
0
 73
1
 93
5
 10
-593296.9588
 20
-1161088.5417
 10
-593282.4877
 20
-1161141.1426
 10
-593078.9358
 20
-1161052.9781
 10
-593106.9405
 20
-1160977.2779
 10
-593296.9588
 20
-1161088.5417
 97
0
 75
0
 76
1
 98
0
  0
HATCH
  5
2000D
100
AcDbEntity
  8
NEL
100
AcDbHatch
 10
0
 20
0
 30
0
210
0
220
0
230
1
  2
SOLID
 70
1
 71
0
 91
1
 92
2
 72
0
 73
1
 93
5
 10
-594715.8674
 20
-1158383.2301
 10
-594707.8465
 20
-1158421.7775
 10
-594654.1869
 20
-1158417.8634
 10
-594666.5716
 20
-1158380.2267
 10
-594715.8674
 20
-1158383.2301
 97
0
 75
0
 76
1
 98
0
  0
HATCH
  5
2000E
100
AcDbEntity
  8
NEL
100
AcDbHatch
 10
0
 20
0
 30
0
210
0
220
0
230
1
  2
SOLID
 70
1
 71
0
 91
1
 92
2
 72
0
 73
1
 93
5
 10
-598954.9265
 20
-1163518.9464
 10
-598961.443
 20
-1163537.9613
 10
-598947.3258
 20
-1163542.4409
 10
-598940.4558
 20
-1163523.6629
 10
-598954.9265
 20
-1163518.9464
 97
0
 75
0
 76
1
 98
0
  0
HATCH
  5
2000F
100
AcDbEntity
  8
NEL
100
AcDbHatch
 10
0
 20
0
 30
0
210
0
220
0
230
1
  2
SOLID
 70
1
 71
0
 91
1
 92
2
 72
0
 73
1
 93
6
 10
-598885.2365
 20
-1162943.8906
 10
-598885.5975
 20
-1162961.5897
 10
-598895.6217
 20
-1163031.1598
 10
-598868.7523
 20
-1163031.2215
 10
-598859.3697
 20
-1162949.0274
 10
-598885.2365
 20
-1162943.8906
 97
0
 75
0
 76
1
 98
0
  0
HATCH
  5
20010
100
AcDbEntity
  8
NEL
100
AcDbHatch
 10
0
 20
0
 30
0
210
0
220
0
230
1
  2
SOLID
 70
1
 71
0
 91
1
 92
2
 72
0
 73
1
 93
5
 10
-597158.3917
 20
-1161598.2901
 10
-597176.1518
 20
-1161609.5658
 10
-597148.6424
 20
-1161624.7576
 10
-597134.1896
 20
-1161608.6625
 10
-597158.3917
 20
-1161598.2901
 97
0
 75
0
 76
1
 98
0
  0
HATCH
  5
20011
100
AcDbEntity
  8
NEL
100
AcDbHatch
 10
0
 20
0
 30
0
210
0
220
0
230
1
  2
SOLID
 70
1
 71
0
 91
1
 92
2
 72
0
 73
1
 93
5
 10
-598019.7667
 20
-1161935.2886
 10
-598011.6717
 20
-1161979.1033
 10
-597990.852
 20
-1161974.6342
 10
-598000.7138
 20
-1161928.048
 10
-598019.7667
 20
-1161935.2886
 97
0
 75
0
 76
1
 98
0
  0
HATCH
  5
20012
100
AcDbEntity
  8
NEL
100
AcDbHatch
 10
0
 20
0
 30
0
210
0
220
0
230
1
  2
SOLID
 70
1
 71
0
 91
1
 92
2
 72
0
 73
1
 93
6
 10
-597932.3733
 20
-1161899.3665
 10
-597925.675
 20
-1161915.9782
 10
-597890.7467
 20
-1161986.2099
 10
-597860.7903
 20
-1161972.7039
 10
-597905.3123
 20
-1161884.8982
 10
-597932.3733
 20
-1161899.3665
 97
0
 75
0
 76
1
 98
0
  0
HATCH
  5
20013
100
AcDbEntity
  8
NEL
100
AcDbHatch
 10
0
 20
0
 30
0
210
0
220
0
230
1
  2
SOLID
 70
1
 71
0
 91
1
 92
2
 72
0
 73
1
 93
5
 10
-597173.0072
 20
-1160876.9091
 10
-597169.6858
 20
-1160891.4643
 10
-597132.3694
 20
-1160882.9491
 10
-597135.6907
 20
-1160868.3939
 10
-597173.0072
 20
-1160876.9091
 97
0
 75
0
 76
1
 98
0
  0
HATCH
  5
20014
100
AcDbEntity
  8
NEL
100
AcDbHatch
 10
0
 20
0
 30
0
210
0
220
0
230
1
  2
SOLID
 70
1
 71
0
 91
1
 92
2
 72
0
 73
1
 93
5
 10
-596086.5302
 20
-1160778.532
 10
-596060.57
 20
-1160839.81
 10
-596032.06
 20
-1160827.41
 10
-596058.2011
 20
-1160765.4641
 10
-596086.5302
 20
-1160778.532
 97
0
 75
0
 76
1
 98
0
  0
ENDSEC
  0
SECTION
  2
OBJECTS
  0
DICTIONARY
  5
C
330
0
100
AcDbDictionary
281
     1
  3
ACAD_GROUP
350
D
  3
ACAD_LAYOUT
350
1A
  3
ACAD_MLEADERSTYLE
350
43
  3
ACAD_PLOTSETTINGS
350
19
  3
ACAD_PLOTSTYLENAME
350
E
  3
ACAD_TABLESTYLE
350
42
  0
DICTIONARY
  5
D
102
{ACAD_REACTORS
330
C
102
}
330
C
100
AcDbDictionary
281
     1
  0
DICTIONARY
  5
1A
102
{ACAD_REACTORS
330
C
102
}
330
C
100
AcDbDictionary
281
     1
  3
Layout1
350
1E
  3
Model
350
22
  0
DICTIONARY
  5
43
102
{ACAD_REACTORS
330
C
102
}
330
C
100
AcDbDictionary
281
     1
  0
DICTIONARY
  5
19
102
{ACAD_REACTORS
330
C
102
}
330
C
100
AcDbDictionary
281
     1
  0
ACDBDICTIONARYWDFLT
  5
E
102
{ACAD_REACTORS
330
C
102
}
330
C
100
AcDbDictionary
281
     1
  3
Normal
350
F
100
AcDbDictionaryWithDefault
340
F
  0
DICTIONARY
  5
42
102
{ACAD_REACTORS
330
C
102
}
330
C
100
AcDbDictionary
281
     1
  0
LAYOUT
  5
1E
102
{ACAD_REACTORS
330
1A
102
}
330
1A
100
AcDbPlotSettings
  1

  2
none_device
  4

  6

 40
0.0
 41
0.0
 42
0.0
 43
0.0
 44
0.0
 45
0.0
 46
0.0
 47
0.0
 48
0.0
 49
0.0
140
0.0
141
0.0
142
1.0
143
1.0
 70
   688
 72
     0
 73
     0
 74
     5
  7

 75
    16
 76
     0
 77
     2
 78
   300
147
1.0
148
0.0
149
0.0
100
AcDbLayout
  1
Layout1
 70
     1
 71
     1
 10
0.0
 20
0.0
 11
12.0
 21
9.0
 12
0.0
 22
0.0
 32
0.0
 14
1.000000000000000E+20
 24
1.000000000000000E+20
 34
1.000000000000000E+20
 15
-1.000000000000000E+20
 25
-1.000000000000000E+20
 35
-1.000000000000000E+20
146
0.0
 13
0.0
 23
0.0
 33
0.0
 16
1.0
 26
0.0
 36
0.0
 17
0.0
 27
1.0
 37
0.0
 76
     0
330
1B
  0
LAYOUT
  5
22
102
{ACAD_REACTORS
330
1A
102
}
330
1A
100
AcDbPlotSettings
  1

  2
none_device
  4

  6

 40
0.0
 41
0.0
 42
0.0
 43
0.0
 44
0.0
 45
0.0
 46
0.0
 47
0.0
 48
0.0
 49
0.0
140
0.0
141
0.0
142
1.0
143
1.0
 70
  1712
 72
     0
 73
     0
 74
     0
  7

 75
     0
 76
     0
 77
     2
 78
   300
147
1.0
148
0.0
149
0.0
100
AcDbLayout
  1
Model
 70
     1
 71
     0
 10
0.0
 20
0.0
 11
12.0
 21
9.0
 12
0.0
 22
0.0
 32
0.0
 14
30.0
 24
49.75
 34
0.0
 15
130.5
 25
163.1318914119703
 35
0.0
146
0.0
 13
0.0
 23
0.0
 33
0.0
 16
1.0
 26
0.0
 36
0.0
 17
0.0
 27
1.0
 37
0.0
 76
     0
330
1F
331
29
  0
ENDSEC
  0
EOF
