  0
SECTION
  2
HEADER
  9
$ACADVER
  1
AC1018
  9
$ACADMAINTVER
 70
     0
  9
$DWGCODEPAGE
  3
ANSI_1252
  9
$EXTMIN
 10
16.6012007421235
 20
49.1550479048977
 30
0.0
  9
$EXTMAX
 10
16.6777840992694
 20
49.2231693966358
 30
0.0
  9
$LIMMIN
 10
0.0
 20
0.0
  9
$LIMMAX
 10
12.0
 20
9.0
  9
$ORTHOMODE
 70
     0
  9
$REGENMODE
 70
     1
  9
$FILLMODE
 70
     1
  9
$QTEXTMODE
 70
     0
  9
$MIRRTEXT
 70
     1
  9
$LTSCALE
 40
1.0
  9
$ATTMODE
 70
     1
  9
$TEXTSIZE
 40
0.2
  9
$TRACEWID
 40
0.05
  9
$TEXTSTYLE
  7
Standard
  9
$CLAYER
  8
0
  9
$CELTYPE
  6
ByLayer
  9
$CECOLOR
 62
   256
  9
$CELTSCALE
 40
1.0
  9
$DISPSILH
 70
     0
  9
$LUNITS
 70
     2
  9
$LUPREC
 70
     4
  9
$SKETCHINC
 40
0.1
  9
$FILLETRAD
 40
0.5
  9
$AUNITS
 70
     0
  9
$AUPREC
 70
     0
  9
$MENU
  1
.
  9
$ELEVATION
 40
0.0
  9
$PELEVATION
 40
0.0
  9
$THICKNESS
 40
0.0
  9
$LIMCHECK
 70
     0
  9
$CHAMFERA
 40
0.5
  9
$CHAMFERB
 40
0.5
  9
$CHAMFERC
 40
1.0
  9
$CHAMFERD
 40
0.0
  9
$SKPOLY
 70
     0
  9
$ANGBASE
 50
0.0
  9
$ANGDIR
 70
     0
  9
$PDMODE
 70
     0
  9
$PDSIZE
 40
0.0
  9
$PLINEWID
 40
0.0
  9
$SPLFRAME
 70
     0
  9
$SPLINETYPE
 70
     6
  9
$SPLINESEGS
 70
     8
  9
$HANDSEED
  5
00020016
  9
$SURFTAB1
 70
     6
  9
$SURFTAB2
 70
     6
  9
$SURFTYPE
 70
     6
  9
$SURFU
 70
     6
  9
$SURFV
 70
     6
  9
$UCSBASE
  2

  9
$UCSNAME
  2

  9
$UCSORG
 10
0.0
 20
0.0
 30
0.0
  9
$UCSXDIR
 10
1.0
 20
0.0
 30
0.0
  9
$UCSYDIR
 10
0.0
 20
1.0
 30
0.0
  9
$UCSORTHOREF
  2

  9
$UCSORTHOVIEW
 70
     0
  9
$UCSORGTOP
 10
0.0
 20
0.0
 30
0.0
  9
$UCSORGBOTTOM
 10
0.0
 20
0.0
 30
0.0
  9
$UCSORGLEFT
 10
0.0
 20
0.0
 30
0.0
  9
$UCSORGRIGHT
 10
0.0
 20
0.0
 30
0.0
  9
$UCSORGFRONT
 10
0.0
 20
0.0
 30
0.0
  9
$UCSORGBACK
 10
0.0
 20
0.0
 30
0.0
  9
$PUCSBASE
  2

  9
$PUCSNAME
  2

  9
$PUCSORG
 10
0.0
 20
0.0
 30
0.0
  9
$PUCSXDIR
 10
1.0
 20
0.0
 30
0.0
  9
$PUCSYDIR
 10
0.0
 20
1.0
 30
0.0
  9
$PUCSORTHOREF
  2

  9
$PUCSORTHOVIEW
 70
     0
  9
$PUCSORGTOP
 10
0.0
 20
0.0
 30
0.0
  9
$PUCSORGBOTTOM
 10
0.0
 20
0.0
 30
0.0
  9
$PUCSORGLEFT
 10
0.0
 20
0.0
 30
0.0
  9
$PUCSORGRIGHT
 10
0.0
 20
0.0
 30
0.0
  9
$PUCSORGFRONT
 10
0.0
 20
0.0
 30
0.0
  9
$PUCSORGBACK
 10
0.0
 20
0.0
 30
0.0
  9
$WORLDVIEW
 70
     1
  9
$SHADEDGE
 70
     3
  9
$SHADEDIF
 70
    70
  9
$TILEMODE
 70
     1
  9
$MAXACTVP
 70
    64
  9
$PINSBASE
 10
0.0
 20
0.0
 30
0.0
  9
$PLIMCHECK
 70
     0
  9
$PEXTMIN
 10
1.000000000000000E+20
 20
1.000000000000000E+20
 30
1.000000000000000E+20
  9
$PEXTMAX
 10
-1.000000000000000E+20
 20
-1.000000000000000E+20
 30
-1.000000000000000E+20
  9
$PLIMMIN
 10
0.0
 20
0.0
  9
$PLIMMAX
 10
12.0
 20
9.0
  9
$UNITMODE
 70
     0
  9
$VISRETAIN
 70
     1
  9
$PLINEGEN
 70
     0
  9
$PSLTSCALE
 70
     1
  9
$TREEDEPTH
 70
  3020
  9
$CMLSTYLE
  2
Standard
  9
$CMLJUST
 70
     0
  9
$CMLSCALE
 40
1.0
  9
$PROXYGRAPHICS
 70
     1
  9
$MEASUREMENT
 70
     0
  9
$CELWEIGHT
370
    -1
  9
$ENDCAPS
280
     0
  9
$JOINSTYLE
280
     0
  9
$LWDISPLAY
290
     0
  9
$INSUNITS
 70
     1
  9
$HYPERLINKBASE
  1

  9
$STYLESHEET
  1

  9
$XEDIT
290
     1
  9
$CEPSNTYPE
380
     0
  9
$PSTYLEMODE
290
     1
  9
$EXTNAMES
290
     1
  9
$PSVPSCALE
 40
0.0
  9
$OLESTARTUP
290
     0
  9
$SORTENTS
280
   127
  9
$INDEXCTL
280
     0
  9
$HIDETEXT
280
     1
  9
$XCLIPFRAME
290
     0
  9
$HALOGAP
280
     0
  9
$OBSCOLOR
 70
   257
  9
$OBSLTYPE
280
     0
  9
$INTERSECTIONDISPLAY
280
     0
  9
$INTERSECTIONCOLOR
 70
   257
  9
$DIMASSOC
280
     2
  9
$PROJECTNAME
  1

  0
ENDSEC
  0
SECTION
  2
CLASSES
  0
CLASS
  1
ACDBDICTIONARYWDFLT
  2
AcDbDictionaryWithDefault
  3
ObjectDBX Classes
 90
        0
 91
        4
280
     0
281
     0
  0
ENDSEC
  0
SECTION
  2
TABLES
  0
TABLE
  2
VPORT
  5
8
330
0
100
AcDbSymbolTable
 70
     1
  0
VPORT
  5
29
330
8
100
AcDbSymbolTableRecord
100
AcDbViewportTableRecord
  2
*Active
 70
     0
 10
0.0
 20
0.0
 11
1.0
 21
1.0
 12
80.25
 22
106.4409457059851
 13
0.0
 23
0.0
 14
0.5
 24
0.5
 15
0.5
 25
0.5
 16
0.0
 26
0.0
 36
1.0
 17
0.0
 27
0.0
 37
0.0
 40
113.3818914119703
 41
0.8863849310366128
 42
50.0
 43
0.0
 44
0.0
 50
0.0
 51
0.0
 71
     0
 72
  1000
 73
     1
 74
     3
 75
     0
 76
     0
 77
     0
 78
     0
281
     0
 65
     1
110
0.0
120
0.0
130
0.0
111
1.0
121
0.0
131
0.0
112
0.0
122
1.0
132
0.0
 79
     0
146
0.0
  0
ENDTAB
  0
TABLE
  2
LTYPE
  5
5
330
0
100
AcDbSymbolTable
 70
     1
  0
LTYPE
  5
14
330
5
100
AcDbSymbolTableRecord
100
AcDbLinetypeTableRecord
  2
ByBlock
 70
     0
  3

 72
    65
 73
     0
 40
0.0
  0
LTYPE
  5
15
330
5
100
AcDbSymbolTableRecord
100
AcDbLinetypeTableRecord
  2
ByLayer
 70
     0
  3

 72
    65
 73
     0
 40
0.0
  0
LTYPE
  5
16
330
5
100
AcDbSymbolTableRecord
100
AcDbLinetypeTableRecord
  2
Continuous
 70
     0
  3
Solid line
 72
    65
 73
     0
 40
0.0
  0
ENDTAB
  0
TABLE
  2
LAYER
  5
2
330
0
100
AcDbSymbolTable
 70
     1
  0
LAYER
  5
10
330
2
100
AcDbSymbolTableRecord
100
AcDbLayerTableRecord
  2
0
 70
     0
 62
     7
  6
Continuous
370
    -3
390
F
  0
LAYER
  5
20015
330
2
100
AcDbSymbolTableRecord
100
AcDbLayerTableRecord
  2
NEL
 70
     0
 62
     7
  6
Continuous
370
    -3
390
F
  0
ENDTAB
  0
TABLE
  2
STYLE
  5
3
330
0
100
AcDbSymbolTable
 70
     1
  0
STYLE
  5
11
330
3
100
AcDbSymbolTableRecord
100
AcDbTextStyleTableRecord
  2
Standard
 70
     0
 40
0.0
 41
1.0
 50
0.0
 71
     0
 42
0.2
  3
txt
  4

  0
ENDTAB
  0
TABLE
  2
VIEW
  5
6
330
0
100
AcDbSymbolTable
 70
     0
  0
ENDTAB
  0
TABLE
  2
UCS
  5
7
330
0
100
AcDbSymbolTable
 70
     0
  0
ENDTAB
  0
TABLE
  2
APPID
  5
9
330
0
100
AcDbSymbolTable
 70
     1
  0
APPID
  5
12
330
9
100
AcDbSymbolTableRecord
100
AcDbRegAppTableRecord
  2
ACAD
 70
     0
  0
ENDTAB
  0
TABLE
  2
DIMSTYLE
  5
A
330
0
100
AcDbSymbolTable
 70
     1
100
AcDbDimStyleTable
  0
DIMSTYLE
105
27
330
A
100
AcDbSymbolTableRecord
100
AcDbDimStyleTableRecord
  2
Standard
 70
     0
340
11
  0
ENDTAB
  0
TABLE
  2
BLOCK_RECORD
  5
1
330
0
100
AcDbSymbolTable
 70
     1
  0
BLOCK_RECORD
  5
1F
330
1
100
AcDbSymbolTableRecord
100
AcDbBlockTableRecord
  2
*Model_Space
340
22
  0
BLOCK_RECORD
  5
1B
330
1
100
AcDbSymbolTableRecord
100
AcDbBlockTableRecord
  2
*Paper_Space
340
1E
  0
ENDTAB
  0
ENDSEC
  0
SECTION
  2
BLOCKS
  0
BLOCK
  5
20
330
1F
100
AcDbEntity
  8
0
100
AcDbBlockBegin
  2
*Model_Space
 70
     0
 10
0.0
 20
0.0
 30
0.0
  3
*Model_Space
  1

  0
ENDBLK
  5
21
330
1F
100
AcDbEntity
  8
0
100
AcDbBlockEnd
  0
BLOCK
  5
1C
330
1B
100
AcDbEntity
 67
     1
  8
0
100
AcDbBlockBegin
  2
*Paper_Space
 70
     0
 10
0.0
 20
0.0
 30
0.0
  3
*Paper_Space
  1

  0
ENDBLK
  5
1D
330
1B
100
AcDbEntity
 67
     1
  8
0
100
AcDbBlockEnd
  0
ENDSEC
  0
SECTION
  2
ENTITIES
  0
HATCH
  5
20000
100
AcDbEntity
  8
NEL
100
AcDbHatch
 10
0
 20
0
 30
0
210
0
220
0
230
1
  2
SOLID
 70
1
 71
0
 91
1
 92
2
 72
0
 73
1
 93
5
 10
16.6384633853819
 20
49.1719273967319
 10
16.639321249003
 20
49.1716908159527
 10
16.6395087876858
 20
49.1720138682161
 10
16.6386888007199
 20
49.1722409587283
 10
16.6384633853819
 20
49.1719273967319
 97
0
 75
0
 76
1
 98
0
  0
HATCH
  5
20001
100
AcDbEntity
  8
NEL
100
AcDbHatch
 10
0
 20
0
 30
0
210
0
220
0
230
1
  2
SOLID
 70
1
 71
0
 91
1
 92
2
 72
0
 73
1
 93
5
 10
16.6045019128742
 20
49.1558883025191
 10
16.6047003089328
 20
49.1556830865252
 10
16.6048471573594
 20
49.1553571449309
 10
16.6051203409041
 20
49.155763116987
 10
16.6045019128742
 20
49.1558883025191
 97
0
 75
0
 76
1
 98
0
  0
HATCH
  5
20002
100
AcDbEntity
  8
NEL
100
AcDbHatch
 10
0
 20
0
 30
0
210
0
220
0
230
1
  2
SOLID
 70
1
 71
0
 91
1
 92
2
 72
0
 73
1
 93
5
 10
16.6043834201035
 20
49.1561131073085
 10
16.6043625011822
 20
49.1560399699417
 10
16.6047232015858
 20
49.1560036841935
 10
16.6047434973467
 20
49.1560904714929
 10
16.6043834201035
 20
49.1561131073085
 97
0
 75
0
 76
1
 98
0
  0
HATCH
  5
20003
100
AcDbEntity
  8
NEL
100
AcDbHatch
 10
0
 20
0
 30
0
210
0
220
0
230
1
  2
SOLID
 70
1
 71
0
 91
1
 92
2
 72
0
 73
1
 93
6
 10
16.6035180978622
 20
49.1551293111641
 10
16.6038425999392
 20
49.1550479048977
 10
16.6039375895396
 20
49.1551688159391
 10
16.6040325797504
 20
49.1552897260063
 10
16.6036868794569
 20
49.1553784053167
 10
16.6035180978622
 20
49.1551293111641
 97
0
 75
0
 76
1
 98
0
  0
HATCH
  5
20004
100
AcDbEntity
  8
NEL
100
AcDbHatch
 10
0
 20
0
 30
0
210
0
220
0
230
1
  2
SOLID
 70
1
 71
0
 91
1
 92
2
 72
0
 73
1
 93
5
 10
16.6119897538735
 20
49.1664611527003
 10
16.6120359542822
 20
49.1662865292409
 10
16.6129351177465
 20
49.1660694015918
 10
16.6131618808057
 20
49.1663933821737
 10
16.6119897538735
 20
49.1664611527003
 97
0
 75
0
 76
1
 98
0
  0
HATCH
  5
20005
100
AcDbEntity
  8
NEL
100
AcDbHatch
 10
0
 20
0
 30
0
210
0
220
0
230
1
  2
SOLID
 70
1
 71
0
 91
1
 92
2
 72
0
 73
1
 93
8
 10
16.6052561726918
 20
49.1665097194686
 10
16.6056082178813
 20
49.1663882614387
 10
16.6062874710523
 20
49.1661735284735
 10
16.6064570263241
 20
49.1663109062007
 10
16.606523818276
 20
49.166369934379
 10
16.6059853694727
 20
49.166503134438
 10
16.6053143887912
 20
49.1666476679398
 10
16.6052561726918
 20
49.1665097194686
 97
0
 75
0
 76
1
 98
0
  0
HATCH
  5
20006
100
AcDbEntity
  8
NEL
100
AcDbHatch
 10
0
 20
0
 30
0
210
0
220
0
230
1
  2
SOLID
 70
1
 71
0
 91
1
 92
2
 72
0
 73
1
 93
18
 10
16.6037743338664
 20
49.2231513706783
 10
16.6037292199119
 20
49.2231156185772
 10
16.6036211655509
 20
49.2230645510815
 10
16.6034636978515
 20
49.2230086662223
 10
16.6034116583871
 20
49.222958937166
 10
16.6034047597527
 20
49.2229093774258
 10
16.6034431663327
 20
49.2228320007774
 10
16.6035531124674
 20
49.2227348012581
 10
16.6036990628394
 20
49.2226734473439
 10
16.603867013783
 20
49.2226567351838
 10
16.6040089608122
 20
49.2226621885005
 10
16.6041312398538
 20
49.2226940045227
 10
16.6042124410047
 20
49.2227384963924
 10
16.6044015989806
 20
49.2228771438895
 10
16.604544564501
 20
49.2230339550664
 10
16.6045809218473
 20
49.2231391271821
 10
16.6045411707884
 20
49.2231693966358
 10
16.6037743338664
 20
49.2231513706783
 97
0
 75
0
 76
1
 98
0
  0
HATCH
  5
20007
100
AcDbEntity
  8
NEL
100
AcDbHatch
 10
0
 20
0
 30
0
210
0
220
0
230
1
  2
SOLID
 70
1
 71
0
 91
1
 92
2
 72
0
 73
1
 93
25
 10
16.6036184970409
 20
49.2219604535802
 10
16.6036119612099
 20
49.2219662649941
 10
16.6036022195363
 20
49.2219707349114
 10
16.6035896458827
 20
49.2219736899271
 10
16.6035747256622
 20
49.2219750170014
 10
16.603540203524
 20
49.2219726486797
 10
16.6035039086571
 20
49.2219639905709
 10
16.6034713652401
 20
49.2219503603068
 10
16.6034475277038
 20
49.2219338329249
 10
16.6034400763145
 20
49.22192526303
 10
16.6034360262845
 20
49.2219169260053
 10
16.6034355318527
 20
49.2219091421194
 10
16.6034386111729
 20
49.2219022111438
 10
16.6034451483807
 20
49.2218963998363
 10
16.6034548900539
 20
49.2218919299323
 10
16.6034674623299
 20
49.2218889748345
 10
16.6034823825272
 20
49.2218876477741
 10
16.6035169046035
 20
49.221890016113
 10
16.6035531994184
 20
49.2218986742179
 10
16.603585742824
 20
49.221912304459
 10
16.6036095805438
 20
49.2219288309184
 10
16.6036170318152
 20
49.2219374016964
 10
16.6036210818774
 20
49.2219457387147
 10
16.6036215763387
 20
49.2219535225997
 10
16.6036184970409
 20
49.2219604535802
 97
0
 75
0
 76
1
 98
0
  0
HATCH
  5
20008
100
AcDbEntity
  8
NEL
100
AcDbHatch
 10
0
 20
0
 30
0
210
0
220
0
230
1
  2
SOLID
 70
1
 71
0
 91
1
 92
2
 72
0
 73
1
 93
21
 10
16.6064486164665
 20
49.2219300095462
 10
16.6064409074674
 20
49.2219331430005
 10
16.6064301658259
 20
49.2219340862294
 10
16.6064013428825
 20
49.2219293411254
 10
16.606366533047
 20
49.2219164954928
 10
16.6063310376919
 20
49.221897505891
 10
16.6063002593976
 20
49.2218752631644
 10
16.6062788852195
 20
49.2218531528926
 10
16.6062701692414
 20
49.2218345414663
 10
16.6062710541672
 20
49.2218274667669
 10
16.6062754358862
 20
49.2218222633258
 10
16.6062831463911
 20
49.2218191290851
 10
16.6062938866455
 20
49.2218181857733
 10
16.6063227107312
 20
49.2218229318948
 10
16.6063575192723
 20
49.2218357765502
 10
16.6063930158106
 20
49.2218547671347
 10
16.606423792769
 20
49.22187700974
 10
16.606445167022
 20
49.2218991199848
 10
16.6064538845898
 20
49.2219177306004
 10
16.6064529983236
 20
49.2219248052043
 10
16.6064486164665
 20
49.2219300095462
 97
0
 75
0
 76
1
 98
0
  0
HATCH
  5
20009
100
AcDbEntity
  8
NEL
100
AcDbHatch
 10
0
 20
0
 30
0
210
0
220
0
230
1
  2
SOLID
 70
1
 71
0
 91
1
 92
2
 72
0
 73
1
 93
33
 10
16.6074965565146
 20
49.221989104503
 10
16.6074860342075
 20
49.2219973355013
 10
16.6074669714384
 20
49.2220027953821
 10
16.607440104246
 20
49.2220052748701
 10
16.6074064634592
 20
49.2220046778249
 10
16.6073673419748
 20
49.222001027065
 10
16.6073242422981
 20
49.2219944642717
 10
16.6072788229773
 20
49.2219852398652
 10
16.60723282733
 20
49.2219737097661
 10
16.6071880245286
 20
49.2219603158472
 10
16.607146134344
 20
49.2219455733674
 10
16.6071087685267
 20
49.2219300496345
 10
16.60707736293
 20
49.2219143402025
 10
16.6070531226925
 20
49.2218990496119
 10
16.6070369811817
 20
49.2218847640589
 10
16.6070295573138
 20
49.2218720339004
 10
16.6070311377013
 20
49.2218613479667
 10
16.60704166142
 20
49.2218531171065
 10
16.6070607228135
 20
49.221847657199
 10
16.6070875897917
 20
49.2218451786933
 10
16.6071212304663
 20
49.2218457758314
 10
16.6071603519575
 20
49.2218494257808
 10
16.6072034513386
 20
49.2218559895293
 10
16.6072488706745
 20
49.2218652130716
 10
16.6072948660772
 20
49.2218767440586
 10
16.6073396689794
 20
49.2218901370422
 10
16.6073815591748
 20
49.2219048794519
 10
16.6074189250587
 20
49.2219204030966
 10
16.6074503307676
 20
49.2219361124356
 10
16.6074745709983
 20
49.2219514038369
 10
16.6074907128046
 20
49.2219656884345
 10
16.6074981368051
 20
49.2219784185631
 10
16.6074965565146
 20
49.221989104503
 97
0
 75
0
 76
1
 98
0
  0
HATCH
  5
2000A
100
AcDbEntity
  8
NEL
100
AcDbHatch
 10
0
 20
0
 30
0
210
0
220
0
230
1
  2
SOLID
 70
1
 71
0
 91
1
 92
2
 72
0
 73
1
 93
33
 10
16.6080314396201
 20
49.222592788093
 10
16.6080272667634
 20
49.222602415791
 10
16.6080164108388
 20
49.2226114463038
 10
16.6079992922165
 20
49.2226195331294
 10
16.6079765655236
 20
49.2226263662527
 10
16.6079491071009
 20
49.2226316812078
 10
16.6079179694431
 20
49.2226352757508
 10
16.6078843507272
 20
49.2226370104155
 10
16.6078495420941
 20
49.2226368183488
 10
16.6078148829375
 20
49.2226347084753
 10
16.6077817023569
 20
49.2226307604476
 10
16.6077512788358
 20
49.2226251263127
 10
16.6077247780432
 20
49.2226180224891
 10
16.6077032208128
 20
49.222609722976
 10
16.6076874344102
 20
49.2226005450479
 10
16.6076780273372
 20
49.2225908429471
 10
16.6076753580124
 20
49.2225809884798
 10
16.6076795321531
 20
49.2225713617851
 10
16.6076903869129
 20
49.2225623303132
 10
16.6077075055658
 20
49.2225542435334
 10
16.6077302321152
 20
49.222547411357
 10
16.6077576906622
 20
49.2225420955598
 10
16.6077888281254
 20
49.222538501954
 10
16.6078224467779
 20
49.2225367673171
 10
16.607857255488
 20
49.222536958498
 10
16.6078919157954
 20
49.2225390693495
 10
16.6079250949584
 20
49.2225430172488
 10
16.6079555199615
 20
49.2225486505406
 10
16.6079820193851
 20
49.2225557542147
 10
16.6080035764912
 20
49.2225640545698
 10
16.6080193630884
 20
49.2225732315607
 10
16.6080287715899
 20
49.2225829337304
 10
16.6080314396201
 20
49.222592788093
 97
0
 75
0
 76
1
 98
0
  0
HATCH
  5
2000B
100
AcDbEntity
  8
NEL
100
AcDbHatch
 10
0
 20
0
 30
0
210
0
220
0
230
1
  2
SOLID
 70
1
 71
0
 91
1
 92
2
 72
0
 73
1
 93
33
 10
16.607400549157
 20
49.2207520082569
 10
16.6074071608174
 20
49.220761008625
 10
16.6074096610983
 20
49.2207714010727
 10
16.6074079540582
 20
49.2207827880637
 10
16.6074021024538
 20
49.22079473084
 10
16.6073923339003
 20
49.2208067706622
 10
16.6073790244197
 20
49.2208184448289
 10
16.6073626815445
 20
49.22082930538
 10
16.6073439378629
 20
49.2208389331112
 10
16.6073235113987
 20
49.220846960094
 10
16.6073021863919
 20
49.2208530773597
 10
16.6072807847091
 20
49.2208570491554
 10
16.6072601267761
 20
49.2208587237452
 10
16.6072410077847
 20
49.2208580353422
 10
16.6072241605804
 20
49.2208550114299
 10
16.6072102356315
 20
49.2208497686298
 10
16.6071997646191
 20
49.2208425074088
 10
16.6071931528379
 20
49.2208335079229
 10
16.6071906527469
 20
49.2208231145766
 10
16.6071923612033
 20
49.2208117276856
 10
16.6071982114954
 20
49.2207997848232
 10
16.6072079800946
 20
49.2207877450175
 10
16.6072212909722
 20
49.2207760709671
 10
16.6072376323483
 20
49.2207652112333
 10
16.6072563761703
 20
49.2207555826252
 10
16.6072768026077
 20
49.2207475556542
 10
16.6072981275721
 20
49.2207414383931
 10
16.6073195292037
 20
49.2207374665941
 10
16.607340187084
 20
49.2207357919936
 10
16.6073593073945
 20
49.2207364804768
 10
16.6073761532019
 20
49.2207395042728
 10
16.6073900795023
 20
49.2207447471497
 10
16.607400549157
 20
49.2207520082569
 97
0
 75
0
 76
1
 98
0
  0
HATCH
  5
2000C
100
AcDbEntity
  8
NEL
100
AcDbHatch
 10
0
 20
0
 30
0
210
0
220
0
230
1
  2
SOLID
 70
1
 71
0
 91
1
 92
2
 72
0
 73
1
 93
5
 10
16.6748614496509
 20
49.1967928392033
 10
16.6751358371337
 20
49.1963363907345
 10
16.6777840992694
 20
49.1973198083392
 10
16.6772912950289
 20
49.1979698313589
 10
16.6748614496509
 20
49.1967928392033
 97
0
 75
0
 76
1
 98
0
  0
HATCH
  5
2000D
100
AcDbEntity
  8
NEL
100
AcDbHatch
 10
0
 20
0
 30
0
210
0
220
0
230
1
  2
SOLID
 70
1
 71
0
 91
1
 92
2
 72
0
 73
1
 93
5
 10
16.6515338861149
 20
49.2196191870058
 10
16.6516999463834
 20
49.2192822466013
 10
16.6524266274883
 20
49.2193688309733
 10
16.6522023444027
 20
49.2196934345724
 10
16.6515338861149
 20
49.2196191870058
 97
0
 75
0
 76
1
 98
0
  0
HATCH
  5
2000E
100
AcDbEntity
  8
NEL
100
AcDbHatch
 10
0
 20
0
 30
0
210
0
220
0
230
1
  2
SOLID
 70
1
 71
0
 91
1
 92
2
 72
0
 73
1
 93
5
 10
16.6012615390452
 20
49.1696139326686
 10
16.6012007421235
 20
49.1694376273117
 10
16.6013998357428
 20
49.1694112348714
 10
16.601465802751
 20
49.1695857641093
 10
16.6012615390452
 20
49.1696139326686
 97
0
 75
0
 76
1
 98
0
  0
HATCH
  5
2000F
100
AcDbEntity
  8
NEL
100
AcDbHatch
 10
0
 20
0
 30
0
210
0
220
0
230
1
  2
SOLID
 70
1
 71
0
 91
1
 92
2
 72
0
 73
1
 93
6
 10
16.601363336896
 20
49.1748225902434
 10
16.6013845293691
 20
49.1746640037093
 10
16.6013504886926
 20
49.174032320701
 10
16.6017169717291
 20
49.1740577619622
 10
16.6017236421117
 20
49.1748016880679
 10
16.601363336896
 20
49.1748225902434
 97
0
 75
0
 76
1
 98
0
  0
HATCH
  5
20010
100
AcDbEntity
  8
NEL
100
AcDbHatch
 10
0
 20
0
 30
0
210
0
220
0
230
1
  2
SOLID
 70
1
 71
0
 91
1
 92
2
 72
0
 73
1
 93
5
 10
16.6229315221181
 20
49.1885213364567
 10
16.6227058653755
 20
49.1884033880885
 10
16.6231034669799
 20
49.1882941056526
 10
16.623276917255
 20
49.1884519510518
 10
16.6229315221181
 20
49.1885213364567
 97
0
 75
0
 76
1
 98
0
  0
HATCH
  5
20011
100
AcDbEntity
  8
NEL
100
AcDbHatch
 10
0
 20
0
 30
0
210
0
220
0
230
1
  2
SOLID
 70
1
 71
0
 91
1
 92
2
 72
0
 73
1
 93
5
 10
16.6116789391589
 20
49.1846766973243
 10
16.611853927249
 20
49.1842927915744
 10
16.6121313015608
 20
49.1843528625143
 10
16.6119281327882
 20
49.184759840392
 10
16.6116789391589
 20
49.1846766973243
 97
0
 75
0
 76
1
 98
0
  0
HATCH
  5
20012
100
AcDbEntity
  8
NEL
100
AcDbHatch
 10
0
 20
0
 30
0
210
0
220
0
230
1
  2
SOLID
 70
1
 71
0
 91
1
 92
2
 72
0
 73
1
 93
6
 10
16.6128179734135
 20
49.1850822920926
 10
16.6129338146628
 20
49.1849402451805
 10
16.6135137059712
 20
49.1843460754726
 10
16.6139023829802
 20
49.1844957627323
 10
16.6131657446187
 20
49.1852377882169
 10
16.6128179734135
 20
49.1850822920926
 97
0
 75
0
 76
1
 98
0
  0
HATCH
  5
20013
100
AcDbEntity
  8
NEL
100
AcDbHatch
 10
0
 20
0
 30
0
210
0
220
0
230
1
  2
SOLID
 70
1
 71
0
 91
1
 92
2
 72
0
 73
1
 93
5
 10
16.6216701013009
 20
49.1949568563023
 10
16.6217368440721
 20
49.1948299285016
 10
16.6222333829017
 20
49.1949420687572
 10
16.622166642615
 20
49.1950689969397
 10
16.6216701013009
 20
49.1949568563023
 97
0
 75
0
 76
1
 98
0
  0
HATCH
  5
20014
100
AcDbEntity
  8
NEL
100
AcDbHatch
 10
0
 20
0
 30
0
210
0
220
0
230
1
  2
SOLID
 70
1
 71
0
 91
1
 92
2
 72
0
 73
1
 93
5
 10
16.6363477316568
 20
49.1968839244692
 10
16.6367919719597
 20
49.1963610536794
 10
16.6371627058958
 20
49.1964993805776
 10
16.6367150185586
 20
49.1970280501232
 10
16.6363477316568
 20
49.1968839244692
 97
0
 75
0
 76
1
 98
0
  0
ENDSEC
  0
SECTION
  2
OBJECTS
  0
DICTIONARY
  5
C
330
0
100
AcDbDictionary
281
     1
  3
ACAD_GROUP
350
D
  3
ACAD_LAYOUT
350
1A
  3
ACAD_MLEADERSTYLE
350
43
  3
ACAD_PLOTSETTINGS
350
19
  3
ACAD_PLOTSTYLENAME
350
E
  3
ACAD_TABLESTYLE
350
42
  0
DICTIONARY
  5
D
102
{ACAD_REACTORS
330
C
102
}
330
C
100
AcDbDictionary
281
     1
  0
DICTIONARY
  5
1A
102
{ACAD_REACTORS
330
C
102
}
330
C
100
AcDbDictionary
281
     1
  3
Layout1
350
1E
  3
Model
350
22
  0
DICTIONARY
  5
43
102
{ACAD_REACTORS
330
C
102
}
330
C
100
AcDbDictionary
281
     1
  0
DICTIONARY
  5
19
102
{ACAD_REACTORS
330
C
102
}
330
C
100
AcDbDictionary
281
     1
  0
ACDBDICTIONARYWDFLT
  5
E
102
{ACAD_REACTORS
330
C
102
}
330
C
100
AcDbDictionary
281
     1
  3
Normal
350
F
100
AcDbDictionaryWithDefault
340
F
  0
DICTIONARY
  5
42
102
{ACAD_REACTORS
330
C
102
}
330
C
100
AcDbDictionary
281
     1
  0
LAYOUT
  5
1E
102
{ACAD_REACTORS
330
1A
102
}
330
1A
100
AcDbPlotSettings
  1

  2
none_device
  4

  6

 40
0.0
 41
0.0
 42
0.0
 43
0.0
 44
0.0
 45
0.0
 46
0.0
 47
0.0
 48
0.0
 49
0.0
140
0.0
141
0.0
142
1.0
143
1.0
 70
   688
 72
     0
 73
     0
 74
     5
  7

 75
    16
 76
     0
 77
     2
 78
   300
147
1.0
148
0.0
149
0.0
100
AcDbLayout
  1
Layout1
 70
     1
 71
     1
 10
0.0
 20
0.0
 11
12.0
 21
9.0
 12
0.0
 22
0.0
 32
0.0
 14
1.000000000000000E+20
 24
1.000000000000000E+20
 34
1.000000000000000E+20
 15
-1.000000000000000E+20
 25
-1.000000000000000E+20
 35
-1.000000000000000E+20
146
0.0
 13
0.0
 23
0.0
 33
0.0
 16
1.0
 26
0.0
 36
0.0
 17
0.0
 27
1.0
 37
0.0
 76
     0
330
1B
  0
LAYOUT
  5
22
102
{ACAD_REACTORS
330
1A
102
}
330
1A
100
AcDbPlotSettings
  1

  2
none_device
  4

  6

 40
0.0
 41
0.0
 42
0.0
 43
0.0
 44
0.0
 45
0.0
 46
0.0
 47
0.0
 48
0.0
 49
0.0
140
0.0
141
0.0
142
1.0
143
1.0
 70
  1712
 72
     0
 73
     0
 74
     0
  7

 75
     0
 76
     0
 77
     2
 78
   300
147
1.0
148
0.0
149
0.0
100
AcDbLayout
  1
Model
 70
     1
 71
     0
 10
0.0
 20
0.0
 11
12.0
 21
9.0
 12
0.0
 22
0.0
 32
0.0
 14
30.0
 24
49.75
 34
0.0
 15
130.5
 25
163.1318914119703
 35
0.0
146
0.0
 13
0.0
 23
0.0
 33
0.0
 16
1.0
 26
0.0
 36
0.0
 17
0.0
 27
1.0
 37
0.0
 76
     0
330
1F
331
29
  0
ENDSEC
  0
EOF
