  0
SECTION
  2
HEADER
  9
$ACADVER
  1
AC1018
  9
$ACADMAINTVER
 70
     0
  9
$DWGCODEPAGE
  3
ANSI_1252
  9
$EXTMIN
 10
16.4475792587095
 20
49.1276746612757
 30
0.0
  9
$EXTMAX
 10
16.7026734806437
 20
49.2640113773297
 30
0.0
  9
$LIMMIN
 10
0.0
 20
0.0
  9
$LIMMAX
 10
12.0
 20
9.0
  9
$ORTHOMODE
 70
     0
  9
$REGENMODE
 70
     1
  9
$FILLMODE
 70
     1
  9
$QTEXTMODE
 70
     0
  9
$MIRRTEXT
 70
     1
  9
$LTSCALE
 40
1.0
  9
$ATTMODE
 70
     1
  9
$TEXTSIZE
 40
0.2
  9
$TRACEWID
 40
0.05
  9
$TEXTSTYLE
  7
Standard
  9
$CLAYER
  8
0
  9
$CELTYPE
  6
ByLayer
  9
$CECOLOR
 62
   256
  9
$CELTSCALE
 40
1.0
  9
$DISPSILH
 70
     0
  9
$LUNITS
 70
     2
  9
$LUPREC
 70
     4
  9
$SKETCHINC
 40
0.1
  9
$FILLETRAD
 40
0.5
  9
$AUNITS
 70
     0
  9
$AUPREC
 70
     0
  9
$MENU
  1
.
  9
$ELEVATION
 40
0.0
  9
$PELEVATION
 40
0.0
  9
$THICKNESS
 40
0.0
  9
$LIMCHECK
 70
     0
  9
$CHAMFERA
 40
0.5
  9
$CHAMFERB
 40
0.5
  9
$CHAMFERC
 40
1.0
  9
$CHAMFERD
 40
0.0
  9
$SKPOLY
 70
     0
  9
$ANGBASE
 50
0.0
  9
$ANGDIR
 70
     0
  9
$PDMODE
 70
     0
  9
$PDSIZE
 40
0.0
  9
$PLINEWID
 40
0.0
  9
$SPLFRAME
 70
     0
  9
$SPLINETYPE
 70
     6
  9
$SPLINESEGS
 70
     8
  9
$HANDSEED
  5
0002000B
  9
$SURFTAB1
 70
     6
  9
$SURFTAB2
 70
     6
  9
$SURFTYPE
 70
     6
  9
$SURFU
 70
     6
  9
$SURFV
 70
     6
  9
$UCSBASE
  2

  9
$UCSNAME
  2

  9
$UCSORG
 10
0.0
 20
0.0
 30
0.0
  9
$UCSXDIR
 10
1.0
 20
0.0
 30
0.0
  9
$UCSYDIR
 10
0.0
 20
1.0
 30
0.0
  9
$UCSORTHOREF
  2

  9
$UCSORTHOVIEW
 70
     0
  9
$UCSORGTOP
 10
0.0
 20
0.0
 30
0.0
  9
$UCSORGBOTTOM
 10
0.0
 20
0.0
 30
0.0
  9
$UCSORGLEFT
 10
0.0
 20
0.0
 30
0.0
  9
$UCSORGRIGHT
 10
0.0
 20
0.0
 30
0.0
  9
$UCSORGFRONT
 10
0.0
 20
0.0
 30
0.0
  9
$UCSORGBACK
 10
0.0
 20
0.0
 30
0.0
  9
$PUCSBASE
  2

  9
$PUCSNAME
  2

  9
$PUCSORG
 10
0.0
 20
0.0
 30
0.0
  9
$PUCSXDIR
 10
1.0
 20
0.0
 30
0.0
  9
$PUCSYDIR
 10
0.0
 20
1.0
 30
0.0
  9
$PUCSORTHOREF
  2

  9
$PUCSORTHOVIEW
 70
     0
  9
$PUCSORGTOP
 10
0.0
 20
0.0
 30
0.0
  9
$PUCSORGBOTTOM
 10
0.0
 20
0.0
 30
0.0
  9
$PUCSORGLEFT
 10
0.0
 20
0.0
 30
0.0
  9
$PUCSORGRIGHT
 10
0.0
 20
0.0
 30
0.0
  9
$PUCSORGFRONT
 10
0.0
 20
0.0
 30
0.0
  9
$PUCSORGBACK
 10
0.0
 20
0.0
 30
0.0
  9
$WORLDVIEW
 70
     1
  9
$SHADEDGE
 70
     3
  9
$SHADEDIF
 70
    70
  9
$TILEMODE
 70
     1
  9
$MAXACTVP
 70
    64
  9
$PINSBASE
 10
0.0
 20
0.0
 30
0.0
  9
$PLIMCHECK
 70
     0
  9
$PEXTMIN
 10
1.000000000000000E+20
 20
1.000000000000000E+20
 30
1.000000000000000E+20
  9
$PEXTMAX
 10
-1.000000000000000E+20
 20
-1.000000000000000E+20
 30
-1.000000000000000E+20
  9
$PLIMMIN
 10
0.0
 20
0.0
  9
$PLIMMAX
 10
12.0
 20
9.0
  9
$UNITMODE
 70
     0
  9
$VISRETAIN
 70
     1
  9
$PLINEGEN
 70
     0
  9
$PSLTSCALE
 70
     1
  9
$TREEDEPTH
 70
  3020
  9
$CMLSTYLE
  2
Standard
  9
$CMLJUST
 70
     0
  9
$CMLSCALE
 40
1.0
  9
$PROXYGRAPHICS
 70
     1
  9
$MEASUREMENT
 70
     0
  9
$CELWEIGHT
370
    -1
  9
$ENDCAPS
280
     0
  9
$JOINSTYLE
280
     0
  9
$LWDISPLAY
290
     0
  9
$INSUNITS
 70
     1
  9
$HYPERLINKBASE
  1

  9
$STYLESHEET
  1

  9
$XEDIT
290
     1
  9
$CEPSNTYPE
380
     0
  9
$PSTYLEMODE
290
     1
  9
$EXTNAMES
290
     1
  9
$PSVPSCALE
 40
0.0
  9
$OLESTARTUP
290
     0
  9
$SORTENTS
280
   127
  9
$INDEXCTL
280
     0
  9
$HIDETEXT
280
     1
  9
$XCLIPFRAME
290
     0
  9
$HALOGAP
280
     0
  9
$OBSCOLOR
 70
   257
  9
$OBSLTYPE
280
     0
  9
$INTERSECTIONDISPLAY
280
     0
  9
$INTERSECTIONCOLOR
 70
   257
  9
$DIMASSOC
280
     2
  9
$PROJECTNAME
  1

  0
ENDSEC
  0
SECTION
  2
CLASSES
  0
CLASS
  1
ACDBDICTIONARYWDFLT
  2
AcDbDictionaryWithDefault
  3
ObjectDBX Classes
 90
        0
 91
        4
280
     0
281
     0
  0
ENDSEC
  0
SECTION
  2
TABLES
  0
TABLE
  2
VPORT
  5
8
330
0
100
AcDbSymbolTable
 70
     1
  0
VPORT
  5
29
330
8
100
AcDbSymbolTableRecord
100
AcDbViewportTableRecord
  2
*Active
 70
     0
 10
0.0
 20
0.0
 11
1.0
 21
1.0
 12
80.25
 22
106.4409457059851
 13
0.0
 23
0.0
 14
0.5
 24
0.5
 15
0.5
 25
0.5
 16
0.0
 26
0.0
 36
1.0
 17
0.0
 27
0.0
 37
0.0
 40
113.3818914119703
 41
0.8863849310366128
 42
50.0
 43
0.0
 44
0.0
 50
0.0
 51
0.0
 71
     0
 72
  1000
 73
     1
 74
     3
 75
     0
 76
     0
 77
     0
 78
     0
281
     0
 65
     1
110
0.0
120
0.0
130
0.0
111
1.0
121
0.0
131
0.0
112
0.0
122
1.0
132
0.0
 79
     0
146
0.0
  0
ENDTAB
  0
TABLE
  2
LTYPE
  5
5
330
0
100
AcDbSymbolTable
 70
     1
  0
LTYPE
  5
14
330
5
100
AcDbSymbolTableRecord
100
AcDbLinetypeTableRecord
  2
ByBlock
 70
     0
  3

 72
    65
 73
     0
 40
0.0
  0
LTYPE
  5
15
330
5
100
AcDbSymbolTableRecord
100
AcDbLinetypeTableRecord
  2
ByLayer
 70
     0
  3

 72
    65
 73
     0
 40
0.0
  0
LTYPE
  5
16
330
5
100
AcDbSymbolTableRecord
100
AcDbLinetypeTableRecord
  2
Continuous
 70
     0
  3
Solid line
 72
    65
 73
     0
 40
0.0
  0
ENDTAB
  0
TABLE
  2
LAYER
  5
2
330
0
100
AcDbSymbolTable
 70
     1
  0
LAYER
  5
10
330
2
100
AcDbSymbolTableRecord
100
AcDbLayerTableRecord
  2
0
 70
     0
 62
     7
  6
Continuous
370
    -3
390
F
  0
LAYER
  5
2000A
330
2
100
AcDbSymbolTableRecord
100
AcDbLayerTableRecord
  2
ložiska
 70
     0
 62
     7
  6
Continuous
370
    -3
390
F
  0
ENDTAB
  0
TABLE
  2
STYLE
  5
3
330
0
100
AcDbSymbolTable
 70
     1
  0
STYLE
  5
11
330
3
100
AcDbSymbolTableRecord
100
AcDbTextStyleTableRecord
  2
Standard
 70
     0
 40
0.0
 41
1.0
 50
0.0
 71
     0
 42
0.2
  3
txt
  4

  0
ENDTAB
  0
TABLE
  2
VIEW
  5
6
330
0
100
AcDbSymbolTable
 70
     0
  0
ENDTAB
  0
TABLE
  2
UCS
  5
7
330
0
100
AcDbSymbolTable
 70
     0
  0
ENDTAB
  0
TABLE
  2
APPID
  5
9
330
0
100
AcDbSymbolTable
 70
     1
  0
APPID
  5
12
330
9
100
AcDbSymbolTableRecord
100
AcDbRegAppTableRecord
  2
ACAD
 70
     0
  0
ENDTAB
  0
TABLE
  2
DIMSTYLE
  5
A
330
0
100
AcDbSymbolTable
 70
     1
100
AcDbDimStyleTable
  0
DIMSTYLE
105
27
330
A
100
AcDbSymbolTableRecord
100
AcDbDimStyleTableRecord
  2
Standard
 70
     0
340
11
  0
ENDTAB
  0
TABLE
  2
BLOCK_RECORD
  5
1
330
0
100
AcDbSymbolTable
 70
     1
  0
BLOCK_RECORD
  5
1F
330
1
100
AcDbSymbolTableRecord
100
AcDbBlockTableRecord
  2
*Model_Space
340
22
  0
BLOCK_RECORD
  5
1B
330
1
100
AcDbSymbolTableRecord
100
AcDbBlockTableRecord
  2
*Paper_Space
340
1E
  0
ENDTAB
  0
ENDSEC
  0
SECTION
  2
BLOCKS
  0
BLOCK
  5
20
330
1F
100
AcDbEntity
  8
0
100
AcDbBlockBegin
  2
*Model_Space
 70
     0
 10
0.0
 20
0.0
 30
0.0
  3
*Model_Space
  1

  0
ENDBLK
  5
21
330
1F
100
AcDbEntity
  8
0
100
AcDbBlockEnd
  0
BLOCK
  5
1C
330
1B
100
AcDbEntity
 67
     1
  8
0
100
AcDbBlockBegin
  2
*Paper_Space
 70
     0
 10
0.0
 20
0.0
 30
0.0
  3
*Paper_Space
  1

  0
ENDBLK
  5
1D
330
1B
100
AcDbEntity
 67
     1
  8
0
100
AcDbBlockEnd
  0
ENDSEC
  0
SECTION
  2
ENTITIES
  0
HATCH
  5
20000
100
AcDbEntity
  8
ložiska
100
AcDbHatch
 10
0
 20
0
 30
0
210
0
220
0
230
1
  2
SOLID
 70
1
 71
0
 91
1
 92
2
 72
0
 73
1
 93
8
 10
16.4475792587095
 20
49.2405014799754
 10
16.448657879101
 20
49.2392769382413
 10
16.4511296742207
 20
49.2389987241128
 10
16.4530604966247
 20
49.2386462828958
 10
16.4536538889565
 20
49.2400716177976
 10
16.4516522979161
 20
49.240273393147
 10
16.4494941950302
 20
49.2406431193199
 10
16.4475792587095
 20
49.2405014799754
 97
0
 75
0
 76
1
 98
0
  0
HATCH
  5
20001
100
AcDbEntity
  8
ložiska
100
AcDbHatch
 10
0
 20
0
 30
0
210
0
220
0
230
1
  2
SOLID
 70
1
 71
0
 91
1
 92
2
 72
0
 73
1
 93
20
 10
16.6484501937454
 20
49.1769302687442
 10
16.6511915942605
 20
49.1773348544288
 10
16.6517573260533
 20
49.1774140457253
 10
16.6519428447166
 20
49.1771370870976
 10
16.6516993319103
 20
49.176868554207
 10
16.6519411417718
 20
49.176652967405
 10
16.6527921313467
 20
49.1767170399807
 10
16.6559427106268
 20
49.1770703452486
 10
16.655779443776
 20
49.1777289436171
 10
16.6552009902129
 20
49.1793041120223
 10
16.653291821417
 20
49.1801592732872
 10
16.6479541500719
 20
49.1824825774861
 10
16.6477948102446
 20
49.1822852317658
 10
16.647709593439
 20
49.1795085909893
 10
16.6472343726281
 20
49.178935912077
 10
16.6474491624683
 20
49.1781896096402
 10
16.6476146164794
 20
49.1776714903094
 10
16.6480516923976
 20
49.177285168034
 10
16.6483236730569
 20
49.1770522536041
 10
16.6484501937454
 20
49.1769302687442
 97
0
 75
0
 76
1
 98
0
  0
HATCH
  5
20002
100
AcDbEntity
  8
ložiska
100
AcDbHatch
 10
0
 20
0
 30
0
210
0
220
0
230
1
  2
SOLID
 70
1
 71
0
 91
1
 92
2
 72
0
 73
1
 93
11
 10
16.6499184206212
 20
49.1748297520854
 10
16.652431972895
 20
49.1715512242555
 10
16.6527535618591
 20
49.1703654277964
 10
16.6548638615174
 20
49.1702862626027
 10
16.6570176549936
 20
49.1706949029004
 10
16.6569722418017
 20
49.1712387145938
 10
16.6568791186551
 20
49.1722715716154
 10
16.6567232650468
 20
49.1732122926597
 10
16.6563406622441
 20
49.1757468778746
 10
16.6562146171433
 20
49.1765242252056
 10
16.6499184206212
 20
49.1748297520854
 97
0
 75
0
 76
1
 98
0
  0
HATCH
  5
20003
100
AcDbEntity
  8
ložiska
100
AcDbHatch
 10
0
 20
0
 30
0
210
0
220
0
230
1
  2
SOLID
 70
1
 71
0
 91
1
 92
2
 72
0
 73
1
 93
17
 10
16.6490490331039
 20
49.1758994539489
 10
16.6488734928032
 20
49.1760880270866
 10
16.6483673819485
 20
49.1767997409449
 10
16.6484241029713
 20
49.1768159043828
 10
16.647315118368
 20
49.1765033590767
 10
16.6463308290063
 20
49.17616581507
 10
16.6463603235652
 20
49.1760265454595
 10
16.6464572887466
 20
49.1759020823093
 10
16.6469841442317
 20
49.1752258045715
 10
16.6472429055266
 20
49.175085010371
 10
16.6478343148606
 20
49.1744747437912
 10
16.6478443879948
 20
49.1741977168321
 10
16.6480987203139
 20
49.1742311937774
 10
16.6490144218833
 20
49.1745380799497
 10
16.64966403165
 20
49.1747448838673
 10
16.6499184206212
 20
49.1748297520854
 10
16.6490490331039
 20
49.1758994539489
 97
0
 75
0
 76
1
 98
0
  0
HATCH
  5
20004
100
AcDbEntity
  8
ložiska
100
AcDbHatch
 10
0
 20
0
 30
0
210
0
220
0
230
1
  2
SOLID
 70
1
 71
0
 91
1
 92
2
 72
0
 73
1
 93
9
 10
16.55183765476
 20
49.2617756803899
 10
16.5503126682651
 20
49.2592796824192
 10
16.5543262295165
 20
49.2582450098818
 10
16.5580267498663
 20
49.259092683718
 10
16.5610644877382
 20
49.2615946408288
 10
16.5608716541005
 20
49.2633484190221
 10
16.5571067222753
 20
49.2640113773297
 10
16.5564411491819
 20
49.2637289951509
 10
16.55183765476
 20
49.2617756803899
 97
0
 75
0
 76
1
 98
0
  0
HATCH
  5
20005
100
AcDbEntity
  8
ložiska
100
AcDbHatch
 10
0
 20
0
 30
0
210
0
220
0
230
1
  2
SOLID
 70
1
 71
0
 91
1
 92
2
 72
0
 73
1
 93
32
 10
16.6867551955116
 20
49.2234601824787
 10
16.6884088249279
 20
49.2229511051929
 10
16.6909424311988
 20
49.2221710573039
 10
16.6951294489937
 20
49.2208817800039
 10
16.6964804889475
 20
49.2207615514786
 10
16.6980687893013
 20
49.2211958747868
 10
16.6986295287954
 20
49.2223138436862
 10
16.6979691246401
 20
49.2228916196253
 10
16.7010824791954
 20
49.2239506661504
 10
16.7014841039361
 20
49.2248626820577
 10
16.7002667148765
 20
49.2251722839596
 10
16.6992870111611
 20
49.2254518404023
 10
16.6981086902278
 20
49.2257903674175
 10
16.6980342700666
 20
49.2256307672312
 10
16.6968711367575
 20
49.2257268273424
 10
16.6971762859635
 20
49.2260975718431
 10
16.6965652527621
 20
49.2260859018774
 10
16.6966231910269
 20
49.2268078408296
 10
16.6969479697075
 20
49.226754050095
 10
16.6975293473144
 20
49.2270704819356
 10
16.6972898120613
 20
49.2273316100887
 10
16.6967789507211
 20
49.2272115899039
 10
16.6951306588937
 20
49.2267513039779
 10
16.6917252540379
 20
49.2259158190704
 10
16.6907407773963
 20
49.2254307610985
 10
16.6904481613143
 20
49.2251118492609
 10
16.6898647397448
 20
49.224795116953
 10
16.6888040198012
 20
49.2245263158754
 10
16.6882511102417
 20
49.224360937712
 10
16.6880136507299
 20
49.224208630337
 10
16.6874987446703
 20
49.2238107708236
 10
16.6867551955116
 20
49.2234601824787
 97
0
 75
0
 76
1
 98
0
  0
HATCH
  5
20006
100
AcDbEntity
  8
ložiska
100
AcDbHatch
 10
0
 20
0
 30
0
210
0
220
0
230
1
  2
SOLID
 70
1
 71
0
 91
1
 92
2
 72
0
 73
1
 93
19
 10
16.6973129370987
 20
49.2273371183005
 10
16.6972897731424
 20
49.2273309941946
 10
16.6975257019308
 20
49.2270724776632
 10
16.696948611543
 20
49.2267540263107
 10
16.696625532698
 20
49.2268088911181
 10
16.696563489379
 20
49.2260853017698
 10
16.6971761462968
 20
49.2260977845394
 10
16.6968728255125
 20
49.2257254063576
 10
16.6980353198335
 20
49.2256324315402
 10
16.6981076894672
 20
49.225791388926
 10
16.7002601691094
 20
49.2251715526057
 10
16.7014841039361
 20
49.2248626820577
 10
16.7026734806437
 20
49.227570987051
 10
16.7010998341149
 20
49.2289716883496
 10
16.6998673527432
 20
49.2286045300967
 10
16.6985588912378
 20
49.2279069937284
 10
16.6971788535821
 20
49.2273943470867
 10
16.6973775953541
 20
49.2273554351771
 10
16.6973129370987
 20
49.2273371183005
 97
0
 75
0
 76
1
 98
0
  0
HATCH
  5
20007
100
AcDbEntity
  8
ložiska
100
AcDbHatch
 10
0
 20
0
 30
0
210
0
220
0
230
1
  2
SOLID
 70
1
 71
0
 91
1
 92
2
 72
0
 73
1
 93
22
 10
16.6668378045767
 20
49.2197644417791
 10
16.6674291543566
 20
49.2192109947478
 10
16.6687926984835
 20
49.218050042839
 10
16.6701561787035
 20
49.216889074598
 10
16.6710788856604
 20
49.216663780861
 10
16.6714228127026
 20
49.2172682231571
 10
16.671286449903
 20
49.2177145712843
 10
16.671906275119
 20
49.2181331920348
 10
16.6732602471262
 20
49.2178325259391
 10
16.6738446217776
 20
49.2175096646317
 10
16.6760724326977
 20
49.2173948169159
 10
16.6761659880939
 20
49.2178355024748
 10
16.6754990221256
 20
49.2186207174997
 10
16.6748267194396
 20
49.2190166595036
 10
16.6741494831115
 20
49.2193802908476
 10
16.6737862980414
 20
49.2197213722541
 10
16.6727627604103
 20
49.2206825844237
 10
16.6707310468071
 20
49.2209282235057
 10
16.6686970939732
 20
49.2202772315228
 10
16.6670095908898
 20
49.2206469350704
 10
16.6667572347664
 20
49.2202561579338
 10
16.6668378045767
 20
49.2197644417791
 97
0
 75
0
 76
1
 98
0
  0
HATCH
  5
20008
100
AcDbEntity
  8
ložiska
100
AcDbHatch
 10
0
 20
0
 30
0
210
0
220
0
230
1
  2
SOLID
 70
1
 71
0
 91
1
 92
2
 72
0
 73
1
 93
16
 10
16.5967004740255
 20
49.1364793441664
 10
16.5954267201174
 20
49.1366528778522
 10
16.590966890976
 20
49.1366543122967
 10
16.587403990096
 20
49.1371426886107
 10
16.5857720402191
 20
49.1328024371072
 10
16.5864384855531
 20
49.1326957760959
 10
16.5884987002108
 20
49.1325710996675
 10
16.59055890577
 20
49.132446387393
 10
16.5913157445293
 20
49.1321202935599
 10
16.5906064683485
 20
49.1308668439559
 10
16.5949440680741
 20
49.1276746612757
 10
16.5966425695846
 20
49.1292425900242
 10
16.5966212485289
 20
49.1306249924164
 10
16.5970967278944
 20
49.1323567578084
 10
16.5967198067921
 20
49.1352492105438
 10
16.5967004740255
 20
49.1364793441664
 97
0
 75
0
 76
1
 98
0
  0
HATCH
  5
20009
100
AcDbEntity
  8
ložiska
100
AcDbHatch
 10
0
 20
0
 30
0
210
0
220
0
230
1
  2
SOLID
 70
1
 71
0
 91
1
 92
2
 72
0
 73
1
 93
9
 10
16.6640822543157
 20
49.2032634848444
 10
16.6652615159845
 20
49.2030755255532
 10
16.6667890299491
 20
49.2028505896031
 10
16.667214753117
 20
49.2036221546967
 10
16.6679246519898
 20
49.2042599486771
 10
16.6674330911802
 20
49.2045012304602
 10
16.6659583800345
 20
49.2052250631881
 10
16.6645478740853
 20
49.2039772302903
 10
16.6640822543157
 20
49.2032634848444
 97
0
 75
0
 76
1
 98
0
  0
ENDSEC
  0
SECTION
  2
OBJECTS
  0
DICTIONARY
  5
C
330
0
100
AcDbDictionary
281
     1
  3
ACAD_GROUP
350
D
  3
ACAD_LAYOUT
350
1A
  3
ACAD_MLEADERSTYLE
350
43
  3
ACAD_PLOTSETTINGS
350
19
  3
ACAD_PLOTSTYLENAME
350
E
  3
ACAD_TABLESTYLE
350
42
  0
DICTIONARY
  5
D
102
{ACAD_REACTORS
330
C
102
}
330
C
100
AcDbDictionary
281
     1
  0
DICTIONARY
  5
1A
102
{ACAD_REACTORS
330
C
102
}
330
C
100
AcDbDictionary
281
     1
  3
Layout1
350
1E
  3
Model
350
22
  0
DICTIONARY
  5
43
102
{ACAD_REACTORS
330
C
102
}
330
C
100
AcDbDictionary
281
     1
  0
DICTIONARY
  5
19
102
{ACAD_REACTORS
330
C
102
}
330
C
100
AcDbDictionary
281
     1
  0
ACDBDICTIONARYWDFLT
  5
E
102
{ACAD_REACTORS
330
C
102
}
330
C
100
AcDbDictionary
281
     1
  3
Normal
350
F
100
AcDbDictionaryWithDefault
340
F
  0
DICTIONARY
  5
42
102
{ACAD_REACTORS
330
C
102
}
330
C
100
AcDbDictionary
281
     1
  0
LAYOUT
  5
1E
102
{ACAD_REACTORS
330
1A
102
}
330
1A
100
AcDbPlotSettings
  1

  2
none_device
  4

  6

 40
0.0
 41
0.0
 42
0.0
 43
0.0
 44
0.0
 45
0.0
 46
0.0
 47
0.0
 48
0.0
 49
0.0
140
0.0
141
0.0
142
1.0
143
1.0
 70
   688
 72
     0
 73
     0
 74
     5
  7

 75
    16
 76
     0
 77
     2
 78
   300
147
1.0
148
0.0
149
0.0
100
AcDbLayout
  1
Layout1
 70
     1
 71
     1
 10
0.0
 20
0.0
 11
12.0
 21
9.0
 12
0.0
 22
0.0
 32
0.0
 14
1.000000000000000E+20
 24
1.000000000000000E+20
 34
1.000000000000000E+20
 15
-1.000000000000000E+20
 25
-1.000000000000000E+20
 35
-1.000000000000000E+20
146
0.0
 13
0.0
 23
0.0
 33
0.0
 16
1.0
 26
0.0
 36
0.0
 17
0.0
 27
1.0
 37
0.0
 76
     0
330
1B
  0
LAYOUT
  5
22
102
{ACAD_REACTORS
330
1A
102
}
330
1A
100
AcDbPlotSettings
  1

  2
none_device
  4

  6

 40
0.0
 41
0.0
 42
0.0
 43
0.0
 44
0.0
 45
0.0
 46
0.0
 47
0.0
 48
0.0
 49
0.0
140
0.0
141
0.0
142
1.0
143
1.0
 70
  1712
 72
     0
 73
     0
 74
     0
  7

 75
     0
 76
     0
 77
     2
 78
   300
147
1.0
148
0.0
149
0.0
100
AcDbLayout
  1
Model
 70
     1
 71
     0
 10
0.0
 20
0.0
 11
12.0
 21
9.0
 12
0.0
 22
0.0
 32
0.0
 14
30.0
 24
49.75
 34
0.0
 15
130.5
 25
163.1318914119703
 35
0.0
146
0.0
 13
0.0
 23
0.0
 33
0.0
 16
1.0
 26
0.0
 36
0.0
 17
0.0
 27
1.0
 37
0.0
 76
     0
330
1F
331
29
  0
ENDSEC
  0
EOF
