  0
SECTION
  2
HEADER
  9
$ACADVER
  1
AC1018
  9
$ACADMAINTVER
 70
     0
  9
$DWGCODEPAGE
  3
ANSI_1252
  9
$EXTMIN
 10
-608628.6085
 20
-1170513.481
 30
0.0
  9
$EXTMAX
 10
-590321.243
 20
-1151218.2266
 30
0.0
  9
$LIMMIN
 10
0.0
 20
0.0
  9
$LIMMAX
 10
12.0
 20
9.0
  9
$ORTHOMODE
 70
     0
  9
$REGENMODE
 70
     1
  9
$FILLMODE
 70
     1
  9
$QTEXTMODE
 70
     0
  9
$MIRRTEXT
 70
     1
  9
$LTSCALE
 40
1.0
  9
$ATTMODE
 70
     1
  9
$TEXTSIZE
 40
0.2
  9
$TRACEWID
 40
0.05
  9
$TEXTSTYLE
  7
Standard
  9
$CLAYER
  8
0
  9
$CELTYPE
  6
ByLayer
  9
$CECOLOR
 62
   256
  9
$CELTSCALE
 40
1.0
  9
$DISPSILH
 70
     0
  9
$LUNITS
 70
     2
  9
$LUPREC
 70
     4
  9
$SKETCHINC
 40
0.1
  9
$FILLETRAD
 40
0.5
  9
$AUNITS
 70
     0
  9
$AUPREC
 70
     0
  9
$MENU
  1
.
  9
$ELEVATION
 40
0.0
  9
$PELEVATION
 40
0.0
  9
$THICKNESS
 40
0.0
  9
$LIMCHECK
 70
     0
  9
$CHAMFERA
 40
0.5
  9
$CHAMFERB
 40
0.5
  9
$CHAMFERC
 40
1.0
  9
$CHAMFERD
 40
0.0
  9
$SKPOLY
 70
     0
  9
$ANGBASE
 50
0.0
  9
$ANGDIR
 70
     0
  9
$PDMODE
 70
     0
  9
$PDSIZE
 40
0.0
  9
$PLINEWID
 40
0.0
  9
$SPLFRAME
 70
     0
  9
$SPLINETYPE
 70
     6
  9
$SPLINESEGS
 70
     8
  9
$HANDSEED
  5
0002024D
  9
$SURFTAB1
 70
     6
  9
$SURFTAB2
 70
     6
  9
$SURFTYPE
 70
     6
  9
$SURFU
 70
     6
  9
$SURFV
 70
     6
  9
$UCSBASE
  2

  9
$UCSNAME
  2

  9
$UCSORG
 10
0.0
 20
0.0
 30
0.0
  9
$UCSXDIR
 10
1.0
 20
0.0
 30
0.0
  9
$UCSYDIR
 10
0.0
 20
1.0
 30
0.0
  9
$UCSORTHOREF
  2

  9
$UCSORTHOVIEW
 70
     0
  9
$UCSORGTOP
 10
0.0
 20
0.0
 30
0.0
  9
$UCSORGBOTTOM
 10
0.0
 20
0.0
 30
0.0
  9
$UCSORGLEFT
 10
0.0
 20
0.0
 30
0.0
  9
$UCSORGRIGHT
 10
0.0
 20
0.0
 30
0.0
  9
$UCSORGFRONT
 10
0.0
 20
0.0
 30
0.0
  9
$UCSORGBACK
 10
0.0
 20
0.0
 30
0.0
  9
$PUCSBASE
  2

  9
$PUCSNAME
  2

  9
$PUCSORG
 10
0.0
 20
0.0
 30
0.0
  9
$PUCSXDIR
 10
1.0
 20
0.0
 30
0.0
  9
$PUCSYDIR
 10
0.0
 20
1.0
 30
0.0
  9
$PUCSORTHOREF
  2

  9
$PUCSORTHOVIEW
 70
     0
  9
$PUCSORGTOP
 10
0.0
 20
0.0
 30
0.0
  9
$PUCSORGBOTTOM
 10
0.0
 20
0.0
 30
0.0
  9
$PUCSORGLEFT
 10
0.0
 20
0.0
 30
0.0
  9
$PUCSORGRIGHT
 10
0.0
 20
0.0
 30
0.0
  9
$PUCSORGFRONT
 10
0.0
 20
0.0
 30
0.0
  9
$PUCSORGBACK
 10
0.0
 20
0.0
 30
0.0
  9
$WORLDVIEW
 70
     1
  9
$SHADEDGE
 70
     3
  9
$SHADEDIF
 70
    70
  9
$TILEMODE
 70
     1
  9
$MAXACTVP
 70
    64
  9
$PINSBASE
 10
0.0
 20
0.0
 30
0.0
  9
$PLIMCHECK
 70
     0
  9
$PEXTMIN
 10
1.000000000000000E+20
 20
1.000000000000000E+20
 30
1.000000000000000E+20
  9
$PEXTMAX
 10
-1.000000000000000E+20
 20
-1.000000000000000E+20
 30
-1.000000000000000E+20
  9
$PLIMMIN
 10
0.0
 20
0.0
  9
$PLIMMAX
 10
12.0
 20
9.0
  9
$UNITMODE
 70
     0
  9
$VISRETAIN
 70
     1
  9
$PLINEGEN
 70
     0
  9
$PSLTSCALE
 70
     1
  9
$TREEDEPTH
 70
  3020
  9
$CMLSTYLE
  2
Standard
  9
$CMLJUST
 70
     0
  9
$CMLSCALE
 40
1.0
  9
$PROXYGRAPHICS
 70
     1
  9
$MEASUREMENT
 70
     0
  9
$CELWEIGHT
370
    -1
  9
$ENDCAPS
280
     0
  9
$JOINSTYLE
280
     0
  9
$LWDISPLAY
290
     0
  9
$INSUNITS
 70
     1
  9
$HYPERLINKBASE
  1

  9
$STYLESHEET
  1

  9
$XEDIT
290
     1
  9
$CEPSNTYPE
380
     0
  9
$PSTYLEMODE
290
     1
  9
$EXTNAMES
290
     1
  9
$PSVPSCALE
 40
0.0
  9
$OLESTARTUP
290
     0
  9
$SORTENTS
280
   127
  9
$INDEXCTL
280
     0
  9
$HIDETEXT
280
     1
  9
$XCLIPFRAME
290
     0
  9
$HALOGAP
280
     0
  9
$OBSCOLOR
 70
   257
  9
$OBSLTYPE
280
     0
  9
$INTERSECTIONDISPLAY
280
     0
  9
$INTERSECTIONCOLOR
 70
   257
  9
$DIMASSOC
280
     2
  9
$PROJECTNAME
  1

  0
ENDSEC
  0
SECTION
  2
CLASSES
  0
CLASS
  1
ACDBDICTIONARYWDFLT
  2
AcDbDictionaryWithDefault
  3
ObjectDBX Classes
 90
        0
 91
        4
280
     0
281
     0
  0
ENDSEC
  0
SECTION
  2
TABLES
  0
TABLE
  2
VPORT
  5
8
330
0
100
AcDbSymbolTable
 70
     1
  0
VPORT
  5
29
330
8
100
AcDbSymbolTableRecord
100
AcDbViewportTableRecord
  2
*Active
 70
     0
 10
0.0
 20
0.0
 11
1.0
 21
1.0
 12
80.25
 22
106.4409457059851
 13
0.0
 23
0.0
 14
0.5
 24
0.5
 15
0.5
 25
0.5
 16
0.0
 26
0.0
 36
1.0
 17
0.0
 27
0.0
 37
0.0
 40
113.3818914119703
 41
0.8863849310366128
 42
50.0
 43
0.0
 44
0.0
 50
0.0
 51
0.0
 71
     0
 72
  1000
 73
     1
 74
     3
 75
     0
 76
     0
 77
     0
 78
     0
281
     0
 65
     1
110
0.0
120
0.0
130
0.0
111
1.0
121
0.0
131
0.0
112
0.0
122
1.0
132
0.0
 79
     0
146
0.0
  0
ENDTAB
  0
TABLE
  2
LTYPE
  5
5
330
0
100
AcDbSymbolTable
 70
     1
  0
LTYPE
  5
14
330
5
100
AcDbSymbolTableRecord
100
AcDbLinetypeTableRecord
  2
ByBlock
 70
     0
  3

 72
    65
 73
     0
 40
0.0
  0
LTYPE
  5
15
330
5
100
AcDbSymbolTableRecord
100
AcDbLinetypeTableRecord
  2
ByLayer
 70
     0
  3

 72
    65
 73
     0
 40
0.0
  0
LTYPE
  5
16
330
5
100
AcDbSymbolTableRecord
100
AcDbLinetypeTableRecord
  2
Continuous
 70
     0
  3
Solid line
 72
    65
 73
     0
 40
0.0
  0
ENDTAB
  0
TABLE
  2
LAYER
  5
2
330
0
100
AcDbSymbolTable
 70
     1
  0
LAYER
  5
10
330
2
100
AcDbSymbolTableRecord
100
AcDbLayerTableRecord
  2
0
 70
     0
 62
     7
  6
Continuous
370
    -3
390
F
  0
ENDTAB
  0
TABLE
  2
STYLE
  5
3
330
0
100
AcDbSymbolTable
 70
     1
  0
STYLE
  5
11
330
3
100
AcDbSymbolTableRecord
100
AcDbTextStyleTableRecord
  2
Standard
 70
     0
 40
0.0
 41
1.0
 50
0.0
 71
     0
 42
0.2
  3
txt
  4

  0
ENDTAB
  0
TABLE
  2
VIEW
  5
6
330
0
100
AcDbSymbolTable
 70
     0
  0
ENDTAB
  0
TABLE
  2
UCS
  5
7
330
0
100
AcDbSymbolTable
 70
     0
  0
ENDTAB
  0
TABLE
  2
APPID
  5
9
330
0
100
AcDbSymbolTable
 70
     1
  0
APPID
  5
12
330
9
100
AcDbSymbolTableRecord
100
AcDbRegAppTableRecord
  2
ACAD
 70
     0
  0
ENDTAB
  0
TABLE
  2
DIMSTYLE
  5
A
330
0
100
AcDbSymbolTable
 70
     1
100
AcDbDimStyleTable
  0
DIMSTYLE
105
27
330
A
100
AcDbSymbolTableRecord
100
AcDbDimStyleTableRecord
  2
Standard
 70
     0
340
11
  0
ENDTAB
  0
TABLE
  2
BLOCK_RECORD
  5
1
330
0
100
AcDbSymbolTable
 70
     1
  0
BLOCK_RECORD
  5
1F
330
1
100
AcDbSymbolTableRecord
100
AcDbBlockTableRecord
  2
*Model_Space
340
22
  0
BLOCK_RECORD
  5
1B
330
1
100
AcDbSymbolTableRecord
100
AcDbBlockTableRecord
  2
*Paper_Space
340
1E
  0
ENDTAB
  0
ENDSEC
  0
SECTION
  2
BLOCKS
  0
BLOCK
  5
20
330
1F
100
AcDbEntity
  8
0
100
AcDbBlockBegin
  2
*Model_Space
 70
     0
 10
0.0
 20
0.0
 30
0.0
  3
*Model_Space
  1

  0
ENDBLK
  5
21
330
1F
100
AcDbEntity
  8
0
100
AcDbBlockEnd
  0
BLOCK
  5
1C
330
1B
100
AcDbEntity
 67
     1
  8
0
100
AcDbBlockBegin
  2
*Paper_Space
 70
     0
 10
0.0
 20
0.0
 30
0.0
  3
*Paper_Space
  1

  0
ENDBLK
  5
1D
330
1B
100
AcDbEntity
 67
     1
  8
0
100
AcDbBlockEnd
  0
ENDSEC
  0
SECTION
  2
ENTITIES
  0
LWPOLYLINE
  5
20000
100
AcDbEntity
  8
0
100
AcDbPolyline
 70
0
 90
6
 10
-600426.4988
 20
-1152800.9679
 10
-600357.707
 20
-1152822.1346
 10
-600302.1444
 20
-1152875.0514
 10
-600273.0402
 20
-1152938.5515
 10
-600146.0399
 20
-1153081.4268
 10
-600029.623
 20
-1153181.9686
  0
LWPOLYLINE
  5
20001
100
AcDbEntity
  8
0
100
AcDbPolyline
 70
0
 90
7
 10
-600029.623
 20
-1153181.9686
 10
-600016.3939
 20
-1153057.6142
 10
-599995.2271
 20
-1152830.0721
 10
-599988.6125
 20
-1152717.624
 10
-599996.5501
 20
-1152589.3008
 10
-600053.4356
 20
-1152110.404
 10
-600086.5086
 20
-1151864.341
  0
LWPOLYLINE
  5
20002
100
AcDbEntity
  8
0
100
AcDbPolyline
 70
0
 90
5
 10
-600029.623
 20
-1153181.9686
 10
-599907.0766
 20
-1153235.0067
 10
-599769.493
 20
-1153294.2735
 10
-599710.2262
 20
-1153314.3818
 10
-599557.8259
 20
-1153320.7318
  0
LWPOLYLINE
  5
20003
100
AcDbEntity
  8
0
100
AcDbPolyline
 70
0
 90
9
 10
-599557.8259
 20
-1153320.7318
 10
-599505.9675
 20
-1153373.6486
 10
-599429.7673
 20
-1153440.3238
 10
-599403.3089
 20
-1153455.1404
 10
-599289.0087
 20
-1153522.8739
 10
-599204.3419
 20
-1153589.5491
 10
-599131.3167
 20
-1153662.5742
 10
-599014.8998
 20
-1153822.3829
 10
-598875.1996
 20
-1154028.7583
  0
LWPOLYLINE
  5
20004
100
AcDbEntity
  8
0
100
AcDbPolyline
 70
0
 90
10
 10
-598149.1814
 20
-1152473.0052
 10
-598168.2315
 20
-1152516.3969
 10
-598189.3982
 20
-1152701.6056
 10
-598208.4482
 20
-1152875.1726
 10
-598225.3816
 20
-1153061.4397
 10
-598232.7899
 20
-1153134.4648
 10
-598240.1983
 20
-1153193.7316
 10
-598265.5983
 20
-1153248.765
 10
-598313.2234
 20
-1153306.9735
 10
-598403.1819
 20
-1153383.1736
  0
LWPOLYLINE
  5
20005
100
AcDbEntity
  8
0
100
AcDbPolyline
 70
0
 90
11
 10
-598875.1996
 20
-1154028.7583
 10
-598865.6745
 20
-1154073.2084
 10
-598850.8578
 20
-1154148.3502
 10
-598843.4495
 20
-1154221.3753
 10
-598837.0995
 20
-1154283.8171
 10
-598842.3912
 20
-1154342.0256
 10
-598859.3245
 20
-1154367.4256
 10
-598916.4746
 20
-1154404.4673
 10
-598955.6331
 20
-1154411.8757
 10
-599014.8998
 20
-1154406.584
 10
-599043.4749
 20
-1154393.884
  0
LWPOLYLINE
  5
20006
100
AcDbEntity
  8
0
100
AcDbPolyline
 70
0
 90
12
 10
-599043.4749
 20
-1154393.884
 10
-599122.5855
 20
-1154369.8069
 10
-599208.5752
 20
-1154339.3797
 10
-599265.4608
 20
-1154323.5047
 10
-599327.638
 20
-1154320.8588
 10
-599352.7734
 20
-1154334.088
 10
-599373.9401
 20
-1154359.2235
 10
-599397.7527
 20
-1154409.4944
 10
-599404.3673
 20
-1154431.9841
 10
-599409.659
 20
-1154492.8384
 10
-599428.1798
 20
-1154555.0156
 10
-599441.409
 20
-1154588.0885
  0
LWPOLYLINE
  5
20007
100
AcDbEntity
  8
0
100
AcDbPolyline
 70
0
 90
6
 10
-599441.409
 20
-1154588.0885
 10
-599470.5132
 20
-1154639.6824
 10
-599510.2008
 20
-1154701.8596
 10
-599537.9821
 20
-1154746.8389
 10
-599571.0551
 20
-1154783.8806
 10
-599597.5135
 20
-1154802.4015
  0
LWPOLYLINE
  5
20008
100
AcDbEntity
  8
0
100
AcDbPolyline
 70
0
 90
11
 10
-599597.5135
 20
-1154802.4015
 10
-599687.472
 20
-1154521.9426
 10
-599765.5243
 20
-1154269.265
 10
-599822.4098
 20
-1154106.5459
 10
-599907.0766
 20
-1153885.6184
 10
-599966.608
 20
-1153729.5139
 10
-600014.2331
 20
-1153595.8991
 10
-600038.0456
 20
-1153521.8156
 10
-600047.3061
 20
-1153443.7633
 10
-600048.629
 20
-1153388.2007
 10
-600029.623
 20
-1153181.9686
  0
LWPOLYLINE
  5
20009
100
AcDbEntity
  8
0
100
AcDbPolyline
 70
0
 90
6
 10
-599441.409
 20
-1154588.0885
 10
-599428.1798
 20
-1154602.6407
 10
-599392.461
 20
-1154654.2345
 10
-599389.8152
 20
-1154742.8701
 10
-599383.2006
 20
-1154781.2348
 10
-599373.9401
 20
-1154816.9536
  0
LWPOLYLINE
  5
2000A
100
AcDbEntity
  8
0
100
AcDbPolyline
 70
0
 90
14
 10
-599373.9401
 20
-1154816.9536
 10
-599355.4193
 20
-1154815.6307
 10
-599280.0129
 20
-1154835.4745
 10
-599235.0336
 20
-1154840.7661
 10
-599155.6585
 20
-1154838.1203
 10
-599105.3875
 20
-1154850.0266
 10
-599061.7312
 20
-1154880.4537
 10
-599023.3665
 20
-1154930.7247
 10
-599003.5227
 20
-1154996.8706
 10
-598996.9081
 20
-1155049.7874
 10
-599000.8769
 20
-1155142.3917
 10
-599011.4602
 20
-1155350.0901
 10
-599022.0436
 20
-1155539.2675
 10
-599024.6894
 20
-1155602.7677
  0
LWPOLYLINE
  5
2000B
100
AcDbEntity
  8
0
100
AcDbPolyline
 70
0
 90
7
 10
-599373.9401
 20
-1154816.9536
 10
-599348.8047
 20
-1154902.9433
 10
-599318.3775
 20
-1154996.8706
 10
-599248.2628
 20
-1155236.319
 10
-599184.7627
 20
-1155446.6632
 10
-599151.6897
 20
-1155540.5905
 10
-599135.8147
 20
-1155590.8614
  0
LWPOLYLINE
  5
2000C
100
AcDbEntity
  8
0
100
AcDbPolyline
 70
0
 90
3
 10
-599135.8147
 20
-1155590.8614
 10
-599068.3458
 20
-1155594.8301
 10
-599024.6894
 20
-1155602.7677
  0
LWPOLYLINE
  5
2000D
100
AcDbEntity
  8
0
100
AcDbPolyline
 70
0
 90
7
 10
-599135.8147
 20
-1155590.8614
 10
-599138.4605
 20
-1155638.4865
 10
-599145.0751
 20
-1155700.6637
 10
-599150.3668
 20
-1155727.1221
 10
-599160.9501
 20
-1155741.6742
 10
-599195.346
 20
-1155754.9034
 10
-599287.9504
 20
-1155781.3618
  0
LWPOLYLINE
  5
2000E
100
AcDbEntity
  8
0
100
AcDbPolyline
 70
0
 90
2
 10
-599287.9504
 20
-1155781.3618
 10
-599597.5135
 20
-1154802.4015
  0
LWPOLYLINE
  5
2000F
100
AcDbEntity
  8
0
100
AcDbPolyline
 70
0
 90
15
 10
-599597.5135
 20
-1154802.4015
 10
-599613.3885
 20
-1154819.5994
 10
-599647.7844
 20
-1154869.8704
 10
-599692.7637
 20
-1154939.9851
 10
-599747.0034
 20
-1155028.6207
 10
-599766.8472
 20
-1155059.0478
 10
-599789.3368
 20
-1155090.7979
 10
-599803.8889
 20
-1155094.7666
 10
-599862.0974
 20
-1155163.5584
 10
-599937.5038
 20
-1155231.0273
 10
-599978.5143
 20
-1155270.7149
 10
-600030.1081
 20
-1155306.4337
 10
-600093.6082
 20
-1155352.7359
 10
-600133.2958
 20
-1155391.1006
 10
-600150.4938
 20
-1155412.2673
  0
LWPOLYLINE
  5
20010
100
AcDbEntity
  8
0
100
AcDbPolyline
 70
0
 90
15
 10
-600150.4938
 20
-1155412.2673
 10
-600122.7125
 20
-1155445.3403
 10
-600083.0249
 20
-1155474.4445
 10
-600044.6602
 20
-1155491.6424
 10
-599995.7122
 20
-1155523.3925
 10
-599937.5038
 20
-1155593.5072
 10
-599883.2641
 20
-1155663.6219
 10
-599850.1911
 20
-1155701.9866
 10
-599806.5348
 20
-1155739.0284
 10
-599743.0346
 20
-1155793.268
 10
-599686.1491
 20
-1155844.8619
 10
-599606.7739
 20
-1155911.0079
 10
-599576.3468
 20
-1155937.4662
 10
-599436.1173
 20
-1156016.8414
 10
-599364.6797
 20
-1156060.4977
  0
LWPOLYLINE
  5
20011
100
AcDbEntity
  8
0
100
AcDbPolyline
 70
0
 90
3
 10
-599364.6797
 20
-1156060.4977
 10
-599272.0754
 20
-1156108.1228
 10
-599180.7939
 20
-1156131.9354
  0
LWPOLYLINE
  5
20012
100
AcDbEntity
  8
0
100
AcDbPolyline
 70
0
 90
2
 10
-599180.7939
 20
-1156131.9354
 10
-599287.9504
 20
-1155781.3618
  0
LWPOLYLINE
  5
20013
100
AcDbEntity
  8
0
100
AcDbPolyline
 70
0
 90
2
 10
-599180.7939
 20
-1156131.9354
 10
-599147.7209
 20
-1156232.4773
  0
LWPOLYLINE
  5
20014
100
AcDbEntity
  8
0
100
AcDbPolyline
 70
0
 90
6
 10
-599147.7209
 20
-1156232.4773
 10
-599194.0231
 20
-1156241.7377
 10
-599237.6794
 20
-1156260.2586
 10
-599253.5545
 20
-1156301.2691
 10
-599248.2628
 20
-1156336.9879
 10
-599235.0336
 20
-1156370.0609
  0
LWPOLYLINE
  5
20015
100
AcDbEntity
  8
0
100
AcDbPolyline
 70
0
 90
4
 10
-599147.7209
 20
-1156232.4773
 10
-599119.9396
 20
-1156321.1128
 10
-599093.4812
 20
-1156404.4568
 10
-599074.9604
 20
-1156460.0194
  0
LWPOLYLINE
  5
20016
100
AcDbEntity
  8
0
100
AcDbPolyline
 70
0
 90
7
 10
-598943.9914
 20
-1156106.7999
 10
-598953.2518
 20
-1156172.9459
 10
-598981.0331
 20
-1156223.2168
 10
-599019.3978
 20
-1156266.8732
 10
-599081.575
 20
-1156298.6232
 10
-599153.0126
 20
-1156333.0191
 10
-599235.0336
 20
-1156370.0609
  0
LWPOLYLINE
  5
20017
100
AcDbEntity
  8
0
100
AcDbPolyline
 70
0
 90
6
 10
-599997.0351
 20
-1156430.9152
 10
-599963.9622
 20
-1156528.8112
 10
-599920.3058
 20
-1156596.2801
 10
-599858.1286
 20
-1156646.551
 10
-599749.6492
 20
-1156719.3116
 10
-599680.8574
 20
-1156770.9054
  0
LWPOLYLINE
  5
20018
100
AcDbEntity
  8
0
100
AcDbPolyline
 70
0
 90
3
 10
-599680.8574
 20
-1156770.9054
 10
-599654.399
 20
-1156737.8324
 10
-599564.4405
 20
-1156633.3218
  0
LWPOLYLINE
  5
20019
100
AcDbEntity
  8
0
100
AcDbPolyline
 70
0
 90
6
 10
-599235.0336
 20
-1156370.0609
 10
-599563.1176
 20
-1156528.8112
 10
-599674.2428
 20
-1156601.5717
 10
-599744.3575
 20
-1156665.0719
 10
-599813.1493
 20
-1156741.8012
 10
-599830.3473
 20
-1156770.9054
  0
LWPOLYLINE
  5
2001A
100
AcDbEntity
  8
0
100
AcDbPolyline
 70
0
 90
6
 10
-599680.8574
 20
-1156770.9054
 10
-599704.67
 20
-1156802.6555
 10
-599725.8367
 20
-1156810.593
 10
-599758.9097
 20
-1156807.9472
 10
-599791.9826
 20
-1156793.395
 10
-599830.3473
 20
-1156770.9054
  0
LWPOLYLINE
  5
2001B
100
AcDbEntity
  8
0
100
AcDbPolyline
 70
0
 90
10
 10
-599830.3473
 20
-1156770.9054
 10
-599870.0349
 20
-1156842.3431
 10
-599895.1703
 20
-1156913.7807
 10
-599912.3683
 20
-1157009.0309
 10
-599911.0454
 20
-1157101.6352
 10
-599899.1391
 20
-1157196.8854
 10
-599870.0349
 20
-1157289.4898
 10
-599836.9619
 20
-1157379.4483
 10
-599760.2326
 20
-1157562.0112
 10
-599689.3348
 20
-1157733.3473
  0
LWPOLYLINE
  5
2001C
100
AcDbEntity
  8
0
100
AcDbPolyline
 70
0
 90
2
 10
-599689.3348
 20
-1157733.3473
 10
-599489.0341
 20
-1157661.2301
  0
LWPOLYLINE
  5
2001D
100
AcDbEntity
  8
0
100
AcDbPolyline
 70
0
 90
3
 10
-599489.0341
 20
-1157661.2301
 10
-599133.1688
 20
-1157552.7507
 10
-598995.5852
 20
-1157511.7402
  0
LWPOLYLINE
  5
2001E
100
AcDbEntity
  8
0
100
AcDbPolyline
 70
0
 90
7
 10
-599680.8574
 20
-1156770.9054
 10
-599646.4615
 20
-1156815.8847
 10
-599627.9406
 20
-1156870.1244
 10
-599630.5865
 20
-1156928.3328
 10
-599641.1698
 20
-1157198.2084
 10
-599613.3885
 20
-1157288.1669
 10
-599489.0341
 20
-1157661.2301
  0
LWPOLYLINE
  5
2001F
100
AcDbEntity
  8
0
100
AcDbPolyline
 70
0
 90
6
 10
-599336.8984
 20
-1156768.2596
 10
-599277.367
 20
-1156968.0204
 10
-599220.4815
 20
-1157151.9062
 10
-599178.1481
 20
-1157228.6355
 10
-599014.1061
 20
-1157465.4381
 10
-598995.5852
 20
-1157511.7402
  0
LWPOLYLINE
  5
20020
100
AcDbEntity
  8
0
100
AcDbPolyline
 70
0
 90
2
 10
-598995.5852
 20
-1157511.7402
 10
-598779.9494
 20
-1157446.9172
  0
LWPOLYLINE
  5
20021
100
AcDbEntity
  8
0
100
AcDbPolyline
 70
0
 90
2
 10
-599074.9604
 20
-1156460.0194
 10
-598896.3663
 20
-1157035.4893
  0
LWPOLYLINE
  5
20022
100
AcDbEntity
  8
0
100
AcDbPolyline
 70
0
 90
2
 10
-598896.3663
 20
-1157035.4893
 10
-598719.0951
 20
-1156923.0411
  0
LWPOLYLINE
  5
20023
100
AcDbEntity
  8
0
100
AcDbPolyline
 70
0
 90
5
 10
-598719.0951
 20
-1156923.0411
 10
-598656.9179
 20
-1156887.3223
 10
-598633.1053
 20
-1156879.3848
 10
-598604.0011
 20
-1156888.6452
 10
-598531.2405
 20
-1156915.1036
  0
LWPOLYLINE
  5
20024
100
AcDbEntity
  8
0
100
AcDbPolyline
 70
0
 90
2
 10
-598896.3663
 20
-1157035.4893
 10
-598836.8349
 20
-1157229.9584
  0
LWPOLYLINE
  5
20025
100
AcDbEntity
  8
0
100
AcDbPolyline
 70
0
 90
2
 10
-598836.8349
 20
-1157229.9584
 10
-598779.9494
 20
-1157446.9172
  0
LWPOLYLINE
  5
20026
100
AcDbEntity
  8
0
100
AcDbPolyline
 70
0
 90
4
 10
-598719.0951
 20
-1156923.0411
 10
-598692.6367
 20
-1156994.4788
 10
-598667.5012
 20
-1157085.7602
 10
-598629.1366
 20
-1157280.2293
  0
LWPOLYLINE
  5
20027
100
AcDbEntity
  8
0
100
AcDbPolyline
 70
0
 90
6
 10
-598836.8349
 20
-1157229.9584
 10
-598762.7514
 20
-1157240.5418
 10
-598692.6367
 20
-1157255.0939
 10
-598663.5325
 20
-1157277.5835
 10
-598652.9491
 20
-1157282.8752
 10
-598629.1366
 20
-1157280.2293
  0
LWPOLYLINE
  5
20028
100
AcDbEntity
  8
0
100
AcDbPolyline
 70
0
 90
4
 10
-598629.1366
 20
-1157280.2293
 10
-598525.9489
 20
-1157233.9272
 10
-598458.48
 20
-1157186.3021
 10
-598398.9486
 20
-1157163.8124
  0
LWPOLYLINE
  5
20029
100
AcDbEntity
  8
0
100
AcDbPolyline
 70
0
 90
4
 10
-598398.9486
 20
-1157163.8124
 10
-598343.386
 20
-1157158.5208
 10
-598303.6984
 20
-1157173.0729
 10
-598275.9171
 20
-1157204.8229
  0
LWPOLYLINE
  5
2002A
100
AcDbEntity
  8
0
100
AcDbPolyline
 70
0
 90
21
 10
-598275.9171
 20
-1157204.8229
 10
-598253.4275
 20
-1157184.9792
 10
-598159.5002
 20
-1157233.9272
 10
-598127.7501
 20
-1157245.8334
 10
-598064.25
 20
-1157251.1251
 10
-598027.2083
 20
-1157233.9272
 10
-598006.0416
 20
-1157190.2708
 10
-598000.7499
 20
-1157154.552
 10
-598015.302
 20
-1157084.4373
 10
-598021.9166
 20
-1156968.0204
 10
-598019.2708
 20
-1156923.0411
 10
-597999.427
 20
-1156829.1139
 10
-598021.9166
 20
-1156807.9472
 10
-598049.6979
 20
-1156786.7804
 10
-598060.2813
 20
-1156764.2908
 10
-598047.0521
 20
-1156665.0719
 10
-598035.1458
 20
-1156610.8322
 10
-598054.9896
 20
-1156493.0924
 10
-598052.3437
 20
-1156474.5715
 10
-598020.5937
 20
-1156379.3213
 10
-598012.6562
 20
-1156331.6962
  0
LWPOLYLINE
  5
2002B
100
AcDbEntity
  8
0
100
AcDbPolyline
 70
0
 90
31
 10
-598012.6562
 20
-1156331.6962
 10
-597996.7811
 20
-1156192.7897
 10
-597979.5832
 20
-1156138.55
 10
-597898.8851
 20
-1155978.4767
 10
-597880.3642
 20
-1155959.9559
 10
-597712.3535
 20
-1155839.5702
 10
-597540.374
 20
-1155703.3095
 10
-597394.8528
 20
-1155608.0593
 10
-597359.134
 20
-1155561.7572
 10
-597299.6027
 20
-1155454.6007
 10
-597267.8526
 20
-1155414.9131
 10
-597241.3942
 20
-1155406.9756
 10
-597142.1753
 20
-1155393.7464
 10
-597101.1648
 20
-1155372.5797
 10
-597045.6021
 20
-1155323.6317
 10
-597032.373
 20
-1155289.2358
 10
-597038.9876
 20
-1155246.9024
 10
-597053.5397
 20
-1155205.8919
 10
-597057.5084
 20
-1155175.4647
 10
-597042.9563
 20
-1155150.3293
 10
-596971.5187
 20
-1155080.2145
 10
-596877.5914
 20
-1154965.1206
 10
-596799.5392
 20
-1154805.0473
 10
-596750.5911
 20
-1154717.7346
 10
-596664.6014
 20
-1154586.7656
 10
-596595.8096
 20
-1154461.0883
 10
-596541.5699
 20
-1154347.3172
 10
-596487.3302
 20
-1154196.5044
 10
-596414.5696
 20
-1154073.4729
 10
-596401.3404
 20
-1154058.9208
 10
-596374.8821
 20
-1154058.9208
  0
LWPOLYLINE
  5
2002C
100
AcDbEntity
  8
0
100
AcDbPolyline
 70
0
 90
20
 10
-596374.8821
 20
-1154058.9208
 10
-596364.2987
 20
-1153999.3895
 10
-596262.4339
 20
-1153796.9828
 10
-596200.2567
 20
-1153728.191
 10
-596156.6004
 20
-1153658.0763
 10
-596124.8503
 20
-1153598.5449
 10
-596048.121
 20
-1153356.4507
 10
-596001.8188
 20
-1153279.7213
 10
-595978.0063
 20
-1153228.1275
 10
-595951.5479
 20
-1153169.919
 10
-595910.5374
 20
-1153102.4502
 10
-595856.2977
 20
-1152996.6166
 10
-595845.7143
 20
-1152950.3144
 10
-595831.1622
 20
-1152878.8768
 10
-595808.6726
 20
-1152840.5121
 10
-595771.6308
 20
-1152794.21
 10
-595735.912
 20
-1152732.0328
 10
-595730.6204
 20
-1152684.4077
 10
-595743.8495
 20
-1152650.0118
 10
-595741.2037
 20
-1152598.4179
  0
LWPOLYLINE
  5
2002D
100
AcDbEntity
  8
0
100
AcDbPolyline
 70
0
 90
20
 10
-596374.8821
 20
-1154058.9208
 10
-596384.1425
 20
-1154143.5877
 10
-596378.8508
 20
-1154215.0253
 10
-596376.205
 20
-1154286.4629
 10
-596394.7258
 20
-1154344.6714
 10
-596413.2467
 20
-1154383.0361
 10
-596417.2155
 20
-1154434.6299
 10
-596392.08
 20
-1154471.6716
 10
-596396.0488
 20
-1154557.6614
 10
-596394.7258
 20
-1154621.1615
 10
-596373.5591
 20
-1154674.0783
 10
-596351.0695
 20
-1154754.7764
 10
-596355.0383
 20
-1154840.7661
 10
-596362.9758
 20
-1154928.0788
 10
-596335.1945
 20
-1155010.0998
 10
-596324.6111
 20
-1155048.4645
 10
-596337.8403
 20
-1155138.423
 10
-596355.0383
 20
-1155232.3503
 10
-596357.6841
 20
-1155298.4962
 10
-596351.0695
 20
-1155330.2463
  0
LWPOLYLINE
  5
2002E
100
AcDbEntity
  8
0
100
AcDbPolyline
 70
0
 90
15
 10
-596351.0695
 20
-1155330.2463
 10
-596329.9425
 20
-1155376.1979
 10
-596275.9674
 20
-1155433.348
 10
-596244.2173
 20
-1155503.1981
 10
-596228.3423
 20
-1155604.7983
 10
-596217.2298
 20
-1155696.8735
 10
-596210.8797
 20
-1155798.4737
 10
-596212.4673
 20
-1155888.9614
 10
-596212.4673
 20
-1155950.874
 10
-596245.8048
 20
-1156036.5992
 10
-596283.9049
 20
-1156104.8618
 10
-596298.1924
 20
-1156154.0744
 10
-596290.2549
 20
-1156200.112
 10
-596263.2674
 20
-1156289.0122
 10
-596255.3298
 20
-1156314.4123
  0
LWPOLYLINE
  5
2002F
100
AcDbEntity
  8
0
100
AcDbPolyline
 70
0
 90
2
 10
-596255.3298
 20
-1156314.4123
 10
-596182.3047
 20
-1156562.0628
  0
LWPOLYLINE
  5
20030
100
AcDbEntity
  8
0
100
AcDbPolyline
 70
0
 90
5
 10
-596182.3047
 20
-1156562.0628
 10
-596764.9184
 20
-1156690.6505
 10
-596836.356
 20
-1156716.0506
 10
-596872.8686
 20
-1156739.8631
 10
-596898.2686
 20
-1156765.2632
  0
LWPOLYLINE
  5
20031
100
AcDbEntity
  8
0
100
AcDbPolyline
 70
0
 90
9
 10
-596898.2686
 20
-1156765.2632
 10
-596933.1937
 20
-1156820.8258
 10
-596961.7688
 20
-1156882.7384
 10
-596999.8688
 20
-1156943.0635
 10
-597061.7815
 20
-1157006.5636
 10
-597122.1066
 20
-1157063.7138
 10
-597160.2066
 20
-1157128.8014
 10
-597163.3817
 20
-1157190.714
 10
-597145.9191
 20
-1157254.2141
  0
LWPOLYLINE
  5
20032
100
AcDbEntity
  8
0
100
AcDbPolyline
 70
0
 90
5
 10
-597145.9191
 20
-1157254.2141
 10
-597104.644
 20
-1157352.6393
 10
-597055.4314
 20
-1157444.7145
 10
-597015.7439
 20
-1157495.5146
 10
-596922.0812
 20
-1157603.4648
  0
LWPOLYLINE
  5
20033
100
AcDbEntity
  8
0
100
AcDbPolyline
 70
0
 90
3
 10
-596922.0812
 20
-1157603.4648
 10
-596755.3933
 20
-1157790.7902
 10
-596750.6308
 20
-1157808.2527
  0
LWPOLYLINE
  5
20034
100
AcDbEntity
  8
0
100
AcDbPolyline
 70
0
 90
6
 10
-596750.6308
 20
-1157808.2527
 10
-596731.5808
 20
-1157805.0777
 10
-596693.4807
 20
-1157809.8403
 10
-596582.3555
 20
-1157855.8778
 10
-596407.7301
 20
-1157920.9655
 10
-596341.055
 20
-1157944.778
  0
LWPOLYLINE
  5
20035
100
AcDbEntity
  8
0
100
AcDbPolyline
 70
0
 90
10
 10
-596341.055
 20
-1157944.778
 10
-596255.3298
 20
-1157755.8651
 10
-596145.7921
 20
-1157508.2146
 10
-596098.167
 20
-1157349.4643
 10
-596074.3545
 20
-1157190.714
 10
-596074.3545
 20
-1157063.7138
 10
-596090.2295
 20
-1156903.3759
 10
-596120.3921
 20
-1156763.6757
 10
-596144.2046
 20
-1156684.3005
 10
-596182.3047
 20
-1156562.0628
  0
LWPOLYLINE
  5
20036
100
AcDbEntity
  8
0
100
AcDbPolyline
 70
0
 90
4
 10
-596922.0812
 20
-1157603.4648
 10
-597003.0438
 20
-1157668.5525
 10
-597025.2689
 20
-1157689.19
 10
-597082.419
 20
-1157798.7277
  0
LWPOLYLINE
  5
20037
100
AcDbEntity
  8
0
100
AcDbPolyline
 70
0
 90
3
 10
-597082.419
 20
-1157798.7277
 10
-596991.9313
 20
-1157840.0028
 10
-596903.0311
 20
-1157866.9904
  0
LWPOLYLINE
  5
20038
100
AcDbEntity
  8
0
100
AcDbPolyline
 70
0
 90
4
 10
-596903.0311
 20
-1157866.9904
 10
-596841.1185
 20
-1157887.6279
 10
-596756.9808
 20
-1157940.0155
 10
-596693.4807
 20
-1158000.3406
  0
LWPOLYLINE
  5
20039
100
AcDbEntity
  8
0
100
AcDbPolyline
 70
0
 90
5
 10
-596903.0311
 20
-1157866.9904
 10
-596910.9686
 20
-1157897.1529
 10
-596926.8437
 20
-1157936.8405
 10
-596933.1937
 20
-1157952.7155
 10
-596915.7312
 20
-1157974.9406
  0
LWPOLYLINE
  5
2003A
100
AcDbEntity
  8
0
100
AcDbPolyline
 70
0
 90
5
 10
-596341.055
 20
-1157944.778
 10
-596304.5424
 20
-1158024.1532
 10
-596288.6674
 20
-1158089.2408
 10
-596298.1924
 20
-1158143.2159
 10
-596339.4675
 20
-1158214.6536
  0
LWPOLYLINE
  5
2003B
100
AcDbEntity
  8
0
100
AcDbPolyline
 70
0
 90
8
 10
-598275.9171
 20
-1157204.8229
 10
-598242.8838
 20
-1157317.7143
 10
-598214.3088
 20
-1157376.4519
 10
-598080.9585
 20
-1157420.902
 10
-597995.2333
 20
-1157492.3396
 10
-597892.0456
 20
-1157544.7272
 10
-597668.2077
 20
-1157601.8773
 10
-597445.9572
 20
-1157644.7399
  0
LWPOLYLINE
  5
2003C
100
AcDbEntity
  8
0
100
AcDbPolyline
 70
0
 90
3
 10
-597445.9572
 20
-1157644.7399
 10
-597328.482
 20
-1157682.84
 10
-597082.419
 20
-1157798.7277
  0
LWPOLYLINE
  5
2003D
100
AcDbEntity
  8
0
100
AcDbPolyline
 70
0
 90
8
 10
-597123.6941
 20
-1158009.8657
 10
-597114.1691
 20
-1158038.4407
 10
-597107.819
 20
-1158059.0783
 10
-597112.5816
 20
-1158082.8908
 10
-597128.4566
 20
-1158116.2284
 10
-597158.6191
 20
-1158141.6284
 10
-597174.4942
 20
-1158163.8535
 10
-597152.2691
 20
-1158187.666
  0
LWPOLYLINE
  5
2003E
100
AcDbEntity
  8
0
100
AcDbPolyline
 70
0
 90
5
 10
-596750.6308
 20
-1157808.2527
 10
-596768.0934
 20
-1157846.3528
 10
-596798.2559
 20
-1157870.1654
 10
-596869.6936
 20
-1157930.4905
 10
-596915.7312
 20
-1157974.9406
  0
LWPOLYLINE
  5
2003F
100
AcDbEntity
  8
0
100
AcDbPolyline
 70
0
 90
2
 10
-596915.7312
 20
-1157974.9406
 10
-597152.2691
 20
-1158187.666
  0
LWPOLYLINE
  5
20040
100
AcDbEntity
  8
0
100
AcDbPolyline
 70
0
 90
7
 10
-597152.2691
 20
-1158187.666
 10
-597328.482
 20
-1158368.6414
 10
-597361.8196
 20
-1158413.0915
 10
-597380.8696
 20
-1158462.3041
 10
-597376.1071
 20
-1158513.1042
 10
-597372.9321
 20
-1158555.9667
 10
-597282.4444
 20
-1158882.9924
  0
LWPOLYLINE
  5
20041
100
AcDbEntity
  8
0
100
AcDbPolyline
 70
0
 90
2
 10
-597282.4444
 20
-1158882.9924
 10
-596876.0436
 20
-1158765.5172
  0
LWPOLYLINE
  5
20042
100
AcDbEntity
  8
0
100
AcDbPolyline
 70
0
 90
4
 10
-596876.0436
 20
-1158765.5172
 10
-596660.1431
 20
-1158703.6045
 10
-596626.8056
 20
-1158702.017
 10
-596593.468
 20
-1158706.7795
  0
LWPOLYLINE
  5
20043
100
AcDbEntity
  8
0
100
AcDbPolyline
 70
0
 90
3
 10
-596339.4675
 20
-1158214.6536
 10
-596493.4553
 20
-1158494.0541
 10
-596593.468
 20
-1158706.7795
  0
LWPOLYLINE
  5
20044
100
AcDbEntity
  8
0
100
AcDbPolyline
 70
0
 90
5
 10
-596593.468
 20
-1158706.7795
 10
-596383.9176
 20
-1158729.0046
 10
-596215.6423
 20
-1158773.4547
 10
-596091.817
 20
-1158806.7922
 10
-596055.3044
 20
-1158802.0297
  0
LWPOLYLINE
  5
20045
100
AcDbEntity
  8
0
100
AcDbPolyline
 70
0
 90
11
 10
-596055.3044
 20
-1158802.0297
 10
-596075.942
 20
-1158754.4046
 10
-596096.5795
 20
-1158689.317
 10
-596123.5671
 20
-1158624.2294
 10
-596172.7797
 20
-1158581.3668
 10
-596239.4548
 20
-1158552.7917
 10
-596302.9549
 20
-1158521.0417
 10
-596337.88
 20
-1158481.3541
 10
-596366.4551
 20
-1158417.854
 10
-596390.2676
 20
-1158341.6538
 10
-596422.0177
 20
-1158265.4537
  0
LWPOLYLINE
  5
20046
100
AcDbEntity
  8
0
100
AcDbPolyline
 70
0
 90
6
 10
-596422.0177
 20
-1158265.4537
 10
-596469.6428
 20
-1158176.5535
 10
-596526.7929
 20
-1158111.4659
 10
-596579.1805
 20
-1158063.8408
 10
-596633.1556
 20
-1158032.0907
 10
-596693.4807
 20
-1158000.3406
  0
LWPOLYLINE
  5
20047
100
AcDbEntity
  8
0
100
AcDbPolyline
 70
0
 90
6
 10
-596693.4807
 20
-1158000.3406
 10
-596801.4309
 20
-1157976.5281
 10
-596876.0436
 20
-1157979.7031
 10
-596998.2813
 20
-1158009.8657
 10
-597082.419
 20
-1158013.0407
 10
-597123.6941
 20
-1158009.8657
  0
LWPOLYLINE
  5
20048
100
AcDbEntity
  8
0
100
AcDbPolyline
 70
0
 90
7
 10
-597123.6941
 20
-1158009.8657
 10
-597638.0451
 20
-1158006.6906
 10
-597968.2458
 20
-1157973.3531
 10
-598068.2585
 20
-1157946.3655
 10
-598155.5711
 20
-1157886.0404
 10
-598191.2624
 20
-1157857.633
 10
-598216.2552
 20
-1157870.9329
  0
LWPOLYLINE
  5
20049
100
AcDbEntity
  8
0
100
AcDbPolyline
 70
0
 90
2
 10
-598398.9486
 20
-1157163.8124
 10
-598258.7588
 20
-1157811.4278
  0
LWPOLYLINE
  5
2004A
100
AcDbEntity
  8
0
100
AcDbPolyline
 70
0
 90
6
 10
-598216.2552
 20
-1157870.9329
 10
-598187.3212
 20
-1157911.4405
 10
-598158.7461
 20
-1157947.953
 10
-598173.0337
 20
-1157992.4031
 10
-598212.7213
 20
-1158074.9533
 10
-598168.2712
 20
-1158354.3538
  0
LWPOLYLINE
  5
2004B
100
AcDbEntity
  8
0
100
AcDbPolyline
 70
0
 90
5
 10
-598168.2712
 20
-1158354.3538
 10
-598115.8836
 20
-1158341.6538
 10
-598095.246
 20
-1158313.0788
 10
-598007.9333
 20
-1158286.0912
 10
-597880.9331
 20
-1158227.3536
  0
LWPOLYLINE
  5
2004C
100
AcDbEntity
  8
0
100
AcDbPolyline
 70
0
 90
2
 10
-598168.2712
 20
-1158354.3538
 10
-597926.9707
 20
-1159193.8255
  0
LWPOLYLINE
  5
2004D
100
AcDbEntity
  8
0
100
AcDbPolyline
 70
0
 90
12
 10
-597926.9707
 20
-1159193.8255
 10
-597877.7581
 20
-1159162.0755
 10
-597842.833
 20
-1159106.5128
 10
-597803.1454
 20
-1159081.1128
 10
-597739.6453
 20
-1159071.5878
 10
-597668.2077
 20
-1159066.8253
 10
-597609.47
 20
-1159062.0628
 10
-597545.9699
 20
-1159043.0127
 10
-597488.8198
 20
-1159001.7376
 10
-597422.1447
 20
-1158949.35
 10
-597360.232
 20
-1158909.6625
 10
-597282.4444
 20
-1158882.9924
  0
LWPOLYLINE
  5
2004E
100
AcDbEntity
  8
0
100
AcDbPolyline
 70
0
 90
11
 10
-597926.9707
 20
-1159193.8255
 10
-597892.0456
 20
-1159219.2256
 10
-597872.9956
 20
-1159260.5007
 10
-597846.008
 20
-1159316.0633
 10
-597812.6705
 20
-1159373.2134
 10
-597777.7454
 20
-1159427.1885
 10
-597733.2953
 20
-1159492.2761
 10
-597682.4952
 20
-1159570.0638
 10
-597665.0327
 20
-1159614.5139
 10
-597655.5076
 20
-1159657.3764
 10
-597653.9201
 20
-1159701.8265
  0
LWPOLYLINE
  5
2004F
100
AcDbEntity
  8
0
100
AcDbPolyline
 70
0
 90
3
 10
-597653.9201
 20
-1159699.1807
 10
-597663.4452
 20
-1160050.0189
 10
-597662.3393
 20
-1160054.2055
  0
LWPOLYLINE
  5
20050
100
AcDbEntity
  8
0
100
AcDbPolyline
 70
0
 90
2
 10
-597641.2201
 20
-1160136.8024
 10
-597533.2699
 20
-1160093.9398
  0
LWPOLYLINE
  5
20051
100
AcDbEntity
  8
0
100
AcDbPolyline
 70
0
 90
4
 10
-597314.1945
 20
-1159985.9896
 10
-597257.0443
 20
-1159965.3521
 10
-597044.3189
 20
-1159890.7394
 10
-596909.3811
 20
-1159838.3518
  0
LWPOLYLINE
  5
20052
100
AcDbEntity
  8
0
100
AcDbPolyline
 70
0
 90
2
 10
-596909.3811
 20
-1159838.3518
 10
-596999.8688
 20
-1159652.6139
  0
LWPOLYLINE
  5
20053
100
AcDbEntity
  8
0
100
AcDbPolyline
 70
0
 90
5
 10
-596999.8688
 20
-1159652.6139
 10
-597066.544
 20
-1159520.8512
 10
-597152.2691
 20
-1159363.6884
 10
-597166.5567
 20
-1159330.3508
 10
-597217.3568
 20
-1159131.9129
  0
LWPOLYLINE
  5
20054
100
AcDbEntity
  8
0
100
AcDbPolyline
 70
0
 90
2
 10
-597217.3568
 20
-1159131.9129
 10
-597282.4444
 20
-1158882.9924
  0
LWPOLYLINE
  5
20055
100
AcDbEntity
  8
0
100
AcDbPolyline
 70
0
 90
3
 10
-596999.8688
 20
-1159652.6139
 10
-596972.8813
 20
-1159516.0887
 10
-596907.7936
 20
-1159143.0254
  0
LWPOLYLINE
  5
20056
100
AcDbEntity
  8
0
100
AcDbPolyline
 70
0
 90
3
 10
-596907.7936
 20
-1159143.0254
 10
-596891.9186
 20
-1159036.6627
 10
-596876.0436
 20
-1158765.5172
  0
LWPOLYLINE
  5
20057
100
AcDbEntity
  8
0
100
AcDbPolyline
 70
0
 90
13
 10
-596909.3811
 20
-1159838.3518
 10
-596856.9935
 20
-1159785.9642
 10
-596833.181
 20
-1159728.8141
 10
-596828.4185
 20
-1159673.2515
 10
-596842.706
 20
-1159584.3513
 10
-596858.581
 20
-1159458.9386
 10
-596860.1685
 20
-1159381.1509
 10
-596847.4685
 20
-1159290.6632
 10
-596826.831
 20
-1159222.4006
 10
-596785.5559
 20
-1159117.6254
 10
-596710.9432
 20
-1158966.8126
 10
-596636.3306
 20
-1158804.8872
 10
-596593.468
 20
-1158706.7795
  0
LWPOLYLINE
  5
20058
100
AcDbEntity
  8
0
100
AcDbPolyline
 70
0
 90
5
 10
-596909.3811
 20
-1159838.3518
 10
-596879.2186
 20
-1159906.6144
 10
-596856.9935
 20
-1159932.0145
 10
-596825.2435
 20
-1159944.7145
 10
-596791.9059
 20
-1159944.7145
  0
LWPOLYLINE
  5
20059
100
AcDbEntity
  8
0
100
AcDbPolyline
 70
0
 90
9
 10
-596791.9059
 20
-1159944.7145
 10
-596790.3184
 20
-1159901.8519
 10
-596703.0057
 20
-1159709.7641
 10
-596637.9181
 20
-1159574.8263
 10
-596504.5678
 20
-1159625.6264
 10
-596387.0926
 20
-1159379.5634
 10
-596271.2049
 20
-1159417.6635
 10
-596172.7797
 20
-1159289.0757
 10
-596102.9295
 20
-1159198.588
  0
LWPOLYLINE
  5
2005A
100
AcDbEntity
  8
0
100
AcDbPolyline
 70
0
 90
4
 10
-596102.9295
 20
-1159198.588
 10
-595980.6918
 20
-1159009.6752
 10
-595901.3166
 20
-1158898.5499
 10
-595888.6166
 20
-1158889.0249
  0
LWPOLYLINE
  5
2005B
100
AcDbEntity
  8
0
100
AcDbPolyline
 70
0
 90
3
 10
-596791.9059
 20
-1159944.7145
 10
-596771.2684
 20
-1160038.3772
 10
-596747.4558
 20
-1160100.2898
  0
LWPOLYLINE
  5
2005C
100
AcDbEntity
  8
0
100
AcDbPolyline
 70
0
 90
9
 10
-596747.4558
 20
-1160100.2898
 10
-596688.7182
 20
-1160082.8273
 10
-596628.3931
 20
-1160035.2022
 10
-596596.643
 20
-1160043.1397
 10
-596561.718
 20
-1160068.5398
 10
-596506.1553
 20
-1160120.9274
 10
-596450.5927
 20
-1160173.315
 10
-596383.9176
 20
-1160225.7026
 10
-596288.6674
 20
-1160254.2776
  0
LWPOLYLINE
  5
2005D
100
AcDbEntity
  8
0
100
AcDbPolyline
 70
0
 90
3
 10
-596288.6674
 20
-1160254.2776
 10
-596125.1546
 20
-1160279.6777
 10
-595910.8416
 20
-1160316.1903
  0
LWPOLYLINE
  5
2005E
100
AcDbEntity
  8
0
100
AcDbPolyline
 70
0
 90
2
 10
-595910.8416
 20
-1160316.1903
 10
-595861.6291
 20
-1160028.8522
  0
LWPOLYLINE
  5
2005F
100
AcDbEntity
  8
0
100
AcDbPolyline
 70
0
 90
2
 10
-595910.8416
 20
-1160316.1903
 10
-595934.6542
 20
-1160435.253
  0
LWPOLYLINE
  5
20060
100
AcDbEntity
  8
0
100
AcDbPolyline
 70
0
 90
5
 10
-595910.8416
 20
-1160316.1903
 10
-595745.7413
 20
-1160343.1778
 10
-595707.6412
 20
-1160343.1778
 10
-595618.7411
 20
-1160308.2527
 10
-595533.0159
 20
-1160273.3277
  0
LWPOLYLINE
  5
20061
100
AcDbEntity
  8
0
100
AcDbPolyline
 70
0
 90
6
 10
-595533.0159
 20
-1160273.3277
 10
-595601.2785
 20
-1160098.7023
 10
-595618.7411
 20
-1160014.5647
 10
-595615.5661
 20
-1159935.1895
 10
-595591.7535
 20
-1159866.9269
 10
-595572.7035
 20
-1159843.1143
  0
LWPOLYLINE
  5
20062
100
AcDbEntity
  8
0
100
AcDbPolyline
 70
0
 90
3
 10
-595572.7035
 20
-1159843.1143
 10
-595548.8909
 20
-1159838.3518
 10
-595328.228
 20
-1159722.4641
  0
LWPOLYLINE
  5
20063
100
AcDbEntity
  8
0
100
AcDbPolyline
 70
0
 90
3
 10
-595328.228
 20
-1159722.4641
 10
-595325.053
 20
-1159689.1265
 10
-595283.7779
 20
-1159547.8387
  0
LWPOLYLINE
  5
20064
100
AcDbEntity
  8
0
100
AcDbPolyline
 70
0
 90
2
 10
-595283.7779
 20
-1159547.8387
 10
-595504.4408
 20
-1159498.6261
  0
LWPOLYLINE
  5
20065
100
AcDbEntity
  8
0
100
AcDbPolyline
 70
0
 90
2
 10
-595572.7035
 20
-1159843.1143
 10
-595504.4408
 20
-1159498.6261
  0
LWPOLYLINE
  5
20066
100
AcDbEntity
  8
0
100
AcDbPolyline
 70
0
 90
4
 10
-595504.4408
 20
-1159498.6261
 10
-595480.6283
 20
-1159397.0259
 10
-595436.1782
 20
-1159250.9756
 10
-595421.8907
 20
-1159181.1255
  0
LWPOLYLINE
  5
20067
100
AcDbEntity
  8
0
100
AcDbPolyline
 70
0
 90
7
 10
-595421.8907
 20
-1159181.1255
 10
-595482.2158
 20
-1159135.0879
 10
-595599.691
 20
-1159077.9378
 10
-595690.1787
 20
-1159017.6127
 10
-595772.7289
 20
-1158957.2875
 10
-595853.6915
 20
-1158906.4874
 10
-595888.6166
 20
-1158889.0249
  0
LWPOLYLINE
  5
20068
100
AcDbEntity
  8
0
100
AcDbPolyline
 70
0
 90
4
 10
-595888.6166
 20
-1158889.0249
 10
-595982.2793
 20
-1158854.0998
 10
-596025.1419
 20
-1158835.0498
 10
-596055.3044
 20
-1158802.0297
  0
LWPOLYLINE
  5
20069
100
AcDbEntity
  8
0
100
AcDbPolyline
 70
0
 90
13
 10
-595888.6166
 20
-1158889.0249
 10
-595845.754
 20
-1158865.2124
 10
-595794.9539
 20
-1158869.9749
 10
-595761.6164
 20
-1158868.3874
 10
-595713.9913
 20
-1158850.9248
 10
-595667.9537
 20
-1158812.8248
 10
-595615.5661
 20
-1158755.6746
 10
-595582.2285
 20
-1158723.9246
 10
-595555.2409
 20
-1158720.7496
 10
-595474.2783
 20
-1158739.7996
 10
-595390.1406
 20
-1158766.7872
 10
-595340.928
 20
-1158777.8997
 10
-595312.353
 20
-1158771.5497
  0
LWPOLYLINE
  5
2006A
100
AcDbEntity
  8
0
100
AcDbPolyline
 70
0
 90
5
 10
-595421.8907
 20
-1159181.1255
 10
-595367.9156
 20
-1159038.2502
 10
-595331.403
 20
-1158928.7125
 10
-595326.6405
 20
-1158865.2124
 10
-595312.353
 20
-1158771.5497
  0
LWPOLYLINE
  5
2006B
100
AcDbEntity
  8
0
100
AcDbPolyline
 70
0
 90
17
 10
-595283.7779
 20
-1159547.8387
 10
-595223.4528
 20
-1159401.7884
 10
-595171.0652
 20
-1159319.2383
 10
-595091.69
 20
-1159260.5007
 10
-594994.8523
 20
-1159211.2881
 10
-594947.2272
 20
-1159170.013
 10
-594861.5021
 20
-1159073.1753
 10
-594774.1894
 20
-1159000.1501
 10
-594678.9392
 20
-1158941.4125
 10
-594639.2516
 20
-1158900.1374
 10
-594586.864
 20
-1158792.1872
 10
-594544.0014
 20
-1158666.7745
 10
-594553.5264
 20
-1158561.9993
 10
-594599.564
 20
-1158377.8489
 10
-594620.2016
 20
-1158242.9111
 10
-594605.914
 20
-1158214.3361
 10
-594577.339
 20
-1158201.636
  0
LWPOLYLINE
  5
2006C
100
AcDbEntity
  8
0
100
AcDbPolyline
 70
0
 90
6
 10
-595312.353
 20
-1158771.5497
 10
-595306.0029
 20
-1158669.9495
 10
-595339.3405
 20
-1158544.5367
 10
-595340.928
 20
-1158484.2116
 10
-595302.8279
 20
-1158261.9612
 10
-595290.1279
 20
-1158217.5111
  0
LWPOLYLINE
  5
2006D
100
AcDbEntity
  8
0
100
AcDbPolyline
 70
0
 90
7
 10
-595290.1279
 20
-1158217.5111
 10
-595269.4904
 20
-1158147.6609
 10
-595240.9153
 20
-1158115.9109
 10
-595205.9902
 20
-1158092.0983
 10
-595183.7652
 20
-1158061.9358
 10
-595166.3027
 20
-1158007.9606
 10
-595148.8401
 20
-1157847.6228
  0
LWPOLYLINE
  5
2006E
100
AcDbEntity
  8
0
100
AcDbPolyline
 70
0
 90
17
 10
-595148.8401
 20
-1157847.6228
 10
-595123.4401
 20
-1157687.285
 10
-595091.69
 20
-1157630.1349
 10
-595039.3024
 20
-1157580.9223
 10
-594783.7144
 20
-1157509.4847
 10
-594805.9394
 20
-1157399.9469
 10
-594793.2394
 20
-1157244.3716
 10
-594764.6644
 20
-1157101.4963
 10
-594750.3768
 20
-1157031.6462
 10
-594763.0769
 20
-1156942.746
 10
-594829.752
 20
-1156850.6708
 10
-594883.7271
 20
-1156772.8832
 10
-594993.2648
 20
-1156593.4953
 10
-595026.6024
 20
-1156512.5327
 10
-595013.9024
 20
-1156439.5075
 10
-594977.3898
 20
-1156396.6449
 10
-594920.2397
 20
-1156371.2449
  0
LWPOLYLINE
  5
2006F
100
AcDbEntity
  8
0
100
AcDbPolyline
 70
0
 90
15
 10
-595328.228
 20
-1159722.4641
 10
-595253.6153
 20
-1159701.8265
 10
-595179.0027
 20
-1159673.2515
 10
-595086.9275
 20
-1159608.1638
 10
-595018.6649
 20
-1159554.1887
 10
-594942.4647
 20
-1159512.9137
 10
-594839.277
 20
-1159498.6261
 10
-594701.1642
 20
-1159485.9261
 10
-594585.2765
 20
-1159441.476
 10
-594488.4388
 20
-1159400.2009
 10
-594397.9511
 20
-1159379.5634
 10
-594302.7009
 20
-1159377.9759
 10
-594196.3382
 20
-1159397.0259
 10
-594120.1381
 20
-1159431.951
 10
-594045.5254
 20
-1159492.2761
  0
LWPOLYLINE
  5
20070
100
AcDbEntity
  8
0
100
AcDbPolyline
 70
0
 90
4
 10
-594045.5254
 20
-1159492.2761
 10
-594007.4253
 20
-1159544.6637
 10
-593985.2003
 20
-1159601.8138
 10
-593978.8503
 20
-1159663.7265
  0
LWPOLYLINE
  5
20071
100
AcDbEntity
  8
0
100
AcDbPolyline
 70
0
 90
9
 10
-593978.8503
 20
-1159663.7265
 10
-594378.9011
 20
-1159620.8639
 10
-594404.3011
 20
-1159628.8014
 10
-594580.514
 20
-1159733.5766
 10
-594588.4515
 20
-1159765.3267
 10
-594583.689
 20
-1159797.0767
 10
-594550.3514
 20
-1159882.8019
 10
-594537.6514
 20
-1159914.552
 10
-594153.4756
 20
-1159960.5896
  0
LWPOLYLINE
  5
20072
100
AcDbEntity
  8
0
100
AcDbPolyline
 70
0
 90
4
 10
-593978.8503
 20
-1159663.7265
 10
-593978.8503
 20
-1159758.9767
 10
-593977.2628
 20
-1159814.5393
 10
-593972.5003
 20
-1159863.7519
  0
LWPOLYLINE
  5
20073
100
AcDbEntity
  8
0
100
AcDbPolyline
 70
0
 90
2
 10
-593972.5003
 20
-1159863.7519
 10
-594153.4756
 20
-1159960.5896
  0
LWPOLYLINE
  5
20074
100
AcDbEntity
  8
0
100
AcDbPolyline
 70
0
 90
23
 10
-594474.9041
 20
-1159998.3042
 10
-594528.1264
 20
-1159992.3396
 10
-594551.9389
 20
-1159990.7521
 10
-594590.039
 20
-1159995.5146
 10
-594615.4391
 20
-1160011.3897
 10
-594644.0141
 20
-1160039.9647
 10
-594653.5391
 20
-1160059.0148
 10
-594663.0642
 20
-1160093.9398
 10
-594671.0017
 20
-1160182.84
 10
-594672.5892
 20
-1160235.2276
 10
-594666.2392
 20
-1160276.5027
 10
-594645.6016
 20
-1160328.8903
 10
-594620.2016
 20
-1160371.7529
 10
-594580.514
 20
-1160405.0904
 10
-594540.8264
 20
-1160427.3155
 10
-594491.6138
 20
-1160440.0155
 10
-594393.1886
 20
-1160455.8905
 10
-594328.101
 20
-1160473.3531
 10
-594277.3009
 20
-1160513.0407
 10
-594226.5008
 20
-1160563.8408
 10
-594158.2381
 20
-1160613.0534
 10
-594088.388
 20
-1160620.9909
 10
-594072.513
 20
-1160620.9909
  0
LWPOLYLINE
  5
20075
100
AcDbEntity
  8
0
100
AcDbPolyline
 70
0
 90
2
 10
-594072.513
 20
-1160620.9909
 10
-593882.0126
 20
-1160581.3033
  0
LWPOLYLINE
  5
20076
100
AcDbEntity
  8
0
100
AcDbPolyline
 70
0
 90
5
 10
-593972.5003
 20
-1159863.7519
 10
-593940.7502
 20
-1159925.6645
 10
-593913.7627
 20
-1159971.7021
 10
-593867.7251
 20
-1160022.5022
 10
-593772.4749
 20
-1160125.6899
  0
LWPOLYLINE
  5
20077
100
AcDbEntity
  8
0
100
AcDbPolyline
 70
0
 90
2
 10
-593882.0126
 20
-1160581.3033
 10
-593772.4749
 20
-1160125.6899
  0
LWPOLYLINE
  5
20078
100
AcDbEntity
  8
0
100
AcDbPolyline
 70
0
 90
8
 10
-594072.513
 20
-1160620.9909
 10
-594080.4505
 20
-1160684.491
 10
-594278.8884
 20
-1160881.3414
 10
-594339.2135
 20
-1160922.6165
 10
-594402.7136
 20
-1160949.604
 10
-594602.739
 20
-1160976.5916
 10
-594939.2897
 20
-1161021.0417
 10
-595074.2275
 20
-1161032.1542
  0
LWPOLYLINE
  5
20079
100
AcDbEntity
  8
0
100
AcDbPolyline
 70
0
 90
5
 10
-595533.0159
 20
-1160273.3277
 10
-595423.4782
 20
-1160543.2032
 10
-595391.7281
 20
-1160641.6284
 10
-595379.0281
 20
-1160709.8911
 10
-595379.0281
 20
-1160735.2911
  0
LWPOLYLINE
  5
2007A
100
AcDbEntity
  8
0
100
AcDbPolyline
 70
0
 90
4
 10
-595379.0281
 20
-1160735.2911
 10
-595379.0281
 20
-1160846.4163
 10
-595379.0281
 20
-1160948.0165
 10
-595377.4406
 20
-1161030.5667
  0
LWPOLYLINE
  5
2007B
100
AcDbEntity
  8
0
100
AcDbPolyline
 70
0
 90
2
 10
-595377.4406
 20
-1161030.5667
 10
-595074.2275
 20
-1161032.1542
  0
LWPOLYLINE
  5
2007C
100
AcDbEntity
  8
0
100
AcDbPolyline
 70
0
 90
5
 10
-595074.2275
 20
-1161032.1542
 10
-595152.0151
 20
-1160924.204
 10
-595204.4027
 20
-1160905.1539
 10
-595264.7279
 20
-1160859.1164
 10
-595379.0281
 20
-1160735.2911
  0
LWPOLYLINE
  5
2007D
100
AcDbEntity
  8
0
100
AcDbPolyline
 70
0
 90
8
 10
-595377.4406
 20
-1161030.5667
 10
-595488.5658
 20
-1161032.1542
 10
-595626.6786
 20
-1161065.4918
 10
-595829.879
 20
-1161138.5169
 10
-596109.2795
 20
-1161236.9421
 10
-596128.3296
 20
-1161236.9421
 10
-596202.9422
 20
-1161225.8296
 10
-596269.6174
 20
-1161227.4171
  0
LWPOLYLINE
  5
2007E
100
AcDbEntity
  8
0
100
AcDbPolyline
 70
0
 90
12
 10
-596269.6174
 20
-1161227.4171
 10
-596190.2422
 20
-1161017.8667
 10
-596275.9674
 20
-1160962.3041
 10
-596299.7799
 20
-1160797.2037
 10
-596315.655
 20
-1160697.191
 10
-596348.9925
 20
-1160644.8034
 10
-596399.7926
 20
-1160490.8156
 10
-596398.2051
 20
-1160457.478
 10
-596388.6801
 20
-1160386.0404
 10
-596356.93
 20
-1160335.2403
 10
-596299.7799
 20
-1160274.9152
 10
-596288.6674
 20
-1160254.2776
  0
LWPOLYLINE
  5
2007F
100
AcDbEntity
  8
0
100
AcDbPolyline
 70
0
 90
14
 10
-593772.4749
 20
-1160125.6899
 10
-593756.5998
 20
-1160090.7648
 10
-593708.9747
 20
-1160059.0148
 10
-593628.0121
 20
-1160044.7272
 10
-593553.3994
 20
-1160016.1522
 10
-593486.7243
 20
-1159963.7646
 10
-593427.9867
 20
-1159901.8519
 10
-593393.0616
 20
-1159844.7018
 10
-593356.549
 20
-1159754.2141
 10
-593310.5114
 20
-1159614.5139
 10
-593267.6489
 20
-1159516.0887
 10
-593202.5612
 20
-1159427.1885
 10
-593124.7736
 20
-1159352.5758
 10
-593029.5234
 20
-1159292.2507
  0
LWPOLYLINE
  5
20080
100
AcDbEntity
  8
0
100
AcDbPolyline
 70
0
 90
5
 10
-593029.5234
 20
-1159292.2507
 10
-592932.6857
 20
-1159247.8006
 10
-592851.723
 20
-1159228.7506
 10
-592777.1104
 20
-1159211.2881
 10
-592729.4853
 20
-1159190.6505
  0
LWPOLYLINE
  5
20081
100
AcDbEntity
  8
0
100
AcDbPolyline
 70
0
 90
14
 10
-592729.4853
 20
-1159190.6505
 10
-592681.8602
 20
-1159138.2629
 10
-592648.5226
 20
-1159073.1753
 10
-592616.7726
 20
-1158946.175
 10
-592581.8475
 20
-1158800.1247
 10
-592554.8599
 20
-1158739.7996
 10
-592435.7972
 20
-1158490.5616
 10
-592348.4845
 20
-1158371.4989
 10
-592240.5343
 20
-1158255.6111
 10
-592161.1591
 20
-1158203.2235
 10
-591956.3712
 20
-1158092.0983
 10
-591848.421
 20
-1158031.7732
 10
-591694.4332
 20
-1157942.873
 10
-591640.4581
 20
-1157920.648
  0
LWPOLYLINE
  5
20082
100
AcDbEntity
  8
0
100
AcDbPolyline
 70
0
 90
8
 10
-591640.4581
 20
-1157920.648
 10
-591532.5079
 20
-1157884.1354
 10
-591422.9702
 20
-1157858.7354
 10
-591343.595
 20
-1157833.3353
 10
-591264.2199
 20
-1157799.9977
 10
-591145.1571
 20
-1157734.9101
 10
-591070.5445
 20
-1157680.935
 10
-591007.0443
 20
-1157611.0849
  0
LWPOLYLINE
  5
20083
100
AcDbEntity
  8
0
100
AcDbPolyline
 70
0
 90
15
 10
-590845.119
 20
-1157963.5106
 10
-590849.8815
 20
-1158011.1357
 10
-590900.6816
 20
-1158115.9109
 10
-590957.8317
 20
-1158223.8611
 10
-590987.9943
 20
-1158281.0112
 10
-591064.1945
 20
-1158393.7239
 10
-591103.882
 20
-1158450.874
 10
-591127.6946
 20
-1158508.0241
 10
-591146.7446
 20
-1158552.4742
 10
-591168.9697
 20
-1158582.6368
 10
-591181.6697
 20
-1158612.7994
 10
-591168.9697
 20
-1158666.7745
 10
-591137.2196
 20
-1158735.0371
 10
-591094.357
 20
-1158839.8123
 10
-591037.2069
 20
-1159049.3627
  0
LWPOLYLINE
  5
20084
100
AcDbEntity
  8
0
100
AcDbPolyline
 70
0
 90
15
 10
-591037.2069
 20
-1159049.3627
 10
-591011.8069
 20
-1159143.0254
 10
-591011.8069
 20
-1159184.3005
 10
-591029.2694
 20
-1159230.3381
 10
-591080.0695
 20
-1159297.0132
 10
-591159.4446
 20
-1159355.7508
 10
-591316.6075
 20
-1159477.9886
 10
-591376.9326
 20
-1159581.1763
 10
-591442.0202
 20
-1159692.3015
 10
-591457.8952
 20
-1159714.5266
 10
-591580.133
 20
-1159773.2642
 10
-591646.8081
 20
-1159935.1895
 10
-591702.3707
 20
-1160044.7272
 10
-591734.1208
 20
-1160100.2898
 10
-591742.0583
 20
-1160116.1649
  0
LWPOLYLINE
  5
20085
100
AcDbEntity
  8
0
100
AcDbPolyline
 70
0
 90
8
 10
-591742.0583
 20
-1160116.1649
 10
-591759.5208
 20
-1160141.5649
 10
-591881.7586
 20
-1160092.3523
 10
-591950.0212
 20
-1160079.6523
 10
-592089.7215
 20
-1160093.9398
 10
-592143.6966
 20
-1160090.7648
 10
-592208.7842
 20
-1160068.5398
 10
-592297.6844
 20
-1160009.8022
  0
LWPOLYLINE
  5
20086
100
AcDbEntity
  8
0
100
AcDbPolyline
 70
0
 90
15
 10
-592297.6844
 20
-1160009.8022
 10
-592250.0593
 20
-1159954.2395
 10
-592196.0842
 20
-1159870.1019
 10
-592175.4467
 20
-1159801.8392
 10
-592177.0342
 20
-1159709.7641
 10
-592196.0842
 20
-1159643.0889
 10
-592221.4843
 20
-1159539.9012
 10
-592231.0093
 20
-1159408.1384
 10
-592240.5343
 20
-1159331.9383
 10
-592269.1094
 20
-1159322.4133
 10
-592448.4972
 20
-1159279.5507
 10
-592540.5724
 20
-1159257.3256
 10
-592645.3476
 20
-1159236.6881
 10
-592692.9727
 20
-1159220.8131
 10
-592729.4853
 20
-1159190.6505
  0
LWPOLYLINE
  5
20087
100
AcDbEntity
  8
0
100
AcDbPolyline
 70
0
 90
17
 10
-591759.5208
 20
-1160141.5649
 10
-591696.0207
 20
-1160114.5774
 10
-591567.433
 20
-1160162.2025
 10
-591457.8952
 20
-1160192.365
 10
-591357.8825
 20
-1160222.5276
 10
-591268.9824
 20
-1160232.0526
 10
-591213.4198
 20
-1160276.5027
 10
-591178.4947
 20
-1160287.6152
 10
-591076.8945
 20
-1160292.3777
 10
-591011.8069
 20
-1160322.5403
 10
-590953.0692
 20
-1160370.1654
 10
-590857.819
 20
-1160473.3531
 10
-590805.4314
 20
-1160525.7407
 10
-590718.1188
 20
-1160601.9408
 10
-590646.6811
 20
-1160655.9159
 10
-590492.6933
 20
-1160682.9035
 10
-590321.243
 20
-1160709.8911
  0
LWPOLYLINE
  5
20088
100
AcDbEntity
  8
0
100
AcDbPolyline
 70
0
 90
2
 10
-593699.2221
 20
-1160540.3139
 10
-593882.0126
 20
-1160581.3033
  0
LWPOLYLINE
  5
20089
100
AcDbEntity
  8
0
100
AcDbPolyline
 70
0
 90
5
 10
-592923.0797
 20
-1160335.7648
 10
-592940.6232
 20
-1160351.1153
 10
-592999.3608
 20
-1160379.6904
 10
-593096.1985
 20
-1160405.0904
 10
-593699.2221
 20
-1160540.3139
  0
LWPOLYLINE
  5
2008A
100
AcDbEntity
  8
0
100
AcDbPolyline
 70
0
 90
6
 10
-593683.5747
 20
-1160597.1783
 10
-593654.9996
 20
-1160606.7033
 10
-593212.0863
 20
-1160670.2035
 10
-593016.8234
 20
-1160714.6536
 10
-592765.9979
 20
-1160784.5037
 10
-592665.9852
 20
-1160819.4288
  0
LWPOLYLINE
  5
2008B
100
AcDbEntity
  8
0
100
AcDbPolyline
 70
0
 90
7
 10
-592665.9852
 20
-1160819.4288
 10
-592561.2099
 20
-1160862.2914
 10
-592373.8846
 20
-1160927.379
 10
-592121.4716
 20
-1161016.2792
 10
-592050.0339
 20
-1161041.6792
 10
-591961.1337
 20
-1161097.2418
 10
-591915.0962
 20
-1161140.1044
  0
LWPOLYLINE
  5
2008C
100
AcDbEntity
  8
0
100
AcDbPolyline
 70
0
 90
11
 10
-591915.0962
 20
-1161140.1044
 10
-591878.5836
 20
-1161189.317
 10
-591840.4835
 20
-1161265.5172
 10
-591821.4335
 20
-1161340.1298
 10
-591815.0835
 20
-1161422.68
 10
-591824.6085
 20
-1161489.3551
 10
-591848.421
 20
-1161584.6053
 10
-591856.3585
 20
-1161624.2929
 10
-591846.8335
 20
-1161656.0429
 10
-591803.9709
 20
-1161710.0181
 10
-591789.6834
 20
-1161759.2307
  0
LWPOLYLINE
  5
2008D
100
AcDbEntity
  8
0
100
AcDbPolyline
 70
0
 90
9
 10
-591789.6834
 20
-1161759.2307
 10
-591751.5833
 20
-1161690.968
 10
-591729.3583
 20
-1161619.5304
 10
-591715.0708
 20
-1161514.7552
 10
-591718.2458
 20
-1161409.98
 10
-591729.3583
 20
-1161316.3173
 10
-591749.9958
 20
-1161202.017
 10
-591778.5709
 20
-1161114.7044
 10
-591807.1459
 20
-1161052.7917
  0
LWPOLYLINE
  5
2008E
100
AcDbEntity
  8
0
100
AcDbPolyline
 70
0
 90
3
 10
-591915.0962
 20
-1161140.1044
 10
-591859.5335
 20
-1161095.6543
 10
-591807.1459
 20
-1161052.7917
  0
LWPOLYLINE
  5
2008F
100
AcDbEntity
  8
0
100
AcDbPolyline
 70
0
 90
13
 10
-592665.9852
 20
-1160819.4288
 10
-592642.1726
 20
-1160809.9038
 10
-592521.5224
 20
-1160836.8913
 10
-592472.3098
 20
-1160814.6663
 10
-592400.8721
 20
-1160689.2535
 10
-592343.722
 20
-1160581.3033
 10
-592254.8218
 20
-1160560.6658
 10
-592113.5341
 20
-1160493.9906
 10
-592088.134
 20
-1160451.128
 10
-591997.6463
 20
-1160387.6279
 10
-591945.2587
 20
-1160373.3404
 10
-591908.7461
 20
-1160390.8029
 10
-591808.7334
 20
-1160360.6404
  0
LWPOLYLINE
  5
20090
100
AcDbEntity
  8
0
100
AcDbPolyline
 70
0
 90
4
 10
-591759.5208
 20
-1160141.5649
 10
-591753.1708
 20
-1160165.3775
 10
-591780.1584
 20
-1160266.9777
 10
-591808.7334
 20
-1160360.6404
  0
LWPOLYLINE
  5
20091
100
AcDbEntity
  8
0
100
AcDbPolyline
 70
0
 90
7
 10
-591808.7334
 20
-1160360.6404
 10
-591816.671
 20
-1160443.1905
 10
-591826.196
 20
-1160516.2157
 10
-591827.7835
 20
-1160590.8283
 10
-591813.496
 20
-1160817.8413
 10
-591800.7959
 20
-1161040.0917
 10
-591807.1459
 20
-1161052.7917
  0
LWPOLYLINE
  5
20092
100
AcDbEntity
  8
0
100
AcDbPolyline
 70
0
 90
15
 10
-593882.0126
 20
-1160581.3033
 10
-593901.0626
 20
-1160668.616
 10
-593923.2877
 20
-1160771.8037
 10
-593934.4002
 20
-1160844.8288
 10
-593924.8752
 20
-1160906.7414
 10
-593902.6501
 20
-1160984.5291
 10
-593878.8376
 20
-1161094.0668
 10
-593850.2625
 20
-1161198.842
 10
-593837.5625
 20
-1161265.5172
 10
-593834.3875
 20
-1161332.1923
 10
-593848.675
 20
-1161414.7425
 10
-593877.2501
 20
-1161476.6551
 10
-593932.8127
 20
-1161551.2677
 10
-594007.4253
 20
-1161617.9429
 10
-594236.0258
 20
-1161817.9683
  0
LWPOLYLINE
  5
20093
100
AcDbEntity
  8
0
100
AcDbPolyline
 70
0
 90
4
 10
-594236.0258
 20
-1161817.9683
 10
-594348.7385
 20
-1161719.5431
 10
-594458.2762
 20
-1161649.6929
 10
-594583.689
 20
-1161573.4928
  0
LWPOLYLINE
  5
20094
100
AcDbEntity
  8
0
100
AcDbPolyline
 70
0
 90
6
 10
-594583.689
 20
-1161573.4928
 10
-594715.4518
 20
-1161487.7676
 10
-594807.5269
 20
-1161389.3424
 10
-594977.3898
 20
-1161202.017
 10
-594998.0273
 20
-1161176.617
 10
-595074.2275
 20
-1161032.1542
  0
LWPOLYLINE
  5
20095
100
AcDbEntity
  8
0
100
AcDbPolyline
 70
0
 90
6
 10
-595377.4406
 20
-1161030.5667
 10
-595363.1531
 20
-1161135.3419
 10
-595345.6905
 20
-1161243.2921
 10
-595321.878
 20
-1161351.2423
 10
-595291.7154
 20
-1161451.255
 10
-595272.6654
 20
-1161546.5052
  0
LWPOLYLINE
  5
20096
100
AcDbEntity
  8
0
100
AcDbPolyline
 70
0
 90
11
 10
-594025.5523
 20
-1162252.1803
 10
-594151.8881
 20
-1162208.494
 10
-594320.1635
 20
-1162140.2314
 10
-594602.739
 20
-1162011.6437
 10
-594767.8394
 20
-1161935.4435
 10
-594880.5521
 20
-1161864.0059
 10
-594990.0898
 20
-1161773.5182
 10
-595069.465
 20
-1161710.0181
 10
-595169.4777
 20
-1161646.5179
 10
-595272.6654
 20
-1161605.2428
 10
-595443.5865
 20
-1161566.6136
  0
LWPOLYLINE
  5
20097
100
AcDbEntity
  8
0
100
AcDbPolyline
 70
0
 90
6
 10
-594236.0258
 20
-1161817.9683
 10
-594058.2254
 20
-1162079.9063
 10
-594010.6003
 20
-1162157.6939
 10
-593958.2127
 20
-1162248.1816
 10
-593928.0502
 20
-1162318.0318
 10
-593926.868
 20
-1162375.9569
  0
LWPOLYLINE
  5
20098
100
AcDbEntity
  8
0
100
AcDbPolyline
 70
0
 90
8
 10
-592477.6653
 20
-1162564.0289
 10
-592562.7975
 20
-1162554.5697
 10
-592867.5981
 20
-1162513.2947
 10
-593223.1988
 20
-1162445.032
 10
-593605.787
 20
-1162362.4819
 10
-593869.3126
 20
-1162298.9817
 10
-593982.0253
 20
-1162267.2317
 10
-594025.5523
 20
-1162252.1803
  0
LWPOLYLINE
  5
20099
100
AcDbEntity
  8
0
100
AcDbPolyline
 70
0
 90
5
 10
-592157.9841
 20
-1162481.5446
 10
-592062.734
 20
-1162289.4567
 10
-591934.1462
 20
-1162032.2812
 10
-591816.671
 20
-1161814.7933
 10
-591789.6834
 20
-1161759.2307
  0
LWPOLYLINE
  5
2009A
100
AcDbEntity
  8
0
100
AcDbPolyline
 70
0
 90
5
 10
-592227.8343
 20
-1162827.6203
 10
-592226.2468
 20
-1162733.9576
 10
-592215.1343
 20
-1162654.5824
 10
-592199.2592
 20
-1162591.0823
 10
-592157.9841
 20
-1162481.5446
  0
LWPOLYLINE
  5
2009B
100
AcDbEntity
  8
0
100
AcDbPolyline
 70
0
 90
6
 10
-592227.8343
 20
-1162827.6203
 10
-592389.7596
 20
-1162813.3328
 10
-592588.1975
 20
-1162794.2827
 10
-592902.5231
 20
-1162740.3076
 10
-593302.5739
 20
-1162660.9325
 10
-593512.1244
 20
-1162621.2449
  0
LWPOLYLINE
  5
2009C
100
AcDbEntity
  8
0
100
AcDbPolyline
 70
0
 90
3
 10
-593512.1244
 20
-1162621.2449
 10
-593928.0502
 20
-1162533.9322
 10
-593951.8627
 20
-1162535.5197
  0
LWPOLYLINE
  5
2009D
100
AcDbEntity
  8
0
100
AcDbPolyline
 70
0
 90
5
 10
-593951.8627
 20
-1162535.5197
 10
-593947.1002
 20
-1162575.2073
 10
-593923.2877
 20
-1162614.8949
 10
-593742.3123
 20
-1162805.3952
 10
-593532.7619
 20
-1163027.6457
  0
LWPOLYLINE
  5
2009E
100
AcDbEntity
  8
0
100
AcDbPolyline
 70
0
 90
6
 10
-593532.7619
 20
-1163027.6457
 10
-593435.9242
 20
-1163130.8334
 10
-593367.6616
 20
-1163213.3836
 10
-593289.8739
 20
-1163321.3338
 10
-593224.7863
 20
-1163422.934
 10
-592994.5983
 20
-1163757.8971
  0
LWPOLYLINE
  5
2009F
100
AcDbEntity
  8
0
100
AcDbPolyline
 70
0
 90
5
 10
-592322.5553
 20
-1163333.5046
 10
-592284.4552
 20
-1163225.5544
 10
-592262.2302
 20
-1163166.8168
 10
-592238.4176
 20
-1163028.704
 10
-592227.8343
 20
-1162827.6203
  0
LWPOLYLINE
  5
200A0
100
AcDbEntity
  8
0
100
AcDbPolyline
 70
0
 90
10
 10
-592994.5983
 20
-1163757.8971
 10
-592876.5939
 20
-1163654.1803
 10
-592768.6437
 20
-1163573.2176
 10
-592692.4435
 20
-1163514.48
 10
-592608.3059
 20
-1163417.6423
 10
-592601.9559
 20
-1163397.0048
 10
-592581.3183
 20
-1163377.9547
 10
-592481.3056
 20
-1163365.2547
 10
-592359.0679
 20
-1163350.9672
 10
-592322.5553
 20
-1163333.5046
  0
LWPOLYLINE
  5
200A1
100
AcDbEntity
  8
0
100
AcDbPolyline
 70
0
 90
6
 10
-593512.1244
 20
-1162621.2449
 10
-593411.5825
 20
-1162698.5034
 10
-593263.9447
 20
-1162809.6286
 10
-593097.2569
 20
-1162966.7914
 10
-593038.5192
 20
-1163019.179
 10
-592957.5566
 20
-1163193.8044
  0
LWPOLYLINE
  5
200A2
100
AcDbEntity
  8
0
100
AcDbPolyline
 70
0
 90
12
 10
-592957.5566
 20
-1163193.8044
 10
-592933.744
 20
-1163196.9794
 10
-592894.0564
 20
-1163187.4543
 10
-592838.4938
 20
-1163198.5669
 10
-592741.6561
 20
-1163227.1419
 10
-592635.2934
 20
-1163260.4795
 10
-592571.7933
 20
-1163252.542
 10
-592524.1682
 20
-1163225.5544
 10
-592454.3181
 20
-1163143.0043
 10
-592401.9305
 20
-1163065.2166
 10
-592368.5929
 20
-1162960.4414
 10
-592359.0679
 20
-1162884.2412
  0
LWPOLYLINE
  5
200A3
100
AcDbEntity
  8
0
100
AcDbPolyline
 70
0
 90
10
 10
-592957.5566
 20
-1163193.8044
 10
-592933.744
 20
-1163250.9545
 10
-592821.0313
 20
-1163296.9921
 10
-592721.0186
 20
-1163341.4421
 10
-592627.3559
 20
-1163371.6047
 10
-592597.4688
 20
-1163360.3459
 10
-592583.7104
 20
-1163306.9
 10
-592459.8852
 20
-1163341.2959
 10
-592413.8476
 20
-1163350.8209
 10
-592322.5553
 20
-1163333.5046
  0
LWPOLYLINE
  5
200A4
100
AcDbEntity
  8
0
100
AcDbPolyline
 70
0
 90
8
 10
-592322.5553
 20
-1163333.5046
 10
-592244.7676
 20
-1163408.1173
 10
-592124.1174
 20
-1163511.305
 10
-591906.6295
 20
-1163681.1678
 10
-591725.6541
 20
-1163819.2806
 10
-591416.091
 20
-1164062.1686
 10
-591092.2403
 20
-1164292.3566
 10
-590712.8271
 20
-1164563.8196
  0
LWPOLYLINE
  5
200A5
100
AcDbEntity
  8
0
100
AcDbPolyline
 70
0
 90
9
 10
-590596.9394
 20
-1162981.0789
 10
-590896.9775
 20
-1162873.1287
 10
-591116.0529
 20
-1162801.6911
 10
-591398.6285
 20
-1162725.4909
 10
-591719.3041
 20
-1162661.9908
 10
-591947.9046
 20
-1162625.4782
 10
-592199.2592
 20
-1162591.0823
 10
-592377.0596
 20
-1162575.2073
 10
-592477.6653
 20
-1162564.0289
  0
LWPOLYLINE
  5
200A6
100
AcDbEntity
  8
0
100
AcDbPolyline
 70
0
 90
6
 10
-592227.8343
 20
-1162827.6203
 10
-591644.6914
 20
-1162876.3037
 10
-591060.4903
 20
-1162922.3413
 10
-590866.8149
 20
-1162941.3913
 10
-590681.077
 20
-1162979.4914
 10
-590587.4143
 20
-1163009.654
  0
LWPOLYLINE
  5
200A7
100
AcDbEntity
  8
0
100
AcDbPolyline
 70
0
 90
5
 10
-596940.773
 20
-1161562.7853
 10
-596963.2626
 20
-1161590.5666
 10
-596995.0127
 20
-1161611.7333
 10
-597029.4086
 20
-1161619.6708
 10
-597102.1692
 20
-1161636.8688
  0
LWPOLYLINE
  5
200A8
100
AcDbEntity
  8
0
100
AcDbPolyline
 70
0
 90
12
 10
-592700.2811
 20
-1164614.8006
 10
-592552.6433
 20
-1164519.5504
 10
-592498.7682
 20
-1164482.8569
 10
-592441.618
 20
-1164441.5818
 10
-592333.6678
 20
-1164351.0942
 10
-592232.0676
 20
-1164260.6065
 10
-592035.2172
 20
-1164065.3436
 10
-591779.6292
 20
-1163812.9306
 10
-591504.9912
 20
-1163555.7551
 10
-591316.0783
 20
-1163404.9423
 10
-591084.3028
 20
-1163241.4294
 10
-590835.0648
 20
-1163093.7917
  0
LWPOLYLINE
  5
200A9
100
AcDbEntity
  8
0
100
AcDbPolyline
 70
0
 90
4
 10
-592568.62
 20
-1164382.1614
 10
-592743.2436
 20
-1164130.4312
 10
-592846.4314
 20
-1163973.2684
 10
-592994.5983
 20
-1163757.8971
  0
LWPOLYLINE
  5
200AA
100
AcDbEntity
  8
0
100
AcDbPolyline
 70
0
 90
8
 10
-592055.8548
 20
-1165309.9461
 10
-592063.7923
 20
-1165286.1335
 10
-592081.2548
 20
-1165175.0083
 10
-592114.5924
 20
-1165071.8206
 10
-592166.98
 20
-1164971.8079
 10
-592333.6678
 20
-1164725.7449
 10
-592498.7682
 20
-1164482.8569
 10
-592568.62
 20
-1164382.1614
  0
LWPOLYLINE
  5
200AB
100
AcDbEntity
  8
0
100
AcDbPolyline
 70
0
 90
2
 10
-593532.7619
 20
-1163027.6457
 10
-593971.9711
 20
-1163423.9923
  0
LWPOLYLINE
  5
200AC
100
AcDbEntity
  8
0
100
AcDbPolyline
 70
0
 90
4
 10
-593971.9711
 20
-1163423.9923
 10
-594041.8212
 20
-1163490.6674
 10
-594167.234
 20
-1163560.5176
 10
-594308.5218
 20
-1163627.1927
  0
LWPOLYLINE
  5
200AD
100
AcDbEntity
  8
0
100
AcDbPolyline
 70
0
 90
7
 10
-593971.9711
 20
-1163423.9923
 10
-594149.7715
 20
-1163220.7919
 10
-594283.1217
 20
-1163042.9916
 10
-594433.9345
 20
-1162838.2036
 10
-594535.5347
 20
-1162703.2659
 10
-594578.3973
 20
-1162652.4658
 10
-594818.1103
 20
-1162549.2781
  0
LWPOLYLINE
  5
200AE
100
AcDbEntity
  8
0
100
AcDbPolyline
 70
0
 90
9
 10
-594308.5218
 20
-1163627.1927
 10
-594394.2469
 20
-1163484.3174
 10
-594546.6473
 20
-1163281.117
 10
-594724.4476
 20
-1163039.8165
 10
-594843.5103
 20
-1162887.4162
 10
-594878.4354
 20
-1162815.9786
 10
-594887.9604
 20
-1162733.4284
 10
-594867.3229
 20
-1162646.1158
 10
-594818.1103
 20
-1162549.2781
  0
LWPOLYLINE
  5
200AF
100
AcDbEntity
  8
0
100
AcDbPolyline
 70
0
 90
2
 10
-594818.1103
 20
-1162549.2781
 10
-594679.9975
 20
-1162227.0149
  0
LWPOLYLINE
  5
200B0
100
AcDbEntity
  8
0
100
AcDbPolyline
 70
0
 90
5
 10
-593951.8627
 20
-1162535.5197
 10
-593978.3211
 20
-1162517.528
 10
-594079.9213
 20
-1162479.4279
 10
-594291.0592
 20
-1162392.1153
 10
-594679.9975
 20
-1162227.0149
  0
LWPOLYLINE
  5
200B1
100
AcDbEntity
  8
0
100
AcDbPolyline
 70
0
 90
2
 10
-594679.9975
 20
-1162227.0149
 10
-595083.6026
 20
-1162053.3886
  0
LWPOLYLINE
  5
200B2
100
AcDbEntity
  8
0
100
AcDbPolyline
 70
0
 90
4
 10
-595083.6026
 20
-1162053.3886
 10
-595100.6859
 20
-1162046.0396
 10
-595338.8113
 20
-1161941.2643
 10
-595721.3996
 20
-1161777.7515
  0
LWPOLYLINE
  5
200B3
100
AcDbEntity
  8
0
100
AcDbPolyline
 70
0
 90
6
 10
-595721.3996
 20
-1161777.7515
 10
-595994.4501
 20
-1161660.2763
 10
-596042.699
 20
-1161640.1937
 10
-596075.4128
 20
-1161623.7637
 10
-596130.9754
 20
-1161604.7137
 10
-596208.7631
 20
-1161577.7261
  0
LWPOLYLINE
  5
200B4
100
AcDbEntity
  8
0
100
AcDbPolyline
 70
0
 90
7
 10
-595272.6654
 20
-1161546.5052
 10
-595272.6654
 20
-1161605.2428
 10
-595273.7237
 20
-1161676.1513
 10
-595284.8362
 20
-1161749.1765
 10
-595310.2363
 20
-1161844.4267
 10
-595338.8113
 20
-1161941.2643
 10
-595358.4145
 20
-1162012.3703
  0
LWPOLYLINE
  5
200B5
100
AcDbEntity
  8
0
100
AcDbPolyline
 70
0
 90
7
 10
-595443.5865
 20
-1161566.6136
 10
-595561.0618
 20
-1161563.4386
 10
-595670.5995
 20
-1161590.4261
 10
-595767.4372
 20
-1161617.4137
 10
-595845.2249
 20
-1161628.5262
 10
-595945.2376
 20
-1161631.7012
 10
-596208.7631
 20
-1161577.7261
  0
LWPOLYLINE
  5
200B6
100
AcDbEntity
  8
0
100
AcDbPolyline
 70
0
 90
2
 10
-595721.3996
 20
-1161777.7515
 10
-595864.2749
 20
-1162098.4272
  0
LWPOLYLINE
  5
200B7
100
AcDbEntity
  8
0
100
AcDbPolyline
 70
0
 90
2
 10
-595864.2749
 20
-1162098.4272
 10
-596177.013
 20
-1162119.0647
  0
LWPOLYLINE
  5
200B8
100
AcDbEntity
  8
0
100
AcDbPolyline
 70
0
 90
2
 10
-596177.013
 20
-1162119.0647
 10
-596208.7631
 20
-1161577.7261
  0
LWPOLYLINE
  5
200B9
100
AcDbEntity
  8
0
100
AcDbPolyline
 70
0
 90
6
 10
-596177.013
 20
-1162119.0647
 10
-596245.2757
 20
-1162065.0896
 10
-596300.8383
 20
-1161980.9519
 10
-596381.8009
 20
-1161838.0766
 10
-596469.1136
 20
-1161666.6263
 10
-596545.3138
 20
-1161523.751
  0
LWPOLYLINE
  5
200BA
100
AcDbEntity
  8
0
100
AcDbPolyline
 70
0
 90
6
 10
-596545.3138
 20
-1161523.751
 10
-596489.7511
 20
-1161504.701
 10
-596396.0885
 20
-1161495.176
 10
-596319.8883
 20
-1161522.1635
 10
-596245.2757
 20
-1161561.8511
 10
-596208.7631
 20
-1161577.7261
  0
LWPOLYLINE
  5
200BB
100
AcDbEntity
  8
0
100
AcDbPolyline
 70
0
 90
4
 10
-596208.7631
 20
-1161577.7261
 10
-596239.2055
 20
-1161534.7065
 10
-596333.553
 20
-1161490.0247
 10
-596346.7822
 20
-1161475.4726
  0
LWPOLYLINE
  5
200BC
100
AcDbEntity
  8
0
100
AcDbPolyline
 70
0
 90
8
 10
-596269.6174
 20
-1161227.4171
 10
-596325.6155
 20
-1161230.7326
 10
-596337.5218
 20
-1161245.2847
 10
-596338.8447
 20
-1161258.5139
 10
-596330.9072
 20
-1161332.5973
 10
-596325.6155
 20
-1161378.8995
 10
-596330.9072
 20
-1161415.9413
 10
-596346.7822
 20
-1161475.4726
  0
LWPOLYLINE
  5
200BD
100
AcDbEntity
  8
0
100
AcDbPolyline
 70
0
 90
5
 10
-596346.7822
 20
-1161475.4726
 10
-596362.6573
 20
-1161484.7331
 10
-596406.3136
 20
-1161472.8268
 10
-596494.9492
 20
-1161431.8163
 10
-596635.1786
 20
-1161370.962
  0
LWPOLYLINE
  5
200BE
100
AcDbEntity
  8
0
100
AcDbPolyline
 70
0
 90
2
 10
-596545.3138
 20
-1161523.751
 10
-596635.1786
 20
-1161370.962
  0
LWPOLYLINE
  5
200BF
100
AcDbEntity
  8
0
100
AcDbPolyline
 70
0
 90
4
 10
-596635.1786
 20
-1161370.962
 10
-596701.3246
 20
-1161344.5036
 10
-596764.8247
 20
-1161336.5661
 10
-596897.1167
 20
-1161322.014
  0
LWPOLYLINE
  5
200C0
100
AcDbEntity
  8
0
100
AcDbPolyline
 70
0
 90
4
 10
-596897.1167
 20
-1161322.014
 10
-596914.3146
 20
-1161505.8998
 10
-596924.898
 20
-1161537.6498
 10
-596940.773
 20
-1161562.7853
  0
LWPOLYLINE
  5
200C1
100
AcDbEntity
  8
0
100
AcDbPolyline
 70
0
 90
4
 10
-596940.773
 20
-1161562.7853
 10
-596927.5438
 20
-1161597.1812
 10
-596924.898
 20
-1161639.5146
 10
-596931.5126
 20
-1161695.0772
  0
LWPOLYLINE
  5
200C2
100
AcDbEntity
  8
0
100
AcDbPolyline
 70
0
 90
3
 10
-596931.5126
 20
-1161695.0772
 10
-596950.0334
 20
-1161901.4526
 10
-596971.2001
 20
-1162123.7031
  0
LWPOLYLINE
  5
200C3
100
AcDbEntity
  8
0
100
AcDbPolyline
 70
0
 90
17
 10
-596971.2001
 20
-1162123.7031
 10
-596991.0439
 20
-1162365.7973
 10
-596988.3981
 20
-1162392.2557
 10
-596973.846
 20
-1162409.4537
 10
-596954.0022
 20
-1162424.0058
 10
-596919.6063
 20
-1162431.9433
 10
-596856.1062
 20
-1162442.5266
 10
-596821.7103
 20
-1162454.4329
 10
-596788.6373
 20
-1162475.5996
 10
-596758.2101
 20
-1162507.3497
 10
-596735.7205
 20
-1162549.6831
 10
-596734.3976
 20
-1162586.7249
 10
-596734.3976
 20
-1162622.4437
 10
-596718.5226
 20
-1162634.3499
 10
-596703.9704
 20
-1162633.027
 10
-596694.71
 20
-1162901.5796
 10
-596709.2621
 20
-1162978.309
  0
LWPOLYLINE
  5
200C4
100
AcDbEntity
  8
0
100
AcDbPolyline
 70
0
 90
13
 10
-595358.4145
 20
-1162012.3703
 10
-595433.9679
 20
-1162286.4222
 10
-595514.666
 20
-1162572.1727
 10
-595590.0724
 20
-1162827.4962
 10
-595619.1766
 20
-1162896.288
 10
-595645.635
 20
-1162951.8506
 10
-595694.583
 20
-1163021.9653
 10
-595743.531
 20
-1163090.7571
 10
-595805.7082
 20
-1163148.9656
 10
-595863.9167
 20
-1163187.3302
 10
-595969.7502
 20
-1163216.4344
 10
-596041.1879
 20
-1163223.049
 10
-596078.2296
 20
-1163217.7574
  0
LWPOLYLINE
  5
200C5
100
AcDbEntity
  8
0
100
AcDbPolyline
 70
0
 90
5
 10
-596078.2296
 20
-1163217.7574
 10
-596067.6463
 20
-1163174.101
 10
-596054.4171
 20
-1163152.9343
 10
-596025.3128
 20
-1163138.3822
 10
-596000.1774
 20
-1163133.0905
  0
LWPOLYLINE
  5
200C6
100
AcDbEntity
  8
0
100
AcDbPolyline
 70
0
 90
10
 10
-596000.1774
 20
-1163133.0905
 10
-596021.3441
 20
-1163052.3924
 10
-596026.6358
 20
-1162974.3402
 10
-596033.2504
 20
-1162879.09
 10
-596065.0004
 20
-1162783.8398
 10
-596103.3651
 20
-1162659.4854
 10
-596150.9902
 20
-1162513.9643
 10
-596164.2194
 20
-1162461.0475
 10
-596182.7402
 20
-1162140.901
 10
-596177.013
 20
-1162119.0647
  0
LWPOLYLINE
  5
200C7
100
AcDbEntity
  8
0
100
AcDbPolyline
 70
0
 90
8
 10
-596078.2296
 20
-1163217.7574
 10
-596144.3756
 20
-1163200.5594
 10
-596190.6778
 20
-1163184.6844
 10
-596275.3446
 20
-1163138.3822
 10
-596406.3136
 20
-1163072.2362
 10
-596476.4283
 20
-1163043.132
 10
-596580.939
 20
-1163014.0278
 10
-596709.2621
 20
-1162978.309
  0
LWPOLYLINE
  5
200C8
100
AcDbEntity
  8
0
100
AcDbPolyline
 70
0
 90
19
 10
-596000.1774
 20
-1163133.0905
 10
-595987.2128
 20
-1163174.983
 10
-595988.8003
 20
-1163251.1831
 10
-595944.3502
 20
-1163271.8207
 10
-595850.6875
 20
-1163327.3833
 10
-595777.6623
 20
-1163414.696
 10
-595736.3873
 20
-1163482.9586
 10
-595680.8247
 20
-1163562.3337
 10
-595658.5996
 20
-1163586.1463
 10
-595637.9621
 20
-1163633.7714
 10
-595617.3245
 20
-1163713.1465
 10
-595610.9745
 20
-1163740.1341
 10
-595534.7744
 20
-1163844.9093
 10
-595512.5493
 20
-1163894.1219
 10
-595506.1993
 20
-1164000.4846
 10
-595507.7868
 20
-1164083.0348
 10
-595515.7243
 20
-1164135.4224
 10
-595545.8869
 20
-1164243.3726
 10
-595556.9994
 20
-1164264.0101
  0
LWPOLYLINE
  5
200C9
100
AcDbEntity
  8
0
100
AcDbPolyline
 70
0
 90
20
 10
-595556.9994
 20
-1164264.0101
 10
-595577.6369
 20
-1164279.8852
 10
-595630.0245
 20
-1164295.7602
 10
-595652.2496
 20
-1164308.4602
 10
-595657.0121
 20
-1164330.6853
 10
-595650.6621
 20
-1164391.0104
 10
-595642.7246
 20
-1164459.273
 10
-595657.0121
 20
-1164535.4732
 10
-595674.4746
 20
-1164646.5984
 10
-595693.5247
 20
-1164718.0361
 10
-595715.7497
 20
-1164778.3612
 10
-595758.6123
 20
-1164802.1737
 10
-595788.7749
 20
-1164860.9113
 10
-595817.3499
 20
-1164938.699
 10
-595831.6375
 20
-1165003.7866
 10
-595815.7624
 20
-1165059.3492
 10
-595787.1874
 20
-1165111.7368
 10
-595782.4249
 20
-1165224.4496
 10
-595785.5999
 20
-1165321.2873
 10
-595798.2999
 20
-1165329.2248
  0
LWPOLYLINE
  5
200CA
100
AcDbEntity
  8
0
100
AcDbPolyline
 70
0
 90
4
 10
-595798.2999
 20
-1165329.2248
 10
-596007.8503
 20
-1165129.1994
 10
-596279.3133
 20
-1164868.8489
 10
-596349.1635
 20
-1164797.4112
  0
LWPOLYLINE
  5
200CB
100
AcDbEntity
  8
0
100
AcDbPolyline
 70
0
 90
4
 10
-596349.1635
 20
-1164797.4112
 10
-596542.8389
 20
-1164611.6733
 10
-596709.5267
 20
-1164449.748
 10
-596761.9143
 20
-1164430.698
  0
LWPOLYLINE
  5
200CC
100
AcDbEntity
  8
0
100
AcDbPolyline
 70
0
 90
3
 10
-596906.3771
 20
-1164878.3739
 10
-596828.5894
 20
-1164648.1859
 10
-596761.9143
 20
-1164430.698
  0
LWPOLYLINE
  5
200CD
100
AcDbEntity
  8
0
100
AcDbPolyline
 70
0
 90
12
 10
-594308.5218
 20
-1163627.1927
 10
-594266.0947
 20
-1163722.1424
 10
-594204.1821
 20
-1163953.9179
 10
-594143.857
 20
-1164209.5059
 10
-594064.4818
 20
-1164547.6441
 10
-594053.3693
 20
-1164595.2691
 10
-594029.5568
 20
-1164631.7817
 10
-594002.5692
 20
-1164654.0068
 10
-593961.2941
 20
-1164673.0568
 10
-593861.2814
 20
-1164680.9943
 10
-593756.5062
 20
-1164692.1068
 10
-593656.4935
 20
-1164714.3319
  0
LWPOLYLINE
  5
200CE
100
AcDbEntity
  8
0
100
AcDbPolyline
 70
0
 90
9
 10
-593656.4935
 20
-1164714.3319
 10
-593635.856
 20
-1164627.0192
 10
-593586.6434
 20
-1164514.3065
 10
-593539.0183
 20
-1164438.1063
 10
-593450.1181
 20
-1164314.2811
 10
-593281.8428
 20
-1164080.9181
 10
-593196.1176
 20
-1163965.0304
 10
-593081.8174
 20
-1163838.0301
 10
-592994.5983
 20
-1163757.8971
  0
LWPOLYLINE
  5
200CF
100
AcDbEntity
  8
0
100
AcDbPolyline
 70
0
 90
3
 10
-593656.4935
 20
-1164714.3319
 10
-593683.4811
 20
-1164801.6446
 10
-593700.9436
 20
-1164850.8572
  0
LWPOLYLINE
  5
200D0
100
AcDbEntity
  8
0
100
AcDbPolyline
 70
0
 90
29
 10
-593700.9436
 20
-1164850.8572
 10
-593745.3937
 20
-1164912.7698
 10
-593793.0188
 20
-1164958.8074
 10
-593851.7564
 20
-1165006.4325
 10
-593931.1316
 20
-1165044.5325
 10
-593985.1067
 20
-1165081.0451
 10
-594012.0942
 20
-1165115.9702
 10
-594032.7318
 20
-1165160.4203
 10
-594039.0818
 20
-1165211.2204
 10
-594050.1943
 20
-1165319.1706
 10
-594056.5443
 20
-1165377.9082
 10
-594069.2443
 20
-1165400.1333
 10
-594107.3444
 20
-1165420.7708
 10
-594126.3945
 20
-1165433.4708
 10
-594132.7445
 20
-1165457.2834
 10
-594123.2195
 20
-1165535.071
 10
-594127.982
 20
-1165566.8211
 10
-594143.857
 20
-1165623.9712
 10
-594164.4945
 20
-1165693.8213
 10
-594186.7196
 20
-1165771.609
 10
-594189.8946
 20
-1165820.8216
 10
-594177.1946
 20
-1165927.1843
 10
-594164.4945
 20
-1166035.1345
 10
-594159.732
 20
-1166097.0471
 10
-594170.8445
 20
-1166211.3474
 10
-594188.3071
 20
-1166276.435
 10
-594212.1196
 20
-1166312.9476
 10
-594283.5573
 20
-1166363.7477
 10
-594358.1699
 20
-1166454.2354
  0
LWPOLYLINE
  5
200D1
100
AcDbEntity
  8
0
100
AcDbPolyline
 70
0
 90
12
 10
-594358.1699
 20
-1166454.2354
 10
-594305.7823
 20
-1166471.6979
 10
-594235.9322
 20
-1166492.3354
 10
-594154.9695
 20
-1166535.198
 10
-594072.4194
 20
-1166571.7106
 10
-593907.319
 20
-1166614.5732
 10
-593600.9309
 20
-1166684.4233
 10
-592991.3297
 20
-1166825.7111
 10
-592516.6662
 20
-1166936.8363
 10
-592492.8537
 20
-1166951.1239
 10
-592127.728
 20
-1167457.5374
 10
-592080.1029
 20
-1167494.0499
  0
LWPOLYLINE
  5
200D2
100
AcDbEntity
  8
0
100
AcDbPolyline
 70
0
 90
4
 10
-594358.1699
 20
-1166454.2354
 10
-594396.27
 20
-1166457.4104
 10
-594508.9827
 20
-1166420.8978
 10
-594535.9703
 20
-1166408.1978
  0
LWPOLYLINE
  5
200D3
100
AcDbEntity
  8
0
100
AcDbPolyline
 70
0
 90
5
 10
-594358.1699
 20
-1166454.2354
 10
-594383.57
 20
-1166493.9229
 10
-594451.8326
 20
-1166595.5231
 10
-594499.4577
 20
-1166654.2608
 10
-594543.9078
 20
-1166692.3608
  0
LWPOLYLINE
  5
200D4
100
AcDbEntity
  8
0
100
AcDbPolyline
 70
0
 90
5
 10
-594535.9703
 20
-1166408.1978
 10
-594521.6827
 20
-1166458.9979
 10
-594523.2703
 20
-1166541.548
 10
-594539.1453
 20
-1166601.8732
 10
-594543.9078
 20
-1166692.3608
  0
LWPOLYLINE
  5
200D5
100
AcDbEntity
  8
0
100
AcDbPolyline
 70
0
 90
5
 10
-594543.9078
 20
-1166692.3608
 10
-594599.4704
 20
-1166746.3359
 10
-594612.1704
 20
-1166793.961
 10
-594634.3955
 20
-1166855.8737
 10
-594642.333
 20
-1166913.0238
  0
LWPOLYLINE
  5
200D6
100
AcDbEntity
  8
0
100
AcDbPolyline
 70
0
 90
12
 10
-594642.333
 20
-1166913.0238
 10
-594607.4079
 20
-1166955.8864
 10
-594575.6579
 20
-1167013.0365
 10
-594528.0328
 20
-1167103.5242
 10
-594428.0201
 20
-1167179.7243
 10
-594267.6822
 20
-1167306.7246
 10
-594196.2446
 20
-1167374.9872
 10
-594121.6319
 20
-1167459.1249
 10
-593820.0063
 20
-1167827.4256
 10
-593640.6185
 20
-1168076.6636
 10
-593478.6932
 20
-1168290.9765
 10
-593426.3056
 20
-1168341.7766
  0
LWPOLYLINE
  5
200D7
100
AcDbEntity
  8
0
100
AcDbPolyline
 70
0
 90
9
 10
-593426.3056
 20
-1168341.7766
 10
-592680.1791
 20
-1169052.9781
 10
-592642.079
 20
-1169099.0157
 10
-592607.1539
 20
-1169168.8658
 10
-592570.6413
 20
-1169249.8285
 10
-592523.0163
 20
-1169365.7162
 10
-592473.8037
 20
-1169475.2539
 10
-592426.1786
 20
-1169589.5541
 10
-592030.8903
 20
-1170513.481
  0
LWPOLYLINE
  5
200D8
100
AcDbEntity
  8
0
100
AcDbPolyline
 70
0
 90
11
 10
-596939.4501
 20
-1167667.0878
 10
-596655.287
 20
-1167608.3502
 10
-596596.5494
 20
-1167582.9501
 10
-596542.8918
 20
-1167593.5467
 10
-596528.6043
 20
-1167625.2968
 10
-596512.7292
 20
-1167723.722
 10
-596492.0917
 20
-1167809.4471
 10
-596468.2791
 20
-1167852.3097
 10
-596409.5415
 20
-1167917.3974
 10
-596315.8788
 20
-1167985.66
 10
-596263.4912
 20
-1168015.8225
  0
LWPOLYLINE
  5
200D9
100
AcDbEntity
  8
0
100
AcDbPolyline
 70
0
 90
14
 10
-596263.4912
 20
-1168015.8225
 10
-596247.6162
 20
-1168058.6851
 10
-596215.8661
 20
-1168109.4852
 10
-596142.841
 20
-1168192.0354
 10
-596066.6408
 20
-1168280.9356
 10
-596007.9032
 20
-1168350.7857
 10
-595955.5156
 20
-1168438.0984
 10
-595922.178
 20
-1168541.2861
 10
-595899.953
 20
-1168649.2363
 10
-595877.728
 20
-1168758.774
 10
-595855.5029
 20
-1168833.3867
 10
-595817.4028
 20
-1168895.2993
 10
-595771.3652
 20
-1168947.6869
 10
-595718.9776
 20
-1168987.3745
  0
LWPOLYLINE
  5
200DA
100
AcDbEntity
  8
0
100
AcDbPolyline
 70
0
 90
32
 10
-595718.9776
 20
-1168987.3745
 10
-595671.3525
 20
-1169017.5371
 10
-595618.9649
 20
-1169031.8246
 10
-595550.7023
 20
-1169038.1746
 10
-595441.1646
 20
-1169030.2371
 10
-595214.1516
 20
-1169006.4245
 10
-595188.7516
 20
-1169008.012
 10
-595150.6515
 20
-1169023.8871
 10
-595099.8514
 20
-1169044.5246
 10
-595071.2763
 20
-1169041.3496
 10
-595052.2263
 20
-1169027.0621
 10
-595023.6513
 20
-1168992.137
 10
-595007.7762
 20
-1168985.787
 10
-594955.3886
 20
-1168990.5495
 10
-594872.8385
 20
-1168993.7245
 10
-594796.6383
 20
-1168987.3745
 10
-594715.6756
 20
-1168966.737
 10
-594610.9004
 20
-1168938.1619
 10
-594550.5753
 20
-1168931.8119
 10
-594453.7376
 20
-1168939.7494
 10
-594201.3246
 20
-1168979.437
 10
-593964.7866
 20
-1169011.187
 10
-593893.349
 20
-1169017.5371
 10
-593829.8489
 20
-1169003.2495
 10
-593769.5237
 20
-1168971.4995
 10
-593718.7236
 20
-1168927.0494
 10
-593671.0985
 20
-1168858.7867
 10
-593612.3609
 20
-1168765.124
 10
-593579.0234
 20
-1168714.3239
 10
-593548.8608
 20
-1168650.8238
 10
-593507.5857
 20
-1168546.0486
 10
-593426.3056
 20
-1168341.7766
  0
LWPOLYLINE
  5
200DB
100
AcDbEntity
  8
0
100
AcDbPolyline
 70
0
 90
11
 10
-596263.4912
 20
-1168015.8225
 10
-596214.2786
 20
-1168030.1101
 10
-596168.241
 20
-1168020.5851
 10
-596050.7658
 20
-1167976.135
 10
-595945.9906
 20
-1167933.2724
 10
-595855.5029
 20
-1167874.5348
 10
-595726.9152
 20
-1167842.7847
 10
-595684.0526
 20
-1167820.5597
 10
-595641.19
 20
-1167780.8721
 10
-595611.0274
 20
-1167709.4344
 10
-595582.4524
 20
-1167634.8218
  0
LWPOLYLINE
  5
200DC
100
AcDbEntity
  8
0
100
AcDbPolyline
 70
0
 90
5
 10
-595582.4524
 20
-1167634.8218
 10
-595542.7648
 20
-1167585.6092
 10
-595509.4272
 20
-1167549.0966
 10
-595469.7396
 20
-1167517.3466
 10
-595439.5771
 20
-1167499.884
  0
LWPOLYLINE
  5
200DD
100
AcDbEntity
  8
0
100
AcDbPolyline
 70
0
 90
19
 10
-595718.9776
 20
-1168987.3745
 10
-595693.5776
 20
-1168912.7618
 10
-595660.24
 20
-1168827.0367
 10
-595587.2149
 20
-1168723.849
 10
-595563.4023
 20
-1168673.0489
 10
-595523.7148
 20
-1168546.0486
 10
-595512.6022
 20
-1168520.6486
 10
-595449.1021
 20
-1168458.7359
 10
-595414.177
 20
-1168399.9983
 10
-595398.302
 20
-1168336.4982
 10
-595390.3645
 20
-1168185.6854
 10
-595393.5395
 20
-1168057.0976
 10
-595445.9271
 20
-1167971.3725
 10
-595469.7396
 20
-1167914.2223
 10
-595490.3772
 20
-1167844.3722
 10
-595525.3023
 20
-1167818.9722
 10
-595538.0023
 20
-1167772.9346
 10
-595552.2898
 20
-1167711.0219
 10
-595582.4524
 20
-1167634.8218
  0
LWPOLYLINE
  5
200DE
100
AcDbEntity
  8
0
100
AcDbPolyline
 70
0
 90
13
 10
-595718.9776
 20
-1168987.3745
 10
-595733.2652
 20
-1169030.2371
 10
-595774.5403
 20
-1169271.5376
 10
-595812.6403
 20
-1169471.563
 10
-595841.2154
 20
-1169582.6882
 10
-595863.4404
 20
-1169670.0009
 10
-595885.6655
 20
-1169733.501
 10
-595915.828
 20
-1169808.1136
 10
-595958.6906
 20
-1169876.3763
 10
-595999.9657
 20
-1169920.8264
 10
-596055.5283
 20
-1169974.8015
 10
-596206.3411
 20
-1170092.2767
 10
-596363.5039
 20
-1170214.5144
  0
LWPOLYLINE
  5
200DF
100
AcDbEntity
  8
0
100
AcDbPolyline
 70
0
 90
14
 10
-595439.5771
 20
-1167499.884
 10
-595331.0536
 20
-1167464.9148
 10
-595254.3243
 20
-1167451.6857
 10
-595170.9804
 20
-1167441.1023
 10
-595114.0948
 20
-1167415.9668
 10
-595009.5842
 20
-1167363.0501
 10
-594936.8236
 20
-1167306.1645
 10
-594872.0006
 20
-1167213.5602
 10
-594842.8964
 20
-1167180.4872
 10
-594805.8546
 20
-1167155.3517
 10
-594738.3858
 20
-1167070.6849
 10
-594694.7294
 20
-1167016.4452
 10
-594659.0106
 20
-1166950.2992
 10
-594642.333
 20
-1166913.0238
  0
LWPOLYLINE
  5
200E0
100
AcDbEntity
  8
0
100
AcDbPolyline
 70
0
 90
25
 10
-595439.5771
 20
-1167499.884
 10
-595451.4241
 20
-1167458.0188
 10
-595468.8867
 20
-1167413.5687
 10
-595470.4742
 20
-1167396.1062
 10
-595437.1366
 20
-1167358.0061
 10
-595416.4991
 20
-1167337.3686
 10
-595446.6616
 20
-1167207.1933
 10
-595460.9491
 20
-1167159.5682
 10
-595514.9242
 20
-1167081.7806
 10
-595589.5369
 20
-1166969.0678
 10
-595651.4495
 20
-1166872.2301
 10
-595676.8496
 20
-1166816.6675
 10
-595799.0873
 20
-1166626.1671
 10
-595802.2623
 20
-1166610.2921
 10
-595786.3873
 20
-1166591.2421
 10
-595708.5996
 20
-1166549.967
 10
-595708.5996
 20
-1166518.2169
 10
-595775.2748
 20
-1166338.8291
 10
-595792.7373
 20
-1166234.0539
 10
-595807.0248
 20
-1166132.4537
 10
-595802.2623
 20
-1165967.3533
 10
-595797.4998
 20
-1165770.5029
 10
-595789.5623
 20
-1165545.0775
 10
-595791.1498
 20
-1165410.1397
 10
-595798.2999
 20
-1165329.2248
  0
LWPOLYLINE
  5
200E1
100
AcDbEntity
  8
0
100
AcDbPolyline
 70
0
 90
23
 10
-595798.2999
 20
-1165329.2248
 10
-595741.9372
 20
-1165387.9147
 10
-595673.6746
 20
-1165467.2898
 10
-595618.112
 20
-1165532.3775
 10
-595595.8869
 20
-1165545.0775
 10
-595529.2118
 20
-1165567.3025
 10
-595429.1991
 20
-1165610.1651
 10
-595351.4114
 20
-1165651.4402
 10
-595338.7114
 20
-1165664.1402
 10
-595341.8864
 20
-1165753.0404
 10
-595338.7114
 20
-1165805.428
 10
-595324.4239
 20
-1165822.8905
 10
-595283.1488
 20
-1165838.7656
 10
-595218.0612
 20
-1165857.8156
 10
-595195.8361
 20
-1165902.2657
 10
-595160.911
 20
-1165938.7783
 10
-595121.2235
 20
-1165964.1783
 10
-594989.4607
 20
-1165987.9909
 10
-594935.4856
 20
-1166035.616
 10
-594821.1854
 20
-1166135.6287
 10
-594662.435
 20
-1166273.7414
 10
-594600.5224
 20
-1166329.3041
 10
-594535.9703
 20
-1166408.1978
  0
LWPOLYLINE
  5
200E2
100
AcDbEntity
  8
0
100
AcDbPolyline
 70
0
 90
8
 10
-596122.938
 20
-1170083.7491
 10
-596210.2506
 20
-1169682.1108
 10
-596313.4383
 20
-1169255.0724
 10
-596407.101
 20
-1168888.3592
 10
-596538.8638
 20
-1168375.5956
 10
-596635.7015
 20
-1167993.0074
 10
-596724.6017
 20
-1167646.9317
 10
-596791.2768
 20
-1167378.6437
  0
LWPOLYLINE
  5
200E3
100
AcDbEntity
  8
0
100
AcDbPolyline
 70
0
 90
9
 10
-596791.2768
 20
-1167378.6437
 10
-596797.6268
 20
-1167434.2063
 10
-596808.7393
 20
-1167467.5438
 10
-596843.6644
 20
-1167491.3564
 10
-596881.7645
 20
-1167511.9939
 10
-596921.4521
 20
-1167538.9815
 10
-596937.3271
 20
-1167567.5565
 10
-596945.2646
 20
-1167608.8316
 10
-596939.4501
 20
-1167667.0878
  0
LWPOLYLINE
  5
200E4
100
AcDbEntity
  8
0
100
AcDbPolyline
 70
0
 90
3
 10
-596939.4501
 20
-1167667.0878
 10
-597056.3898
 20
-1167691.3818
 10
-597161.165
 20
-1167721.5443
  0
LWPOLYLINE
  5
200E5
100
AcDbEntity
  8
0
100
AcDbPolyline
 70
0
 90
5
 10
-597161.165
 20
-1167721.5443
 10
-597170.6901
 20
-1167689.7943
 10
-597170.6901
 20
-1167643.7567
 10
-597165.9275
 20
-1167589.7816
 10
-597165.9275
 20
-1167559.619
  0
LWPOLYLINE
  5
200E6
100
AcDbEntity
  8
0
100
AcDbPolyline
 70
0
 90
13
 10
-596791.2768
 20
-1167378.6437
 10
-596929.3896
 20
-1166846.8301
 10
-596989.7147
 20
-1166605.5296
 10
-597024.6398
 20
-1166434.0793
 10
-597053.2148
 20
-1166265.8039
 10
-597067.5024
 20
-1166102.2911
 10
-597075.4399
 20
-1165910.2032
 10
-597075.4399
 20
-1165784.7905
 10
-597062.7398
 20
-1165578.4151
 10
-597040.5148
 20
-1165416.4897
 10
-597013.5272
 20
-1165272.0269
 10
-596970.6647
 20
-1165083.1141
 10
-596906.3771
 20
-1164878.3739
  0
LWPOLYLINE
  5
200E7
100
AcDbEntity
  8
0
100
AcDbPolyline
 70
0
 90
24
 10
-596906.3771
 20
-1164878.3739
 10
-596797.6268
 20
-1164883.0887
 10
-596661.1015
 20
-1164884.6762
 10
-596562.6763
 20
-1164876.7386
 10
-596381.701
 20
-1164854.5136
 10
-596221.3632
 20
-1164832.2886
 10
-595946.7251
 20
-1164779.901
 10
-595714.9496
 20
-1164737.0384
 10
-595526.0368
 20
-1164710.0508
 10
-595278.3863
 20
-1164678.3008
 10
-595091.0609
 20
-1164670.3632
 10
-594868.8105
 20
-1164670.3632
 10
-594649.735
 20
-1164684.6508
 10
-594452.8846
 20
-1164708.4633
 10
-594033.7838
 20
-1164767.2009
 10
-593811.5333
 20
-1164789.426
 10
-593649.608
 20
-1164798.951
 10
-593470.2202
 20
-1164798.951
 10
-593317.8199
 20
-1164792.601
 10
-593216.2196
 20
-1164781.4885
 10
-593097.1569
 20
-1164762.4384
 10
-592978.0942
 20
-1164729.1009
 10
-592852.6814
 20
-1164686.2383
 10
-592700.2811
 20
-1164614.8006
  0
LWPOLYLINE
  5
200E8
100
AcDbEntity
  8
0
100
AcDbPolyline
 70
0
 90
7
 10
-596761.9143
 20
-1164430.698
 10
-596761.1142
 20
-1164386.2002
 10
-596773.8143
 20
-1164351.2751
 10
-596805.5643
 20
-1164302.0625
 10
-596870.652
 20
-1164213.1623
 10
-596969.0772
 20
-1164097.2746
 10
-597019.8773
 20
-1164036.9495
  0
LWPOLYLINE
  5
200E9
100
AcDbEntity
  8
0
100
AcDbPolyline
 70
0
 90
5
 10
-597019.8773
 20
-1164036.9495
 10
-597065.9148
 20
-1163927.4118
 10
-597159.5775
 20
-1163674.9987
 10
-597291.3403
 20
-1163320.9855
 10
-597367.5405
 20
-1163108.2601
  0
LWPOLYLINE
  5
200EA
100
AcDbEntity
  8
0
100
AcDbPolyline
 70
0
 90
8
 10
-597019.8773
 20
-1164036.9495
 10
-597077.0274
 20
-1164054.412
 10
-597188.1526
 20
-1164059.1745
 10
-597324.6779
 20
-1164046.4745
 10
-597434.2156
 20
-1164038.537
 10
-597565.9783
 20
-1164033.7745
 10
-597721.5537
 20
-1164036.9495
 10
-597878.7165
 20
-1164051.237
  0
LWPOLYLINE
  5
200EB
100
AcDbEntity
  8
0
100
AcDbPolyline
 70
0
 90
7
 10
-597878.7165
 20
-1164051.237
 10
-597883.479
 20
-1163978.2119
 10
-597881.8915
 20
-1163808.349
 10
-597878.7165
 20
-1163682.9363
 10
-597869.1915
 20
-1163530.536
 10
-597878.7165
 20
-1163444.8108
 10
-597888.2415
 20
-1163367.0231
  0
LWPOLYLINE
  5
200EC
100
AcDbEntity
  8
0
100
AcDbPolyline
 70
0
 90
13
 10
-597888.2415
 20
-1163367.0231
 10
-597900.9415
 20
-1163265.4229
 10
-597913.6415
 20
-1163162.2352
 10
-597913.6415
 20
-1163138.4227
 10
-597908.879
 20
-1163114.6101
 10
-597891.4165
 20
-1163097.1476
 10
-597869.1915
 20
-1163089.2101
 10
-597824.7414
 20
-1163090.7976
 10
-597775.5288
 20
-1163093.9726
 10
-597710.4411
 20
-1163081.2726
 10
-597646.941
 20
-1163078.0976
 10
-597596.1409
 20
-1163078.0976
 10
-597367.5405
 20
-1163108.2601
  0
LWPOLYLINE
  5
200ED
100
AcDbEntity
  8
0
100
AcDbPolyline
 70
0
 90
3
 10
-597367.5405
 20
-1163108.2601
 10
-597381.828
 20
-1163014.5974
 10
-597385.003
 20
-1162976.4973
  0
LWPOLYLINE
  5
200EE
100
AcDbEntity
  8
0
100
AcDbPolyline
 70
0
 90
9
 10
-597385.003
 20
-1162976.4973
 10
-597296.1028
 20
-1162944.7473
 10
-597200.8526
 20
-1162920.9347
 10
-597105.6024
 20
-1162914.5847
 10
-597018.2898
 20
-1162914.5847
 10
-596953.2021
 20
-1162917.7597
 10
-596865.8894
 20
-1162935.2223
 10
-596773.8143
 20
-1162962.2098
 10
-596709.2621
 20
-1162978.309
  0
LWPOLYLINE
  5
200EF
100
AcDbEntity
  8
0
100
AcDbPolyline
 70
0
 90
4
 10
-597385.003
 20
-1162976.4973
 10
-597380.2405
 20
-1162852.6721
 10
-597364.3654
 20
-1162663.7592
 10
-597359.6029
 20
-1162527.234
  0
LWPOLYLINE
  5
200F0
100
AcDbEntity
  8
0
100
AcDbPolyline
 70
0
 90
6
 10
-596545.3138
 20
-1161523.751
 10
-596700.7891
 20
-1161593.7821
 10
-596762.7017
 20
-1161628.7072
 10
-596810.3268
 20
-1161652.5197
 10
-596854.7769
 20
-1161665.2197
 10
-596931.5126
 20
-1161695.0772
  0
LWPOLYLINE
  5
200F1
100
AcDbEntity
  8
0
100
AcDbPolyline
 70
0
 90
7
 10
-596931.5126
 20
-1161695.0772
 10
-596961.1396
 20
-1161701.7323
 10
-596988.1272
 20
-1161703.3198
 10
-597029.4023
 20
-1161695.3823
 10
-597046.8648
 20
-1161676.3322
 10
-597070.6774
 20
-1161650.9322
 10
-597102.1692
 20
-1161636.8688
  0
LWPOLYLINE
  5
200F2
100
AcDbEntity
  8
0
100
AcDbPolyline
 70
0
 90
4
 10
-597102.1692
 20
-1161636.8688
 10
-597154.815
 20
-1161639.8197
 10
-597267.5278
 20
-1161668.3947
 10
-597429.4531
 20
-1161716.0198
  0
LWPOLYLINE
  5
200F3
100
AcDbEntity
  8
0
100
AcDbPolyline
 70
0
 90
2
 10
-597429.4531
 20
-1161716.0198
 10
-597575.5034
 20
-1161760.4699
  0
LWPOLYLINE
  5
200F4
100
AcDbEntity
  8
0
100
AcDbPolyline
 70
0
 90
3
 10
-597575.5034
 20
-1161760.4699
 10
-597697.7411
 20
-1161785.87
 10
-597769.1788
 20
-1161804.92
  0
LWPOLYLINE
  5
200F5
100
AcDbEntity
  8
0
100
AcDbPolyline
 70
0
 90
8
 10
-597359.6029
 20
-1162527.234
 10
-597351.6654
 20
-1162414.5212
 10
-597326.2654
 20
-1162241.4834
 10
-597297.6903
 20
-1162163.6957
 10
-597273.8778
 20
-1162117.6581
 10
-597256.4152
 20
-1162081.1456
 10
-597258.0027
 20
-1162062.0955
 10
-597275.4653
 20
-1162025.5829
  0
LWPOLYLINE
  5
200F6
100
AcDbEntity
  8
0
100
AcDbPolyline
 70
0
 90
3
 10
-597275.4653
 20
-1162025.5829
 10
-597338.9654
 20
-1161900.1702
 10
-597429.4531
 20
-1161716.0198
  0
LWPOLYLINE
  5
200F7
100
AcDbEntity
  8
0
100
AcDbPolyline
 70
0
 90
7
 10
-597359.6029
 20
-1162527.234
 10
-597383.4155
 20
-1162438.3338
 10
-597416.7531
 20
-1162347.8461
 10
-597445.3281
 20
-1162255.7709
 10
-597475.4907
 20
-1162149.4082
 10
-597513.5907
 20
-1162000.1829
 10
-597575.5034
 20
-1161760.4699
  0
LWPOLYLINE
  5
200F8
100
AcDbEntity
  8
0
100
AcDbPolyline
 70
0
 90
4
 10
-597575.5034
 20
-1161760.4699
 10
-597604.0784
 20
-1161671.5697
 10
-597632.6535
 20
-1161616.0071
 10
-597643.766
 20
-1161568.382
  0
LWPOLYLINE
  5
200F9
100
AcDbEntity
  8
0
100
AcDbPolyline
 70
0
 90
6
 10
-597429.4531
 20
-1161716.0198
 10
-597448.5031
 20
-1161692.2073
 10
-597465.9656
 20
-1161674.7447
 10
-597500.8907
 20
-1161650.9322
 10
-597559.6283
 20
-1161619.1821
 10
-597643.766
 20
-1161568.382
  0
LWPOLYLINE
  5
200FA
100
AcDbEntity
  8
0
100
AcDbPolyline
 70
0
 90
4
 10
-597769.1788
 20
-1161804.92
 10
-597794.5788
 20
-1161733.4824
 10
-597861.2539
 20
-1161595.3696
 10
-597910.4665
 20
-1161496.9444
  0
LWPOLYLINE
  5
200FB
100
AcDbEntity
  8
0
100
AcDbPolyline
 70
0
 90
2
 10
-597910.4665
 20
-1161496.9444
 10
-597735.8412
 20
-1161420.7442
  0
LWPOLYLINE
  5
200FC
100
AcDbEntity
  8
0
100
AcDbPolyline
 70
0
 90
5
 10
-597735.8412
 20
-1161420.7442
 10
-597716.7912
 20
-1161466.7818
 10
-597688.2161
 20
-1161522.3444
 10
-597672.3411
 20
-1161549.332
 10
-597643.766
 20
-1161568.382
  0
LWPOLYLINE
  5
200FD
100
AcDbEntity
  8
0
100
AcDbPolyline
 70
0
 90
2
 10
-596897.1167
 20
-1161322.014
 10
-597210.3776
 20
-1161290.569
  0
LWPOLYLINE
  5
200FE
100
AcDbEntity
  8
0
100
AcDbPolyline
 70
0
 90
2
 10
-597210.3776
 20
-1161290.569
 10
-597323.0904
 20
-1161235.0064
  0
LWPOLYLINE
  5
200FF
100
AcDbEntity
  8
0
100
AcDbPolyline
 70
0
 90
3
 10
-597323.0904
 20
-1161235.0064
 10
-597413.578
 20
-1161190.5563
 10
-597451.6781
 20
-1161179.4438
  0
LWPOLYLINE
  5
20100
100
AcDbEntity
  8
0
100
AcDbPolyline
 70
0
 90
6
 10
-597451.6781
 20
-1161179.4438
 10
-597504.0657
 20
-1161171.5062
 10
-597558.0408
 20
-1161182.6188
 10
-597615.1909
 20
-1161192.1438
 10
-597659.641
 20
-1161198.4938
 10
-597689.8036
 20
-1161187.3813
  0
LWPOLYLINE
  5
20101
100
AcDbEntity
  8
0
100
AcDbPolyline
 70
0
 90
6
 10
-596940.773
 20
-1161562.7853
 10
-596980.1897
 20
-1161533.457
 10
-597042.1023
 20
-1161519.1694
 10
-597164.34
 20
-1161509.6444
 10
-597186.5651
 20
-1161504.8819
 10
-597286.5778
 20
-1161455.6693
  0
LWPOLYLINE
  5
20102
100
AcDbEntity
  8
0
100
AcDbPolyline
 70
0
 90
2
 10
-597286.5778
 20
-1161455.6693
 10
-597210.3776
 20
-1161290.569
  0
LWPOLYLINE
  5
20103
100
AcDbEntity
  8
0
100
AcDbPolyline
 70
0
 90
16
 10
-597878.7165
 20
-1164051.237
 10
-597877.129
 20
-1164124.2621
 10
-597854.9039
 20
-1164165.5372
 10
-597810.4538
 20
-1164243.3249
 10
-597767.5913
 20
-1164336.9876
 10
-597748.5412
 20
-1164392.5502
 10
-597713.6161
 20
-1164486.2129
 10
-597691.3911
 20
-1164549.713
 10
-597685.0411
 20
-1164629.0882
 10
-597672.3411
 20
-1164713.2258
 10
-597673.9286
 20
-1164802.126
 10
-597665.991
 20
-1164879.9137
 10
-597642.1785
 20
-1164954.5263
 10
-597615.1909
 20
-1165060.889
 10
-597610.4284
 20
-1165121.2141
 10
-597616.7785
 20
-1165194.2393
  0
LWPOLYLINE
  5
20104
100
AcDbEntity
  8
0
100
AcDbPolyline
 70
0
 90
16
 10
-597878.7165
 20
-1164051.237
 10
-597945.3916
 20
-1164063.937
 10
-598008.8917
 20
-1164073.462
 10
-598081.9169
 20
-1164084.5746
 10
-598191.4546
 20
-1164098.8621
 10
-598275.5923
 20
-1164116.3246
 10
-598378.78
 20
-1164140.1372
 10
-598486.7302
 20
-1164160.7747
 10
-598537.5303
 20
-1164176.6497
 10
-598624.843
 20
-1164171.8872
 10
-598643.893
 20
-1164182.9998
 10
-598658.1805
 20
-1164205.2248
 10
-598672.4681
 20
-1164233.7999
 10
-598693.1056
 20
-1164248.0874
 10
-598728.0307
 20
-1164257.6124
 10
-598867.731
 20
-1164281.425
  0
LWPOLYLINE
  5
20105
100
AcDbEntity
  8
0
100
AcDbPolyline
 70
0
 90
3
 10
-598867.731
 20
-1164281.425
 10
-598915.356
 20
-1164281.425
 10
-599074.1064
 20
-1164270.3124
  0
LWPOLYLINE
  5
20106
100
AcDbEntity
  8
0
100
AcDbPolyline
 70
0
 90
6
 10
-599074.1064
 20
-1164270.3124
 10
-599075.6939
 20
-1164200.4623
 10
-599078.8689
 20
-1164157.5997
 10
-599096.3314
 20
-1164127.4372
 10
-599139.194
 20
-1164113.1496
 10
-599185.2316
 20
-1164108.3871
  0
LWPOLYLINE
  5
20107
100
AcDbEntity
  8
0
100
AcDbPolyline
 70
0
 90
2
 10
-599185.2316
 20
-1164108.3871
 10
-599194.7566
 20
-1164584.6381
  0
LWPOLYLINE
  5
20108
100
AcDbEntity
  8
0
100
AcDbPolyline
 70
0
 90
13
 10
-599194.7566
 20
-1164584.6381
 10
-599032.8313
 20
-1164629.0882
 10
-598899.481
 20
-1164664.0132
 10
-598699.4556
 20
-1164719.5758
 10
-598566.1053
 20
-1164748.1509
 10
-598399.4175
 20
-1164770.3759
 10
-598218.4422
 20
-1164787.8385
 10
-598008.8917
 20
-1164802.126
 10
-597799.3413
 20
-1164816.4135
 10
-597562.8033
 20
-1164835.4636
 10
-597316.7404
 20
-1164852.9261
 10
-597123.065
 20
-1164865.6261
 10
-596906.3771
 20
-1164878.3739
  0
LWPOLYLINE
  5
20109
100
AcDbEntity
  8
0
100
AcDbPolyline
 70
0
 90
16
 10
-597616.7785
 20
-1165194.2393
 10
-597627.891
 20
-1165264.0894
 10
-597654.8785
 20
-1165370.4521
 10
-597683.4536
 20
-1165468.8773
 10
-597691.3911
 20
-1165508.5649
 10
-597688.2161
 20
-1165611.7526
 10
-597691.3911
 20
-1165722.8778
 10
-597696.1536
 20
-1165811.778
 10
-597704.0911
 20
-1165913.3782
 10
-597710.4411
 20
-1165967.3533
 10
-597739.0162
 20
-1166076.8911
 10
-597761.2412
 20
-1166154.6787
 10
-597843.7914
 20
-1166267.3914
 10
-597862.8414
 20
-1166303.904
 10
-597894.5915
 20
-1166400.7417
 10
-597915.229
 20
-1166408.6792
  0
LWPOLYLINE
  5
2010A
100
AcDbEntity
  8
0
100
AcDbPolyline
 70
0
 90
8
 10
-597915.229
 20
-1166408.6792
 10
-597883.479
 20
-1166422.9667
 10
-597832.6789
 20
-1166472.1793
 10
-597751.7162
 20
-1166500.7544
 10
-597718.3787
 20
-1166529.3295
 10
-597688.2161
 20
-1166551.5545
 10
-597667.5786
 20
-1166565.842
 10
-597651.7035
 20
-1166596.0046
  0
LWPOLYLINE
  5
2010B
100
AcDbEntity
  8
0
100
AcDbPolyline
 70
0
 90
16
 10
-597915.229
 20
-1166408.6792
 10
-597961.2666
 20
-1166392.8042
 10
-598078.7419
 20
-1166354.7041
 10
-598159.7045
 20
-1166329.3041
 10
-598304.1673
 20
-1166297.554
 10
-598442.2801
 20
-1166275.3289
 10
-598575.6304
 20
-1166262.6289
 10
-598677.2306
 20
-1166256.2789
 10
-598743.9057
 20
-1166275.3289
 10
-598793.1183
 20
-1166321.3665
 10
-598845.5059
 20
-1166372.1666
 10
-598878.8435
 20
-1166386.4542
 10
-598931.2311
 20
-1166383.2792
 10
-598991.5562
 20
-1166388.0417
 10
-599053.4688
 20
-1166376.9292
 10
-599186.8191
 20
-1166357.8791
  0
LWPOLYLINE
  5
2010C
100
AcDbEntity
  8
0
100
AcDbPolyline
 70
0
 90
12
 10
-599186.8191
 20
-1166357.8791
 10
-599312.2318
 20
-1166335.6541
 10
-599497.9697
 20
-1166315.0165
 10
-599648.7825
 20
-1166286.4415
 10
-599912.308
 20
-1166207.0663
 10
-600090.1084
 20
-1166153.0912
 10
-600210.7586
 20
-1166116.5786
 10
-600350.4589
 20
-1166043.5535
 10
-600448.8841
 20
-1165984.8159
 10
-600556.8343
 20
-1165894.3282
 10
-600698.1221
 20
-1165818.128
 10
-600736.2222
 20
-1165800.6655
  0
LWPOLYLINE
  5
2010D
100
AcDbEntity
  8
0
100
AcDbPolyline
 70
0
 90
22
 10
-597915.229
 20
-1166408.6792
 10
-597943.8041
 20
-1166416.6167
 10
-598004.1292
 20
-1166502.3419
 10
-598072.3919
 20
-1166611.8796
 10
-598113.6669
 20
-1166692.8423
 10
-598145.417
 20
-1166805.555
 10
-598215.2671
 20
-1167062.7305
 10
-598300.9923
 20
-1167340.5436
 10
-598393.0675
 20
-1167612.0066
 10
-598418.4676
 20
-1167677.0943
 10
-598424.8176
 20
-1167767.5819
 10
-598435.9301
 20
-1167805.682
 10
-598445.4551
 20
-1167912.0447
 10
-598451.8051
 20
-1168021.5824
 10
-598474.0302
 20
-1168139.0577
 10
-598501.0177
 20
-1168240.6579
 10
-598501.0177
 20
-1168293.0455
 10
-598572.4554
 20
-1168350.1956
 10
-598601.0304
 20
-1168377.1832
 10
-598756.6057
 20
-1168453.3833
 10
-598862.9684
 20
-1168504.1834
 10
-598877.256
 20
-1168550.221
  0
LWPOLYLINE
  5
2010E
100
AcDbEntity
  8
0
100
AcDbPolyline
 70
0
 90
20
 10
-598877.256
 20
-1168550.221
 10
-598769.3058
 20
-1168559.746
 10
-598647.068
 20
-1168577.2086
 10
-598501.0177
 20
-1168605.7836
 10
-598354.9674
 20
-1168632.7712
 10
-598266.0672
 20
-1168643.8837
 10
-598189.8671
 20
-1168639.1212
 10
-598110.4919
 20
-1168610.5461
 10
-598050.1668
 20
-1168580.3836
 10
-597996.1917
 20
-1168526.4084
 10
-597950.1541
 20
-1168462.9083
 10
-597912.054
 20
-1168375.5956
 10
-597858.0789
 20
-1168256.5329
 10
-597805.6913
 20
-1168153.3452
 10
-597758.0662
 20
-1168078.7326
 10
-597675.5161
 20
-1168000.9449
 10
-597578.6784
 20
-1167943.7948
 10
-597432.6281
 20
-1167867.5946
 10
-597297.6903
 20
-1167791.3945
 10
-597161.165
 20
-1167721.5443
  0
LWPOLYLINE
  5
2010F
100
AcDbEntity
  8
0
100
AcDbPolyline
 70
0
 90
8
 10
-599472.5697
 20
-1170469.5123
 10
-599415.4195
 20
-1170228.2119
 10
-599374.1445
 20
-1169982.1489
 10
-599356.6819
 20
-1169729.7359
 10
-599345.5694
 20
-1169477.3229
 10
-599321.7569
 20
-1169107.4346
 10
-599305.8818
 20
-1168696.2713
 10
-599295.0882
 20
-1168522.5922
  0
LWPOLYLINE
  5
20110
100
AcDbEntity
  8
0
100
AcDbPolyline
 70
0
 90
5
 10
-599402.2098
 20
-1168740.7304
 10
-599305.8818
 20
-1168696.2713
 10
-599056.6438
 20
-1168589.9086
 10
-598962.9811
 20
-1168559.746
 10
-598877.256
 20
-1168550.221
  0
LWPOLYLINE
  5
20111
100
AcDbEntity
  8
0
100
AcDbPolyline
 70
0
 90
2
 10
-599402.2098
 20
-1168740.7304
 10
-599574.1699
 20
-1168820.0965
  0
LWPOLYLINE
  5
20112
100
AcDbEntity
  8
0
100
AcDbPolyline
 70
0
 90
2
 10
-599574.1699
 20
-1168820.0965
 10
-599629.7325
 20
-1169307.46
  0
LWPOLYLINE
  5
20113
100
AcDbEntity
  8
0
100
AcDbPolyline
 70
0
 90
5
 10
-599574.1699
 20
-1168820.0965
 10
-600036.1333
 20
-1169059.8095
 10
-600088.5209
 20
-1169086.7971
 10
-600205.9961
 20
-1169109.0221
 10
-600379.034
 20
-1169137.5972
  0
LWPOLYLINE
  5
20114
100
AcDbEntity
  8
0
100
AcDbPolyline
 70
0
 90
8
 10
-599295.0882
 20
-1168522.5922
 10
-599270.9568
 20
-1168134.2952
 10
-599231.2692
 20
-1167767.5819
 10
-599204.2816
 20
-1167483.4189
 10
-599193.1691
 20
-1167329.4311
 10
-599182.0566
 20
-1167015.1054
 10
-599183.6441
 20
-1166540.442
 10
-599186.8191
 20
-1166357.8791
  0
LWPOLYLINE
  5
20115
100
AcDbEntity
  8
0
100
AcDbPolyline
 70
0
 90
3
 10
-599186.8191
 20
-1166357.8791
 10
-599188.4066
 20
-1165326.002
 10
-599191.5816
 20
-1165073.589
  0
LWPOLYLINE
  5
20116
100
AcDbEntity
  8
0
100
AcDbPolyline
 70
0
 90
2
 10
-599191.5816
 20
-1165073.589
 10
-599194.7566
 20
-1164584.6381
  0
LWPOLYLINE
  5
20117
100
AcDbEntity
  8
0
100
AcDbPolyline
 70
0
 90
11
 10
-599191.5816
 20
-1165073.589
 10
-599253.4942
 20
-1165110.1016
 10
-599253.4942
 20
-1165011.6764
 10
-599255.0817
 20
-1164902.1387
 10
-599261.4317
 20
-1164854.5136
 10
-599286.8318
 20
-1164813.2385
 10
-599315.4068
 20
-1164721.1633
 10
-599331.2819
 20
-1164697.3508
 10
-599347.1569
 20
-1164686.2383
 10
-599377.3195
 20
-1164698.9383
 10
-600098.0459
 20
-1165200.5893
  0
LWPOLYLINE
  5
20118
100
AcDbEntity
  8
0
100
AcDbPolyline
 70
0
 90
2
 10
-599185.2316
 20
-1164108.3871
 10
-599167.7691
 20
-1163698.8113
  0
LWPOLYLINE
  5
20119
100
AcDbEntity
  8
0
100
AcDbPolyline
 70
0
 90
7
 10
-599167.7691
 20
-1163698.8113
 10
-599137.6065
 20
-1163603.5611
 10
-599105.8564
 20
-1163508.3109
 10
-599059.8188
 20
-1163417.8232
 10
-598991.5562
 20
-1163317.8105
 10
-598921.7061
 20
-1163219.3853
 10
-598902.656
 20
-1163184.4603
  0
LWPOLYLINE
  5
2011A
100
AcDbEntity
  8
0
100
AcDbPolyline
 70
0
 90
4
 10
-599167.7691
 20
-1163698.8113
 10
-599189.9941
 20
-1163498.7859
 10
-599199.5191
 20
-1163398.7732
 10
-599218.5692
 20
-1163160.6477
  0
LWPOLYLINE
  5
2011B
100
AcDbEntity
  8
0
100
AcDbPolyline
 70
0
 90
5
 10
-599218.5692
 20
-1163160.6477
 10
-599096.3314
 20
-1163168.5852
 10
-598966.1561
 20
-1163170.1727
 10
-598931.2311
 20
-1163174.9352
 10
-598902.656
 20
-1163184.4603
  0
LWPOLYLINE
  5
2011C
100
AcDbEntity
  8
0
100
AcDbPolyline
 70
0
 90
4
 10
-598902.656
 20
-1163184.4603
 10
-598853.4434
 20
-1163084.4476
 10
-598810.5808
 20
-1162978.0849
 10
-598689.9306
 20
-1162649.4717
  0
LWPOLYLINE
  5
2011D
100
AcDbEntity
  8
0
100
AcDbPolyline
 70
0
 90
4
 10
-598689.9306
 20
-1162649.4717
 10
-598659.768
 20
-1162554.2215
 10
-598656.593
 20
-1162462.1463
 10
-598656.593
 20
-1162392.2962
  0
LWPOLYLINE
  5
2011E
100
AcDbEntity
  8
0
100
AcDbPolyline
 70
0
 90
5
 10
-598656.593
 20
-1162392.2962
 10
-598647.068
 20
-1162290.696
 10
-598623.2555
 20
-1162203.3833
 10
-598586.7429
 20
-1162098.6081
 10
-598542.2928
 20
-1161992.2454
  0
LWPOLYLINE
  5
2011F
100
AcDbEntity
  8
0
100
AcDbPolyline
 70
0
 90
3
 10
-598656.593
 20
-1162392.2962
 10
-598623.2555
 20
-1162395.4712
 10
-598518.4803
 20
-1162408.1712
  0
LWPOLYLINE
  5
20120
100
AcDbEntity
  8
0
100
AcDbPolyline
 70
0
 90
3
 10
-598689.9306
 20
-1162649.4717
 10
-598577.2179
 20
-1162658.9967
 10
-598505.7802
 20
-1162662.1717
  0
LWPOLYLINE
  5
20121
100
AcDbEntity
  8
0
100
AcDbPolyline
 70
0
 90
3
 10
-598689.9306
 20
-1162649.4717
 10
-598724.8557
 20
-1162646.2967
 10
-598832.8059
 20
-1162639.9467
  0
LWPOLYLINE
  5
20122
100
AcDbEntity
  8
0
100
AcDbPolyline
 70
0
 90
3
 10
-599218.5692
 20
-1163160.6477
 10
-599247.1442
 20
-1162643.1217
 10
-599277.3068
 20
-1162266.8834
  0
LWPOLYLINE
  5
20123
100
AcDbEntity
  8
0
100
AcDbPolyline
 70
0
 90
4
 10
-599277.3068
 20
-1162266.8834
 10
-599282.0693
 20
-1162165.2832
 10
-599282.0693
 20
-1162125.5956
 10
-599266.1942
 20
-1162030.3455
  0
LWPOLYLINE
  5
20124
100
AcDbEntity
  8
0
100
AcDbPolyline
 70
0
 90
4
 10
-599266.1942
 20
-1162030.3455
 10
-599355.0944
 20
-1162060.508
 10
-599532.8948
 20
-1162136.7082
 10
-599712.2826
 20
-1162155.7582
  0
LWPOLYLINE
  5
20125
100
AcDbEntity
  8
0
100
AcDbPolyline
 70
0
 90
2
 10
-599266.1942
 20
-1162030.3455
 10
-598796.2933
 20
-1162009.7079
  0
LWPOLYLINE
  5
20126
100
AcDbEntity
  8
0
100
AcDbPolyline
 70
0
 90
2
 10
-598796.2933
 20
-1162009.7079
 10
-598689.9306
 20
-1161884.2952
  0
LWPOLYLINE
  5
20127
100
AcDbEntity
  8
0
100
AcDbPolyline
 70
0
 90
5
 10
-599266.1942
 20
-1162030.3455
 10
-599218.5692
 20
-1161812.8575
 10
-599202.6941
 20
-1161728.7199
 10
-599204.2816
 20
-1161628.7072
 10
-599209.0441
 20
-1161566.7945
  0
LWPOLYLINE
  5
20128
100
AcDbEntity
  8
0
100
AcDbPolyline
 70
0
 90
3
 10
-599218.5692
 20
-1163160.6477
 10
-599345.5694
 20
-1163146.3602
 10
-600172.6586
 20
-1162984.4349
  0
LWPOLYLINE
  5
20129
100
AcDbEntity
  8
0
100
AcDbPolyline
 70
0
 90
3
 10
-600172.6586
 20
-1162984.4349
 10
-600237.7462
 20
-1163127.3102
 10
-600310.7713
 20
-1163230.4979
  0
LWPOLYLINE
  5
2012A
100
AcDbEntity
  8
0
100
AcDbPolyline
 70
0
 90
2
 10
-600172.6586
 20
-1162984.4349
 10
-601058.4853
 20
-1162816.1595
  0
LWPOLYLINE
  5
2012B
100
AcDbEntity
  8
0
100
AcDbPolyline
 70
0
 90
7
 10
-600172.6586
 20
-1162984.4349
 10
-600174.2461
 20
-1162893.9472
 10
-600193.2961
 20
-1162832.0346
 10
-600232.9837
 20
-1162787.5845
 10
-600485.3967
 20
-1162611.3716
 10
-600677.4846
 20
-1162478.0214
 10
-600737.8097
 20
-1162447.8588
  0
LWPOLYLINE
  5
2012C
100
AcDbEntity
  8
0
100
AcDbPolyline
 70
0
 90
12
 10
-600310.7713
 20
-1163230.4979
 10
-600248.8587
 20
-1163255.8979
 10
-600191.7086
 20
-1163267.0104
 10
-600132.971
 20
-1163290.823
 10
-600091.6959
 20
-1163320.9855
 10
-600050.4208
 20
-1163389.2482
 10
-600037.7208
 20
-1163449.5733
 10
-600044.0708
 20
-1163533.711
 10
-600056.7708
 20
-1163628.9612
 10
-600066.2959
 20
-1163724.2113
 10
-600074.2334
 20
-1163778.1865
 10
-600090.1084
 20
-1163806.7615
  0
LWPOLYLINE
  5
2012D
100
AcDbEntity
  8
0
100
AcDbPolyline
 70
0
 90
11
 10
-600090.1084
 20
-1163806.7615
 10
-600039.3083
 20
-1163852.7991
 10
-599977.3957
 20
-1163940.1118
 10
-599936.1206
 20
-1163962.3368
 10
-599785.3078
 20
-1164008.3744
 10
-599634.495
 20
-1164052.8245
 10
-599483.6822
 20
-1164100.4496
 10
-599324.9319
 20
-1164178.2373
 10
-599218.5692
 20
-1164240.1499
 10
-599136.019
 20
-1164265.5499
 10
-599074.1064
 20
-1164270.3124
  0
LWPOLYLINE
  5
2012E
100
AcDbEntity
  8
0
100
AcDbPolyline
 70
0
 90
9
 10
-600310.7713
 20
-1163230.4979
 10
-600379.034
 20
-1163271.7729
 10
-600453.6466
 20
-1163293.998
 10
-600548.8968
 20
-1163287.648
 10
-600666.3721
 20
-1163278.123
 10
-600729.8722
 20
-1163282.8855
 10
-600793.3723
 20
-1163322.573
 10
-600831.4724
 20
-1163371.7856
 10
-600847.3474
 20
-1163459.0983
  0
LWPOLYLINE
  5
2012F
100
AcDbEntity
  8
0
100
AcDbPolyline
 70
0
 90
2
 10
-600847.3474
 20
-1163459.0983
 10
-600880.685
 20
-1163848.0366
  0
LWPOLYLINE
  5
20130
100
AcDbEntity
  8
0
100
AcDbPolyline
 70
0
 90
5
 10
-600880.685
 20
-1163848.0366
 10
-600814.0098
 20
-1163830.5741
 10
-600699.7096
 20
-1163784.5365
 10
-600669.5471
 20
-1163771.8364
 10
-600607.6344
 20
-1163762.3114
  0
LWPOLYLINE
  5
20131
100
AcDbEntity
  8
0
100
AcDbPolyline
 70
0
 90
6
 10
-600607.6344
 20
-1163762.3114
 10
-600469.5217
 20
-1163744.8489
 10
-600383.7965
 20
-1163748.0239
 10
-600239.3337
 20
-1163760.7239
 10
-600129.796
 20
-1163781.3615
 10
-600090.1084
 20
-1163806.7615
  0
LWPOLYLINE
  5
20132
100
AcDbEntity
  8
0
100
AcDbPolyline
 70
0
 90
5
 10
-600847.3474
 20
-1163459.0983
 10
-600941.0101
 20
-1163471.7983
 10
-601029.9103
 20
-1163497.1984
 10
-601161.673
 20
-1163567.0485
 10
-601314.0733
 20
-1163649.5987
  0
LWPOLYLINE
  5
20133
100
AcDbEntity
  8
0
100
AcDbPolyline
 70
0
 90
4
 10
-601314.0733
 20
-1163649.5987
 10
-601331.5359
 20
-1163608.3236
 10
-601379.161
 20
-1163565.461
 10
-601410.911
 20
-1163540.061
  0
LWPOLYLINE
  5
20134
100
AcDbEntity
  8
0
100
AcDbPolyline
 70
0
 90
18
 10
-601410.911
 20
-1163540.061
 10
-601479.1737
 20
-1163492.4359
 10
-601501.3987
 20
-1163447.9858
 10
-601514.0987
 20
-1163400.3607
 10
-601499.8112
 20
-1163355.9106
 10
-601468.0612
 20
-1163314.6355
 10
-601412.4985
 20
-1163278.123
 10
-601348.9984
 20
-1163244.7854
 10
-601314.0733
 20
-1163211.4478
 10
-601287.0858
 20
-1163171.7602
 10
-601266.4483
 20
-1163106.6726
 10
-601258.5107
 20
-1163033.6475
 10
-601253.7482
 20
-1163011.4224
 10
-601223.5857
 20
-1162960.6223
 10
-601177.5481
 20
-1162935.2223
 10
-601114.0479
 20
-1162906.6472
 10
-601077.5354
 20
-1162871.7221
 10
-601058.4853
 20
-1162816.1595
  0
LWPOLYLINE
  5
20135
100
AcDbEntity
  8
0
100
AcDbPolyline
 70
0
 90
5
 10
-601313.0505
 20
-1163649.0447
 10
-601415.6735
 20
-1163751.1989
 10
-601499.8112
 20
-1163811.524
 10
-601539.4988
 20
-1163828.9866
 10
-601633.1615
 20
-1163825.8115
  0
LWPOLYLINE
  5
20136
100
AcDbEntity
  8
0
100
AcDbPolyline
 70
0
 90
5
 10
-601633.1615
 20
-1163825.8115
 10
-601739.5242
 20
-1163779.774
 10
-601834.7744
 20
-1163762.3114
 10
-601901.4495
 20
-1163743.2614
 10
-602052.2623
 20
-1163682.9363
  0
LWPOLYLINE
  5
20137
100
AcDbEntity
  8
0
100
AcDbPolyline
 70
0
 90
16
 10
-602052.2623
 20
-1163682.9363
 10
-602099.8874
 20
-1163751.1989
 10
-602134.8125
 20
-1163775.0114
 10
-602185.6126
 20
-1163784.5365
 10
-602255.4627
 20
-1163795.649
 10
-602342.7754
 20
-1163825.8115
 10
-602403.1005
 20
-1163860.7366
 10
-602444.3756
 20
-1163911.5367
 10
-602487.2382
 20
-1163994.0869
 10
-602539.6258
 20
-1164081.3996
 10
-602561.8508
 20
-1164103.6246
 10
-602622.176
 20
-1164141.7247
 10
-602703.1386
 20
-1164175.0622
 10
-602774.5763
 20
-1164194.1123
 10
-602866.6515
 20
-1164184.5873
 10
-602896.814
 20
-1164170.2997
  0
LWPOLYLINE
  5
20138
100
AcDbEntity
  8
0
100
AcDbPolyline
 70
0
 90
8
 10
-602052.2623
 20
-1163682.9363
 10
-602082.4249
 20
-1163651.1862
 10
-602098.2999
 20
-1163630.5487
 10
-602093.5374
 20
-1163557.5235
 10
-602141.1625
 20
-1163490.8484
 10
-602190.3751
 20
-1163386.0732
 10
-602239.5877
 20
-1163274.9479
 10
-602279.2753
 20
-1163181.2853
  0
LWPOLYLINE
  5
20139
100
AcDbEntity
  8
0
100
AcDbPolyline
 70
0
 90
5
 10
-601944.3121
 20
-1162881.2472
 10
-602136.4
 20
-1162965.3848
 10
-602793.6263
 20
-1163228.9104
 10
-602896.814
 20
-1163267.0104
 10
-603049.2143
 20
-1163327.3356
  0
LWPOLYLINE
  5
2013A
100
AcDbEntity
  8
0
100
AcDbPolyline
 70
0
 90
2
 10
-601058.4853
 20
-1162816.1595
 10
-601393.4485
 20
-1162749.4844
  0
LWPOLYLINE
  5
2013B
100
AcDbEntity
  8
0
100
AcDbPolyline
 70
0
 90
2
 10
-601393.4485
 20
-1162749.4844
 10
-601577.5989
 20
-1162717.7343
  0
LWPOLYLINE
  5
2013C
100
AcDbEntity
  8
0
100
AcDbPolyline
 70
0
 90
4
 10
-601577.5989
 20
-1162717.7343
 10
-601582.3614
 20
-1162768.5344
 10
-601607.7614
 20
-1162812.9845
 10
-601944.3121
 20
-1162881.2472
  0
LWPOLYLINE
  5
2013D
100
AcDbEntity
  8
0
100
AcDbPolyline
 70
0
 90
7
 10
-601944.3121
 20
-1162881.2472
 10
-601823.6619
 20
-1162790.7595
 10
-601734.7617
 20
-1162692.3343
 10
-601679.1991
 20
-1162600.2591
 10
-601647.449
 20
-1162520.8839
 10
-601614.1114
 20
-1162404.9962
 10
-601609.3489
 20
-1162389.1212
  0
LWPOLYLINE
  5
2013E
100
AcDbEntity
  8
0
100
AcDbPolyline
 70
0
 90
4
 10
-601609.3489
 20
-1162389.1212
 10
-601633.1615
 20
-1162368.4836
 10
-601653.799
 20
-1162327.2086
 10
-601656.974
 20
-1162266.8834
  0
LWPOLYLINE
  5
2013F
100
AcDbEntity
  8
0
100
AcDbPolyline
 70
0
 90
3
 10
-601656.974
 20
-1162266.8834
 10
-601598.2364
 20
-1162266.8834
 10
-601496.6362
 20
-1162287.521
  0
LWPOLYLINE
  5
20140
100
AcDbEntity
  8
0
100
AcDbPolyline
 70
0
 90
2
 10
-601496.6362
 20
-1162287.521
 10
-601528.3863
 20
-1162449.4463
  0
LWPOLYLINE
  5
20141
100
AcDbEntity
  8
0
100
AcDbPolyline
 70
0
 90
4
 10
-601528.3863
 20
-1162449.4463
 10
-601568.0739
 20
-1162443.0963
 10
-601596.6489
 20
-1162408.1712
 10
-601609.3489
 20
-1162389.1212
  0
LWPOLYLINE
  5
20142
100
AcDbEntity
  8
0
100
AcDbPolyline
 70
0
 90
2
 10
-601528.3863
 20
-1162449.4463
 10
-601577.5989
 20
-1162717.7343
  0
LWPOLYLINE
  5
20143
100
AcDbEntity
  8
0
100
AcDbPolyline
 70
0
 90
2
 10
-601393.4485
 20
-1162749.4844
 10
-601309.3108
 20
-1162322.446
  0
LWPOLYLINE
  5
20144
100
AcDbEntity
  8
0
100
AcDbPolyline
 70
0
 90
2
 10
-601496.6362
 20
-1162287.521
 10
-601309.3108
 20
-1162322.446
  0
LWPOLYLINE
  5
20145
100
AcDbEntity
  8
0
100
AcDbPolyline
 70
0
 90
4
 10
-601656.974
 20
-1162266.8834
 10
-601706.1866
 20
-1162277.996
 10
-601752.2242
 20
-1162309.746
 10
-601793.4993
 20
-1162374.8336
  0
LWPOLYLINE
  5
20146
100
AcDbEntity
  8
0
100
AcDbPolyline
 70
0
 90
13
 10
-601793.4993
 20
-1162374.8336
 10
-601818.8994
 20
-1162404.9962
 10
-601858.5869
 20
-1162422.4587
 10
-601896.687
 20
-1162425.6337
 10
-601966.5372
 20
-1162419.2837
 10
-602018.9248
 20
-1162401.8212
 10
-602114.1749
 20
-1162352.6086
 10
-602180.8501
 20
-1162319.271
 10
-602263.4002
 20
-1162284.346
 10
-602399.9255
 20
-1162260.5334
 10
-602428.5006
 20
-1162247.8334
 10
-602460.2506
 20
-1162201.7958
 10
-602469.7757
 20
-1162141.4707
  0
LWPOLYLINE
  5
20147
100
AcDbEntity
  8
0
100
AcDbPolyline
 70
0
 90
11
 10
-602469.7757
 20
-1162141.4707
 10
-602485.6507
 20
-1162047.808
 10
-602509.4632
 20
-1162003.3579
 10
-602552.3258
 20
-1161970.0203
 10
-602593.6009
 20
-1161955.7328
 10
-602663.451
 20
-1161955.7328
 10
-602833.3139
 20
-1161995.4204
 10
-602828.5514
 20
-1162022.4079
 10
-602838.0764
 20
-1162041.458
 10
-602855.5389
 20
-1162057.333
 10
-602871.414
 20
-1162063.683
  0
LWPOLYLINE
  5
20148
100
AcDbEntity
  8
0
100
AcDbPolyline
 70
0
 90
9
 10
-602439.6131
 20
-1162717.7343
 10
-602465.0131
 20
-1162657.4092
 10
-602511.0507
 20
-1162624.0716
 10
-602580.9009
 20
-1162603.4341
 10
-602642.8135
 20
-1162590.7341
 10
-602672.9761
 20
-1162562.159
 10
-602707.9011
 20
-1162524.0589
 10
-602826.9639
 20
-1162216.0833
 10
-602871.414
 20
-1162063.683
  0
LWPOLYLINE
  5
20149
100
AcDbEntity
  8
0
100
AcDbPolyline
 70
0
 90
3
 10
-600737.8097
 20
-1162447.8588
 10
-600864.8099
 20
-1162409.7587
 10
-601309.3108
 20
-1162322.446
  0
LWPOLYLINE
  5
2014A
100
AcDbEntity
  8
0
100
AcDbPolyline
 70
0
 90
6
 10
-601656.974
 20
-1162266.8834
 10
-601680.7866
 20
-1162166.8707
 10
-601683.9616
 20
-1162108.1331
 10
-601655.3865
 20
-1161993.8329
 10
-601601.4114
 20
-1161796.9825
 10
-601534.7363
 20
-1161693.7948
  0
LWPOLYLINE
  5
2014B
100
AcDbEntity
  8
0
100
AcDbPolyline
 70
0
 90
14
 10
-601534.7363
 20
-1161693.7948
 10
-601477.5862
 20
-1161620.7696
 10
-601433.1361
 20
-1161600.1321
 10
-601402.9735
 20
-1161569.9695
 10
-601393.4485
 20
-1161536.632
 10
-601398.211
 20
-1161506.4694
 10
-601536.3238
 20
-1161236.5939
 10
-601539.4988
 20
-1161222.3063
 10
-601545.8488
 20
-1161111.1811
 10
-601542.6738
 20
-1161054.031
 10
-601523.6238
 20
-1160958.7808
 10
-601504.5737
 20
-1160893.6932
 10
-601463.2986
 20
-1160834.9556
 10
-601347.4109
 20
-1160666.6802
  0
LWPOLYLINE
  5
2014C
100
AcDbEntity
  8
0
100
AcDbPolyline
 70
0
 90
2
 10
-601347.4109
 20
-1160666.6802
 10
-601209.2981
 20
-1160626.9927
  0
LWPOLYLINE
  5
2014D
100
AcDbEntity
  8
0
100
AcDbPolyline
 70
0
 90
3
 10
-601209.2981
 20
-1160626.9927
 10
-600991.8102
 20
-1160560.3175
 10
-600975.9352
 20
-1160560.3175
  0
LWPOLYLINE
  5
2014E
100
AcDbEntity
  8
0
100
AcDbPolyline
 70
0
 90
2
 10
-600975.9352
 20
-1160560.3175
 10
-600550.4843
 20
-1160839.7181
  0
LWPOLYLINE
  5
2014F
100
AcDbEntity
  8
0
100
AcDbPolyline
 70
0
 90
25
 10
-603049.2143
 20
-1163327.3356
 10
-603165.102
 20
-1163268.5979
 10
-603355.6024
 20
-1163181.2853
 10
-603560.3903
 20
-1163098.7351
 10
-603890.591
 20
-1162986.0224
 10
-604166.8166
 20
-1162901.8847
 10
-604573.2174
 20
-1162776.4719
 10
-604733.5552
 20
-1162725.6718
 10
-604855.7929
 20
-1162674.8717
 10
-604970.0932
 20
-1162616.1341
 10
-605147.8935
 20
-1162493.8964
 10
-605328.8689
 20
-1162366.8961
 10
-605476.5067
 20
-1162274.8209
 10
-605649.5445
 20
-1162190.6833
 10
-605855.9199
 20
-1162111.3081
 10
-606014.6702
 20
-1162062.0955
 10
-606208.3456
 20
-1161997.0079
 10
-606313.1208
 20
-1161958.9078
 10
-606525.8463
 20
-1161862.0701
 10
-606719.5217
 20
-1161750.9449
 10
-606938.5971
 20
-1161609.6571
 10
-607241.8102
 20
-1161395.3442
 10
-607492.6357
 20
-1161227.0689
 10
-607641.861
 20
-1161138.1687
 10
-607738.6987
 20
-1161085.7811
  0
LWPOLYLINE
  5
20150
100
AcDbEntity
  8
0
100
AcDbPolyline
 70
0
 90
3
 10
-601577.5989
 20
-1162717.7343
 10
-601718.8867
 20
-1162724.0843
 10
-602037.9748
 20
-1162720.9093
  0
LWPOLYLINE
  5
20151
100
AcDbEntity
  8
0
100
AcDbPolyline
 70
0
 90
2
 10
-602037.9748
 20
-1162720.9093
 10
-602439.6131
 20
-1162717.7343
  0
LWPOLYLINE
  5
20152
100
AcDbEntity
  8
0
100
AcDbPolyline
 70
0
 90
7
 10
-602439.6131
 20
-1162717.7343
 10
-602625.351
 20
-1162714.5593
 10
-602736.4762
 20
-1162697.0968
 10
-603298.4523
 20
-1162565.334
 10
-603542.9278
 20
-1162493.8964
 10
-603688.9781
 20
-1162466.9088
 10
-603833.4409
 20
-1162503.4214
  0
LWPOLYLINE
  5
20153
100
AcDbEntity
  8
0
100
AcDbPolyline
 70
0
 90
7
 10
-603833.4409
 20
-1162503.4214
 10
-603920.7536
 20
-1162535.1715
 10
-603993.7787
 20
-1162538.3465
 10
-604058.8663
 20
-1162524.0589
 10
-604106.4914
 20
-1162503.4214
 10
-604163.6415
 20
-1162497.0714
 10
-604233.4917
 20
-1162498.6589
  0
LWPOLYLINE
  5
20154
100
AcDbEntity
  8
0
100
AcDbPolyline
 70
0
 90
6
 10
-604233.4917
 20
-1162498.6589
 10
-604252.5417
 20
-1162520.8839
 10
-604322.3919
 20
-1162552.634
 10
-604487.4922
 20
-1162679.6343
 10
-604666.8801
 20
-1162863.7846
 10
-604984.3807
 20
-1163174.9352
  0
LWPOLYLINE
  5
20155
100
AcDbEntity
  8
0
100
AcDbPolyline
 70
0
 90
7
 10
-604233.4917
 20
-1162498.6589
 10
-604319.2169
 20
-1162493.8964
 10
-604538.2923
 20
-1162422.4587
 10
-604905.0055
 20
-1162292.2835
 10
-605306.6438
 20
-1162152.5832
 10
-605584.4569
 20
-1162054.158
 10
-605894.02
 20
-1161954.1453
  0
LWPOLYLINE
  5
20156
100
AcDbEntity
  8
0
100
AcDbPolyline
 70
0
 90
7
 10
-605894.02
 20
-1161954.1453
 10
-605976.5702
 20
-1162214.4958
 10
-605965.4576
 20
-1162241.4834
 10
-605684.4696
 20
-1162425.6337
 10
-605698.7571
 20
-1162457.3838
 10
-605763.8447
 20
-1162519.2964
 10
-605825.7574
 20
-1162611.3716
  0
LWPOLYLINE
  5
20157
100
AcDbEntity
  8
0
100
AcDbPolyline
 70
0
 90
8
 10
-605894.02
 20
-1161954.1453
 10
-605990.8577
 20
-1161941.4453
 10
-606101.9829
 20
-1161928.7453
 10
-606186.1206
 20
-1161896.9952
 10
-606324.2334
 20
-1161762.0574
 10
-606544.8963
 20
-1161538.2195
 10
-606719.5217
 20
-1161366.7691
 10
-606789.3718
 20
-1161327.0816
  0
LWPOLYLINE
  5
20158
100
AcDbEntity
  8
0
100
AcDbPolyline
 70
0
 90
6
 10
-605894.02
 20
-1161954.1453
 10
-605867.0325
 20
-1161874.7701
 10
-605843.2199
 20
-1161693.7948
 10
-605779.7198
 20
-1161323.9065
 10
-605754.3197
 20
-1161260.4064
 10
-605620.9695
 20
-1160988.9434
  0
LWPOLYLINE
  5
20159
100
AcDbEntity
  8
0
100
AcDbPolyline
 70
0
 90
13
 10
-605620.9695
 20
-1160988.9434
 10
-605581.2819
 20
-1160895.2807
 10
-605552.7068
 20
-1160788.918
 10
-605533.6568
 20
-1160638.1052
 10
-605495.5567
 20
-1160461.8923
 10
-605436.8191
 20
-1160319.017
 10
-605374.9065
 20
-1160192.0168
 10
-605301.8813
 20
-1160080.8916
 10
-605217.7437
 20
-1159974.5288
 10
-605076.4559
 20
-1159833.2411
 10
-604916.118
 20
-1159666.5532
 10
-604870.0805
 20
-1159612.5781
 10
-604720.8552
 20
-1159418.9027
  0
LWPOLYLINE
  5
2015A
100
AcDbEntity
  8
0
100
AcDbPolyline
 70
0
 90
25
 10
-604720.8552
 20
-1159418.9027
 10
-604677.9926
 20
-1159690.3658
 10
-604655.7675
 20
-1159757.0409
 10
-604619.255
 20
-1159872.9286
 10
-604576.3924
 20
-1159990.4039
 10
-604544.6423
 20
-1160076.129
 10
-604512.8922
 20
-1160099.9416
 10
-604452.5671
 20
-1160082.4791
 10
-604411.292
 20
-1160063.429
 10
-604366.842
 20
-1160077.7166
 10
-604317.6294
 20
-1160106.2916
 10
-604287.4668
 20
-1160099.9416
 10
-604222.3792
 20
-1160036.4415
 10
-604208.0916
 20
-1159926.9038
 10
-604203.3291
 20
-1159903.0912
 10
-604192.2166
 20
-1159885.6287
 10
-604163.6415
 20
-1159882.4537
 10
-604123.954
 20
-1159888.8037
 10
-604039.8163
 20
-1159918.9662
 10
-603990.6037
 20
-1159933.2538
 10
-603866.7785
 20
-1159926.9038
 10
-603831.8534
 20
-1159939.6038
 10
-603769.9408
 20
-1159972.9413
 10
-603715.9656
 20
-1159996.7539
 10
-603642.9405
 20
-1160023.7414
  0
LWPOLYLINE
  5
2015B
100
AcDbEntity
  8
0
100
AcDbPolyline
 70
0
 90
4
 10
-603642.9405
 20
-1160023.7414
 10
-603654.053
 20
-1160079.3041
 10
-603644.528
 20
-1160117.4041
 10
-603617.5405
 20
-1160149.1542
  0
LWPOLYLINE
  5
2015C
100
AcDbEntity
  8
0
100
AcDbPolyline
 70
0
 90
9
 10
-603617.5405
 20
-1160149.1542
 10
-603728.6657
 20
-1160257.1044
 10
-603808.0408
 20
-1160342.8296
 10
-603815.9783
 20
-1160358.7046
 10
-603857.2534
 20
-1160453.9548
 10
-603866.7785
 20
-1160536.505
 10
-603855.6659
 20
-1160619.0551
 10
-603814.3908
 20
-1160709.5428
 10
-603800.1033
 20
-1160728.5929
  0
LWPOLYLINE
  5
2015D
100
AcDbEntity
  8
0
100
AcDbPolyline
 70
0
 90
6
 10
-603800.1033
 20
-1160728.5929
 10
-603708.0281
 20
-1160842.8931
 10
-603603.2529
 20
-1160957.1933
 10
-603504.8277
 20
-1161047.681
 10
-603455.6151
 20
-1161092.1311
 10
-603130.177
 20
-1161300.094
  0
LWPOLYLINE
  5
2015E
100
AcDbEntity
  8
0
100
AcDbPolyline
 70
0
 90
11
 10
-603130.177
 20
-1161300.094
 10
-603061.279
 20
-1161374.6837
 10
-602966.0288
 20
-1161435.538
 10
-602910.4662
 20
-1161491.1006
 10
-602894.5912
 20
-1161546.6633
 10
-602902.5287
 20
-1161623.3926
 10
-602939.5704
 20
-1161726.5803
 10
-602950.1538
 20
-1161782.1429
 10
-602934.2787
 20
-1161877.3931
 10
-602897.237
 20
-1161993.81
 10
-602871.414
 20
-1162063.683
  0
LWPOLYLINE
  5
2015F
100
AcDbEntity
  8
0
100
AcDbPolyline
 70
0
 90
23
 10
-603130.177
 20
-1161300.094
 10
-603095.6749
 20
-1161290.0169
 10
-603016.2997
 20
-1161324.4128
 10
-602958.0913
 20
-1161329.7045
 10
-602701.4449
 20
-1161353.517
 10
-602529.4654
 20
-1161390.5588
 10
-602465.9653
 20
-1161382.6213
 10
-602399.8193
 20
-1161353.517
 10
-602344.2567
 20
-1161300.6003
 10
-602304.5691
 20
-1161234.4543
 10
-602299.2775
 20
-1161160.3708
 10
-602307.215
 20
-1161099.5165
 10
-602341.6109
 20
-1161028.0789
 10
-602391.8818
 20
-1160961.9329
 10
-602465.9653
 20
-1160898.4328
 10
-602566.5072
 20
-1160840.2243
 10
-602645.8823
 20
-1160805.8284
 10
-602696.1533
 20
-1160800.5368
 10
-602751.7159
 20
-1160821.7035
 10
-602783.4659
 20
-1160834.9327
 10
-602815.216
 20
-1160824.3493
 10
-602825.7994
 20
-1160805.8284
 10
-602823.1535
 20
-1160784.6617
  0
LWPOLYLINE
  5
20160
100
AcDbEntity
  8
0
100
AcDbPolyline
 70
0
 90
15
 10
-603642.9405
 20
-1160023.7414
 10
-603556.0508
 20
-1160046.4728
 10
-603489.9048
 20
-1160072.9311
 10
-603418.4672
 20
-1160112.6187
 10
-603238.5502
 20
-1160284.5982
 10
-603220.0293
 20
-1160318.9941
 10
-603235.9043
 20
-1160334.8692
 10
-603267.6544
 20
-1160329.5775
 10
-603286.1753
 20
-1160348.0984
 10
-603283.5294
 20
-1160379.8484
 10
-603243.8419
 20
-1160406.3068
 10
-603204.1543
 20
-1160480.3903
 10
-603217.3835
 20
-1160525.3695
 10
-603217.3835
 20
-1160559.7654
 10
-603189.3709
 20
-1160591.0736
  0
LWPOLYLINE
  5
20161
100
AcDbEntity
  8
0
100
AcDbPolyline
 70
0
 90
17
 10
-602823.1535
 20
-1160784.6617
 10
-602775.5284
 20
-1160776.7242
 10
-602730.5492
 20
-1160744.9741
 10
-602714.6741
 20
-1160710.5782
 10
-602709.3825
 20
-1160670.8907
 10
-602717.32
 20
-1160641.7864
 10
-602688.2157
 20
-1160602.0989
 10
-602624.7156
 20
-1160535.9529
 10
-602577.0905
 20
-1160498.9112
 10
-602521.5279
 20
-1160477.7444
 10
-602452.7361
 20
-1160480.3903
 10
-602381.2985
 20
-1160464.5153
 10
-602206.6731
 20
-1160422.1818
 10
-602074.3812
 20
-1160382.4943
 10
-602032.0478
 20
-1160363.9734
 10
-601960.6101
 20
-1160356.0359
 10
-601939.4434
 20
-1160348.0984
  0
LWPOLYLINE
  5
20162
100
AcDbEntity
  8
0
100
AcDbPolyline
 70
0
 90
10
 10
-603617.5405
 20
-1160149.1542
 10
-603500.4882
 20
-1160038.5352
 10
-603458.1548
 20
-1160012.0768
 10
-603410.5297
 20
-1160006.7852
 10
-603360.2588
 20
-1160014.7227
 10
-603180.3417
 20
-1160189.348
 10
-603071.8623
 20
-1160287.2441
 10
-602989.8413
 20
-1160353.39
 10
-602931.6329
 20
-1160390.4318
 10
-602905.1745
 20
-1160401.0151
  0
LWPOLYLINE
  5
20163
100
AcDbEntity
  8
0
100
AcDbPolyline
 70
0
 90
18
 10
-602905.1745
 20
-1160401.0151
 10
-602857.5494
 20
-1160408.9526
 10
-602791.4035
 20
-1160387.7859
 10
-602730.5492
 20
-1160340.1608
 10
-602709.3825
 20
-1160281.9524
 10
-602674.9866
 20
-1160139.0771
 10
-602661.7574
 20
-1160075.577
 10
-602637.9448
 20
-1160027.9519
 10
-602600.9031
 20
-1159988.2643
 10
-602553.278
 20
-1159967.0976
 10
-602489.7778
 20
-1159967.0976
 10
-602413.0485
 20
-1159985.6185
 10
-602315.1525
 20
-1160059.7019
 10
-602214.6106
 20
-1160117.9104
 10
-602106.1312
 20
-1160147.0146
 10
-602032.0478
 20
-1160186.7022
 10
-601973.8393
 20
-1160255.494
 10
-601939.4434
 20
-1160348.0984
  0
LWPOLYLINE
  5
20164
100
AcDbEntity
  8
0
100
AcDbPolyline
 70
0
 90
7
 10
-601939.4434
 20
-1160348.0984
 10
-601889.1725
 20
-1160406.3068
 10
-601846.8391
 20
-1160424.8277
 10
-601751.5889
 20
-1160451.2861
 10
-601645.7553
 20
-1160485.682
 10
-601569.026
 20
-1160522.7237
 10
-601347.4109
 20
-1160666.6802
  0
LWPOLYLINE
  5
20165
100
AcDbEntity
  8
0
100
AcDbPolyline
 70
0
 90
16
 10
-605620.9695
 20
-1160988.9434
 10
-605625.1407
 20
-1160587.6349
 10
-605643.6616
 20
-1160177.53
 10
-605654.2449
 20
-1160058.4672
 10
-605863.2662
 20
-1159616.6122
 10
-605895.0163
 20
-1159574.2788
 10
-606225.7461
 20
-1159346.7366
 10
-606344.8088
 20
-1159264.7156
 10
-606458.5799
 20
-1159150.9446
 10
-606588.226
 20
-1159002.7776
 10
-606723.1637
 20
-1158806.9855
 10
-606807.8306
 20
-1158730.2562
 10
-606813.1223
 20
-1158679.9853
 10
-606778.7264
 20
-1158587.3809
 10
-606744.3305
 20
-1158545.0475
 10
-606752.268
 20
-1158473.6099
  0
LWPOLYLINE
  5
20166
100
AcDbEntity
  8
0
100
AcDbPolyline
 70
0
 90
4
 10
-606752.268
 20
-1158473.6099
 10
-606691.4137
 20
-1158452.4432
 10
-606580.2885
 20
-1158444.5057
 10
-606540.6009
 20
-1158436.5681
  0
LWPOLYLINE
  5
20167
100
AcDbEntity
  8
0
100
AcDbPolyline
 70
0
 90
17
 10
-606540.6009
 20
-1158436.5681
 10
-606469.1632
 20
-1158465.6724
 10
-606331.5796
 20
-1158497.4224
 10
-606186.0585
 20
-1158534.4642
 10
-606027.3082
 20
-1158563.5684
 10
-605908.2455
 20
-1158587.3809
 10
-605778.5994
 20
-1158616.4852
 10
-605617.2032
 20
-1158677.3395
 10
-605418.7653
 20
-1158756.7146
 10
-605318.2234
 20
-1158801.6939
 10
-605170.0565
 20
-1158836.0898
 10
-605130.3689
 20
-1158846.6731
 10
-604995.4311
 20
-1158928.6941
 10
-604844.6183
 20
-1159084.7986
 10
-604810.2224
 20
-1159150.9446
 10
-604744.0765
 20
-1159322.9241
 10
-604720.8552
 20
-1159418.9027
  0
LWPOLYLINE
  5
20168
100
AcDbEntity
  8
0
100
AcDbPolyline
 70
0
 90
4
 10
-606752.268
 20
-1158473.6099
 10
-606852.8098
 20
-1158484.1932
 10
-606892.4974
 20
-1158489.4849
 10
-606979.8101
 20
-1158439.214
  0
LWPOLYLINE
  5
20169
100
AcDbEntity
  8
0
100
AcDbPolyline
 70
0
 90
10
 10
-606979.8101
 20
-1158439.214
 10
-607024.7894
 20
-1158431.2765
 10
-607067.1228
 20
-1158449.7973
 10
-607109.4562
 20
-1158468.3182
 10
-607172.9563
 20
-1158470.964
 10
-607233.8106
 20
-1158465.6724
 10
-607305.2482
 20
-1158465.6724
 10
-607371.3942
 20
-1158463.0265
 10
-607421.6651
 20
-1158468.3182
 10
-607463.9986
 20
-1158476.2557
  0
LWPOLYLINE
  5
2016A
100
AcDbEntity
  8
0
100
AcDbPolyline
 70
0
 90
6
 10
-606540.6009
 20
-1158436.5681
 10
-606469.6042
 20
-1158378.6904
 10
-606410.0728
 20
-1158329.7424
 10
-606361.1248
 20
-1158263.5964
 10
-606296.3018
 20
-1158156.44
 10
-606291.0101
 20
-1158127.3358
  0
LWPOLYLINE
  5
2016B
100
AcDbEntity
  8
0
100
AcDbPolyline
 70
0
 90
8
 10
-606979.8101
 20
-1158439.214
 10
-606944.5322
 20
-1158389.2738
 10
-606907.4905
 20
-1158348.2633
 10
-606903.5217
 20
-1158271.534
 10
-606882.355
 20
-1158198.7734
 10
-606895.5842
 20
-1158059.8669
 10
-606902.1988
 20
-1158004.3043
 10
-606923.3655
 20
-1157984.4605
  0
LWPOLYLINE
  5
2016C
100
AcDbEntity
  8
0
100
AcDbPolyline
 70
0
 90
7
 10
-606291.0101
 20
-1158127.3358
 10
-606431.2396
 20
-1158057.221
 10
-606509.2918
 20
-1158033.4085
 10
-606539.7189
 20
-1158029.4397
 10
-606656.1358
 20
-1158016.2105
 10
-606900.8759
 20
-1157985.7834
 10
-606923.3655
 20
-1157984.4605
  0
LWPOLYLINE
  5
2016D
100
AcDbEntity
  8
0
100
AcDbPolyline
 70
0
 90
32
 10
-606923.3655
 20
-1157984.4605
 10
-606956.4385
 20
-1157981.8146
 10
-607173.3973
 20
-1157954.0333
 10
-607210.439
 20
-1157948.7416
 10
-607250.1266
 20
-1157958.0021
 10
-607277.9079
 20
-1157958.0021
 10
-607299.0746
 20
-1157946.0958
 10
-607341.408
 20
-1157910.377
 10
-607457.8249
 20
-1157861.429
 10
-607592.7627
 20
-1157808.5122
 10
-607689.3358
 20
-1157754.2725
 10
-607721.0859
 20
-1157750.3037
 10
-607789.8777
 20
-1157747.6579
 10
-607828.2423
 20
-1157731.7829
 10
-607920.8467
 20
-1157682.8349
 10
-607968.4718
 20
-1157645.7931
 10
-607985.6697
 20
-1157640.5014
 10
-608002.8677
 20
-1157652.4077
 10
-607996.2531
 20
-1157669.6057
 10
-607960.5343
 20
-1157697.387
 10
-607922.1696
 20
-1157722.5224
 10
-607915.555
 20
-1157743.6892
 10
-607924.8155
 20
-1157758.2413
 10
-607940.6905
 20
-1157766.1788
 10
-607972.4406
 20
-1157760.8871
 10
-608066.3678
 20
-1157745.0121
 10
-608108.7012
 20
-1157739.7204
 10
-608177.493
 20
-1157750.3037
 10
-608293.9099
 20
-1157745.0121
 10
-608536.0042
 20
-1157792.6372
 10
-608578.3376
 20
-1157787.3455
 10
-608628.6085
 20
-1157772.7934
  0
LWPOLYLINE
  5
2016E
100
AcDbEntity
  8
0
100
AcDbPolyline
 70
0
 90
18
 10
-606291.0101
 20
-1158127.3358
 10
-606292.333
 20
-1158044.7856
 10
-606317.7331
 20
-1157981.2855
 10
-606330.4331
 20
-1157932.602
 10
-606330.4331
 20
-1157886.0353
 10
-606298.683
 20
-1157835.2352
 10
-606218.2495
 20
-1157765.385
 10
-606194.9662
 20
-1157720.9349
 10
-606188.6162
 20
-1157670.1348
 10
-606220.3662
 20
-1157570.6513
 10
-606224.5996
 20
-1157492.3345
 10
-606205.5495
 20
-1157454.2344
 10
-606161.0994
 20
-1157316.6508
 10
-606165.3328
 20
-1157229.8673
 10
-606169.5661
 20
-1157130.3838
 10
-606158.9828
 20
-1157092.2837
 10
-606133.5827
 20
-1157054.1836
 10
-606093.366
 20
-1157028.7836
  0
LWPOLYLINE
  5
2016F
100
AcDbEntity
  8
0
100
AcDbPolyline
 70
0
 90
12
 10
-606093.366
 20
-1157028.7836
 10
-606038.3325
 20
-1157026.6669
 10
-605921.9156
 20
-1157073.2336
 10
-605839.3655
 20
-1157094.4004
 10
-605689.0818
 20
-1157121.9171
 10
-605513.3981
 20
-1157115.5671
 10
-605386.3979
 20
-1157102.867
 10
-605314.4311
 20
-1157102.867
 10
-605233.9976
 20
-1157119.8004
 10
-605168.3808
 20
-1157176.9505
 10
-605106.9973
 20
-1157272.2007
 10
-605087.6323
 20
-1157308.7791
  0
LWPOLYLINE
  5
20170
100
AcDbEntity
  8
0
100
AcDbPolyline
 70
0
 90
6
 10
-604294.1957
 20
-1157452.1177
 10
-604232.8122
 20
-1157517.7345
 10
-604226.4622
 20
-1157570.6513
 10
-604230.6956
 20
-1157648.9681
 10
-604217.9955
 20
-1157720.9349
 10
-604165.0788
 20
-1157843.7019
  0
LWPOLYLINE
  5
20171
100
AcDbEntity
  8
0
100
AcDbPolyline
 70
0
 90
9
 10
-604294.1957
 20
-1157452.1177
 10
-604319.5957
 20
-1157422.4843
 10
-604319.5957
 20
-1157407.6676
 10
-604283.6123
 20
-1157380.1509
 10
-604266.679
 20
-1157342.0508
 10
-604264.5623
 20
-1157240.4506
 10
-604253.9789
 20
-1157121.9171
 10
-604258.2123
 20
-1156897.55
 10
-604258.2123
 20
-1156810.7665
  0
LWPOLYLINE
  5
20172
100
AcDbEntity
  8
0
100
AcDbPolyline
 70
0
 90
13
 10
-604258.2123
 20
-1156810.7665
 10
-604321.7124
 20
-1156882.7333
 10
-604361.9292
 20
-1156925.0667
 10
-604404.2626
 20
-1156948.3501
 10
-604455.0627
 20
-1156969.5168
 10
-604507.9795
 20
-1156990.6835
 10
-604499.5128
 20
-1157037.2502
 10
-604499.5128
 20
-1157083.817
 10
-604512.2128
 20
-1157107.1004
 10
-604535.4962
 20
-1157121.9171
 10
-604573.5963
 20
-1157126.1504
 10
-604753.5133
 20
-1157132.5004
 10
-604850.8801
 20
-1157132.5004
  0
LWPOLYLINE
  5
20173
100
AcDbEntity
  8
0
100
AcDbPolyline
 70
0
 90
2
 10
-604258.2123
 20
-1156810.7665
 10
-604321.7124
 20
-1156721.8663
  0
LWPOLYLINE
  5
20174
100
AcDbEntity
  8
0
100
AcDbPolyline
 70
0
 90
3
 10
-604165.0788
 20
-1157843.7019
 10
-604158.7288
 20
-1157498.6845
 10
-604158.7288
 20
-1157212.9339
  0
LWPOLYLINE
  5
20175
100
AcDbEntity
  8
0
100
AcDbPolyline
 70
0
 90
4
 10
-604158.7288
 20
-1157212.9339
 10
-604114.2787
 20
-1157174.8338
 10
-604088.8786
 20
-1157124.0337
 10
-604076.1786
 20
-1157064.767
  0
LWPOLYLINE
  5
20176
100
AcDbEntity
  8
0
100
AcDbPolyline
 70
0
 90
8
 10
-604076.1786
 20
-1157064.767
 10
-604146.0287
 20
-1157073.2336
 10
-604192.5955
 20
-1157090.167
 10
-604234.9289
 20
-1157143.0838
 10
-604241.2789
 20
-1157236.2173
 10
-604241.2789
 20
-1157329.3508
 10
-604256.0956
 20
-1157380.1509
 10
-604294.1957
 20
-1157452.1177
  0
LWPOLYLINE
  5
20177
100
AcDbEntity
  8
0
100
AcDbPolyline
 70
0
 90
5
 10
-604158.7288
 20
-1157212.9339
 10
-604158.7288
 20
-1157013.9669
 10
-604154.4954
 20
-1156838.2832
 10
-604150.2621
 20
-1156696.4662
 10
-604141.7954
 20
-1156522.8992
  0
LWPOLYLINE
  5
20178
100
AcDbEntity
  8
0
100
AcDbPolyline
 70
0
 90
12
 10
-604165.0788
 20
-1157843.7019
 10
-604177.7788
 20
-1157985.5188
 10
-604198.9455
 20
-1158125.2191
 10
-604217.9955
 20
-1158247.986
 10
-604247.6289
 20
-1158372.8696
 10
-604283.6123
 20
-1158527.3866
 10
-604357.6958
 20
-1158736.937
 10
-604408.4959
 20
-1158859.7039
 10
-604474.1127
 20
-1159007.8708
 10
-604565.1296
 20
-1159168.7378
 10
-604649.7964
 20
-1159316.9048
 10
-604720.8552
 20
-1159418.9027
  0
LWPOLYLINE
  5
20179
100
AcDbEntity
  8
0
100
AcDbPolyline
 70
0
 90
16
 10
-604076.1786
 20
-1157064.767
 10
-604031.1993
 20
-1157082.2295
 10
-603974.0492
 20
-1157113.9796
 10
-603921.1324
 20
-1157181.713
 10
-603872.449
 20
-1157251.5632
 10
-603844.9323
 20
-1157276.9632
 10
-603792.0155
 20
-1157289.6632
 10
-603734.8654
 20
-1157283.3132
 10
-603645.9652
 20
-1157253.6798
 10
-603540.1317
 20
-1157192.2964
 10
-603476.6316
 20
-1157105.5129
 10
-603423.7148
 20
-1157006.0293
 10
-603385.6147
 20
-1156893.8458
 10
-603355.9813
 20
-1156781.6622
 10
-603334.8146
 20
-1156694.8787
 10
-603224.7477
 20
-1156692.7621
  0
LWPOLYLINE
  5
2017A
100
AcDbEntity
  8
0
100
AcDbPolyline
 70
0
 90
6
 10
-604321.7124
 20
-1156721.8663
 10
-604291.5499
 20
-1156688.5287
 10
-604261.9165
 20
-1156578.4618
 10
-604228.0497
 20
-1156529.7784
 10
-604198.4163
 20
-1156517.0784
 10
-604141.7954
 20
-1156522.8992
  0
LWPOLYLINE
  5
2017B
100
AcDbEntity
  8
0
100
AcDbPolyline
 70
0
 90
6
 10
-604141.7954
 20
-1156522.8992
 10
-604088.3494
 20
-1156521.3117
 10
-604050.2494
 20
-1156510.7284
 10
-604007.916
 20
-1156459.9283
 10
-603971.9326
 20
-1156432.4115
 10
-603904.1991
 20
-1156407.0115
  0
LWPOLYLINE
  5
2017C
100
AcDbEntity
  8
0
100
AcDbPolyline
 70
0
 90
5
 10
-603904.1991
 20
-1156407.0115
 10
-603971.9326
 20
-1156339.278
 10
-604043.8994
 20
-1156286.3612
 10
-604105.2828
 20
-1156244.0278
 10
-604261.9165
 20
-1156142.4276
  0
LWPOLYLINE
  5
2017D
100
AcDbEntity
  8
0
100
AcDbPolyline
 70
0
 90
11
 10
-603904.1991
 20
-1156407.0115
 10
-603789.8989
 20
-1156385.8448
 10
-603654.4319
 20
-1156366.7947
 10
-603525.315
 20
-1156360.4447
 10
-603449.1148
 20
-1156375.2614
 10
-603383.498
 20
-1156411.2448
 10
-603334.8146
 20
-1156466.2783
 10
-603303.0645
 20
-1156529.7784
 10
-603275.5478
 20
-1156593.2785
 10
-603250.1478
 20
-1156648.312
 10
-603224.7477
 20
-1156692.7621
  0
LWPOLYLINE
  5
2017E
100
AcDbEntity
  8
0
100
AcDbPolyline
 70
0
 90
92
 10
-604321.7124
 20
-1156721.8663
 10
-604446.0668
 20
-1156720.2788
 10
-604822.8343
 20
-1156586.9285
 10
-604884.2177
 20
-1156565.7618
 10
-604958.3012
 20
-1156542.4784
 10
-604987.9346
 20
-1156510.7284
 10
-605002.7513
 20
-1156474.7449
 10
-605004.8679
 20
-1156428.1782
 10
-604951.9512
 20
-1156301.1779
 10
-604918.0844
 20
-1156212.2778
 10
-604894.8011
 20
-1156095.8609
 10
-604860.9343
 20
-1155949.8106
 10
-604835.5343
 20
-1155831.277
 10
-604835.5343
 20
-1155776.2436
 10
-604863.051
 20
-1155725.4434
 10
-604905.3844
 20
-1155689.46
 10
-604956.1845
 20
-1155661.9433
 10
-605089.5348
 20
-1155613.2599
 10
-605142.4516
 20
-1155583.6265
 10
-605167.8516
 20
-1155549.7598
 10
-605180.5516
 20
-1155501.0763
 10
-605163.6183
 20
-1155414.2928
 10
-605136.1015
 20
-1155272.4759
 10
-605119.1682
 20
-1155153.9423
 10
-605119.1682
 20
-1155113.7256
 10
-605146.6849
 20
-1155062.9255
 10
-605189.0183
 20
-1155010.0087
 10
-605301.2019
 20
-1154889.3584
 10
-605411.2688
 20
-1154766.5915
 10
-605459.9522
 20
-1154703.0914
 10
-605525.569
 20
-1154584.5578
 10
-605586.9524
 20
-1154470.2576
 10
-605635.6359
 20
-1154339.024
 10
-605677.9693
 20
-1154214.1404
 10
-605701.2527
 20
-1154142.1736
 10
-605737.2361
 20
-1154104.0735
 10
-605792.2695
 20
-1154061.7401
 10
-605883.2864
 20
-1154013.0567
 10
-605959.4865
 20
-1153979.19
 10
-606048.3867
 20
-1153962.2566
 10
-606198.6703
 20
-1153924.1565
 10
-606245.2371
 20
-1153898.7565
 10
-606289.6872
 20
-1153858.5397
 10
-606319.3206
 20
-1153788.6896
 10
-606346.8373
 20
-1153697.6727
 10
-606372.2374
 20
-1153651.106
 10
-606450.5542
 20
-1153557.9724
 10
-606497.1209
 20
-1153521.989
 10
-606547.921
 20
-1153505.0557
 10
-606632.5879
 20
-1153486.0056
 10
-606715.138
 20
-1153430.9722
 10
-606763.8215
 20
-1153382.2888
 10
-606782.8715
 20
-1153314.5553
 10
-606789.2215
 20
-1153240.4718
 10
-606823.0883
 20
-1153191.7884
 10
-606890.8217
 20
-1153136.7549
 10
-606973.3719
 20
-1153047.8548
 10
-607036.872
 20
-1152992.8213
 10
-607125.7722
 20
-1152946.2546
 10
-607170.2223
 20
-1152901.8045
 10
-607199.8557
 20
-1152840.421
 10
-607246.4224
 20
-1152698.6041
 10
-607271.8225
 20
-1152628.7539
 10
-607335.3226
 20
-1152503.8703
 10
-607379.7727
 20
-1152455.1869
 10
-607413.6394
 20
-1152436.1369
 10
-607485.6062
 20
-1152398.0368
 10
-607546.9897
 20
-1152366.2867
 10
-607597.7898
 20
-1152359.9367
 10
-607650.7066
 20
-1152385.3368
 10
-607709.9734
 20
-1152436.1369
 10
-607760.7735
 20
-1152476.3536
 10
-607784.0568
 20
-1152546.2038
 10
-607809.4569
 20
-1152618.1706
 10
-607834.8569
 20
-1152694.3707
 10
-607849.6736
 20
-1152726.1208
 10
-607841.207
 20
-1152762.1042
 10
-607809.4569
 20
-1152802.3209
 10
-607758.6568
 20
-1152823.4876
 10
-607739.6068
 20
-1152831.9543
 10
-607743.8401
 20
-1152859.4711
 10
-607775.5902
 20
-1152889.1044
 10
-607813.6902
 20
-1152914.5045
 10
-607845.4403
 20
-1152929.3212
 10
-607885.657
 20
-1152922.9712
 10
-607917.4071
 20
-1152897.5711
 10
-607957.6239
 20
-1152895.4545
 10
-607989.3739
 20
-1152912.3878
 10
-608006.3073
 20
-1152971.6546
 10
-608035.9407
 20
-1153011.8714
 10
-608090.9741
 20
-1153066.9048
 10
-608154.4742
 20
-1153079.6048
  0
LWPOLYLINE
  5
2017F
100
AcDbEntity
  8
0
100
AcDbPolyline
 70
0
 90
6
 10
-603239.5644
 20
-1155050.2254
 10
-603241.6811
 20
-1155189.9257
 10
-603248.0311
 20
-1155291.5259
 10
-603264.9645
 20
-1155350.7927
 10
-603288.2478
 20
-1155384.6594
 10
-603368.6813
 20
-1155399.4761
  0
LWPOLYLINE
  5
20180
100
AcDbEntity
  8
0
100
AcDbPolyline
 70
0
 90
12
 10
-603368.6813
 20
-1155399.4761
 10
-603474.5149
 20
-1155418.5262
 10
-603495.6816
 20
-1155431.2262
 10
-603491.4483
 20
-1155469.3263
 10
-603442.7648
 20
-1155740.2601
 10
-603413.1314
 20
-1155856.677
 10
-603362.3313
 20
-1155973.0939
 10
-603296.7145
 20
-1156104.3275
 10
-603239.5644
 20
-1156284.2446
 10
-603205.6977
 20
-1156390.0781
 10
-603152.7809
 20
-1156489.5616
 10
-603133.7309
 20
-1156527.6617
  0
LWPOLYLINE
  5
20181
100
AcDbEntity
  8
0
100
AcDbPolyline
 70
0
 90
8
 10
-603133.7309
 20
-1156527.6617
 10
-603095.6308
 20
-1156686.412
 10
-603072.3474
 20
-1156760.4955
 10
-603034.2473
 20
-1156832.4623
 10
-603004.6139
 20
-1156893.8458
 10
-602989.7973
 20
-1156978.5126
 10
-602979.2139
 20
-1157080.1128
 10
-602968.6305
 20
-1157137.2629
  0
LWPOLYLINE
  5
20182
100
AcDbEntity
  8
0
100
AcDbPolyline
 70
0
 90
7
 10
-603224.7477
 20
-1156692.7621
 10
-603180.2976
 20
-1156732.9788
 10
-603101.9808
 20
-1156779.5456
 10
-603051.1807
 20
-1156849.3957
 10
-603025.7807
 20
-1156915.0125
 10
-603019.4306
 20
-1157031.4294
 10
-603023.664
 20
-1157135.1463
  0
LWPOLYLINE
  5
20183
100
AcDbEntity
  8
0
100
AcDbPolyline
 70
0
 90
2
 10
-603023.664
 20
-1157135.1463
 10
-602968.6305
 20
-1157137.2629
  0
LWPOLYLINE
  5
20184
100
AcDbEntity
  8
0
100
AcDbPolyline
 70
0
 90
3
 10
-602968.6305
 20
-1157137.2629
 10
-602979.2139
 20
-1157226.1631
 10
-602989.7973
 20
-1157293.8966
  0
LWPOLYLINE
  5
20185
100
AcDbEntity
  8
0
100
AcDbPolyline
 70
0
 90
12
 10
-602989.7973
 20
-1157293.8966
 10
-602983.4472
 20
-1157353.1634
 10
-602943.2305
 20
-1157425.1302
 10
-602877.6137
 20
-1157494.9803
 10
-602801.4135
 20
-1157552.1304
 10
-602752.7301
 20
-1157575.4138
 10
-602606.6798
 20
-1157626.2139
 10
-602522.013
 20
-1157619.8639
 10
-602460.6295
 20
-1157602.9305
 10
-602409.8294
 20
-1157588.1138
 10
-602346.3293
 20
-1157579.6472
 10
-602189.6957
 20
-1157588.1138
  0
LWPOLYLINE
  5
20186
100
AcDbEntity
  8
0
100
AcDbPolyline
 70
0
 90
12
 10
-603023.664
 20
-1157135.1463
 10
-603025.7807
 20
-1157279.0799
 10
-603004.6139
 20
-1157372.2134
 10
-602958.0472
 20
-1157456.8802
 10
-602877.6137
 20
-1157533.0804
 10
-602786.5968
 20
-1157602.9305
 10
-602670.1799
 20
-1157655.8473
 10
-602547.413
 20
-1157677.014
 10
-602439.4628
 20
-1157674.8973
 10
-602337.8626
 20
-1157660.0807
 10
-602238.3791
 20
-1157651.614
 10
-602170.6456
 20
-1157647.3806
  0
LWPOLYLINE
  5
20187
100
AcDbEntity
  8
0
100
AcDbPolyline
 70
0
 90
2
 10
-602170.6456
 20
-1157647.3806
 10
-602189.6957
 20
-1157588.1138
  0
LWPOLYLINE
  5
20188
100
AcDbEntity
  8
0
100
AcDbPolyline
 70
0
 90
7
 10
-602189.6957
 20
-1157588.1138
 10
-602071.1621
 20
-1157518.2637
 10
-601999.1953
 20
-1157503.447
 10
-601933.5785
 20
-1157514.0304
 10
-601857.3783
 20
-1157528.8471
 10
-601798.1115
 20
-1157524.6137
 10
-601745.1948
 20
-1157520.3804
  0
LWPOLYLINE
  5
20189
100
AcDbEntity
  8
0
100
AcDbPolyline
 70
0
 90
13
 10
-601745.1948
 20
-1157520.3804
 10
-601732.4947
 20
-1157450.5302
 10
-601715.5614
 20
-1157418.7802
 10
-601633.0112
 20
-1157365.8634
 10
-601577.9778
 20
-1157329.88
 10
-601558.9277
 20
-1157279.0799
 10
-601569.5111
 20
-1157224.0464
 10
-601594.9111
 20
-1157173.2463
 10
-601628.7779
 20
-1157090.6962
 10
-601673.228
 20
-1156989.096
 10
-601724.0281
 20
-1156904.4291
 10
-601800.2282
 20
-1156796.4789
 10
-601846.795
 20
-1156747.7955
  0
LWPOLYLINE
  5
2018A
100
AcDbEntity
  8
0
100
AcDbPolyline
 70
0
 90
12
 10
-602170.6456
 20
-1157647.3806
 10
-602088.0954
 20
-1157653.7306
 10
-602024.5953
 20
-1157674.8973
 10
-601908.1784
 20
-1157738.3975
 10
-601836.2116
 20
-1157810.3643
 10
-601766.3615
 20
-1157907.7311
 10
-601694.3947
 20
-1158043.1981
 10
-601607.6112
 20
-1158199.8317
 10
-601531.411
 20
-1158312.0153
 10
-601489.0776
 20
-1158352.232
 10
-601419.2274
 20
-1158400.9155
 10
-601222.3771
 20
-1158470.7656
  0
LWPOLYLINE
  5
2018B
100
AcDbEntity
  8
0
100
AcDbPolyline
 70
0
 90
10
 10
-601745.1948
 20
-1157520.3804
 10
-601743.0781
 20
-1157605.0472
 10
-601747.3114
 20
-1157651.614
 10
-601757.8948
 20
-1157727.8141
 10
-601755.7781
 20
-1157765.9142
 10
-601732.4947
 20
-1157804.0143
 10
-601704.978
 20
-1157829.4143
 10
-601649.9446
 20
-1157846.3477
 10
-601520.8276
 20
-1157867.5144
 10
-601326.0939
 20
-1157907.7311
  0
LWPOLYLINE
  5
2018C
100
AcDbEntity
  8
0
100
AcDbPolyline
 70
0
 90
7
 10
-601326.0939
 20
-1157907.7311
 10
-601359.9607
 20
-1157979.698
 10
-601372.6607
 20
-1158028.3814
 10
-601366.3107
 20
-1158062.2481
 10
-601489.0776
 20
-1158403.0321
 10
-601482.7276
 20
-1158491.9323
 10
-601480.6109
 20
-1158523.6824
  0
LWPOLYLINE
  5
2018D
100
AcDbEntity
  8
0
100
AcDbPolyline
 70
0
 90
7
 10
-601480.6109
 20
-1158523.6824
 10
-601444.6275
 20
-1158519.449
 10
-601366.3107
 20
-1158525.799
 10
-601302.8105
 20
-1158525.799
 10
-601249.8938
 20
-1158517.3324
 10
-601226.6104
 20
-1158494.049
 10
-601222.3771
 20
-1158470.7656
  0
LWPOLYLINE
  5
2018E
100
AcDbEntity
  8
0
100
AcDbPolyline
 70
0
 90
6
 10
-601480.6109
 20
-1158523.6824
 10
-601514.4776
 20
-1158595.6492
 10
-601582.2111
 20
-1158640.0993
 10
-601624.5445
 20
-1158671.8493
 10
-601690.1613
 20
-1158754.3995
 10
-601764.2448
 20
-1158841.183
  0
LWPOLYLINE
  5
2018F
100
AcDbEntity
  8
0
100
AcDbPolyline
 70
0
 90
9
 10
-601764.2448
 20
-1158841.183
 10
-601821.3949
 20
-1158794.6163
 10
-601897.5951
 20
-1158836.9497
 10
-602039.412
 20
-1158841.183
 10
-602141.0122
 20
-1158826.3663
 10
-602200.279
 20
-1158824.2496
 10
-602270.1291
 20
-1158800.9663
 10
-602354.796
 20
-1158743.8162
 10
-602426.7628
 20
-1158690.8994
  0
LWPOLYLINE
  5
20190
100
AcDbEntity
  8
0
100
AcDbPolyline
 70
0
 90
13
 10
-601764.2448
 20
-1158841.183
 10
-601800.2282
 20
-1158885.6331
 10
-601817.1616
 20
-1158927.9665
 10
-601817.1616
 20
-1158959.7166
 10
-601802.3449
 20
-1159004.1667
 10
-601762.1281
 20
-1159061.3168
 10
-601683.8113
 20
-1159145.9836
 10
-601558.9277
 20
-1159281.4506
 10
-601431.9275
 20
-1159395.7508
 10
-601326.0939
 20
-1159482.5343
 10
-601199.0937
 20
-1159560.8511
 10
-601110.1935
 20
-1159622.2346
 10
-601099.6101
 20
-1159647.6346
  0
LWPOLYLINE
  5
20191
100
AcDbEntity
  8
0
100
AcDbPolyline
 70
0
 90
14
 10
-601099.6101
 20
-1159647.6346
 10
-601086.9101
 20
-1159704.7847
 10
-601101.7268
 20
-1159848.7184
 10
-601120.7768
 20
-1159933.3852
 10
-601141.9436
 20
-1159992.652
 10
-601163.1103
 20
-1160085.7855
 10
-601163.1103
 20
-1160195.8524
 10
-601167.3436
 20
-1160276.2859
 10
-601182.1603
 20
-1160329.2027
 10
-601241.4271
 20
-1160437.1529
 10
-601285.8772
 20
-1160509.1197
 10
-601287.9938
 20
-1160549.3364
 10
-601266.8271
 20
-1160593.7865
 10
-601209.2981
 20
-1160626.9927
  0
LWPOLYLINE
  5
20192
100
AcDbEntity
  8
0
100
AcDbPolyline
 70
0
 90
4
 10
-601099.6101
 20
-1159647.6346
 10
-601059.3934
 20
-1159601.0679
 10
-601021.2933
 20
-1159584.1345
 10
-600993.7766
 20
-1159582.0178
  0
LWPOLYLINE
  5
20193
100
AcDbEntity
  8
0
100
AcDbPolyline
 70
0
 90
4
 10
-601222.3771
 20
-1158470.7656
 10
-600887.943
 20
-1158589.2992
 10
-600682.626
 20
-1158663.3827
 10
-600574.6758
 20
-1158784.0329
  0
LWPOLYLINE
  5
20194
100
AcDbEntity
  8
0
100
AcDbPolyline
 70
0
 90
8
 10
-601326.0939
 20
-1157907.7311
 10
-601275.2938
 20
-1157924.6645
 10
-601209.677
 20
-1157943.7146
 10
-601171.5769
 20
-1157975.4646
 10
-601122.8935
 20
-1158043.1981
 10
-601082.6768
 20
-1158100.3482
 10
-601033.9933
 20
-1158142.6816
 10
-600993.7766
 20
-1158163.8483
  0
LWPOLYLINE
  5
20195
100
AcDbEntity
  8
0
100
AcDbPolyline
 70
0
 90
5
 10
-600993.7766
 20
-1158163.8483
 10
-600921.8098
 20
-1158212.5318
 10
-600873.1264
 20
-1158231.5818
 10
-600777.8762
 20
-1158261.2152
 10
-600693.2093
 20
-1158284.4986
  0
LWPOLYLINE
  5
20196
100
AcDbEntity
  8
0
100
AcDbPolyline
 70
0
 90
7
 10
-600993.7766
 20
-1158163.8483
 10
-600955.6765
 20
-1158134.2149
 10
-600847.7263
 20
-1158077.0648
 10
-600752.4761
 20
-1158026.2647
 10
-600441.3255
 20
-1157937.3645
 10
-600422.2755
 20
-1157931.0145
 10
-600373.592
 20
-1157914.0812
  0
LWPOLYLINE
  5
20197
100
AcDbEntity
  8
0
100
AcDbPolyline
 70
0
 90
3
 10
-600693.2093
 20
-1158284.4986
 10
-600627.5925
 20
-1158176.5484
 10
-600532.3423
 20
-1158047.4314
  0
LWPOLYLINE
  5
20198
100
AcDbEntity
  8
0
100
AcDbPolyline
 70
0
 90
7
 10
-600373.592
 20
-1157914.0812
 10
-600312.2086
 20
-1157863.2811
 10
-600236.0084
 20
-1157829.4143
 10
-600157.6916
 20
-1157818.831
 10
-600053.9747
 20
-1157825.181
 10
-599965.0745
 20
-1157827.2977
 10
-599916.3911
 20
-1157818.831
  0
LWPOLYLINE
  5
20199
100
AcDbEntity
  8
0
100
AcDbPolyline
 70
0
 90
2
 10
-599916.3911
 20
-1157818.831
 10
-599689.3348
 20
-1157733.3473
  0
LWPOLYLINE
  5
2019A
100
AcDbEntity
  8
0
100
AcDbPolyline
 70
0
 90
3
 10
-599916.3911
 20
-1157818.831
 10
-599960.8412
 20
-1157668.5473
 10
-599969.3079
 20
-1157638.9139
  0
LWPOLYLINE
  5
2019B
100
AcDbEntity
  8
0
100
AcDbPolyline
 70
0
 90
9
 10
-600373.592
 20
-1157914.0812
 10
-600252.9418
 20
-1157994.5147
 10
-600140.7582
 20
-1157992.398
 10
-600079.3748
 20
-1158005.098
 10
-600047.6247
 20
-1158041.0814
 10
-600022.2247
 20
-1158096.1149
 10
-599992.5913
 20
-1158129.9816
 10
-599901.5744
 20
-1158204.0651
 10
-599871.941
 20
-1158229.4651
  0
LWPOLYLINE
  5
2019C
100
AcDbEntity
  8
0
100
AcDbPolyline
 70
0
 90
4
 10
-599871.941
 20
-1158229.4651
 10
-599787.2742
 20
-1158297.1986
 10
-599685.674
 20
-1158369.1654
 10
-599793.6242
 20
-1158532.1491
  0
LWPOLYLINE
  5
2019D
100
AcDbEntity
  8
0
100
AcDbPolyline
 70
0
 90
6
 10
-600532.3423
 20
-1158047.4314
 10
-600434.9755
 20
-1158117.2816
 10
-600280.4585
 20
-1158218.8818
 10
-600140.7582
 20
-1158309.8986
 10
-600056.0914
 20
-1158360.6987
 10
-599793.6242
 20
-1158532.1491
  0
LWPOLYLINE
  5
2019E
100
AcDbEntity
  8
0
100
AcDbPolyline
 70
0
 90
4
 10
-600693.2093
 20
-1158284.4986
 10
-600542.9257
 20
-1158341.6487
 10
-600447.6755
 20
-1158390.3321
 10
-600261.4085
 20
-1158491.9323
  0
LWPOLYLINE
  5
2019F
100
AcDbEntity
  8
0
100
AcDbPolyline
 70
0
 90
2
 10
-599871.941
 20
-1158229.4651
 10
-599531.3675
 20
-1158109.6998
  0
LWPOLYLINE
  5
201A0
100
AcDbEntity
  8
0
100
AcDbPolyline
 70
0
 90
3
 10
-600574.6758
 20
-1158784.0329
 10
-600534.459
 20
-1158735.3495
 10
-600468.8422
 20
-1158686.666
  0
LWPOLYLINE
  5
201A1
100
AcDbEntity
  8
0
100
AcDbPolyline
 70
0
 90
8
 10
-600468.8422
 20
-1158686.666
 10
-600377.8254
 20
-1158610.4659
 10
-600295.2752
 20
-1158506.749
 10
-600240.2418
 20
-1158424.1988
 10
-600153.4582
 20
-1158345.882
 10
-600073.0248
 20
-1158297.1986
 10
-599956.6079
 20
-1158248.5152
 10
-599871.941
 20
-1158229.4651
  0
LWPOLYLINE
  5
201A2
100
AcDbEntity
  8
0
100
AcDbPolyline
 70
0
 90
8
 10
-600574.6758
 20
-1158784.0329
 10
-600612.7758
 20
-1158843.2997
 10
-600642.4092
 20
-1158927.9665
 10
-600684.7426
 20
-1159040.1501
 10
-600824.4429
 20
-1159279.3339
 10
-600947.2098
 20
-1159486.7676
 10
-600978.9599
 20
-1159548.1511
 10
-600993.7766
 20
-1159582.0178
  0
LWPOLYLINE
  5
201A3
100
AcDbEntity
  8
0
100
AcDbPolyline
 70
0
 90
10
 10
-600993.7766
 20
-1159582.0178
 10
-600998.0099
 20
-1159694.2014
 10
-600993.7766
 20
-1159768.2849
 10
-601031.8767
 20
-1159910.1018
 10
-601031.8767
 20
-1160028.6354
 10
-601057.2767
 20
-1160187.3857
 10
-601061.5101
 20
-1160299.5693
 10
-601031.8767
 20
-1160392.7028
 10
-600981.0766
 20
-1160532.4031
 10
-600975.9352
 20
-1160560.3175
  0
LWPOLYLINE
  5
201A4
100
AcDbEntity
  8
0
100
AcDbPolyline
 70
0
 90
6
 10
-600975.9352
 20
-1160560.3175
 10
-600966.2599
 20
-1160642.4699
 10
-600962.0265
 20
-1160733.4868
 10
-600983.1932
 20
-1160858.3704
 10
-601031.8767
 20
-1161004.4207
 10
-601059.3934
 20
-1161093.3209
  0
LWPOLYLINE
  5
201A5
100
AcDbEntity
  8
0
100
AcDbPolyline
 70
0
 90
12
 10
-601059.3934
 20
-1161093.3209
 10
-601177.927
 20
-1161154.7043
 10
-601245.6604
 20
-1161216.0878
 10
-601294.3439
 20
-1161283.8212
 10
-601313.3939
 20
-1161383.3048
 10
-601317.6272
 20
-1161493.3717
 10
-601313.3939
 20
-1161569.5718
 10
-601334.5606
 20
-1161660.5887
 10
-601395.9441
 20
-1161777.0056
 10
-601455.2109
 20
-1161897.6558
 10
-601499.6609
 20
-1162035.2394
 10
-601609.3489
 20
-1162389.1212
  0
LWPOLYLINE
  5
201A6
100
AcDbEntity
  8
0
100
AcDbPolyline
 70
0
 90
6
 10
-600550.4843
 20
-1160839.7181
 10
-600387.8854
 20
-1160610.0225
 10
-600112.2492
 20
-1160625.7731
 10
-599945.6235
 20
-1160624.7562
 10
-599805.9232
 20
-1160624.7562
 10
-599765.7065
 20
-1160612.0562
  0
LWPOLYLINE
  5
201A7
100
AcDbEntity
  8
0
100
AcDbPolyline
 70
0
 90
7
 10
-600550.4843
 20
-1160839.7181
 10
-600512.8913
 20
-1160874.5234
 10
-600345.6743
 20
-1160986.7069
 10
-600271.5908
 20
-1161031.157
 10
-600064.1571
 20
-1161117.9405
 10
-599985.8403
 20
-1161145.4573
 10
-599721.2564
 20
-1161217.4241
  0
LWPOLYLINE
  5
201A8
100
AcDbEntity
  8
0
100
AcDbPolyline
 70
0
 90
15
 10
-601059.3934
 20
-1161093.3209
 10
-601023.009
 20
-1161143.3406
 10
-600991.2589
 20
-1161221.6574
 10
-600948.9255
 20
-1161278.8075
 10
-600868.492
 20
-1161344.4243
 10
-600790.1752
 20
-1161412.1578
 10
-600722.4417
 20
-1161486.2413
 10
-600673.7583
 20
-1161549.7414
 10
-600567.9248
 20
-1161691.5584
 10
-600493.8413
 20
-1161776.2252
 10
-600430.3412
 20
-1161812.2086
 10
-600320.2743
 20
-1161858.7754
 10
-600237.7241
 20
-1161863.0087
 10
-600148.8239
 20
-1161846.0753
 10
-600085.3238
 20
-1161822.792
  0
LWPOLYLINE
  5
201A9
100
AcDbEntity
  8
0
100
AcDbPolyline
 70
0
 90
11
 10
-600085.3238
 20
-1161822.792
 10
-600138.2406
 20
-1161786.8085
 10
-600153.0573
 20
-1161752.9418
 10
-600155.1739
 20
-1161719.0751
 10
-600102.2572
 20
-1161674.625
 10
-599907.5234
 20
-1161534.9247
 10
-599750.8898
 20
-1161446.0245
 10
-599723.3731
 20
-1161420.6245
 10
-599708.5564
 20
-1161369.8244
 10
-599702.2064
 20
-1161308.4409
 10
-599721.2564
 20
-1161217.4241
  0
LWPOLYLINE
  5
201AA
100
AcDbEntity
  8
0
100
AcDbPolyline
 70
0
 90
11
 10
-599721.2564
 20
-1161217.4241
 10
-599617.5395
 20
-1161196.2574
 10
-599545.5727
 20
-1161172.974
 10
-599482.0726
 20
-1161132.7572
 10
-599435.5058
 20
-1161098.8905
 10
-599372.0057
 20
-1161090.4238
 10
-599350.839
 20
-1161128.5239
 10
-599323.3223
 20
-1161143.3406
 10
-599213.2554
 20
-1161122.1739
 10
-599137.0552
 20
-1161107.3572
 10
-599105.3052
 20
-1161081.9571
  0
LWPOLYLINE
  5
201AB
100
AcDbEntity
  8
0
100
AcDbPolyline
 70
0
 90
6
 10
-599721.2564
 20
-1161217.4241
 10
-599681.0397
 20
-1161299.9742
 10
-599598.4895
 20
-1161314.7909
 10
-599524.406
 20
-1161327.491
 10
-599295.8056
 20
-1161219.5407
 10
-599238.6554
 20
-1161234.3574
  0
LWPOLYLINE
  5
201AC
100
AcDbEntity
  8
0
100
AcDbPolyline
 70
0
 90
5
 10
-599238.6554
 20
-1161234.3574
 10
-599183.622
 20
-1161202.6074
 10
-599103.1885
 20
-1161172.974
 10
-599092.6051
 20
-1161139.1073
 10
-599105.3052
 20
-1161081.9571
  0
LWPOLYLINE
  5
201AD
100
AcDbEntity
  8
0
100
AcDbPolyline
 70
0
 90
7
 10
-600085.3238
 20
-1161822.792
 10
-599977.3736
 20
-1161786.8085
 10
-599808.0399
 20
-1161710.6084
 10
-599651.4063
 20
-1161642.8749
 10
-599507.4726
 20
-1161596.3082
 10
-599384.7057
 20
-1161579.3748
 10
-599209.0441
 20
-1161566.7945
  0
LWPOLYLINE
  5
201AE
100
AcDbEntity
  8
0
100
AcDbPolyline
 70
0
 90
6
 10
-599209.0441
 20
-1161566.7945
 10
-599232.3054
 20
-1161503.1746
 10
-599251.3555
 20
-1161456.6079
 10
-599253.4721
 20
-1161412.1578
 10
-599230.1888
 20
-1161352.891
 10
-599217.4887
 20
-1161329.6076
  0
LWPOLYLINE
  5
201AF
100
AcDbEntity
  8
0
100
AcDbPolyline
 70
0
 90
2
 10
-599217.4887
 20
-1161329.6076
 10
-599238.6554
 20
-1161234.3574
  0
LWPOLYLINE
  5
201B0
100
AcDbEntity
  8
0
100
AcDbPolyline
 70
0
 90
4
 10
-599217.4887
 20
-1161329.6076
 10
-599137.0552
 20
-1161344.4243
 10
-599046.0384
 20
-1161374.0577
 10
-598944.4382
 20
-1161412.1578
  0
LWPOLYLINE
  5
201B1
100
AcDbEntity
  8
0
100
AcDbPolyline
 70
0
 90
6
 10
-599765.7065
 20
-1160612.0562
 10
-599776.2899
 20
-1160423.6725
 10
-599827.09
 20
-1160296.6722
 10
-599896.9401
 20
-1160127.3386
 10
-599973.1402
 20
-1159949.5382
 10
-600085.3238
 20
-1159744.2211
  0
LWPOLYLINE
  5
201B2
100
AcDbEntity
  8
0
100
AcDbPolyline
 70
0
 90
12
 10
-599765.7065
 20
-1160612.0562
 10
-599831.3233
 20
-1160578.1895
 10
-599856.7233
 20
-1160561.2561
 10
-599899.0568
 20
-1160487.1726
 10
-599939.2735
 20
-1160434.2558
 10
-599981.6069
 20
-1160400.3891
 10
-600047.2237
 20
-1160351.7057
 10
-600074.7404
 20
-1160292.4389
 10
-600102.2572
 20
-1160239.5221
 10
-600235.6074
 20
-1160072.3051
 10
-600379.5411
 20
-1159886.0381
 10
-600521.358
 20
-1159720.9378
  0
LWPOLYLINE
  5
201B3
100
AcDbEntity
  8
0
100
AcDbPolyline
 70
0
 90
9
 10
-599765.7065
 20
-1160612.0562
 10
-599971.0236
 20
-1160607.8229
 10
-600129.7739
 20
-1160516.806
 10
-600241.9574
 20
-1160419.4391
 10
-600371.0744
 20
-1160311.4889
 10
-600555.2247
 20
-1160182.372
 10
-600677.9917
 20
-1160112.5219
 10
-600781.7085
 20
-1160029.9717
 10
-600866.3754
 20
-1159958.0049
  0
LWPOLYLINE
  5
201B4
100
AcDbEntity
  8
0
100
AcDbPolyline
 70
0
 90
7
 10
-599765.7065
 20
-1160612.0562
 10
-599664.1063
 20
-1160590.8895
 10
-599598.4895
 20
-1160565.4894
 10
-599505.356
 20
-1160514.6893
 10
-599338.139
 20
-1160444.8392
 10
-599285.2222
 20
-1160432.1392
 10
-599145.5219
 20
-1160419.4391
  0
LWPOLYLINE
  5
201B5
100
AcDbEntity
  8
0
100
AcDbPolyline
 70
0
 90
5
 10
-599145.5219
 20
-1160419.4391
 10
-599118.0052
 20
-1160635.3396
 10
-599088.3718
 20
-1160834.3066
 10
-599079.9051
 20
-1160927.4402
 10
-599105.3052
 20
-1161081.9571
  0
LWPOLYLINE
  5
201B6
100
AcDbEntity
  8
0
100
AcDbPolyline
 70
0
 90
3
 10
-599105.3052
 20
-1161081.9571
 10
-599077.7885
 20
-1161050.2071
 10
-599024.8717
 20
-1161048.0904
  0
LWPOLYLINE
  5
201B7
100
AcDbEntity
  8
0
100
AcDbPolyline
 70
0
 90
4
 10
-599024.8717
 20
-1161048.0904
 10
-598974.0716
 20
-1161050.2071
 10
-598851.3047
 20
-1161088.3072
 10
-598792.0379
 20
-1161092.5405
  0
LWPOLYLINE
  5
201B8
100
AcDbEntity
  8
0
100
AcDbPolyline
 70
0
 90
5
 10
-598792.0379
 20
-1161092.5405
 10
-598690.4377
 20
-1161052.3237
 10
-598599.4208
 20
-1161035.3904
 10
-598483.0039
 20
-1161033.2737
 10
-598400.4538
 20
-1161045.9737
  0
LWPOLYLINE
  5
201B9
100
AcDbEntity
  8
0
100
AcDbPolyline
 70
0
 90
5
 10
-598400.4538
 20
-1161045.9737
 10
-598379.2871
 20
-1161031.157
 10
-598269.2202
 20
-1161045.9737
 10
-598201.4867
 20
-1161035.3904
 10
-598167.62
 20
-1161045.9737
  0
LWPOLYLINE
  5
201BA
100
AcDbEntity
  8
0
100
AcDbPolyline
 70
0
 90
10
 10
-598400.4538
 20
-1161045.9737
 10
-598391.9871
 20
-1161113.7072
 10
-598408.9204
 20
-1161153.924
 10
-598434.3205
 20
-1161192.024
 10
-598421.6205
 20
-1161223.7741
 10
-598398.3371
 20
-1161251.2908
 10
-598339.0703
 20
-1161276.6909
 10
-598284.0369
 20
-1161287.2742
 10
-598220.5367
 20
-1161314.7909
 10
-598197.2534
 20
-1161359.241
  0
LWPOLYLINE
  5
201BB
100
AcDbEntity
  8
0
100
AcDbPolyline
 70
0
 90
5
 10
-598197.2534
 20
-1161359.241
 10
-598427.9705
 20
-1161589.9582
 10
-598559.2041
 20
-1161729.6584
 10
-598629.0542
 20
-1161812.2086
 10
-598689.9306
 20
-1161884.2952
  0
LWPOLYLINE
  5
201BC
100
AcDbEntity
  8
0
100
AcDbPolyline
 70
0
 90
6
 10
-598944.4382
 20
-1161412.1578
 10
-598808.9712
 20
-1161308.4409
 10
-598631.1709
 20
-1161355.0077
 10
-598510.5207
 20
-1161376.1744
 10
-598279.8035
 20
-1161407.9245
 10
-598197.2534
 20
-1161359.241
  0
LWPOLYLINE
  5
201BD
100
AcDbEntity
  8
0
100
AcDbPolyline
 70
0
 90
4
 10
-598197.2534
 20
-1161359.241
 10
-598201.4867
 20
-1161429.0912
 10
-598080.8365
 20
-1161462.9579
 10
-598021.5697
 20
-1161492.5913
  0
LWPOLYLINE
  5
201BE
100
AcDbEntity
  8
0
100
AcDbPolyline
 70
0
 90
9
 10
-598021.5697
 20
-1161492.5913
 10
-598036.3864
 20
-1161532.808
 10
-598057.5531
 20
-1161568.7914
 10
-598106.2365
 20
-1161592.0748
 10
-598140.1032
 20
-1161613.2415
 10
-598218.4201
 20
-1161769.8752
 10
-598271.3368
 20
-1161882.0587
 10
-598277.6869
 20
-1161934.9755
 10
-598273.4535
 20
-1162032.3424
  0
LWPOLYLINE
  5
201BF
100
AcDbEntity
  8
0
100
AcDbPolyline
 70
0
 90
3
 10
-598021.5697
 20
-1161492.5913
 10
-597964.4196
 20
-1161503.1746
 10
-597910.4665
 20
-1161496.9444
  0
LWPOLYLINE
  5
201C0
100
AcDbEntity
  8
0
100
AcDbPolyline
 70
0
 90
5
 10
-597769.1788
 20
-1161804.92
 10
-597975.0029
 20
-1161901.1088
 10
-598118.9365
 20
-1161975.1923
 10
-598212.0701
 20
-1162021.759
 10
-598273.4535
 20
-1162032.3424
  0
LWPOLYLINE
  5
201C1
100
AcDbEntity
  8
0
100
AcDbPolyline
 70
0
 90
4
 10
-598273.4535
 20
-1162032.3424
 10
-598364.4704
 20
-1162025.9924
 10
-598472.4206
 20
-1162009.059
 10
-598542.2928
 20
-1161992.2454
  0
LWPOLYLINE
  5
201C2
100
AcDbEntity
  8
0
100
AcDbPolyline
 70
0
 90
4
 10
-598542.2928
 20
-1161992.2454
 10
-598616.3542
 20
-1161960.3756
 10
-598660.8043
 20
-1161913.8088
 10
-598689.9306
 20
-1161884.2952
  0
LWPOLYLINE
  5
201C3
100
AcDbEntity
  8
0
100
AcDbPolyline
 70
0
 90
8
 10
-598689.9306
 20
-1161884.2952
 10
-598800.5046
 20
-1161778.3419
 10
-598916.9215
 20
-1161691.5584
 10
-598997.355
 20
-1161649.2249
 10
-599082.0218
 20
-1161606.8915
 10
-599132.8219
 20
-1161579.3748
 10
-599175.1553
 20
-1161568.7914
 10
-599209.0441
 20
-1161566.7945
  0
LWPOLYLINE
  5
201C4
100
AcDbEntity
  8
0
100
AcDbPolyline
 70
0
 90
4
 10
-597735.8412
 20
-1161420.7442
 10
-597742.1691
 20
-1161319.0243
 10
-597733.7024
 20
-1161268.2242
 10
-597689.8036
 20
-1161187.3813
  0
LWPOLYLINE
  5
201C5
100
AcDbEntity
  8
0
100
AcDbPolyline
 70
0
 90
4
 10
-598197.2534
 20
-1161359.241
 10
-598150.6866
 20
-1161323.2576
 10
-597953.8362
 20
-1161244.9408
 10
-597850.1193
 20
-1161192.024
  0
LWPOLYLINE
  5
201C6
100
AcDbEntity
  8
0
100
AcDbPolyline
 70
0
 90
4
 10
-597850.1193
 20
-1161192.024
 10
-597801.4359
 20
-1161172.974
 10
-597754.8691
 20
-1161160.274
 10
-597689.8036
 20
-1161187.3813
  0
LWPOLYLINE
  5
201C7
100
AcDbEntity
  8
0
100
AcDbPolyline
 70
0
 90
2
 10
-598400.4538
 20
-1161045.9737
 10
-598453.3705
 20
-1160588.7728
  0
LWPOLYLINE
  5
201C8
100
AcDbEntity
  8
0
100
AcDbPolyline
 70
0
 90
3
 10
-598466.0706
 20
-1160474.4726
 10
-598440.6705
 20
-1160470.2392
 10
-598449.1372
 20
-1160362.289
  0
LWPOLYLINE
  5
201C9
100
AcDbEntity
  8
0
100
AcDbPolyline
 70
0
 90
3
 10
-598453.3705
 20
-1160588.7728
 10
-598550.7374
 20
-1160599.3562
 10
-598641.7542
 20
-1160508.3393
  0
LWPOLYLINE
  5
201CA
100
AcDbEntity
  8
0
100
AcDbPolyline
 70
0
 90
3
 10
-598449.1372
 20
-1160362.289
 10
-598540.154
 20
-1160402.5058
 10
-598641.7542
 20
-1160508.3393
  0
LWPOLYLINE
  5
201CB
100
AcDbEntity
  8
0
100
AcDbPolyline
 70
0
 90
6
 10
-598641.7542
 20
-1160508.3393
 10
-598747.5878
 20
-1160413.0891
 10
-598817.4379
 20
-1160362.289
 10
-598910.5715
 20
-1160317.8389
 10
-599139.1719
 20
-1160283.9722
 10
-599160.3386
 20
-1160290.3222
  0
LWPOLYLINE
  5
201CC
100
AcDbEntity
  8
0
100
AcDbPolyline
 70
0
 90
2
 10
-599160.3386
 20
-1160290.3222
 10
-599145.5219
 20
-1160419.4391
  0
LWPOLYLINE
  5
201CD
100
AcDbEntity
  8
0
100
AcDbPolyline
 70
0
 90
4
 10
-598449.1372
 20
-1160362.289
 10
-598366.587
 20
-1160332.6556
 10
-598309.4369
 20
-1160305.1389
 10
-598296.7369
 20
-1160281.8555
  0
LWPOLYLINE
  5
201CE
100
AcDbEntity
  8
0
100
AcDbPolyline
 70
0
 90
3
 10
-598296.7369
 20
-1160281.8555
 10
-598258.6368
 20
-1160250.1055
 10
-598114.7032
 20
-1160188.722
  0
LWPOLYLINE
  5
201CF
100
AcDbEntity
  8
0
100
AcDbPolyline
 70
0
 90
3
 10
-598296.7369
 20
-1160281.8555
 10
-598281.9202
 20
-1160313.6056
 10
-598197.2534
 20
-1160436.3725
  0
LWPOLYLINE
  5
201D0
100
AcDbEntity
  8
0
100
AcDbPolyline
 70
0
 90
3
 10
-598197.2534
 20
-1160436.3725
 10
-598167.62
 20
-1160567.6061
 10
-598148.5699
 20
-1160722.1231
  0
LWPOLYLINE
  5
201D1
100
AcDbEntity
  8
0
100
AcDbPolyline
 70
0
 90
2
 10
-598197.2534
 20
-1160436.3725
 10
-598104.1198
 20
-1160332.6556
  0
LWPOLYLINE
  5
201D2
100
AcDbEntity
  8
0
100
AcDbPolyline
 70
0
 90
2
 10
-598104.1198
 20
-1160332.6556
 10
-597960.1862
 20
-1160260.6888
  0
LWPOLYLINE
  5
201D3
100
AcDbEntity
  8
0
100
AcDbPolyline
 70
0
 90
2
 10
-598114.7032
 20
-1160188.722
 10
-598104.1198
 20
-1160332.6556
  0
LWPOLYLINE
  5
201D4
100
AcDbEntity
  8
0
100
AcDbPolyline
 70
0
 90
3
 10
-598114.7032
 20
-1160188.722
 10
-598070.2531
 20
-1160195.072
 10
-597960.1862
 20
-1160260.6888
  0
LWPOLYLINE
  5
201D5
100
AcDbEntity
  8
0
100
AcDbPolyline
 70
0
 90
3
 10
-597960.1862
 20
-1160260.6888
 10
-597721.0024
 20
-1160421.5558
 10
-597687.1357
 20
-1160461.7726
  0
LWPOLYLINE
  5
201D6
100
AcDbEntity
  8
0
100
AcDbPolyline
 70
0
 90
2
 10
-597960.1862
 20
-1160260.6888
 10
-597641.2201
 20
-1160136.8024
  0
LWPOLYLINE
  5
201D7
100
AcDbEntity
  8
0
100
AcDbPolyline
 70
0
 90
4
 10
-597641.2201
 20
-1160136.8024
 10
-597629.9856
 20
-1160277.6222
 10
-597615.1689
 20
-1160383.4557
 10
-597604.5855
 20
-1160436.3725
  0
LWPOLYLINE
  5
201D8
100
AcDbEntity
  8
0
100
AcDbPolyline
 70
0
 90
2
 10
-597687.1357
 20
-1160461.7726
 10
-597604.5855
 20
-1160436.3725
  0
LWPOLYLINE
  5
201D9
100
AcDbEntity
  8
0
100
AcDbPolyline
 70
0
 90
3
 10
-597687.1357
 20
-1160461.7726
 10
-597642.6856
 20
-1160582.4228
 10
-597591.8855
 20
-1160707.3064
  0
LWPOLYLINE
  5
201DA
100
AcDbEntity
  8
0
100
AcDbPolyline
 70
0
 90
6
 10
-597591.8855
 20
-1160707.3064
 10
-597555.9021
 20
-1160787.7399
 10
-597549.5521
 20
-1160834.3066
 10
-597562.2521
 20
-1160889.3401
 10
-597621.5189
 20
-1161020.5737
 10
-597689.8036
 20
-1161187.3813
  0
LWPOLYLINE
  5
201DB
100
AcDbEntity
  8
0
100
AcDbPolyline
 70
0
 90
4
 10
-597451.6781
 20
-1161179.4438
 10
-597433.1352
 20
-1161065.0238
 10
-597420.4351
 20
-1160959.1902
 10
-597528.3854
 20
-1160660.7396
  0
LWPOLYLINE
  5
201DC
100
AcDbEntity
  8
0
100
AcDbPolyline
 70
0
 90
7
 10
-597323.0904
 20
-1161235.0064
 10
-597191.8347
 20
-1161022.6904
 10
-597113.5179
 20
-1160940.1402
 10
-597090.2345
 20
-1160885.1067
 10
-597011.9177
 20
-1160783.5065
 10
-596988.6343
 20
-1160747.5231
 10
-596878.5674
 20
-1160664.973
  0
LWPOLYLINE
  5
201DD
100
AcDbEntity
  8
0
100
AcDbPolyline
 70
0
 90
3
 10
-596878.5674
 20
-1160664.973
 10
-596961.1176
 20
-1160546.4394
 10
-597009.801
 20
-1160444.8392
  0
LWPOLYLINE
  5
201DE
100
AcDbEntity
  8
0
100
AcDbPolyline
 70
0
 90
2
 10
-597591.8855
 20
-1160707.3064
 10
-597528.3854
 20
-1160660.7396
  0
LWPOLYLINE
  5
201DF
100
AcDbEntity
  8
0
100
AcDbPolyline
 70
0
 90
6
 10
-597528.3854
 20
-1160660.7396
 10
-597416.2018
 20
-1160578.1895
 10
-597333.6516
 20
-1160529.506
 10
-597244.7515
 20
-1160493.5226
 10
-597132.5679
 20
-1160466.0059
 10
-597009.801
 20
-1160444.8392
  0
LWPOLYLINE
  5
201E0
100
AcDbEntity
  8
0
100
AcDbPolyline
 70
0
 90
3
 10
-596780.0752
 20
-1160283.0828
 10
-596762.1505
 20
-1160173.9053
 10
-596747.4558
 20
-1160100.2898
  0
LWPOLYLINE
  5
201E1
100
AcDbEntity
  8
0
100
AcDbPolyline
 70
0
 90
5
 10
-597009.801
 20
-1160444.8392
 10
-596861.634
 20
-1160413.0891
 10
-596808.7172
 20
-1160391.9224
 10
-596785.4339
 20
-1160315.7223
 10
-596780.0752
 20
-1160283.0828
  0
LWPOLYLINE
  5
201E2
100
AcDbEntity
  8
0
100
AcDbPolyline
 70
0
 90
7
 10
-596780.0752
 20
-1160283.0828
 10
-596867.984
 20
-1160275.5055
 10
-597020.3843
 20
-1160292.4389
 10
-597107.1678
 20
-1160311.4889
 10
-597289.2015
 20
-1160355.939
 10
-597411.9685
 20
-1160389.8058
 10
-597604.5855
 20
-1160436.3725
  0
LWPOLYLINE
  5
201E3
100
AcDbEntity
  8
0
100
AcDbPolyline
 70
0
 90
10
 10
-597533.2699
 20
-1160093.9398
 10
-597511.452
 20
-1160116.7552
 10
-597464.8852
 20
-1160131.5719
 10
-597392.9184
 20
-1160133.6886
 10
-597293.4349
 20
-1160114.6385
 10
-597177.018
 20
-1160082.8885
 10
-597058.4844
 20
-1160082.8885
 10
-596857.4007
 20
-1160099.8218
 10
-596764.2672
 20
-1160101.9385
 10
-596747.4558
 20
-1160100.2898
  0
LWPOLYLINE
  5
201E4
100
AcDbEntity
  8
0
100
AcDbPolyline
 70
0
 90
13
 10
-599160.3386
 20
-1160290.3222
 10
-599251.3555
 20
-1160290.3222
 10
-599348.7223
 20
-1160273.3889
 10
-599410.1058
 20
-1160237.4055
 10
-599511.706
 20
-1160203.5387
 10
-599577.3228
 20
-1160176.022
 10
-599668.3396
 20
-1160125.2219
 10
-599717.0231
 20
-1160057.4884
 10
-599786.8732
 20
-1159993.9883
 10
-599877.8901
 20
-1159919.9048
 10
-599932.9235
 20
-1159845.8213
 10
-599947.7402
 20
-1159769.6212
 10
-600011.2403
 20
-1159655.321
  0
LWPOLYLINE
  5
201E5
100
AcDbEntity
  8
0
100
AcDbPolyline
 70
0
 90
3
 10
-600011.2403
 20
-1159655.321
 10
-599958.3235
 20
-1159496.5706
 10
-599863.0734
 20
-1159187.5367
  0
LWPOLYLINE
  5
201E6
100
AcDbEntity
  8
0
100
AcDbPolyline
 70
0
 90
7
 10
-599863.0734
 20
-1159187.5367
 10
-599814.3899
 20
-1159164.2533
 10
-599759.3565
 20
-1159132.5032
 10
-599704.323
 20
-1159107.1032
 10
-599621.7729
 20
-1159094.4032
 10
-599587.9061
 20
-1159064.7698
 10
-599507.4726
 20
-1158906.0195
  0
LWPOLYLINE
  5
201E7
100
AcDbEntity
  8
0
100
AcDbPolyline
 70
0
 90
3
 10
-599160.3386
 20
-1160290.3222
 10
-599164.572
 20
-1160239.5221
 10
-599183.622
 20
-1160059.6051
  0
LWPOLYLINE
  5
201E8
100
AcDbEntity
  8
0
100
AcDbPolyline
 70
0
 90
2
 10
-599183.622
 20
-1160059.6051
 10
-599185.7387
 20
-1159877.5714
  0
LWPOLYLINE
  5
201E9
100
AcDbEntity
  8
0
100
AcDbPolyline
 70
0
 90
5
 10
-599185.7387
 20
-1159877.5714
 10
-599173.0386
 20
-1159778.0879
 10
-599149.7553
 20
-1159716.7044
 10
-599069.3218
 20
-1159604.5209
 10
-599007.9383
 20
-1159574.8875
  0
LWPOLYLINE
  5
201EA
100
AcDbEntity
  8
0
100
AcDbPolyline
 70
0
 90
2
 10
-599185.7387
 20
-1159877.5714
 10
-598802.6212
 20
-1159841.588
  0
LWPOLYLINE
  5
201EB
100
AcDbEntity
  8
0
100
AcDbPolyline
 70
0
 90
2
 10
-599183.622
 20
-1160059.6051
 10
-598696.7877
 20
-1160013.0383
  0
LWPOLYLINE
  5
201EC
100
AcDbEntity
  8
0
100
AcDbPolyline
 70
0
 90
4
 10
-598449.1372
 20
-1160362.289
 10
-598442.7872
 20
-1160315.7223
 10
-598629.0542
 20
-1160101.9385
 10
-598696.7877
 20
-1160013.0383
  0
LWPOLYLINE
  5
201ED
100
AcDbEntity
  8
0
100
AcDbPolyline
 70
0
 90
2
 10
-598696.7877
 20
-1160013.0383
 10
-598802.6212
 20
-1159841.588
  0
LWPOLYLINE
  5
201EE
100
AcDbEntity
  8
0
100
AcDbPolyline
 70
0
 90
3
 10
-598802.6212
 20
-1159841.588
 10
-598982.5383
 20
-1159593.9375
 10
-599007.9383
 20
-1159574.8875
  0
LWPOLYLINE
  5
201EF
100
AcDbEntity
  8
0
100
AcDbPolyline
 70
0
 90
3
 10
-599007.9383
 20
-1159574.8875
 10
-599003.705
 20
-1159517.7373
 10
-598889.4047
 20
-1159361.1037
  0
LWPOLYLINE
  5
201F0
100
AcDbEntity
  8
0
100
AcDbPolyline
 70
0
 90
2
 10
-598889.4047
 20
-1159361.1037
 10
-598811.0879
 20
-1159509.2707
  0
LWPOLYLINE
  5
201F1
100
AcDbEntity
  8
0
100
AcDbPolyline
 70
0
 90
3
 10
-598811.0879
 20
-1159509.2707
 10
-598961.3716
 20
-1159589.7042
 10
-599007.9383
 20
-1159574.8875
  0
LWPOLYLINE
  5
201F2
100
AcDbEntity
  8
0
100
AcDbPolyline
 70
0
 90
4
 10
-598811.0879
 20
-1159509.2707
 10
-598688.321
 20
-1159450.0039
 10
-598588.8375
 20
-1159409.7871
 10
-598279.8035
 20
-1159331.4703
  0
LWPOLYLINE
  5
201F3
100
AcDbEntity
  8
0
100
AcDbPolyline
 70
0
 90
2
 10
-598279.8035
 20
-1159331.4703
 10
-598224.7701
 20
-1159543.1374
  0
LWPOLYLINE
  5
201F4
100
AcDbEntity
  8
0
100
AcDbPolyline
 70
0
 90
4
 10
-598224.7701
 20
-1159543.1374
 10
-598487.2373
 20
-1159632.0376
 10
-598512.6373
 20
-1159651.0876
 10
-598671.3876
 20
-1159744.2211
  0
LWPOLYLINE
  5
201F5
100
AcDbEntity
  8
0
100
AcDbPolyline
 70
0
 90
2
 10
-598224.7701
 20
-1159543.1374
 10
-598171.8533
 20
-1159742.1045
  0
LWPOLYLINE
  5
201F6
100
AcDbEntity
  8
0
100
AcDbPolyline
 70
0
 90
2
 10
-598171.8533
 20
-1159742.1045
 10
-598159.1533
 20
-1159784.4379
  0
LWPOLYLINE
  5
201F7
100
AcDbEntity
  8
0
100
AcDbPolyline
 70
0
 90
4
 10
-598159.1533
 20
-1159784.4379
 10
-598231.1201
 20
-1159828.888
 10
-598328.487
 20
-1159881.8047
 10
-598521.104
 20
-1160000.3383
  0
LWPOLYLINE
  5
201F8
100
AcDbEntity
  8
0
100
AcDbPolyline
 70
0
 90
2
 10
-598159.1533
 20
-1159784.4379
 10
-598144.3366
 20
-1159875.4547
  0
LWPOLYLINE
  5
201F9
100
AcDbEntity
  8
0
100
AcDbPolyline
 70
0
 90
5
 10
-598144.3366
 20
-1159875.4547
 10
-598237.4701
 20
-1159924.1382
 10
-598336.9536
 20
-1159981.2883
 10
-598432.2038
 20
-1160034.205
 10
-598478.7706
 20
-1160061.7218
  0
LWPOLYLINE
  5
201FA
100
AcDbEntity
  8
0
100
AcDbPolyline
 70
0
 90
4
 10
-598144.3366
 20
-1159875.4547
 10
-598127.4032
 20
-1159953.7716
 10
-598123.1699
 20
-1160078.6551
 10
-598114.7032
 20
-1160188.722
  0
LWPOLYLINE
  5
201FB
100
AcDbEntity
  8
0
100
AcDbPolyline
 70
0
 90
5
 10
-598296.7369
 20
-1160281.8555
 10
-598349.6537
 20
-1160209.8887
 10
-598411.0371
 20
-1160137.9219
 10
-598472.4206
 20
-1160080.7718
 10
-598478.7706
 20
-1160061.7218
  0
LWPOLYLINE
  5
201FC
100
AcDbEntity
  8
0
100
AcDbPolyline
 70
0
 90
2
 10
-598478.7706
 20
-1160061.7218
 10
-598521.104
 20
-1160000.3383
  0
LWPOLYLINE
  5
201FD
100
AcDbEntity
  8
0
100
AcDbPolyline
 70
0
 90
2
 10
-598521.104
 20
-1160000.3383
 10
-598671.3876
 20
-1159744.2211
  0
LWPOLYLINE
  5
201FE
100
AcDbEntity
  8
0
100
AcDbPolyline
 70
0
 90
2
 10
-598671.3876
 20
-1159744.2211
 10
-598811.0879
 20
-1159509.2707
  0
LWPOLYLINE
  5
201FF
100
AcDbEntity
  8
0
100
AcDbPolyline
 70
0
 90
4
 10
-598171.8533
 20
-1159742.1045
 10
-598066.0198
 20
-1159731.5211
 10
-597869.1694
 20
-1159714.5877
 10
-597653.9201
 20
-1159701.8265
  0
LWPOLYLINE
  5
20200
100
AcDbEntity
  8
0
100
AcDbPolyline
 70
0
 90
3
 10
-598279.8035
 20
-1159331.4703
 10
-598193.02
 20
-1159310.3036
 10
-598163.646
 20
-1159299.0436
  0
LWPOLYLINE
  5
20201
100
AcDbEntity
  8
0
100
AcDbPolyline
 70
0
 90
3
 10
-598163.646
 20
-1159299.0436
 10
-598066.0198
 20
-1159261.6202
 10
-597926.9707
 20
-1159193.8255
  0
LWPOLYLINE
  5
20202
100
AcDbEntity
  8
0
100
AcDbPolyline
 70
0
 90
7
 10
-600261.4085
 20
-1158491.9323
 10
-600144.5906
 20
-1158565.2354
 10
-600068.3904
 20
-1158620.2689
 10
-600009.1236
 20
-1158649.9023
 10
-599888.4734
 20
-1158690.119
 10
-599831.3233
 20
-1158713.4024
 10
-599761.4732
 20
-1158762.0858
  0
LWPOLYLINE
  5
20203
100
AcDbEntity
  8
0
100
AcDbPolyline
 70
0
 90
4
 10
-599761.4732
 20
-1158762.0858
 10
-599691.623
 20
-1158812.8859
 10
-599592.1395
 20
-1158863.686
 10
-599507.4726
 20
-1158906.0195
  0
LWPOLYLINE
  5
20204
100
AcDbEntity
  8
0
100
AcDbPolyline
 70
0
 90
2
 10
-599507.4726
 20
-1158906.0195
 10
-599422.8058
 20
-1158785.3692
  0
LWPOLYLINE
  5
20205
100
AcDbEntity
  8
0
100
AcDbPolyline
 70
0
 90
3
 10
-599422.8058
 20
-1158785.3692
 10
-599342.3723
 20
-1158683.769
 10
-599316.9723
 20
-1158668.9523
  0
LWPOLYLINE
  5
20206
100
AcDbEntity
  8
0
100
AcDbPolyline
 70
0
 90
2
 10
-599793.6242
 20
-1158532.1491
 10
-599422.8058
 20
-1158785.3692
  0
LWPOLYLINE
  5
20207
100
AcDbEntity
  8
0
100
AcDbPolyline
 70
0
 90
3
 10
-599007.9383
 20
-1159574.8875
 10
-599141.2886
 20
-1159339.937
 10
-599187.8553
 20
-1159259.5035
  0
LWPOLYLINE
  5
20208
100
AcDbEntity
  8
0
100
AcDbPolyline
 70
0
 90
4
 10
-599187.8553
 20
-1159259.5035
 10
-599272.5222
 20
-1159111.3365
 10
-599312.7389
 20
-1159045.7197
 10
-599340.2556
 20
-1159009.7363
  0
LWPOLYLINE
  5
20209
100
AcDbEntity
  8
0
100
AcDbPolyline
 70
0
 90
4
 10
-599340.2556
 20
-1159009.7363
 10
-599395.2891
 20
-1158963.1696
 10
-599448.2059
 20
-1158933.5362
 10
-599507.4726
 20
-1158906.0195
  0
LWPOLYLINE
  5
2020A
100
AcDbEntity
  8
0
100
AcDbPolyline
 70
0
 90
4
 10
-599340.2556
 20
-1159009.7363
 10
-599308.5056
 20
-1158984.3363
 10
-599270.4055
 20
-1158969.5196
 10
-599232.3054
 20
-1158956.8196
  0
LWPOLYLINE
  5
2020B
100
AcDbEntity
  8
0
100
AcDbPolyline
 70
0
 90
2
 10
-599232.3054
 20
-1158956.8196
 10
-599316.9723
 20
-1158668.9523
  0
LWPOLYLINE
  5
2020C
100
AcDbEntity
  8
0
100
AcDbPolyline
 70
0
 90
3
 10
-599187.8553
 20
-1159259.5035
 10
-599137.0552
 20
-1159234.1034
 10
-598944.4382
 20
-1159181.1867
  0
LWPOLYLINE
  5
2020D
100
AcDbEntity
  8
0
100
AcDbPolyline
 70
0
 90
2
 10
-598889.4047
 20
-1159361.1037
 10
-598944.4382
 20
-1159181.1867
  0
LWPOLYLINE
  5
2020E
100
AcDbEntity
  8
0
100
AcDbPolyline
 70
0
 90
2
 10
-599232.3054
 20
-1158956.8196
 10
-599020.6383
 20
-1158899.6694
  0
LWPOLYLINE
  5
2020F
100
AcDbEntity
  8
0
100
AcDbPolyline
 70
0
 90
2
 10
-598944.4382
 20
-1159181.1867
 10
-599020.6383
 20
-1158899.6694
  0
LWPOLYLINE
  5
20210
100
AcDbEntity
  8
0
100
AcDbPolyline
 70
0
 90
4
 10
-599316.9723
 20
-1158668.9523
 10
-599268.2888
 20
-1158668.9523
 10
-599175.1553
 20
-1158641.4356
 10
-599192.0887
 20
-1158582.1688
  0
LWPOLYLINE
  5
20211
100
AcDbEntity
  8
0
100
AcDbPolyline
 70
0
 90
4
 10
-599020.6383
 20
-1158899.6694
 10
-599060.8551
 20
-1158759.9692
 10
-599098.9552
 20
-1158628.7356
 10
-599192.0887
 20
-1158582.1688
  0
LWPOLYLINE
  5
20212
100
AcDbEntity
  8
0
100
AcDbPolyline
 70
0
 90
2
 10
-598279.8035
 20
-1159331.4703
 10
-598364.4704
 20
-1159022.4364
  0
LWPOLYLINE
  5
20213
100
AcDbEntity
  8
0
100
AcDbPolyline
 70
0
 90
2
 10
-598364.4704
 20
-1159022.4364
 10
-598438.5538
 20
-1158728.2191
  0
LWPOLYLINE
  5
20214
100
AcDbEntity
  8
0
100
AcDbPolyline
 70
0
 90
2
 10
-598438.5538
 20
-1158728.2191
 10
-598514.754
 20
-1158440.3519
  0
LWPOLYLINE
  5
20215
100
AcDbEntity
  8
0
100
AcDbPolyline
 70
0
 90
2
 10
-598514.754
 20
-1158440.3519
 10
-598402.5704
 20
-1158410.7185
  0
LWPOLYLINE
  5
20216
100
AcDbEntity
  8
0
100
AcDbPolyline
 70
0
 90
2
 10
-598402.5704
 20
-1158410.7185
 10
-598168.2712
 20
-1158354.3538
  0
LWPOLYLINE
  5
20217
100
AcDbEntity
  8
0
100
AcDbPolyline
 70
0
 90
2
 10
-598163.646
 20
-1159299.0436
 10
-598402.5704
 20
-1158410.7185
  0
LWPOLYLINE
  5
20218
100
AcDbEntity
  8
0
100
AcDbPolyline
 70
0
 90
3
 10
-598889.4047
 20
-1159361.1037
 10
-598637.5209
 20
-1159278.5535
 10
-598686.2043
 20
-1159107.1032
  0
LWPOLYLINE
  5
20219
100
AcDbEntity
  8
0
100
AcDbPolyline
 70
0
 90
2
 10
-598944.4382
 20
-1159181.1867
 10
-598686.2043
 20
-1159107.1032
  0
LWPOLYLINE
  5
2021A
100
AcDbEntity
  8
0
100
AcDbPolyline
 70
0
 90
2
 10
-598686.2043
 20
-1159107.1032
 10
-598364.4704
 20
-1159022.4364
  0
LWPOLYLINE
  5
2021B
100
AcDbEntity
  8
0
100
AcDbPolyline
 70
0
 90
3
 10
-599020.6383
 20
-1158899.6694
 10
-599007.9383
 20
-1158884.8527
 10
-598762.4045
 20
-1158815.0026
  0
LWPOLYLINE
  5
2021C
100
AcDbEntity
  8
0
100
AcDbPolyline
 70
0
 90
2
 10
-598762.4045
 20
-1158815.0026
 10
-598438.5538
 20
-1158728.2191
  0
LWPOLYLINE
  5
2021D
100
AcDbEntity
  8
0
100
AcDbPolyline
 70
0
 90
4
 10
-599192.0887
 20
-1158582.1688
 10
-599088.3718
 20
-1158620.2689
 10
-598847.0713
 20
-1158552.5354
 10
-598836.488
 20
-1158537.7187
  0
LWPOLYLINE
  5
2021E
100
AcDbEntity
  8
0
100
AcDbPolyline
 70
0
 90
3
 10
-598836.488
 20
-1158537.7187
 10
-598823.7879
 20
-1158522.902
 10
-598514.754
 20
-1158440.3519
  0
LWPOLYLINE
  5
2021F
100
AcDbEntity
  8
0
100
AcDbPolyline
 70
0
 90
2
 10
-598686.2043
 20
-1159107.1032
 10
-598762.4045
 20
-1158815.0026
  0
LWPOLYLINE
  5
20220
100
AcDbEntity
  8
0
100
AcDbPolyline
 70
0
 90
2
 10
-598762.4045
 20
-1158815.0026
 10
-598836.488
 20
-1158537.7187
  0
LWPOLYLINE
  5
20221
100
AcDbEntity
  8
0
100
AcDbPolyline
 70
0
 90
2
 10
-599531.3675
 20
-1158109.6998
 10
-599363.539
 20
-1158055.1178
  0
LWPOLYLINE
  5
20222
100
AcDbEntity
  8
0
100
AcDbPolyline
 70
0
 90
2
 10
-599363.539
 20
-1158055.1178
 10
-599001.5883
 20
-1157951.4009
  0
LWPOLYLINE
  5
20223
100
AcDbEntity
  8
0
100
AcDbPolyline
 70
0
 90
2
 10
-599001.5883
 20
-1157951.4009
 10
-598669.271
 20
-1157866.734
  0
LWPOLYLINE
  5
20224
100
AcDbEntity
  8
0
100
AcDbPolyline
 70
0
 90
6
 10
-598402.5704
 20
-1158410.7185
 10
-598478.7706
 20
-1158131.3179
 10
-598552.8541
 20
-1157837.1007
 10
-598550.7374
 20
-1157633.9002
 10
-598584.6041
 20
-1157517.4833
 10
-598629.1366
 20
-1157280.2293
  0
LWPOLYLINE
  5
20225
100
AcDbEntity
  8
0
100
AcDbPolyline
 70
0
 90
3
 10
-599316.9723
 20
-1158668.9523
 10
-599397.4058
 20
-1158440.3519
 10
-599531.3675
 20
-1158109.6998
  0
LWPOLYLINE
  5
20226
100
AcDbEntity
  8
0
100
AcDbPolyline
 70
0
 90
2
 10
-599489.0341
 20
-1157661.2301
 10
-599363.539
 20
-1158055.1178
  0
LWPOLYLINE
  5
20227
100
AcDbEntity
  8
0
100
AcDbPolyline
 70
0
 90
2
 10
-599192.0887
 20
-1158582.1688
 10
-599363.539
 20
-1158055.1178
  0
LWPOLYLINE
  5
20228
100
AcDbEntity
  8
0
100
AcDbPolyline
 70
0
 90
2
 10
-598836.488
 20
-1158537.7187
 10
-599001.5883
 20
-1157951.4009
  0
LWPOLYLINE
  5
20229
100
AcDbEntity
  8
0
100
AcDbPolyline
 70
0
 90
4
 10
-599001.5883
 20
-1157951.4009
 10
-599043.9217
 20
-1157805.3506
 10
-598995.2383
 20
-1157551.3501
 10
-598995.5852
 20
-1157511.7402
  0
LWPOLYLINE
  5
2022A
100
AcDbEntity
  8
0
100
AcDbPolyline
 70
0
 90
2
 10
-598779.9494
 20
-1157446.9172
 10
-598669.271
 20
-1157866.734
  0
LWPOLYLINE
  5
2022B
100
AcDbEntity
  8
0
100
AcDbPolyline
 70
0
 90
3
 10
-598669.271
 20
-1157866.734
 10
-598565.5541
 20
-1158251.9681
 10
-598514.754
 20
-1158440.3519
  0
LWPOLYLINE
  5
2022C
100
AcDbEntity
  8
0
100
AcDbPolyline
 70
0
 90
2
 10
-598258.7588
 20
-1157811.4278
 10
-598216.2552
 20
-1157870.9329
  0
LWPOLYLINE
  5
2022D
100
AcDbEntity
  8
0
100
AcDbPolyline
 70
0
 90
6
 10
-599531.3675
 20
-1158109.6998
 10
-599437.6225
 20
-1158027.601
 10
-598616.3542
 20
-1157790.5339
 10
-598434.3205
 20
-1157801.1172
 10
-598328.487
 20
-1157801.1172
 10
-598258.7588
 20
-1157811.4278
  0
LWPOLYLINE
  5
2022E
100
AcDbEntity
  8
0
100
AcDbPolyline
 70
0
 90
8
 10
-599531.3675
 20
-1158109.6998
 10
-599403.7558
 20
-1158144.0179
 10
-599060.8551
 20
-1158048.7677
 10
-598779.3379
 20
-1157976.8009
 10
-598590.9541
 20
-1157898.4841
 10
-598476.6539
 20
-1157841.334
 10
-598375.0537
 20
-1157824.4006
 10
-598216.2552
 20
-1157870.9329
  0
LWPOLYLINE
  5
2022F
100
AcDbEntity
  8
0
100
AcDbPolyline
 70
0
 90
16
 10
-599890.5195
 20
-1151218.2266
 10
-599742.3526
 20
-1151607.6941
 10
-599691.5525
 20
-1151747.3944
 10
-599642.869
 20
-1151897.678
 10
-599617.469
 20
-1152028.9116
 10
-599609.0023
 20
-1152147.4452
 10
-599611.119
 20
-1152295.6121
 10
-599630.169
 20
-1152405.679
 10
-599657.6857
 20
-1152528.4459
 10
-599693.6691
 20
-1152678.7296
 10
-599729.6525
 20
-1152835.3632
 10
-599738.1192
 20
-1152960.2468
 10
-599733.8859
 20
-1153055.497
 10
-599706.3692
 20
-1153167.6805
 10
-599668.2691
 20
-1153267.1641
 10
-599638.8749
 20
-1153317.3548
  0
LWPOLYLINE
  5
20230
100
AcDbEntity
  8
0
100
AcDbPolyline
 70
0
 90
10
 10
-599638.8749
 20
-1153317.3548
 10
-599570.9022
 20
-1153413.2144
 10
-599515.8688
 20
-1153476.7145
 10
-599433.3186
 20
-1153557.148
 10
-599308.435
 20
-1153675.6816
 10
-599177.2014
 20
-1153802.6818
 10
-599092.5346
 20
-1153902.1653
 10
-599012.1011
 20
-1154020.6989
 10
-598954.951
 20
-1154143.4658
 10
-598916.8509
 20
-1154257.7661
  0
LWPOLYLINE
  5
20231
100
AcDbEntity
  8
0
100
AcDbPolyline
 70
0
 90
3
 10
-598916.8509
 20
-1154257.7661
 10
-598965.5343
 20
-1154306.4495
 10
-599043.4749
 20
-1154393.884
  0
LWPOLYLINE
  5
20232
100
AcDbEntity
  8
0
100
AcDbPolyline
 70
0
 90
12
 10
-598916.8509
 20
-1154257.7661
 10
-598897.8009
 20
-1154355.1329
 10
-598891.4509
 20
-1154437.6831
 10
-598889.3342
 20
-1154568.9167
 10
-598897.8009
 20
-1154695.9169
 10
-598910.5009
 20
-1154848.3172
 10
-598948.601
 20
-1155206.0346
 10
-598976.1177
 20
-1155500.2519
 10
-598999.4011
 20
-1155788.1191
 10
-598990.9344
 20
-1155900.3027
 10
-598967.651
 20
-1156006.1362
 10
-598943.9914
 20
-1156106.7999
  0
LWPOLYLINE
  5
20233
100
AcDbEntity
  8
0
100
AcDbPolyline
 70
0
 90
7
 10
-599024.6894
 20
-1155602.7677
 10
-599037.5012
 20
-1155720.3857
 10
-599048.0845
 20
-1155798.7025
 10
-599048.0845
 20
-1155860.0859
 10
-599016.3344
 20
-1155942.6361
 10
-598990.9344
 20
-1155984.9695
 10
-598943.9914
 20
-1156106.7999
  0
LWPOLYLINE
  5
20234
100
AcDbEntity
  8
0
100
AcDbPolyline
 70
0
 90
6
 10
-598943.9914
 20
-1156106.7999
 10
-598880.8675
 20
-1156241.0867
 10
-598711.5338
 20
-1156594.5707
 10
-598645.917
 20
-1156723.6877
 10
-598588.7669
 20
-1156829.5212
 10
-598531.2405
 20
-1156915.1036
  0
LWPOLYLINE
  5
20235
100
AcDbEntity
  8
0
100
AcDbPolyline
 70
0
 90
4
 10
-598531.2405
 20
-1156915.1036
 10
-598470.2333
 20
-1157007.3216
 10
-598440.6
 20
-1157087.7551
 10
-598398.9486
 20
-1157163.8124
  0
LWPOLYLINE
  5
20236
100
AcDbEntity
  8
0
100
AcDbPolyline
 70
0
 90
14
 10
-598403.1819
 20
-1153383.1736
 10
-598411.6486
 20
-1153404.3403
 10
-598419.057
 20
-1153476.3072
 10
-598427.5237
 20
-1153546.1573
 10
-598437.0487
 20
-1153620.2408
 10
-598450.807
 20
-1153685.8576
 10
-598458.2154
 20
-1153740.891
 10
-598468.7987
 20
-1153778.9911
 10
-598525.9489
 20
-1153792.7495
 10
-598619.0824
 20
-1153814.9745
 10
-598695.2825
 20
-1153859.4246
 10
-598754.5493
 20
-1153910.2247
 10
-598827.5745
 20
-1153982.1915
 10
-598875.1996
 20
-1154028.7583
  0
LWPOLYLINE
  5
20237
100
AcDbEntity
  8
0
100
AcDbPolyline
 70
0
 90
3
 10
-599689.3348
 20
-1157733.3473
 10
-599680.8574
 20
-1157753.8345
 10
-599531.3675
 20
-1158109.6998
  0
LWPOLYLINE
  5
20238
100
AcDbEntity
  8
0
100
AcDbPolyline
 70
0
 90
2
 10
-597533.2699
 20
-1160093.9398
 10
-597314.1945
 20
-1159985.9896
  0
LWPOLYLINE
  5
20239
100
AcDbEntity
  8
0
100
AcDbPolyline
 70
0
 90
6
 10
-593029.5234
 20
-1159292.2507
 10
-592993.1569
 20
-1159388.5888
 10
-592996.3319
 20
-1159427.7472
 10
-593005.857
 20
-1159464.789
 10
-592871.4484
 20
-1159583.3225
 10
-592820.6483
 20
-1159590.7309
  0
LWPOLYLINE
  5
2023A
100
AcDbEntity
  8
0
100
AcDbPolyline
 70
0
 90
3
 10
-594153.4756
 20
-1159960.5896
 10
-594159.8256
 20
-1160033.6147
 10
-594474.9041
 20
-1159998.3042
  0
LWPOLYLINE
  5
2023B
100
AcDbEntity
  8
0
100
AcDbPolyline
 70
0
 90
11
 10
-592297.6844
 20
-1160009.8022
 10
-592348.4845
 20
-1160047.9022
 10
-592427.8597
 20
-1160086.0023
 10
-592499.2973
 20
-1160103.4648
 10
-592588.1975
 20
-1160103.4648
 10
-592648.5226
 20
-1160106.6398
 10
-592713.6103
 20
-1160124.1024
 10
-592769.1729
 20
-1160160.615
 10
-592832.673
 20
-1160233.6401
 10
-592889.8231
 20
-1160306.6652
 10
-592923.0797
 20
-1160335.7648
  0
LWPOLYLINE
  5
2023C
100
AcDbEntity
  8
0
100
AcDbPolyline
 70
0
 90
2
 10
-593699.2221
 20
-1160540.3139
 10
-593683.5747
 20
-1160597.1783
  0
LWPOLYLINE
  5
2023D
100
AcDbEntity
  8
0
100
AcDbPolyline
 70
0
 90
22
 10
-599194.7566
 20
-1164584.6381
 10
-599445.385
 20
-1164508.1125
 10
-599748.0689
 20
-1164417.0957
 10
-599999.9528
 20
-1164345.1289
 10
-600152.3531
 20
-1164307.0288
 10
-600315.3367
 20
-1164281.6288
 10
-600488.9038
 20
-1164266.8121
 10
-600620.1374
 20
-1164266.8121
 10
-600793.7044
 20
-1164275.2787
 10
-600935.5213
 20
-1164285.8621
 10
-601100.6216
 20
-1164283.7454
 10
-601246.6719
 20
-1164271.0454
 10
-601401.1889
 20
-1164247.762
 10
-601555.7059
 20
-1164203.3119
 10
-601746.2063
 20
-1164129.2285
 10
-601945.1733
 20
-1164021.2782
 10
-602129.3237
 20
-1163898.5113
 10
-602311.3574
 20
-1163777.8611
 10
-602487.0411
 20
-1163659.3275
 10
-602711.4082
 20
-1163519.6272
 10
-602878.6252
 20
-1163420.1437
 10
-603049.2143
 20
-1163327.3356
  0
LWPOLYLINE
  5
2023E
100
AcDbEntity
  8
0
100
AcDbPolyline
 70
0
 90
5
 10
-603189.3709
 20
-1160591.0736
 10
-603172.4042
 20
-1160610.0364
 10
-603034.8206
 20
-1160699.9949
 10
-602899.8828
 20
-1160758.2033
 10
-602823.1535
 20
-1160784.6617
  0
LWPOLYLINE
  5
2023F
100
AcDbEntity
  8
0
100
AcDbPolyline
 70
0
 90
11
 10
-605087.6323
 20
-1157308.7791
 10
-605049.8472
 20
-1157380.1509
 10
-604975.7637
 20
-1157466.9344
 10
-604905.9136
 20
-1157524.0845
 10
-604833.9468
 20
-1157566.418
 10
-604759.8633
 20
-1157587.5847
 10
-604673.0798
 20
-1157587.5847
 10
-604539.7295
 20
-1157566.418
 10
-604436.0126
 20
-1157534.6679
 10
-604357.6958
 20
-1157498.6845
 10
-604294.1957
 20
-1157452.1177
  0
LWPOLYLINE
  5
20240
100
AcDbEntity
  8
0
100
AcDbPolyline
 70
0
 90
2
 10
-600532.3423
 20
-1158047.4314
 10
-600373.592
 20
-1157914.0812
  0
LWPOLYLINE
  5
20241
100
AcDbEntity
  8
0
100
AcDbPolyline
 70
0
 90
2
 10
-600261.4085
 20
-1158491.9323
 10
-600386.292
 20
-1158701.4827
  0
LWPOLYLINE
  5
20242
100
AcDbEntity
  8
0
100
AcDbPolyline
 70
0
 90
2
 10
-598453.3705
 20
-1160588.7728
 10
-598466.0706
 20
-1160474.4726
  0
LWPOLYLINE
  5
20243
100
AcDbEntity
  8
0
100
AcDbPolyline
 70
0
 90
3
 10
-595272.6654
 20
-1161546.5052
 10
-595388.8046
 20
-1161549.5958
 10
-595443.5865
 20
-1161566.6136
  0
LWPOLYLINE
  5
20244
100
AcDbEntity
  8
0
100
AcDbPolyline
 70
0
 90
2
 10
-597662.3393
 20
-1160054.2055
 10
-597641.2201
 20
-1160134.1566
  0
LWPOLYLINE
  5
20245
100
AcDbEntity
  8
0
100
AcDbPolyline
 70
0
 90
2
 10
-602037.9748
 20
-1162720.9093
 10
-601944.3121
 20
-1162881.2472
  0
LWPOLYLINE
  5
20246
100
AcDbEntity
  8
0
100
AcDbPolyline
 70
0
 90
6
 10
-602279.2753
 20
-1163181.2853
 10
-602331.6629
 20
-1163063.81
 10
-602372.938
 20
-1162955.8598
 10
-602399.9255
 20
-1162855.8471
 10
-602430.0881
 20
-1162743.1344
 10
-602439.6131
 20
-1162717.7343
  0
LWPOLYLINE
  5
20247
100
AcDbEntity
  8
0
100
AcDbPolyline
 70
0
 90
5
 10
-595358.4145
 20
-1162012.3703
 10
-595210.3406
 20
-1162063.8914
 10
-595130.9654
 20
-1162087.704
 10
-595097.6279
 20
-1162065.4789
 10
-595083.6026
 20
-1162053.3886
  0
LWPOLYLINE
  5
20248
100
AcDbEntity
  8
0
100
AcDbPolyline
 70
0
 90
6
 10
-593926.868
 20
-1162375.9569
 10
-593976.8506
 20
-1162379.8928
 10
-594013.8924
 20
-1162373.2782
 10
-594033.7361
 20
-1162346.8198
 10
-594029.7674
 20
-1162304.4864
 10
-594025.5523
 20
-1162252.1803
  0
LWPOLYLINE
  5
20249
100
AcDbEntity
  8
0
100
AcDbPolyline
 70
0
 90
4
 10
-593926.868
 20
-1162375.9569
 10
-593926.4627
 20
-1162395.8194
 10
-593932.8127
 20
-1162467.2571
 10
-593951.8627
 20
-1162535.5197
  0
LWPOLYLINE
  5
2024A
100
AcDbEntity
  8
0
100
AcDbPolyline
 70
0
 90
6
 10
-592157.9841
 20
-1162481.5446
 10
-592197.4974
 20
-1162544.4222
 10
-592221.8391
 20
-1162551.8306
 10
-592350.956
 20
-1162553.9473
 10
-592423.9811
 20
-1162558.1806
 10
-592477.6653
 20
-1162564.0289
  0
LWPOLYLINE
  5
2024B
100
AcDbEntity
  8
0
100
AcDbPolyline
 70
0
 90
6
 10
-592700.2811
 20
-1164614.8006
 10
-592682.1533
 20
-1164560.1853
 10
-592682.1533
 20
-1164503.2997
 10
-592671.5699
 20
-1164456.9975
 10
-592630.5594
 20
-1164426.5704
 10
-592568.62
 20
-1164382.1614
  0
LWPOLYLINE
  5
2024C
100
AcDbEntity
  8
0
100
AcDbPolyline
 70
0
 90
7
 10
-599402.2098
 20
-1168740.7304
 10
-599402.8083
 20
-1168685.4587
 10
-599395.3999
 20
-1168642.0669
 10
-599371.0582
 20
-1168612.4335
 10
-599339.3081
 20
-1168596.5585
 10
-599317.0831
 20
-1168569.0418
 10
-599295.0882
 20
-1168522.5922
  0
ENDSEC
  0
SECTION
  2
OBJECTS
  0
DICTIONARY
  5
C
330
0
100
AcDbDictionary
281
     1
  3
ACAD_GROUP
350
D
  3
ACAD_LAYOUT
350
1A
  3
ACAD_MLEADERSTYLE
350
43
  3
ACAD_PLOTSETTINGS
350
19
  3
ACAD_PLOTSTYLENAME
350
E
  3
ACAD_TABLESTYLE
350
42
  0
DICTIONARY
  5
D
102
{ACAD_REACTORS
330
C
102
}
330
C
100
AcDbDictionary
281
     1
  0
DICTIONARY
  5
1A
102
{ACAD_REACTORS
330
C
102
}
330
C
100
AcDbDictionary
281
     1
  3
Layout1
350
1E
  3
Model
350
22
  0
DICTIONARY
  5
43
102
{ACAD_REACTORS
330
C
102
}
330
C
100
AcDbDictionary
281
     1
  0
DICTIONARY
  5
19
102
{ACAD_REACTORS
330
C
102
}
330
C
100
AcDbDictionary
281
     1
  0
ACDBDICTIONARYWDFLT
  5
E
102
{ACAD_REACTORS
330
C
102
}
330
C
100
AcDbDictionary
281
     1
  3
Normal
350
F
100
AcDbDictionaryWithDefault
340
F
  0
DICTIONARY
  5
42
102
{ACAD_REACTORS
330
C
102
}
330
C
100
AcDbDictionary
281
     1
  0
LAYOUT
  5
1E
102
{ACAD_REACTORS
330
1A
102
}
330
1A
100
AcDbPlotSettings
  1

  2
none_device
  4

  6

 40
0.0
 41
0.0
 42
0.0
 43
0.0
 44
0.0
 45
0.0
 46
0.0
 47
0.0
 48
0.0
 49
0.0
140
0.0
141
0.0
142
1.0
143
1.0
 70
   688
 72
     0
 73
     0
 74
     5
  7

 75
    16
 76
     0
 77
     2
 78
   300
147
1.0
148
0.0
149
0.0
100
AcDbLayout
  1
Layout1
 70
     1
 71
     1
 10
0.0
 20
0.0
 11
12.0
 21
9.0
 12
0.0
 22
0.0
 32
0.0
 14
1.000000000000000E+20
 24
1.000000000000000E+20
 34
1.000000000000000E+20
 15
-1.000000000000000E+20
 25
-1.000000000000000E+20
 35
-1.000000000000000E+20
146
0.0
 13
0.0
 23
0.0
 33
0.0
 16
1.0
 26
0.0
 36
0.0
 17
0.0
 27
1.0
 37
0.0
 76
     0
330
1B
  0
LAYOUT
  5
22
102
{ACAD_REACTORS
330
1A
102
}
330
1A
100
AcDbPlotSettings
  1

  2
none_device
  4

  6

 40
0.0
 41
0.0
 42
0.0
 43
0.0
 44
0.0
 45
0.0
 46
0.0
 47
0.0
 48
0.0
 49
0.0
140
0.0
141
0.0
142
1.0
143
1.0
 70
  1712
 72
     0
 73
     0
 74
     0
  7

 75
     0
 76
     0
 77
     2
 78
   300
147
1.0
148
0.0
149
0.0
100
AcDbLayout
  1
Model
 70
     1
 71
     0
 10
0.0
 20
0.0
 11
12.0
 21
9.0
 12
0.0
 22
0.0
 32
0.0
 14
30.0
 24
49.75
 34
0.0
 15
130.5
 25
163.1318914119703
 35
0.0
146
0.0
 13
0.0
 23
0.0
 33
0.0
 16
1.0
 26
0.0
 36
0.0
 17
0.0
 27
1.0
 37
0.0
 76
     0
330
1F
331
29
  0
ENDSEC
  0
EOF
