  0
SECTION
  2
HEADER
  9
$ACADVER
  1
AC1018
  9
$ACADMAINTVER
 70
     0
  9
$DWGCODEPAGE
  3
ANSI_1252
  9
$EXTMIN
 10
16.4601854390837
 20
49.1069718524288
 30
0.0
  9
$EXTMAX
 10
16.7151793749494
 20
49.278677345595
 30
0.0
  9
$LIMMIN
 10
0.0
 20
0.0
  9
$LIMMAX
 10
12.0
 20
9.0
  9
$ORTHOMODE
 70
     0
  9
$REGENMODE
 70
     1
  9
$FILLMODE
 70
     1
  9
$QTEXTMODE
 70
     0
  9
$MIRRTEXT
 70
     1
  9
$LTSCALE
 40
1.0
  9
$ATTMODE
 70
     1
  9
$TEXTSIZE
 40
0.2
  9
$TRACEWID
 40
0.05
  9
$TEXTSTYLE
  7
Standard
  9
$CLAYER
  8
0
  9
$CELTYPE
  6
ByLayer
  9
$CECOLOR
 62
   256
  9
$CELTSCALE
 40
1.0
  9
$DISPSILH
 70
     0
  9
$LUNITS
 70
     2
  9
$LUPREC
 70
     4
  9
$SKETCHINC
 40
0.1
  9
$FILLETRAD
 40
0.5
  9
$AUNITS
 70
     0
  9
$AUPREC
 70
     0
  9
$MENU
  1
.
  9
$ELEVATION
 40
0.0
  9
$PELEVATION
 40
0.0
  9
$THICKNESS
 40
0.0
  9
$LIMCHECK
 70
     0
  9
$CHAMFERA
 40
0.5
  9
$CHAMFERB
 40
0.5
  9
$CHAMFERC
 40
1.0
  9
$CHAMFERD
 40
0.0
  9
$SKPOLY
 70
     0
  9
$ANGBASE
 50
0.0
  9
$ANGDIR
 70
     0
  9
$PDMODE
 70
     0
  9
$PDSIZE
 40
0.0
  9
$PLINEWID
 40
0.0
  9
$SPLFRAME
 70
     0
  9
$SPLINETYPE
 70
     6
  9
$SPLINESEGS
 70
     8
  9
$HANDSEED
  5
0002024D
  9
$SURFTAB1
 70
     6
  9
$SURFTAB2
 70
     6
  9
$SURFTYPE
 70
     6
  9
$SURFU
 70
     6
  9
$SURFV
 70
     6
  9
$UCSBASE
  2

  9
$UCSNAME
  2

  9
$UCSORG
 10
0.0
 20
0.0
 30
0.0
  9
$UCSXDIR
 10
1.0
 20
0.0
 30
0.0
  9
$UCSYDIR
 10
0.0
 20
1.0
 30
0.0
  9
$UCSORTHOREF
  2

  9
$UCSORTHOVIEW
 70
     0
  9
$UCSORGTOP
 10
0.0
 20
0.0
 30
0.0
  9
$UCSORGBOTTOM
 10
0.0
 20
0.0
 30
0.0
  9
$UCSORGLEFT
 10
0.0
 20
0.0
 30
0.0
  9
$UCSORGRIGHT
 10
0.0
 20
0.0
 30
0.0
  9
$UCSORGFRONT
 10
0.0
 20
0.0
 30
0.0
  9
$UCSORGBACK
 10
0.0
 20
0.0
 30
0.0
  9
$PUCSBASE
  2

  9
$PUCSNAME
  2

  9
$PUCSORG
 10
0.0
 20
0.0
 30
0.0
  9
$PUCSXDIR
 10
1.0
 20
0.0
 30
0.0
  9
$PUCSYDIR
 10
0.0
 20
1.0
 30
0.0
  9
$PUCSORTHOREF
  2

  9
$PUCSORTHOVIEW
 70
     0
  9
$PUCSORGTOP
 10
0.0
 20
0.0
 30
0.0
  9
$PUCSORGBOTTOM
 10
0.0
 20
0.0
 30
0.0
  9
$PUCSORGLEFT
 10
0.0
 20
0.0
 30
0.0
  9
$PUCSORGRIGHT
 10
0.0
 20
0.0
 30
0.0
  9
$PUCSORGFRONT
 10
0.0
 20
0.0
 30
0.0
  9
$PUCSORGBACK
 10
0.0
 20
0.0
 30
0.0
  9
$WORLDVIEW
 70
     1
  9
$SHADEDGE
 70
     3
  9
$SHADEDIF
 70
    70
  9
$TILEMODE
 70
     1
  9
$MAXACTVP
 70
    64
  9
$PINSBASE
 10
0.0
 20
0.0
 30
0.0
  9
$PLIMCHECK
 70
     0
  9
$PEXTMIN
 10
1.000000000000000E+20
 20
1.000000000000000E+20
 30
1.000000000000000E+20
  9
$PEXTMAX
 10
-1.000000000000000E+20
 20
-1.000000000000000E+20
 30
-1.000000000000000E+20
  9
$PLIMMIN
 10
0.0
 20
0.0
  9
$PLIMMAX
 10
12.0
 20
9.0
  9
$UNITMODE
 70
     0
  9
$VISRETAIN
 70
     1
  9
$PLINEGEN
 70
     0
  9
$PSLTSCALE
 70
     1
  9
$TREEDEPTH
 70
  3020
  9
$CMLSTYLE
  2
Standard
  9
$CMLJUST
 70
     0
  9
$CMLSCALE
 40
1.0
  9
$PROXYGRAPHICS
 70
     1
  9
$MEASUREMENT
 70
     0
  9
$CELWEIGHT
370
    -1
  9
$ENDCAPS
280
     0
  9
$JOINSTYLE
280
     0
  9
$LWDISPLAY
290
     0
  9
$INSUNITS
 70
     1
  9
$HYPERLINKBASE
  1

  9
$STYLESHEET
  1

  9
$XEDIT
290
     1
  9
$CEPSNTYPE
380
     0
  9
$PSTYLEMODE
290
     1
  9
$EXTNAMES
290
     1
  9
$PSVPSCALE
 40
0.0
  9
$OLESTARTUP
290
     0
  9
$SORTENTS
280
   127
  9
$INDEXCTL
280
     0
  9
$HIDETEXT
280
     1
  9
$XCLIPFRAME
290
     0
  9
$HALOGAP
280
     0
  9
$OBSCOLOR
 70
   257
  9
$OBSLTYPE
280
     0
  9
$INTERSECTIONDISPLAY
280
     0
  9
$INTERSECTIONCOLOR
 70
   257
  9
$DIMASSOC
280
     2
  9
$PROJECTNAME
  1

  0
ENDSEC
  0
SECTION
  2
CLASSES
  0
CLASS
  1
ACDBDICTIONARYWDFLT
  2
AcDbDictionaryWithDefault
  3
ObjectDBX Classes
 90
        0
 91
        4
280
     0
281
     0
  0
ENDSEC
  0
SECTION
  2
TABLES
  0
TABLE
  2
VPORT
  5
8
330
0
100
AcDbSymbolTable
 70
     1
  0
VPORT
  5
29
330
8
100
AcDbSymbolTableRecord
100
AcDbViewportTableRecord
  2
*Active
 70
     0
 10
0.0
 20
0.0
 11
1.0
 21
1.0
 12
80.25
 22
106.4409457059851
 13
0.0
 23
0.0
 14
0.5
 24
0.5
 15
0.5
 25
0.5
 16
0.0
 26
0.0
 36
1.0
 17
0.0
 27
0.0
 37
0.0
 40
113.3818914119703
 41
0.8863849310366128
 42
50.0
 43
0.0
 44
0.0
 50
0.0
 51
0.0
 71
     0
 72
  1000
 73
     1
 74
     3
 75
     0
 76
     0
 77
     0
 78
     0
281
     0
 65
     1
110
0.0
120
0.0
130
0.0
111
1.0
121
0.0
131
0.0
112
0.0
122
1.0
132
0.0
 79
     0
146
0.0
  0
ENDTAB
  0
TABLE
  2
LTYPE
  5
5
330
0
100
AcDbSymbolTable
 70
     1
  0
LTYPE
  5
14
330
5
100
AcDbSymbolTableRecord
100
AcDbLinetypeTableRecord
  2
ByBlock
 70
     0
  3

 72
    65
 73
     0
 40
0.0
  0
LTYPE
  5
15
330
5
100
AcDbSymbolTableRecord
100
AcDbLinetypeTableRecord
  2
ByLayer
 70
     0
  3

 72
    65
 73
     0
 40
0.0
  0
LTYPE
  5
16
330
5
100
AcDbSymbolTableRecord
100
AcDbLinetypeTableRecord
  2
Continuous
 70
     0
  3
Solid line
 72
    65
 73
     0
 40
0.0
  0
ENDTAB
  0
TABLE
  2
LAYER
  5
2
330
0
100
AcDbSymbolTable
 70
     1
  0
LAYER
  5
10
330
2
100
AcDbSymbolTableRecord
100
AcDbLayerTableRecord
  2
0
 70
     0
 62
     7
  6
Continuous
370
    -3
390
F
  0
ENDTAB
  0
TABLE
  2
STYLE
  5
3
330
0
100
AcDbSymbolTable
 70
     1
  0
STYLE
  5
11
330
3
100
AcDbSymbolTableRecord
100
AcDbTextStyleTableRecord
  2
Standard
 70
     0
 40
0.0
 41
1.0
 50
0.0
 71
     0
 42
0.2
  3
txt
  4

  0
ENDTAB
  0
TABLE
  2
VIEW
  5
6
330
0
100
AcDbSymbolTable
 70
     0
  0
ENDTAB
  0
TABLE
  2
UCS
  5
7
330
0
100
AcDbSymbolTable
 70
     0
  0
ENDTAB
  0
TABLE
  2
APPID
  5
9
330
0
100
AcDbSymbolTable
 70
     1
  0
APPID
  5
12
330
9
100
AcDbSymbolTableRecord
100
AcDbRegAppTableRecord
  2
ACAD
 70
     0
  0
ENDTAB
  0
TABLE
  2
DIMSTYLE
  5
A
330
0
100
AcDbSymbolTable
 70
     1
100
AcDbDimStyleTable
  0
DIMSTYLE
105
27
330
A
100
AcDbSymbolTableRecord
100
AcDbDimStyleTableRecord
  2
Standard
 70
     0
340
11
  0
ENDTAB
  0
TABLE
  2
BLOCK_RECORD
  5
1
330
0
100
AcDbSymbolTable
 70
     1
  0
BLOCK_RECORD
  5
1F
330
1
100
AcDbSymbolTableRecord
100
AcDbBlockTableRecord
  2
*Model_Space
340
22
  0
BLOCK_RECORD
  5
1B
330
1
100
AcDbSymbolTableRecord
100
AcDbBlockTableRecord
  2
*Paper_Space
340
1E
  0
ENDTAB
  0
ENDSEC
  0
SECTION
  2
BLOCKS
  0
BLOCK
  5
20
330
1F
100
AcDbEntity
  8
0
100
AcDbBlockBegin
  2
*Model_Space
 70
     0
 10
0.0
 20
0.0
 30
0.0
  3
*Model_Space
  1

  0
ENDBLK
  5
21
330
1F
100
AcDbEntity
  8
0
100
AcDbBlockEnd
  0
BLOCK
  5
1C
330
1B
100
AcDbEntity
 67
     1
  8
0
100
AcDbBlockBegin
  2
*Paper_Space
 70
     0
 10
0.0
 20
0.0
 30
0.0
  3
*Paper_Space
  1

  0
ENDBLK
  5
1D
330
1B
100
AcDbEntity
 67
     1
  8
0
100
AcDbBlockEnd
  0
ENDSEC
  0
SECTION
  2
ENTITIES
  0
LWPOLYLINE
  5
20000
100
AcDbEntity
  8
0
100
AcDbPolyline
 70
0
 90
6
 10
16.5653154183643
 20
49.2640072563534
 10
16.5662865455687
 20
49.2638848673844
 10
16.5671240845278
 20
49.2634657779009
 10
16.5676158986699
 20
49.2629263684942
 10
16.5695627208745
 20
49.2617724330025
 10
16.5713020884561
 20
49.2609866462784
  0
LWPOLYLINE
  5
20001
100
AcDbEntity
  8
0
100
AcDbPolyline
 70
0
 90
7
 10
16.5713020884561
 20
49.2609866462784
 10
16.571298307824
 20
49.2621112075269
 10
16.5712498673217
 20
49.2641659635156
 10
16.5711733923719
 20
49.2651776606647
 10
16.5708745645641
 20
49.266317149385
 10
16.5693867669217
 20
49.2705431885919
 10
16.568569693213
 20
49.2727108362296
  0
LWPOLYLINE
  5
20002
100
AcDbEntity
  8
0
100
AcDbPolyline
 70
0
 90
5
 10
16.5713020884561
 20
49.2609866462784
 10
16.5730546684825
 20
49.2606314631097
 10
16.5750218566177
 20
49.260235162905
 10
16.5758612122393
 20
49.2601129112745
 10
16.5779523037249
 20
49.2602040136639
  0
LWPOLYLINE
  5
20003
100
AcDbEntity
  8
0
100
AcDbPolyline
 70
0
 90
9
 10
16.5779523037249
 20
49.2602040136639
 10
16.5787390851302
 20
49.2597812460287
 10
16.5798787293436
 20
49.2592590830475
 10
16.5802620830453
 20
49.2591522845418
 10
16.5819236706898
 20
49.2586575915532
 10
16.5831788993606
 20
49.25814360582
 10
16.5842844972334
 20
49.2575615524149
 10
16.5861112405032
 20
49.2562456912998
 10
16.5883248221467
 20
49.254536049057
  0
LWPOLYLINE
  5
20004
100
AcDbEntity
  8
0
100
AcDbPolyline
 70
0
 90
10
 10
16.5959400860954
 20
49.2691478843329
 10
16.5957440125691
 20
49.2687415121955
 10
16.5957288189022
 20
49.2670652172218
 10
16.5957253218492
 20
49.2654950501187
 10
16.5957695250265
 20
49.2638133899476
 10
16.5957763401446
 20
49.263153358162
 10
16.5957628032065
 20
49.2626163283998
 10
16.5954972362794
 20
49.2620997289983
 10
16.5949327763517
 20
49.2615332260376
 10
16.5938166799542
 20
49.2607648824883
  0
LWPOLYLINE
  5
20005
100
AcDbEntity
  8
0
100
AcDbPolyline
 70
0
 90
11
 10
16.5883248221467
 20
49.254536049057
 10
16.5885207111753
 20
49.2541478881967
 10
16.5888342962873
 20
49.2534904657633
 10
16.5890435600411
 20
49.2528447884472
 10
16.5892227013216
 20
49.2522927016571
 10
16.5892365803554
 20
49.2517671822216
 10
16.589042911867
 20
49.2515236968346
 10
16.5883172339668
 20
49.2511371664978
 10
16.5877934125879
 20
49.2510329911813
 10
16.5869761761732
 20
49.2510228676005
 10
16.5865671257661
 20
49.2511087145113
  0
LWPOLYLINE
  5
20006
100
AcDbEntity
  8
0
100
AcDbPolyline
 70
0
 90
12
 10
16.5865671257661
 20
49.2511087145113
 10
16.5854510664428
 20
49.2512472918863
 10
16.5842316491852
 20
49.251435960245
 10
16.5834312512233
 20
49.2515227354736
 10
16.5825781778725
 20
49.2514861053506
 10
16.5822544998521
 20
49.2513434633881
 10
16.5820026605552
 20
49.2510982258943
 10
16.5817519229576
 20
49.2506257102122
 10
16.5816949037633
 20
49.250418236777
 10
16.5817127814328
 20
49.2498690644899
 10
16.5815519567781
 20
49.2492952367788
 10
16.5814202861817
 20
49.2489867343383
  0
LWPOLYLINE
  5
20007
100
AcDbEntity
  8
0
100
AcDbPolyline
 70
0
 90
6
 10
16.5814202861817
 20
49.2489867343383
 10
16.5810992618402
 20
49.2484972578326
 10
16.5806493955087
 20
49.247902901067
 10
16.5803366517181
 20
49.2474738401877
 10
16.5799398915241
 20
49.2471106083532
 10
16.5796060234143
 20
49.2469193676577
  0
LWPOLYLINE
  5
20008
100
AcDbEntity
  8
0
100
AcDbPolyline
 70
0
 90
11
 10
16.5796060234143
 20
49.2469193676577
 10
16.5779619720756
 20
49.24933941092
 10
16.5765215424936
 20
49.2515226184308
 10
16.5755034378379
 20
49.2529221228163
 10
16.5740195364705
 20
49.2548150338468
 10
16.5729749652449
 20
49.2561528128024
 10
16.5721263172595
 20
49.2573010852132
 10
16.5716911861413
 20
49.2579402667645
 10
16.5714489182639
 20
49.2586290564258
 10
16.5713484253683
 20
49.2591244966388
 10
16.5713020884561
 20
49.2609866462784
  0
LWPOLYLINE
  5
20009
100
AcDbEntity
  8
0
100
AcDbPolyline
 70
0
 90
6
 10
16.5814202861817
 20
49.2489867343383
 10
16.5816225039977
 20
49.248869465721
 10
16.5821867095084
 20
49.2484428502746
 10
16.5823541231809
 20
49.2476530076368
 10
16.5825012735055
 20
49.2473164382879
 10
16.582680634892
 20
49.2470060887435
  0
LWPOLYLINE
  5
2000A
100
AcDbEntity
  8
0
100
AcDbPolyline
 70
0
 90
14
 10
16.582680634892
 20
49.2470060887435
 10
16.5829315913609
 20
49.2470358730798
 10
16.5839907104354
 20
49.2469315750207
 10
16.58461277295
 20
49.2469278709725
 10
16.585692786101
 20
49.2470284636766
 10
16.5863969045264
 20
49.2469707427848
 10
16.5870381076473
 20
49.2467410290582
 10
16.5876364158338
 20
49.246328776934
 10
16.5880052963654
 20
49.2457566518046
 10
16.5881739397908
 20
49.245289977248
 10
16.5882567972396
 20
49.2444582356092
 10
16.588419659733
 20
49.2425911260725
 10
16.5885551012832
 20
49.2408895962955
 10
16.5886129419285
 20
49.2403193309261
  0
LWPOLYLINE
  5
2000B
100
AcDbEntity
  8
0
100
AcDbPolyline
 70
0
 90
7
 10
16.582680634892
 20
49.2470060887435
 10
16.5831512252877
 20
49.2462617048461
 10
16.583705817116
 20
49.2454514864159
 10
16.5850177810238
 20
49.2433787635023
 10
16.5861962364638
 20
49.2415598094901
 10
16.5867868518175
 20
49.2407521398898
 10
16.5870780150346
 20
49.240318095592
  0
LWPOLYLINE
  5
2000C
100
AcDbEntity
  8
0
100
AcDbPolyline
 70
0
 90
3
 10
16.5870780150346
 20
49.240318095592
 10
16.5880051098865
 20
49.2403479940294
 10
16.5886129419285
 20
49.2403193309261
  0
LWPOLYLINE
  5
2000D
100
AcDbEntity
  8
0
100
AcDbPolyline
 70
0
 90
7
 10
16.5870780150346
 20
49.240318095592
 10
16.5871123764672
 20
49.2398897565398
 10
16.5871140855945
 20
49.2393274735462
 10
16.587080993095
 20
49.2390858036315
 10
16.5869580299298
 20
49.2389454496517
 10
16.5865079823698
 20
49.2387938449356
 10
16.5852827710988
 20
49.2384675492684
  0
LWPOLYLINE
  5
2000E
100
AcDbEntity
  8
0
100
AcDbPolyline
 70
0
 90
2
 10
16.5852827710988
 20
49.2384675492684
 10
16.5796060234143
 20
49.2469193676577
  0
LWPOLYLINE
  5
2000F
100
AcDbEntity
  8
0
100
AcDbPolyline
 70
0
 90
15
 10
16.5796060234143
 20
49.2469193676577
 10
16.5794147205695
 20
49.2467502195037
 10
16.5790195097306
 20
49.2462674309019
 10
16.5785091902776
 20
49.2455969709665
 10
16.5778998781322
 20
49.2447519474937
 10
16.5776739995821
 20
49.2444606767439
 10
16.5774139561921
 20
49.2441550108919
 10
16.5772211306113
 20
49.2441054117158
 10
16.5765282570566
 20
49.2434339337931
 10
16.5755986136394
 20
49.2427575890823
 10
16.5750974666504
 20
49.2423629831136
 10
16.5744459378009
 20
49.2419935841246
 10
16.5736475389298
 20
49.2415180092199
 10
16.5731625215398
 20
49.2411365055556
 10
16.5729590831608
 20
49.2409305813674
  0
LWPOLYLINE
  5
20010
100
AcDbEntity
  8
0
100
AcDbPolyline
 70
0
 90
15
 10
16.5729590831608
 20
49.2409305813674
 10
16.5733874383232
 20
49.2406618780992
 10
16.5739724712291
 20
49.2404402109225
 10
16.5745217875099
 20
49.2403236988778
 10
16.5752371718493
 20
49.2400873587525
 10
16.5761358444506
 20
49.2395170208834
 10
16.5769803099991
 20
49.2389428252423
 10
16.5774887164958
 20
49.2386319331871
 10
16.5781396532961
 20
49.2383431329996
 10
16.5790869928687
 20
49.2379198296052
 10
16.5799400862436
 20
49.2375137553693
 10
16.5811217695426
 20
49.2369993887191
 10
16.5815763732981
 20
49.2367923566181
 10
16.5836084416533
 20
49.2362187037033
 10
16.5846483937977
 20
49.2358976655123
  0
LWPOLYLINE
  5
20011
100
AcDbEntity
  8
0
100
AcDbPolyline
 70
0
 90
3
 10
16.5846483937977
 20
49.2358976655123
 10
16.5859831887056
 20
49.2355616517336
 10
16.5872646666053
 20
49.2354372279446
  0
LWPOLYLINE
  5
20012
100
AcDbEntity
  8
0
100
AcDbPolyline
 70
0
 90
2
 10
16.5872646666053
 20
49.2354372279446
 10
16.5852827710988
 20
49.2384675492684
  0
LWPOLYLINE
  5
20013
100
AcDbEntity
  8
0
100
AcDbPolyline
 70
0
 90
2
 10
16.5872646666053
 20
49.2354372279446
 10
16.5878649793302
 20
49.2345704164889
  0
LWPOLYLINE
  5
20014
100
AcDbEntity
  8
0
100
AcDbPolyline
 70
0
 90
6
 10
16.5878649793302
 20
49.2345704164889
 10
16.5872465462588
 20
49.2344427590441
 10
16.5866779440962
 20
49.2342348723204
 10
16.5865219064706
 20
49.233852847424
 10
16.5866470113083
 20
49.2335386446543
 10
16.5868765621831
 20
49.2332557879051
  0
LWPOLYLINE
  5
20015
100
AcDbEntity
  8
0
100
AcDbPolyline
 70
0
 90
4
 10
16.5878649793302
 20
49.2345704164889
 10
16.5883754107642
 20
49.2338049197277
 10
16.5888599373195
 20
49.2330854458195
 10
16.5891949862692
 20
49.2326066503475
  0
LWPOLYLINE
  5
20016
100
AcDbEntity
  8
0
100
AcDbPolyline
 70
0
 90
7
 10
16.5904604823488
 20
49.2358913747547
 10
16.5904319020331
 20
49.2352910465674
 10
16.5901269811461
 20
49.2348147033992
 10
16.5896677917799
 20
49.2343872413745
 10
16.5888658994186
 20
49.2340431520162
 10
16.5879415085654
 20
49.2336664292178
 10
16.5868765621831
 20
49.2332557879051
  0
LWPOLYLINE
  5
20017
100
AcDbEntity
  8
0
100
AcDbPolyline
 70
0
 90
6
 10
16.5765640041013
 20
49.2319728201681
 10
16.5771605406719
 20
49.2311297182074
 10
16.5778564577311
 20
49.2305689002709
 10
16.5787797120343
 20
49.2301797956185
 10
16.5803683276152
 20
49.2296345334267
 10
16.5813837984597
 20
49.2292399963755
  0
LWPOLYLINE
  5
20018
100
AcDbEntity
  8
0
100
AcDbPolyline
 70
0
 90
3
 10
16.5813837984597
 20
49.2292399963755
 10
16.5816960070332
 20
49.2295613294985
 10
16.582769297586
 20
49.2305828926997
  0
LWPOLYLINE
  5
20019
100
AcDbEntity
  8
0
100
AcDbPolyline
 70
0
 90
6
 10
16.5868765621831
 20
49.2332557879051
 10
16.582632622566
 20
49.2315185102627
 10
16.5812233482445
 20
49.2307602678712
 10
16.5803602383555
 20
49.2301245723549
 10
16.5795348028026
 20
49.2293718845836
 10
16.5793431425616
 20
49.2290950095356
  0
LWPOLYLINE
  5
2001A
100
AcDbEntity
  8
0
100
AcDbPolyline
 70
0
 90
6
 10
16.5813837984597
 20
49.2292399963755
 10
16.5811057521352
 20
49.228933055097
 10
16.5808285651777
 20
49.2288415656421
 10
16.5803731772105
 20
49.2288331434671
 10
16.5799001573764
 20
49.2289311635711
 10
16.5793431425616
 20
49.2290950095356
  0
LWPOLYLINE
  5
2001B
100
AcDbEntity
  8
0
100
AcDbPolyline
 70
0
 90
10
 10
16.5793431425616
 20
49.2290950095356
 10
16.5789071898918
 20
49.2284178547212
 10
16.5786698918776
 20
49.2277548160164
 10
16.5785762181435
 20
49.2268865910005
 10
16.5787314371001
 20
49.2260599871207
 10
16.5790350296422
 20
49.2252199947825
 10
16.5795694356764
 20
49.2244203368626
 10
16.5801540775902
 20
49.2236481802671
 10
16.5814716740866
 20
49.2220904665208
 10
16.5826929782392
 20
49.2206274519824
  0
LWPOLYLINE
  5
2001C
100
AcDbEntity
  8
0
100
AcDbPolyline
 70
0
 90
2
 10
16.5826929782392
 20
49.2206274519824
 10
16.5853200725678
 20
49.2214663699473
  0
LWPOLYLINE
  5
2001D
100
AcDbEntity
  8
0
100
AcDbPolyline
 70
0
 90
3
 10
16.5853200725678
 20
49.2214663699473
 10
16.5900167925721
 20
49.2227810331301
 10
16.5918340659735
 20
49.2232809432423
  0
LWPOLYLINE
  5
2001E
100
AcDbEntity
  8
0
100
AcDbPolyline
 70
0
 90
7
 10
16.5813837984597
 20
49.2292399963755
 10
16.5819199300939
 20
49.2288712321154
 10
16.5822530603383
 20
49.2284042834126
 10
16.5823031228548
 20
49.2278813291552
 10
16.5825582045049
 20
49.2254583524834
 10
16.5830705824303
 20
49.2246810502885
 10
16.5853200725678
 20
49.2214663699473
  0
LWPOLYLINE
  5
2001F
100
AcDbEntity
  8
0
100
AcDbPolyline
 70
0
 90
6
 10
16.5860752419512
 20
49.2295971111975
 10
16.5871834957058
 20
49.2278689136004
 10
16.5882320695186
 20
49.2262800664245
 10
16.588923432782
 20
49.2256351097937
 10
16.5915127982862
 20
49.2236769560995
 10
16.5918340659735
 20
49.2232809432423
  0
LWPOLYLINE
  5
20020
100
AcDbEntity
  8
0
100
AcDbPolyline
 70
0
 90
2
 10
16.5918340659735
 20
49.2232809432423
 10
16.594681557448
 20
49.2240692882255
  0
LWPOLYLINE
  5
20021
100
AcDbEntity
  8
0
100
AcDbPolyline
 70
0
 90
2
 10
16.5891949862692
 20
49.2326066503475
 10
16.5924841783871
 20
49.2276348259041
  0
LWPOLYLINE
  5
20022
100
AcDbEntity
  8
0
100
AcDbPolyline
 70
0
 90
2
 10
16.5924841783871
 20
49.2276348259041
 10
16.5947378155282
 20
49.2288117935474
  0
LWPOLYLINE
  5
20023
100
AcDbEntity
  8
0
100
AcDbPolyline
 70
0
 90
5
 10
16.5947378155282
 20
49.2288117935474
 10
16.5955337973661
 20
49.2291913245313
 10
16.5958471329834
 20
49.2292853400369
 10
16.5962581258915
 20
49.2292307230611
 10
16.5972904934671
 20
49.2290646052099
  0
LWPOLYLINE
  5
20024
100
AcDbEntity
  8
0
100
AcDbPolyline
 70
0
 90
2
 10
16.5924841783871
 20
49.2276348259041
 10
16.5935843410826
 20
49.2259538752902
  0
LWPOLYLINE
  5
20025
100
AcDbEntity
  8
0
100
AcDbPolyline
 70
0
 90
2
 10
16.5935843410826
 20
49.2259538752902
 10
16.594681557448
 20
49.2240692882255
  0
LWPOLYLINE
  5
20026
100
AcDbEntity
  8
0
100
AcDbPolyline
 70
0
 90
4
 10
16.5947378155282
 20
49.2288117935474
 10
16.5952046006873
 20
49.2281987377753
 10
16.5956826470874
 20
49.2274069913903
 10
16.5964937659093
 20
49.2257055217452
  0
LWPOLYLINE
  5
20027
100
AcDbEntity
  8
0
100
AcDbPolyline
 70
0
 90
6
 10
16.5935843410826
 20
49.2259538752902
 10
16.5946112397942
 20
49.2259309886574
 10
16.5955898287273
 20
49.2258687695466
 10
16.5960203463252
 20
49.2256958807612
 10
16.5961726322671
 20
49.2256588164138
 10
16.5964937659093
 20
49.2257055217452
  0
LWPOLYLINE
  5
20028
100
AcDbEntity
  8
0
100
AcDbPolyline
 70
0
 90
4
 10
16.5964937659093
 20
49.2257055217452
 10
16.5978338776565
 20
49.2262193503951
 10
16.5986844835615
 20
49.2267104270335
 10
16.5994638900326
 20
49.2269690984516
  0
LWPOLYLINE
  5
20029
100
AcDbEntity
  8
0
100
AcDbPolyline
 70
0
 90
4
 10
16.5994638900326
 20
49.2269690984516
 10
16.6002145344551
 20
49.227070168025
 10
16.6007777907216
 20
49.2269784650651
 10
16.6012039200305
 20
49.2267214860425
  0
LWPOLYLINE
  5
2002A
100
AcDbEntity
  8
0
100
AcDbPolyline
 70
0
 90
21
 10
16.6012039200305
 20
49.2267214860425
 10
16.6014816051142
 20
49.2269206518805
 10
16.6028360571354
 20
49.226573895406
 10
16.6032870448116
 20
49.2264981581323
 10
16.604161667986
 20
49.2265122602792
 10
16.6046419150394
 20
49.2267018366991
 10
16.6048663974717
 20
49.2271126098212
 10
16.6048858963069
 20
49.2274370666747
 10
16.60458372405
 20
49.2280498472248
 10
16.6043215308927
 20
49.2290842619878
 10
16.6042912326855
 20
49.2294889524813
 10
16.6044234351686
 20
49.2303478867502
 10
16.6040851600448
 20
49.2305153763533
 10
16.6036746419475
 20
49.2306777481644
 10
16.6034969483725
 20
49.2308685778657
 10
16.603531023641
 20
49.2317684253822
 10
16.6036134664586
 20
49.2322648629733
 10
16.6031686667759
 20
49.2332983071362
 10
16.6031774354994
 20
49.2334664496384
 10
16.6034702267193
 20
49.234348727844
 10
16.6035082571546
 20
49.234782189999
  0
LWPOLYLINE
  5
2002B
100
AcDbEntity
  8
0
100
AcDbPolyline
 70
0
 90
31
 10
16.6035082571546
 20
49.234782189999
 10
16.60351984363
 20
49.2360394171979
 10
16.603674541146
 20
49.236540972085
 10
16.6045399430997
 20
49.2380501259952
 10
16.604765471035
 20
49.2382336185511
 10
16.6068817191228
 20
49.2394723564653
 10
16.6090288322095
 20
49.2408568203182
 10
16.6108753010405
 20
49.2418490265347
 10
16.6112947085709
 20
49.2422975009367
 10
16.6119494885455
 20
49.2433130462249
 10
16.6123244841526
 20
49.2436985458213
 10
16.6126740730939
 20
49.2437950715398
 10
16.6140094385935
 20
49.2440091898925
 10
16.6145382346657
 20
49.2442380410375
 10
16.6152247761286
 20
49.2447293222342
 10
16.615354693177
 20
49.2450496145208
 10
16.6152019186621
 20
49.2454217079777
 10
16.6149426984173
 20
49.245774307956
 10
16.6148436155136
 20
49.2460425090182
 10
16.6150052616747
 20
49.2462812860008
 10
16.6158774073186
 20
49.2469771361581
 10
16.6169903724741
 20
49.2480968308517
 10
16.6178202468788
 20
49.2496033276226
 10
16.61835998158
 20
49.2504312039222
 10
16.6193412621932
 20
49.2516851441303
 10
16.6200955038091
 20
49.2528751662839
 10
16.6206685769716
 20
49.2539446910984
 10
16.6211870632957
 20
49.2553453862047
 10
16.6219995160386
 20
49.2565155703384
 10
16.6221587630818
 20
49.2566584397058
 10
16.6225201623531
 20
49.2566839695915
  0
LWPOLYLINE
  5
2002C
100
AcDbEntity
  8
0
100
AcDbPolyline
 70
0
 90
20
 10
16.6225201623531
 20
49.2566839695915
 10
16.6225769665818
 20
49.2572264250308
 10
16.6236700403812
 20
49.2591343380429
 10
16.6244179861717
 20
49.2598093597563
 10
16.6249110015114
 20
49.2604783389771
 10
16.6252569830038
 20
49.2610412107937
 10
16.625948380555
 20
49.2632796853057
 10
16.6264678498817
 20
49.264010348798
 10
16.6267171314553
 20
49.2644945937095
 10
16.6269928178372
 20
49.2650405291141
 10
16.6274536724925
 20
49.2656832894106
 10
16.6280387484398
 20
49.2666818091658
 10
16.6281151169218
 20
49.2671059845493
 10
16.628208673037
 20
49.2677587126975
 10
16.6284594082493
 20
49.2681234015734
 10
16.6288972734736
 20
49.2685730856589
 10
16.6292936823681
 20
49.2691634260593
 10
16.6292958150614
 20
49.2695943262708
 10
16.6290643903633
 20
49.2698890932361
 10
16.6290245237583
 20
49.2703529261166
  0
LWPOLYLINE
  5
2002D
100
AcDbEntity
  8
0
100
AcDbPolyline
 70
0
 90
20
 10
16.6225201623531
 20
49.2566839695915
 10
16.6225184832146
 20
49.255918064054
 10
16.6226960674336
 20
49.2552844769397
 10
16.6228375076715
 20
49.2546483365882
 10
16.6226703407089
 20
49.254110049111
 10
16.6224739252182
 20
49.2537491761857
 10
16.6224957697892
 20
49.2532840685799
 10
16.6228936757188
 20
49.2529771468953
 10
16.6229662133593
 20
49.2522045189381
 10
16.6230778758209
 20
49.2516380675379
 10
16.6234449569112
 20
49.2511853820051
 10
16.6238710406432
 20
49.2504855901711
 10
16.6239435592249
 20
49.2497129621662
 10
16.623963824238
 20
49.2489246769322
 10
16.6244640987962
 20
49.2482181601033
 10
16.6246651656591
 20
49.2478853656248
 10
16.6246170502852
 20
49.2470683203756
 10
16.6245205849828
 20
49.246211962992
 10
16.6245819158052
 20
49.245618025963
 10
16.6247190270045
 20
49.2453405413095
  0
LWPOLYLINE
  5
2002E
100
AcDbEntity
  8
0
100
AcDbPolyline
 70
0
 90
15
 10
16.6247190270045
 20
49.2453405413095
 10
16.6250752422465
 20
49.244950084982
 10
16.6258965204656
 20
49.2444911885318
 10
16.6264329911893
 20
49.2438973060393
 10
16.6267994317972
 20
49.2430042450775
 10
16.6270867967621
 20
49.2421917498045
 10
16.6273231498826
 20
49.2412895015012
 10
16.627434740523
 20
49.2404789512793
 10
16.6275259222885
 20
49.2399254119629
 10
16.6271969649336
 20
49.2391268244184
 10
16.6267772692769
 20
49.2384797698778
 10
16.6266546665802
 20
49.238025998441
 10
16.6268308506437
 20
49.2376220471877
 10
16.6273302624927
 20
49.2368532465215
 10
16.6274760466532
 20
49.2366338071773
  0
LWPOLYLINE
  5
2002F
100
AcDbEntity
  8
0
100
AcDbPolyline
 70
0
 90
2
 10
16.6274760466532
 20
49.2366338071773
 10
16.6288377570462
 20
49.2344900578235
  0
LWPOLYLINE
  5
20030
100
AcDbEntity
  8
0
100
AcDbPolyline
 70
0
 90
5
 10
16.6288377570462
 20
49.2344900578235
 10
16.621072802217
 20
49.2327784105468
 10
16.6201349315398
 20
49.2324823731372
 10
16.6196715420227
 20
49.232234233747
 10
16.6193622101646
 20
49.2319826251608
  0
LWPOLYLINE
  5
20031
100
AcDbEntity
  8
0
100
AcDbPolyline
 70
0
 90
9
 10
16.6193622101646
 20
49.2319826251608
 10
16.6189673028981
 20
49.2314521514003
 10
16.618668454777
 20
49.2308710336988
 10
16.6182372410341
 20
49.2302949130454
 10
16.6174856348378
 20
49.2296674140696
 10
16.6167463587571
 20
49.2290982145984
 10
16.6163222047147
 20
49.2284795073229
 10
16.6163701447663
 20
49.227922909768
 10
16.6167021496515
 20
49.2273720467548
  0
LWPOLYLINE
  5
20032
100
AcDbEntity
  8
0
100
AcDbPolyline
 70
0
 90
5
 10
16.6167021496515
 20
49.2273720467548
 10
16.617410694066
 20
49.2265319247092
 10
16.6182182060655
 20
49.2257562336717
 10
16.6188348378074
 20
49.2253403650543
 10
16.6202724587524
 20
49.2244656352001
  0
LWPOLYLINE
  5
20033
100
AcDbEntity
  8
0
100
AcDbPolyline
 70
0
 90
3
 10
16.6202724587524
 20
49.2244656352001
 10
16.6228237566172
 20
49.222951687905
 10
16.6229144876456
 20
49.2228001573739
  0
LWPOLYLINE
  5
20034
100
AcDbEntity
  8
0
100
AcDbPolyline
 70
0
 90
6
 10
16.6229144876456
 20
49.2228001573739
 10
16.6231698410058
 20
49.2228469239061
 10
16.6236969184927
 20
49.2228411016816
 10
16.6252815658665
 20
49.2225366948677
 10
16.6277610044831
 20
49.222123179462
 10
16.628706157952
 20
49.2219745685371
  0
LWPOLYLINE
  5
20035
100
AcDbEntity
  8
0
100
AcDbPolyline
 70
0
 90
10
 10
16.628706157952
 20
49.2219745685371
 10
16.6295982410181
 20
49.2237462313133
 10
16.6307290012892
 20
49.226065996769
 10
16.6311455007459
 20
49.2275312446358
 10
16.6312369413485
 20
49.2289735390446
 10
16.6310500261493
 20
49.2301090122166
 10
16.6305973008827
 20
49.2315272453742
 10
16.6299798642256
 20
49.2327471876649
 10
16.6295379055759
 20
49.2334339011315
 10
16.6288377570462
 20
49.2344900578235
  0
LWPOLYLINE
  5
20036
100
AcDbEntity
  8
0
100
AcDbPolyline
 70
0
 90
4
 10
16.6202724587524
 20
49.2244656352001
 10
16.6192632221258
 20
49.223805566656
 10
16.6189902633118
 20
49.2235996017805
 10
16.6183716117641
 20
49.2225651026369
  0
LWPOLYLINE
  5
20037
100
AcDbEntity
  8
0
100
AcDbPolyline
 70
0
 90
3
 10
16.6183716117641
 20
49.2225651026369
 10
16.6196675701454
 20
49.2222834279544
 10
16.6209207939463
 20
49.2221279454687
  0
LWPOLYLINE
  5
20038
100
AcDbEntity
  8
0
100
AcDbPolyline
 70
0
 90
4
 10
16.6209207939463
 20
49.2221279454687
 10
16.6217962841548
 20
49.2220031812954
 10
16.6230219023105
 20
49.2216159887413
 10
16.6239774996921
 20
49.2211379075988
  0
LWPOLYLINE
  5
20039
100
AcDbEntity
  8
0
100
AcDbPolyline
 70
0
 90
5
 10
16.6209207939463
 20
49.2221279454687
 10
16.6208568915097
 20
49.2218506142606
 10
16.6206986800505
 20
49.221480462306
 10
16.6206353966157
 20
49.2213324018536
 10
16.6209064956562
 20
49.2211505492103
  0
LWPOLYLINE
  5
2003A
100
AcDbEntity
  8
0
100
AcDbPolyline
 70
0
 90
5
 10
16.628706157952
 20
49.2219745685371
 10
16.6293213768762
 20
49.2213001011156
 10
16.629633859922
 20
49.2207334763376
 10
16.6295832890997
 20
49.220241717817
 10
16.6291250595203
 20
49.2195632212605
  0
LWPOLYLINE
  5
2003B
100
AcDbEntity
  8
0
100
AcDbPolyline
 70
0
 90
8
 10
16.6012039200305
 20
49.2267214860425
 10
16.6018215808038
 20
49.2257441535983
 10
16.6022983850791
 20
49.2252466596459
 10
16.6041842717541
 20
49.2249782321028
 10
16.6054598932925
 20
49.2244224471501
 10
16.606945729557
 20
49.2240538448117
 10
16.6100854293164
 20
49.2237592481916
 10
16.6131823522899
 20
49.2235907701235
  0
LWPOLYLINE
  5
2003C
100
AcDbEntity
  8
0
100
AcDbPolyline
 70
0
 90
3
 10
16.6131823522899
 20
49.2235907701235
 10
16.6148420608366
 20
49.2233636050346
 10
16.6183716117641
 20
49.2225651026369
  0
LWPOLYLINE
  5
2003D
100
AcDbEntity
  8
0
100
AcDbPolyline
 70
0
 90
8
 10
16.6181194177147
 20
49.2206375624055
 10
16.6182915407786
 20
49.2203912811643
 10
16.6184086296941
 20
49.220212899569
 10
16.6183787194234
 20
49.2199954045101
 10
16.6182111750773
 20
49.2196820217607
 10
16.6178369262359
 20
49.2194258117288
 10
16.6176530072164
 20
49.219211780068
 10
16.6179914486315
 20
49.2190203400837
  0
LWPOLYLINE
  5
2003E
100
AcDbEntity
  8
0
100
AcDbPolyline
 70
0
 90
5
 10
16.6229144876456
 20
49.2228001573739
 10
16.6227322502626
 20
49.2224426698055
 10
16.6223556187164
 20
49.2222006668753
 10
16.6214693939199
 20
49.2215923886039
 10
16.6209064956562
 20
49.2211505492103
  0
LWPOLYLINE
  5
2003F
100
AcDbEntity
  8
0
100
AcDbPolyline
 70
0
 90
2
 10
16.6209064956562
 20
49.2211505492103
 10
16.6179914486315
 20
49.2190203400837
  0
LWPOLYLINE
  5
20040
100
AcDbEntity
  8
0
100
AcDbPolyline
 70
0
 90
7
 10
16.6179914486315
 20
49.2190203400837
 10
16.6158531699283
 20
49.21723217628
 10
16.6154637018044
 20
49.216802574091
 10
16.6152762579981
 20
49.216344189693
 10
16.6154161466889
 20
49.2158946088612
 10
16.6155226657377
 20
49.2155144611817
 10
16.6172396105323
 20
49.2126780472427
  0
LWPOLYLINE
  5
20041
100
AcDbEntity
  8
0
100
AcDbPolyline
 70
0
 90
2
 10
16.6172396105323
 20
49.2126780472427
 10
16.6226127753228
 20
49.2141206045092
  0
LWPOLYLINE
  5
20042
100
AcDbEntity
  8
0
100
AcDbPolyline
 70
0
 90
4
 10
16.6226127753228
 20
49.2141206045092
 10
16.6254681277403
 20
49.2148824267095
 10
16.6259207723507
 20
49.2149287746792
 10
16.6263827676209
 20
49.2149183476526
  0
LWPOLYLINE
  5
20043
100
AcDbEntity
  8
0
100
AcDbPolyline
 70
0
 90
3
 10
16.6291250595203
 20
49.2195632212605
 10
16.6274345869932
 20
49.2169167083046
 10
16.6263827676209
 20
49.2149183476526
  0
LWPOLYLINE
  5
20044
100
AcDbEntity
  8
0
100
AcDbPolyline
 70
0
 90
5
 10
16.6263827676209
 20
49.2149183476526
 10
16.6292753828475
 20
49.2149217022036
 10
16.6316373796317
 20
49.2146864957584
 10
16.63337636462
 20
49.2145077653485
 10
16.6338676764952
 20
49.2145855286591
  0
LWPOLYLINE
  5
20045
100
AcDbEntity
  8
0
100
AcDbPolyline
 70
0
 90
11
 10
16.6338676764952
 20
49.2145855286591
 10
16.6335159666876
 20
49.2149914480519
 10
16.6331385653211
 20
49.2155534945639
 10
16.6326744878208
 20
49.2161094202708
 10
16.6319397635378
 20
49.2164452162156
 10
16.6309877175094
 20
49.216636434916
 10
16.6300743255612
 20
49.2168590923734
 10
16.6295392474962
 20
49.2171802591873
 10
16.629055783691
 20
49.2177204463502
 10
16.6286186196354
 20
49.2183787712502
 10
16.6280731043084
 20
49.2190294398489
  0
LWPOLYLINE
  5
20046
100
AcDbEntity
  8
0
100
AcDbPolyline
 70
0
 90
6
 10
16.6280731043084
 20
49.2190294398489
 10
16.6272921984774
 20
49.2197783448962
 10
16.6264163199297
 20
49.2203051577215
 10
16.6256311415844
 20
49.2206804311336
 10
16.624847661266
 20
49.2209122350038
 10
16.6239774996921
 20
49.2211379075988
  0
LWPOLYLINE
  5
20047
100
AcDbEntity
  8
0
100
AcDbPolyline
 70
0
 90
6
 10
16.6239774996921
 20
49.2211379075988
 10
16.6224689657421
 20
49.2212466548743
 10
16.6214552236096
 20
49.2211462701794
 10
16.619831204146
 20
49.2207586249893
 10
16.6186874687297
 20
49.2206490222707
 10
16.6181194177147
 20
49.2206375624055
  0
LWPOLYLINE
  5
20048
100
AcDbEntity
  8
0
100
AcDbPolyline
 70
0
 90
7
 10
16.6181194177147
 20
49.2206375624055
 10
16.6110943337125
 20
49.2201691741691
 10
16.6065382773996
 20
49.2201480827467
 10
16.6051333859316
 20
49.2202926640225
 10
16.6038526076672
 20
49.2207475605719
 10
16.6033235154364
 20
49.2209670153121
 10
16.6030020278258
 20
49.2208239366351
  0
LWPOLYLINE
  5
20049
100
AcDbEntity
  8
0
100
AcDbPolyline
 70
0
 90
2
 10
16.5994638900326
 20
49.2269690984516
 10
16.6023340274906
 20
49.2213148228832
  0
LWPOLYLINE
  5
2004A
100
AcDbEntity
  8
0
100
AcDbPolyline
 70
0
 90
6
 10
16.6030020278258
 20
49.2208239366351
 10
16.6034567562997
 20
49.2204897677137
 10
16.6039006816928
 20
49.2201909676229
 10
16.6037713009928
 20
49.2197797490776
 10
16.6033515036107
 20
49.2190033355215
 10
16.6043706551654
 20
49.2165483744577
  0
LWPOLYLINE
  5
2004B
100
AcDbEntity
  8
0
100
AcDbPolyline
 70
0
 90
5
 10
16.6043706551654
 20
49.2165483744577
 10
16.6050668843522
 20
49.2167125762881
 10
16.6053063650499
 20
49.2169880037797
 10
16.6064581746331
 20
49.2173137033695
 10
16.6081048112582
 20
49.2179616134167
  0
LWPOLYLINE
  5
2004C
100
AcDbEntity
  8
0
100
AcDbPolyline
 70
0
 90
2
 10
16.6043706551654
 20
49.2165483744577
 10
16.6089024491914
 20
49.2092764190627
  0
LWPOLYLINE
  5
2004D
100
AcDbEntity
  8
0
100
AcDbPolyline
 70
0
 90
12
 10
16.6089024491914
 20
49.2092764190627
 10
16.6095271652527
 20
49.2096078413266
 10
16.6099217972382
 20
49.2101383500873
 10
16.6104259165144
 20
49.2104037905504
 10
16.6112784061322
 20
49.2105503072088
 10
16.6122462414124
 20
49.2106619069636
 10
16.6130407735719
 20
49.2107612304313
 10
16.6138792339255
 20
49.2109928871731
 10
16.6145982823694
 20
49.2114171082272
 10
16.6154309473036
 20
49.2119498752345
 10
16.6162173575526
 20
49.2123644915151
 10
16.6172396105323
 20
49.2126780472427
  0
LWPOLYLINE
  5
2004E
100
AcDbEntity
  8
0
100
AcDbPolyline
 70
0
 90
11
 10
16.6089024491914
 20
49.2092764190627
 10
16.609416500402
 20
49.2090830845072
 10
16.6097373353609
 20
49.2087324759695
 10
16.6101875524553
 20
49.2082617999773
 10
16.6107267498076
 20
49.2077830650398
 10
16.611282917989
 20
49.2073342476028
 10
16.6119854333073
 20
49.206795278647
 10
16.6127933047188
 20
49.2061488943214
 10
16.6130971163106
 20
49.2057683565269
 10
16.6132902777471
 20
49.2053943445196
 10
16.6133774699092
 20
49.2049984707002
  0
LWPOLYLINE
  5
2004F
100
AcDbEntity
  8
0
100
AcDbPolyline
 70
0
 90
3
 10
16.6133735693478
 20
49.2050221255484
 10
16.6137607989707
 20
49.201876244463
 10
16.6137820591749
 20
49.2018398822319
  0
LWPOLYLINE
  5
20050
100
AcDbEntity
  8
0
100
AcDbPolyline
 70
0
 90
2
 10
16.6141919562319
 20
49.2011218204326
 10
16.6156016348054
 20
49.2016092937238
  0
LWPOLYLINE
  5
20051
100
AcDbEntity
  8
0
100
AcDbPolyline
 70
0
 90
4
 10
16.6184316523195
 20
49.2027859583714
 10
16.6191810242379
 20
49.2030256390741
 10
16.6219736587956
 20
49.2038980296686
 10
16.6237377095525
 20
49.2044966043891
  0
LWPOLYLINE
  5
20052
100
AcDbEntity
  8
0
100
AcDbPolyline
 70
0
 90
2
 10
16.6237377095525
 20
49.2044966043891
 10
16.6222294975524
 20
49.2060699158087
  0
LWPOLYLINE
  5
20053
100
AcDbEntity
  8
0
100
AcDbPolyline
 70
0
 90
5
 10
16.6222294975524
 20
49.2060699158087
 10
16.6211256285868
 20
49.207183616363
 10
16.6197243391818
 20
49.2085060113266
 10
16.6194802578922
 20
49.2087902785872
 10
16.6184946579888
 20
49.2105153931109
  0
LWPOLYLINE
  5
20054
100
AcDbEntity
  8
0
100
AcDbPolyline
 70
0
 90
2
 10
16.6184946579888
 20
49.2105153931109
 10
16.6172396105323
 20
49.2126780472427
  0
LWPOLYLINE
  5
20055
100
AcDbEntity
  8
0
100
AcDbPolyline
 70
0
 90
3
 10
16.6222294975524
 20
49.2060699158087
 10
16.6223966949375
 20
49.2073165792097
 10
16.6227354729618
 20
49.2107148061983
  0
LWPOLYLINE
  5
20056
100
AcDbEntity
  8
0
100
AcDbPolyline
 70
0
 90
3
 10
16.6227354729618
 20
49.2107148061983
 10
16.6227954696469
 20
49.2116810739596
 10
16.6226127753228
 20
49.2141206045092
  0
LWPOLYLINE
  5
20057
100
AcDbEntity
  8
0
100
AcDbPolyline
 70
0
 90
13
 10
16.6237377095525
 20
49.2044966043891
 10
16.624375403501
 20
49.2050155233979
 10
16.6246161877832
 20
49.2055494545726
 10
16.6245993714854
 20
49.2060508156035
 10
16.6242735257191
 20
49.2068318600103
 10
16.6238722450095
 20
49.2079378176876
 10
16.6237360426927
 20
49.2086317592694
 10
16.6237761055799
 20
49.2094530308764
 10
16.6239572147497
 20
49.210083252983
 10
16.6243661986222
 20
49.2110598303203
 10
16.625162372696
 20
49.212480170475
 10
16.6259422305852
 20
49.2139998588826
 10
16.6263827676209
 20
49.2149183476526
  0
LWPOLYLINE
  5
20058
100
AcDbEntity
  8
0
100
AcDbPolyline
 70
0
 90
5
 10
16.6237377095525
 20
49.2044966043891
 10
16.62424977345
 20
49.2039153897678
 10
16.6245904221205
 20
49.203709735741
 10
16.6250423356273
 20
49.2036268159666
 10
16.6254972152198
 20
49.2036589724285
  0
LWPOLYLINE
  5
20059
100
AcDbEntity
  8
0
100
AcDbPolyline
 70
0
 90
9
 10
16.6254972152198
 20
49.2036589724285
 10
16.6254557812142
 20
49.2040437246186
 10
16.6263644141138
 20
49.2058453343827
 10
16.6270539508938
 20
49.2071145427508
 10
16.6289483572616
 20
49.2067889363275
 10
16.6301893531927
 20
49.2091021727096
 10
16.631826835071
 20
49.2088732324935
 10
16.6329808381518
 20
49.2101177607333
 10
16.6338009737988
 20
49.210994099303
  0
LWPOLYLINE
  5
2005A
100
AcDbEntity
  8
0
100
AcDbPolyline
 70
0
 90
4
 10
16.6338009737988
 20
49.210994099303
 10
16.6351913404134
 20
49.212800902045
 10
16.6361112075393
 20
49.2138709166817
 10
16.636270527622
 20
49.2139683114999
  0
LWPOLYLINE
  5
2005B
100
AcDbEntity
  8
0
100
AcDbPolyline
 70
0
 90
3
 10
16.6254972152198
 20
49.2036589724285
 10
16.6259166730457
 20
49.2028414687003
 10
16.6263327083558
 20
49.2023108935912
  0
LWPOLYLINE
  5
2005C
100
AcDbEntity
  8
0
100
AcDbPolyline
 70
0
 90
9
 10
16.6263327083558
 20
49.2023108935912
 10
16.6271084430451
 20
49.2025236670856
 10
16.6278614587223
 20
49.2030076413766
 10
16.6283063537492
 20
49.2029672890661
 10
16.6288202624479
 20
49.2027738677783
 10
16.629655461878
 20
49.2023590522472
 10
16.6304906459621
 20
49.2019442305455
 10
16.6314774370204
 20
49.2015401135047
 10
16.6328190741048
 20
49.2013764290026
  0
LWPOLYLINE
  5
2005D
100
AcDbEntity
  8
0
100
AcDbPolyline
 70
0
 90
3
 10
16.6328190741048
 20
49.2013764290026
 10
16.6350874206322
 20
49.2013068836664
 10
16.6380652221629
 20
49.2011868642756
  0
LWPOLYLINE
  5
2005E
100
AcDbEntity
  8
0
100
AcDbPolyline
 70
0
 90
2
 10
16.6380652221629
 20
49.2011868642756
 10
16.6383144067173
 20
49.2038033045071
  0
LWPOLYLINE
  5
2005F
100
AcDbEntity
  8
0
100
AcDbPolyline
 70
0
 90
2
 10
16.6380652221629
 20
49.2011868642756
 10
16.6379153050511
 20
49.2000994095561
  0
LWPOLYLINE
  5
20060
100
AcDbEntity
  8
0
100
AcDbPolyline
 70
0
 90
5
 10
16.6380652221629
 20
49.2011868642756
 10
16.6403575452319
 20
49.2011045514983
 10
16.640877392398
 20
49.2011412326056
 10
16.6420390666426
 20
49.2015390744388
 10
16.6431574397021
 20
49.2019338479708
  0
LWPOLYLINE
  5
20061
100
AcDbEntity
  8
0
100
AcDbPolyline
 70
0
 90
6
 10
16.6431574397021
 20
49.2019338479708
 10
16.6419695069068
 20
49.2034294524281
 10
16.6416076244365
 20
49.2041649078849
 10
16.6415343342996
 20
49.2048776491276
 10
16.6417589783946
 20
49.2055109002773
 10
16.6419839417383
 20
49.2057421438169
  0
LWPOLYLINE
  5
20062
100
AcDbEntity
  8
0
100
AcDbPolyline
 70
0
 90
3
 10
16.6419839417383
 20
49.2057421438169
 10
16.6423018814505
 20
49.2058076462499
 10
16.6451427790311
 20
49.2070561516373
  0
LWPOLYLINE
  5
20063
100
AcDbEntity
  8
0
100
AcDbPolyline
 70
0
 90
3
 10
16.6451427790311
 20
49.2070561516373
 10
16.6451371461631
 20
49.2073572758594
 10
16.6454929044344
 20
49.2086602353458
  0
LWPOLYLINE
  5
20064
100
AcDbEntity
  8
0
100
AcDbPolyline
 70
0
 90
2
 10
16.6454929044344
 20
49.2086602353458
 10
16.642409360634
 20
49.2088878834939
  0
LWPOLYLINE
  5
20065
100
AcDbEntity
  8
0
100
AcDbPolyline
 70
0
 90
2
 10
16.6419839417383
 20
49.2057421438169
 10
16.642409360634
 20
49.2088878834939
  0
LWPOLYLINE
  5
20066
100
AcDbEntity
  8
0
100
AcDbPolyline
 70
0
 90
4
 10
16.642409360634
 20
49.2088878834939
 10
16.6425850560959
 20
49.209819200421
 10
16.6429770977446
 20
49.2111678041418
 10
16.6430694653068
 20
49.2118060780283
  0
LWPOLYLINE
  5
20067
100
AcDbEntity
  8
0
100
AcDbPolyline
 70
0
 90
7
 10
16.6430694653068
 20
49.2118060780283
 10
16.6421785546319
 20
49.2121596312375
 10
16.6404913513786
 20
49.2125575132442
 10
16.6391677656136
 20
49.2130097452948
 10
16.6379524833113
 20
49.2134696074448
 10
16.6367728501996
 20
49.213845823809
 10
16.636270527622
 20
49.2139683114999
  0
LWPOLYLINE
  5
20068
100
AcDbEntity
  8
0
100
AcDbPolyline
 70
0
 90
4
 10
16.636270527622
 20
49.2139683114999
 10
16.6349408880339
 20
49.2141903400862
 10
16.6343278935641
 20
49.2143193655735
 10
16.6338676764952
 20
49.2145855286591
  0
LWPOLYLINE
  5
20069
100
AcDbEntity
  8
0
100
AcDbPolyline
 70
0
 90
13
 10
16.636270527622
 20
49.2139683114999
 10
16.6368204928601
 20
49.2142225013748
 10
16.6375208038139
 20
49.2142288494685
 10
16.6379734537416
 20
49.2142751501827
 10
16.638597763465
 20
49.2144771447959
 10
16.6391700776568
 20
49.2148621231596
 10
16.6398010666506
 20
49.2154235377806
 10
16.6402094006878
 20
49.2157395082105
 10
16.6405730686103
 20
49.2157938785939
 10
16.6417060642664
 20
49.2157014971961
 10
16.6428940525602
 20
49.2155411914695
 10
16.6435820451502
 20
49.2154892001956
 10
16.6439627160212
 20
49.215573474976
  0
LWPOLYLINE
  5
2006A
100
AcDbEntity
  8
0
100
AcDbPolyline
 70
0
 90
5
 10
16.6430694653068
 20
49.2118060780283
 10
16.6435961935942
 20
49.213135459278
 10
16.6439335955841
 20
49.2141499644225
 10
16.6439053114397
 20
49.2147222960251
 10
16.6439627160212
 20
49.215573474976
  0
LWPOLYLINE
  5
2006B
100
AcDbEntity
  8
0
100
AcDbPolyline
 70
0
 90
17
 10
16.6454929044344
 20
49.2086602353458
 10
16.6461016590334
 20
49.2100241031035
 10
16.6466953677693
 20
49.2108125794025
 10
16.6476923651754
 20
49.211414106594
 10
16.6489416877167
 20
49.2119472575607
 10
16.6495310576413
 20
49.2123621000097
 10
16.6505588598691
 20
49.2133103611678
 10
16.6516433167438
 20
49.2140472318021
 10
16.6528571046488
 20
49.2146639769273
 10
16.6533382059938
 20
49.2150711693351
 10
16.6538948218731
 20
49.2160867108471
 10
16.6542958332949
 20
49.2172492275696
 10
16.6540120927363
 20
49.21817687082
 10
16.6531134822038
 20
49.2197791109686
 10
16.6526337518927
 20
49.2209657521766
 10
16.6527868399707
 20
49.2212349764701
 10
16.6531582515542
 20
49.2213759971498
  0
LWPOLYLINE
  5
2006C
100
AcDbEntity
  8
0
100
AcDbPolyline
 70
0
 90
6
 10
16.6439627160212
 20
49.215573474976
 10
16.6439001279604
 20
49.2164879835615
 10
16.6432608628131
 20
49.2175772021908
 10
16.6431505627829
 20
49.2181150344254
 10
16.6433440535803
 20
49.2201388198369
 10
16.6434520935584
 20
49.2205484660695
  0
LWPOLYLINE
  5
2006D
100
AcDbEntity
  8
0
100
AcDbPolyline
 70
0
 90
7
 10
16.6434520935584
 20
49.2205484660695
 10
16.6436311609735
 20
49.2211928507621
 10
16.6439745592137
 20
49.2215042241507
 10
16.6444163005928
 20
49.2217507396783
 10
16.6446753603838
 20
49.2220418065139
 10
16.6448344313964
 20
49.222541197138
 10
16.6448372490812
 20
49.2239915654089
  0
LWPOLYLINE
  5
2006E
100
AcDbEntity
  8
0
100
AcDbPolyline
 70
0
 90
17
 10
16.6448372490812
 20
49.2239915654089
 10
16.6449484206037
 20
49.2254495710811
 10
16.6452978835793
 20
49.2259910952194
 10
16.645940744197
 20
49.2264815059654
 10
16.6493249798118
 20
49.227366081033
 10
16.6488607150681
 20
49.2283240782117
 10
16.6488056246594
 20
49.2297272831833
 10
16.6489859185411
 20
49.2310322060373
 10
16.649078401878
 20
49.2316704731518
 10
16.6487744462895
 20
49.2324531101561
 10
16.6477288841558
 20
49.233212216889
 10
16.6468776777554
 20
49.2338557875771
 10
16.6451185325934
 20
49.235354289121
 10
16.6445443726672
 20
49.2360460871765
 10
16.6446104648448
 20
49.236711217786
 10
16.645046027458
 20
49.2371295816858
 10
16.6457890487038
 20
49.2374116692344
  0
LWPOLYLINE
  5
2006F
100
AcDbEntity
  8
0
100
AcDbPolyline
 70
0
 90
15
 10
16.6451427790311
 20
49.2070561516373
 10
16.6461306388311
 20
49.2073124606405
 10
16.6471068535097
 20
49.2076397290225
 10
16.6482677785614
 20
49.2083102446288
 10
16.6491200869294
 20
49.2088584896083
 10
16.6500993768874
 20
49.2093008099109
 10
16.6514865825086
 20
49.2095277757174
 10
16.6533527484832
 20
49.2097741028021
 10
16.6548690531621
 20
49.2102829195999
 10
16.6561300664004
 20
49.2107450232912
 10
16.657334707514
 20
49.2110164898022
 10
16.6586322899456
 20
49.2111221908534
 10
16.6601117892882
 20
49.2110540281912
 10
16.6612029142405
 20
49.2108149400903
 10
16.6623095907811
 20
49.2103472123833
  0
LWPOLYLINE
  5
20070
100
AcDbEntity
  8
0
100
AcDbPolyline
 70
0
 90
4
 10
16.6623095907811
 20
49.2103472123833
 10
16.6629063235929
 20
49.2099153890685
 10
16.6632933775088
 20
49.2094257392788
 10
16.6634707588995
 20
49.2088782643123
  0
LWPOLYLINE
  5
20071
100
AcDbEntity
  8
0
100
AcDbPolyline
 70
0
 90
9
 10
16.6634707588995
 20
49.2088782643123
 10
16.6579485275397
 20
49.2088773034134
 10
16.6576135404228
 20
49.2087819310669
 10
16.6553625083801
 20
49.2076758089441
 10
16.6553007603922
 20
49.207384301326
 10
16.6554123194506
 20
49.2071049994687
 10
16.655992977007
 20
49.2063705613069
 10
16.6562128445026
 20
49.20609888513
 10
16.6615227888032
 20
49.206056296576
  0
LWPOLYLINE
  5
20072
100
AcDbEntity
  8
0
100
AcDbPolyline
 70
0
 90
4
 10
16.6634707588995
 20
49.2088782643123
 10
16.6636103287705
 20
49.2080266167191
 10
16.6637134060416
 20
49.2075313463485
 10
16.6638505043213
 20
49.2070959003043
  0
LWPOLYLINE
  5
20073
100
AcDbEntity
  8
0
100
AcDbPolyline
 70
0
 90
2
 10
16.6638505043213
 20
49.2070959003043
 10
16.6615227888032
 20
49.206056296576
  0
LWPOLYLINE
  5
20074
100
AcDbEntity
  8
0
100
AcDbPolyline
 70
0
 90
23
 10
16.657191902326
 20
49.2054103410032
 10
16.656456897897
 20
49.2054125328782
 10
16.6561296308175
 20
49.2054038453427
 10
16.6556167124766
 20
49.2053246511191
 10
16.6552933944959
 20
49.2051583012791
 10
16.6549453828215
 20
49.2048753487019
 10
16.6548433508272
 20
49.2046958664703
 10
16.6547646029403
 20
49.2043744456586
 10
16.6547866873253
 20
49.2035719552108
 10
16.6548418636243
 20
49.2031020288482
 10
16.6549890472575
 20
49.2027390884104
 10
16.6553474788417
 20
49.2022905209348
 10
16.6557569171761
 20
49.2019316925567
 10
16.6563473317423
 20
49.2016717564482
 10
16.6569214461943
 20
49.201511174267
 10
16.6576115568369
 20
49.2014449052523
 10
16.6589778098081
 20
49.2013975189661
 10
16.6598915061606
 20
49.2013039024408
 10
16.66064282406
 20
49.2009978404694
 10
16.6614104175127
 20
49.200592415091
 10
16.6624139392436
 20
49.2002179461445
 10
16.6633786338626
 20
49.2002140402864
 10
16.6635952394039
 20
49.2002292811231
  0
LWPOLYLINE
  5
20075
100
AcDbEntity
  8
0
100
AcDbPolyline
 70
0
 90
2
 10
16.6635952394039
 20
49.2002292811231
 10
16.6661363956675
 20
49.2007669949254
  0
LWPOLYLINE
  5
20076
100
AcDbEntity
  8
0
100
AcDbPolyline
 70
0
 90
5
 10
16.6638505043213
 20
49.2070959003043
 10
16.6643744859752
 20
49.2065728084412
 10
16.6648102089451
 20
49.2061870838658
 10
16.6655128595703
 20
49.2057770600277
 10
16.6669637764164
 20
49.204945852129
  0
LWPOLYLINE
  5
20077
100
AcDbEntity
  8
0
100
AcDbPolyline
 70
0
 90
2
 10
16.6661363956675
 20
49.2007669949254
 10
16.6669637764164
 20
49.204945852129
  0
LWPOLYLINE
  5
20078
100
AcDbEntity
  8
0
100
AcDbPolyline
 70
0
 90
8
 10
16.6635952394039
 20
49.2002292811231
 10
16.6635799672039
 20
49.19965389522
 10
16.6611609099805
 20
49.1977032867522
 10
16.6603983435396
 20
49.1972763055461
 10
16.6595715314196
 20
49.1969740169345
 10
16.6568820687138
 20
49.1965405583941
 10
16.6523556420974
 20
49.195819667698
 10
16.6505309934277
 20
49.195590570955
  0
LWPOLYLINE
  5
20079
100
AcDbEntity
  8
0
100
AcDbPolyline
 70
0
 90
5
 10
16.6431574397021
 20
49.2019338479708
 10
16.6450483290665
 20
49.1996263238988
 10
16.6456260398071
 20
49.1987768595341
 10
16.6458995376612
 20
49.1981787453561
 10
16.6459368291407
 20
49.1979516451341
  0
LWPOLYLINE
  5
2007A
100
AcDbEntity
  8
0
100
AcDbPolyline
 70
0
 90
4
 10
16.6459368291407
 20
49.1979516451341
 10
16.6460999756331
 20
49.1969580796366
 10
16.6462491324328
 20
49.196049676404
 10
16.6463919762364
 20
49.1953131254987
  0
LWPOLYLINE
  5
2007B
100
AcDbEntity
  8
0
100
AcDbPolyline
 70
0
 90
2
 10
16.6463919762364
 20
49.1953131254987
 10
16.6505309934277
 20
49.195590570955
  0
LWPOLYLINE
  5
2007C
100
AcDbEntity
  8
0
100
AcDbPolyline
 70
0
 90
5
 10
16.6505309934277
 20
49.195590570955
 10
16.6493113304362
 20
49.1964809495344
 10
16.6485686411735
 20
49.1966008914047
 10
16.647678041868
 20
49.1969544869804
 10
16.6459368291407
 20
49.1979516451341
  0
LWPOLYLINE
  5
2007D
100
AcDbEntity
  8
0
100
AcDbPolyline
 70
0
 90
8
 10
16.6463919762364
 20
49.1953131254987
 10
16.6448782559665
 20
49.1951920111168
 10
16.6430429894545
 20
49.194761027423
 10
16.6403781087999
 20
49.193912510618
 10
16.6367111313208
 20
49.1927634408558
 10
16.6364512524381
 20
49.1927450911497
 10
16.6354170650251
 20
49.1927725710542
 10
16.6345098270721
 20
49.1926941409219
  0
LWPOLYLINE
  5
2007E
100
AcDbEntity
  8
0
100
AcDbPolyline
 70
0
 90
12
 10
16.6345098270721
 20
49.1926941409219
 10
16.6352846256746
 20
49.1946441658261
 10
16.6340334450508
 20
49.1950583478164
 10
16.6334658331797
 20
49.1965115327301
 10
16.6331021897756
 20
49.1973904280415
 10
16.6325703252662
 20
49.1978266878617
 10
16.6316507758559
 20
49.1991544991786
 10
16.6316234026942
 20
49.199454093036
 10
16.6316482888146
 20
49.2001019804681
 10
16.6320067670845
 20
49.2005867731015
 10
16.6326978040797
 20
49.2011812037875
 10
16.6328190741048
 20
49.2013764290026
  0
LWPOLYLINE
  5
2007F
100
AcDbEntity
  8
0
100
AcDbPolyline
 70
0
 90
14
 10
16.6669637764164
 20
49.204945852129
 10
16.6671292556771
 20
49.2052733591223
 10
16.6677326476427
 20
49.205602943142
 10
16.6688165448215
 20
49.2058083743178
 10
16.6697928810939
 20
49.2061354510212
 10
16.6706260506873
 20
49.2066678202863
 10
16.6713369755987
 20
49.2072777369489
 10
16.6717299271333
 20
49.2078222278976
 10
16.6720957537277
 20
49.2086663204813
 10
16.672519549375
 20
49.2099595686545
 10
16.6729604478499
 20
49.2108807189991
 10
16.673718628892
 20
49.2117380126462
 10
16.6746710737579
 20
49.2124797283191
 10
16.6758827870906
 20
49.2131104258333
  0
LWPOLYLINE
  5
20080
100
AcDbEntity
  8
0
100
AcDbPolyline
 70
0
 90
5
 10
16.6758827870906
 20
49.2131104258333
 10
16.6771394232846
 20
49.2136006885058
 10
16.678216569318
 20
49.2138486134583
 10
16.6792093782898
 20
49.2140762493651
 10
16.6798292100725
 20
49.2143064098045
  0
LWPOLYLINE
  5
20081
100
AcDbEntity
  8
0
100
AcDbPolyline
 70
0
 90
14
 10
16.6798292100725
 20
49.2143064098045
 10
16.6804026153067
 20
49.2148204553671
 10
16.6807624508038
 20
49.2154343661117
 10
16.6810100865652
 20
49.2166003394324
 10
16.6812732146727
 20
49.2179396867726
 10
16.6815533715246
 20
49.2185049284506
 10
16.6828141448039
 20
49.2208475040845
 10
16.6838319384663
 20
49.221995710618
 10
16.6851361466423
 20
49.2231352804343
 10
16.6861431403812
 20
49.2236796963639
 10
16.6887764053724
 20
49.2248693423221
 10
16.6901619807453
 20
49.2255120432542
 10
16.6921343653822
 20
49.2264542757087
 10
16.6928387857295
 20
49.2267046343662
  0
LWPOLYLINE
  5
20082
100
AcDbEntity
  8
0
100
AcDbPolyline
 70
0
 90
8
 10
16.6928387857295
 20
49.2267046343662
 10
16.6942592388376
 20
49.2271343662967
 10
16.6957176151089
 20
49.2274662349666
 10
16.6967642116924
 20
49.227769247998
 10
16.6977992333872
 20
49.2281432251382
 10
16.6993297872157
 20
49.2288390234248
 10
16.7002697116007
 20
49.2293929582566
 10
16.7010347711595
 20
49.2300782144069
  0
LWPOLYLINE
  5
20083
100
AcDbEntity
  8
0
100
AcDbPolyline
 70
0
 90
15
 10
16.7037596854271
 20
49.2270816669223
 10
16.703764130265
 20
49.2266512705676
 10
16.7032234151204
 20
49.2256658776829
 10
16.7026006631411
 20
49.2246460254886
 10
16.7022722554792
 20
49.2241061915403
 10
16.7013964287182
 20
49.2230255460791
 10
16.700938017642
 20
49.222476606423
 10
16.7006963272433
 20
49.2219428359722
 10
16.7005011268466
 20
49.2215271749595
 10
16.7002417405647
 20
49.2212362324024
 10
16.7001123831395
 20
49.2209543926564
 10
16.7003645000189
 20
49.2204839057785
 10
16.7008975017692
 20
49.2199038700613
 10
16.7016354441445
 20
49.2190079682648
 10
16.7027212020457
 20
49.2171888497606
  0
LWPOLYLINE
  5
20084
100
AcDbEntity
  8
0
100
AcDbPolyline
 70
0
 90
15
 10
16.7027212020457
 20
49.2171888497606
 10
16.7032045066677
 20
49.2163756173247
 10
16.7032647007724
 20
49.2160065495987
 10
16.7030934858592
 20
49.2155782142909
 10
16.7024973377621
 20
49.2149334941639
 10
16.7014996056725
 20
49.2143324407738
 10
16.6995328270365
 20
49.2130892397603
 10
16.6988600267313
 20
49.2121089150776
 10
16.698133835761
 20
49.2110530596542
 10
16.6979496023788
 20
49.2108391557832
 10
16.6963670246657
 20
49.2101970803876
 10
16.6956933929565
 20
49.2086854582457
 10
16.6950949911048
 20
49.2076528860383
 10
16.6947427960802
 20
49.2071257057653
 10
16.6946576454182
 20
49.2069761664664
  0
LWPOLYLINE
  5
20085
100
AcDbEntity
  8
0
100
AcDbPolyline
 70
0
 90
8
 10
16.6946576454182
 20
49.2069761664664
 10
16.6944564121303
 20
49.206732350087
 10
16.6927164074585
 20
49.2070554671661
 10
16.6917662923317
 20
49.2071037209866
 10
16.6898806902447
 20
49.2068423010347
 10
16.6891394673032
 20
49.2068190374239
 10
16.6882187675778
 20
49.2069554682808
 10
16.6869197509163
 20
49.2073955730681
  0
LWPOLYLINE
  5
20086
100
AcDbEntity
  8
0
100
AcDbPolyline
 70
0
 90
15
 10
16.6869197509163
 20
49.2073955730681
 10
16.6874885110727
 20
49.2079379740488
 10
16.688102199248
 20
49.2087419517965
 10
16.6882841238028
 20
49.2093720738531
 10
16.6881279470538
 20
49.210193841583
 10
16.6877705481896
 20
49.2107717820145
 10
16.6872731265713
 20
49.2116701178708
 10
16.6869506012161
 20
49.212839151414
 10
16.6867092533637
 20
49.2135113727637
 10
16.6863053255516
 20
49.2135691842552
 10
16.683794292546
 20
49.2137806729418
 10
16.6825051060951
 20
49.2138912136703
 10
16.681044898499
 20
49.2139753785064
 10
16.6803716685582
 20
49.2140716972314
 10
16.6798292100725
 20
49.2143064098045
  0
LWPOLYLINE
  5
20087
100
AcDbEntity
  8
0
100
AcDbPolyline
 70
0
 90
17
 10
16.6944564121303
 20
49.206732350087
 10
16.6952835998377
 20
49.2070343883463
 10
16.6971079269141
 20
49.2067314983748
 10
16.698646784633
 20
49.2065665139814
 10
16.7000556446142
 20
49.2063924048326
 10
16.7012827446493
 20
49.2063921937045
 10
16.7021058219878
 20
49.2060478284696
 10
16.7025986420416
 20
49.2059818337361
 10
16.7039921044361
 20
49.2060363123943
 10
16.7049243147646
 20
49.2058287801388
 10
16.7057953149606
 20
49.2054590313873
 10
16.7072455468625
 20
49.2046273171514
 10
16.708036792172
 20
49.2042089028426
 10
16.7093393139879
 20
49.2036108992879
 10
16.7103927987861
 20
49.2031964592652
 10
16.7125334510551
 20
49.203102105157
 10
16.7149123920546
 20
49.2030243703576
  0
LWPOLYLINE
  5
20088
100
AcDbEntity
  8
0
100
AcDbPolyline
 70
0
 90
2
 10
16.6685705006686
 20
49.201308895219
 10
16.6661363956675
 20
49.2007669949254
  0
LWPOLYLINE
  5
20089
100
AcDbEntity
  8
0
100
AcDbPolyline
 70
0
 90
5
 10
16.6788618789073
 20
49.2038820291987
 10
16.6786449339109
 20
49.2037279637829
 10
16.6778852119991
 20
49.2034161750399
 10
16.6766009605686
 20
49.2030962530866
 10
16.6685705006686
 20
49.201308895219
  0
LWPOLYLINE
  5
2008A
100
AcDbEntity
  8
0
100
AcDbPolyline
 70
0
 90
6
 10
16.6688672636249
 20
49.2008154696308
 10
16.6692711077986
 20
49.2007577190188
 10
16.6754074773397
 20
49.2006147021353
 10
16.678136812823
 20
49.2004044145544
 10
16.6816613944005
 20
49.2000201771103
 10
16.683077088336
 20
49.1998036915233
  0
LWPOLYLINE
  5
2008B
100
AcDbEntity
  8
0
100
AcDbPolyline
 70
0
 90
7
 10
16.683077088336
 20
49.1998036915233
 10
16.6845693526554
 20
49.1995207763595
 10
16.6872204296217
 20
49.1991181441228
 10
16.690794325056
 20
49.1985648112513
 10
16.6918061409566
 20
49.1984060454733
 10
16.6931002442304
 20
49.1979942744539
 10
16.6937909583935
 20
49.1976550514078
  0
LWPOLYLINE
  5
2008C
100
AcDbEntity
  8
0
100
AcDbPolyline
 70
0
 90
11
 10
16.6937909583935
 20
49.1976550514078
 10
16.694360970302
 20
49.1972499356506
 10
16.6949920154089
 20
49.1966050234643
 10
16.6953608100519
 20
49.195956086387
 10
16.6955679018836
 20
49.1952240289055
 10
16.6955352336689
 20
49.1946187391404
 10
16.6953493316982
 20
49.1937442796828
 10
16.6952989476811
 20
49.1933818189493
 10
16.6954752251105
 20
49.1931070320689
 10
16.6961387524421
 20
49.1926653942914
 10
16.6964054731812
 20
49.1922390162017
  0
LWPOLYLINE
  5
2008D
100
AcDbEntity
  8
0
100
AcDbPolyline
 70
0
 90
9
 10
16.6964054731812
 20
49.1922390162017
 10
16.696825686203
 20
49.1928858233084
 10
16.697024690597
 20
49.193545839744
 10
16.6970667716682
 20
49.194496358755
 10
16.6968705999032
 20
49.1954301818363
 10
16.6965823342117
 20
49.1962570515779
 10
16.6961339858395
 20
49.1972593458829
 10
16.6956166952344
 20
49.198012735107
 10
16.6951364566127
 20
49.1985390068161
  0
LWPOLYLINE
  5
2008E
100
AcDbEntity
  8
0
100
AcDbPolyline
 70
0
 90
3
 10
16.6937909583935
 20
49.1976550514078
 10
16.6944842043607
 20
49.198105646776
 10
16.6951364566127
 20
49.1985390068161
  0
LWPOLYLINE
  5
2008F
100
AcDbEntity
  8
0
100
AcDbPolyline
 70
0
 90
13
 10
16.683077088336
 20
49.1998036915233
 10
16.6833880840516
 20
49.1999116643741
 10
16.6850737621556
 20
49.1997858919936
 10
16.685712784375
 20
49.2000317350429
 10
16.6865043239663
 20
49.2012215016646
 10
16.6871264505088
 20
49.2022414444963
 10
16.6883093924276
 20
49.2025110684835
 10
16.6901399792208
 20
49.2032424583513
 10
16.690423991884
 20
49.2036500196973
 10
16.6915660644233
 20
49.2043043856902
 10
16.692260092525
 20
49.2044822565865
 10
16.6927838437689
 20
49.2043610436743
 10
16.6941046076748
 20
49.2047264063747
  0
LWPOLYLINE
  5
20090
100
AcDbEntity
  8
0
100
AcDbPolyline
 70
0
 90
4
 10
16.6944564121303
 20
49.206732350087
 10
16.694577827537
 20
49.2065255013504
 10
16.6943578375652
 20
49.2055912264571
 10
16.6941046076748
 20
49.2047264063747
  0
LWPOLYLINE
  5
20091
100
AcDbEntity
  8
0
100
AcDbPolyline
 70
0
 90
7
 10
16.6941046076748
 20
49.2047264063747
 10
16.6941167849359
 20
49.2039806881395
 10
16.694093397541
 20
49.2033186190275
 10
16.6941806405468
 20
49.2026499476754
 10
16.6947069298376
 20
49.2006337605138
 10
16.695204566786
 20
49.1986586374244
 10
16.6951364566127
 20
49.1985390068161
  0
LWPOLYLINE
  5
20092
100
AcDbEntity
  8
0
100
AcDbPolyline
 70
0
 90
15
 10
16.6661363956675
 20
49.2007669949254
 10
16.6660043455989
 20
49.1999680308042
 10
16.6658522286915
 20
49.1990240774091
 10
16.6658075611914
 20
49.1983604794039
 10
16.6660281941739
 20
49.1978160477091
 10
16.6664453466839
 20
49.1971418613349
 10
16.666930637996
 20
49.1961853128842
 10
16.6674739141869
 20
49.1952759149821
 10
16.6677448047723
 20
49.1946919428787
 10
16.667885740716
 20
49.1940988314967
 10
16.6678116804822
 20
49.1933470210167
 10
16.6675124892756
 20
49.1927660262205
 10
16.6668637291277
 20
49.1920455788483
 10
16.6659434837405
 20
49.1913778146091
 10
16.6631179258942
 20
49.189369906627
  0
LWPOLYLINE
  5
20093
100
AcDbEntity
  8
0
100
AcDbPolyline
 70
0
 90
4
 10
16.6631179258942
 20
49.189369906627
 10
16.6614361610698
 20
49.1901417170899
 10
16.6598395317255
 20
49.1906610593927
 10
16.6580169956558
 20
49.1912219037661
  0
LWPOLYLINE
  5
20094
100
AcDbEntity
  8
0
100
AcDbPolyline
 70
0
 90
6
 10
16.6580169956558
 20
49.1912219037661
 10
16.6560938266119
 20
49.1918617822473
 10
16.6546934098554
 20
49.1926533249848
 10
16.6521013303257
 20
49.1941649317502
 10
16.651782520556
 20
49.1943721927946
 10
16.6505309934277
 20
49.195590570955
  0
LWPOLYLINE
  5
20095
100
AcDbEntity
  8
0
100
AcDbPolyline
 70
0
 90
6
 10
16.6463919762364
 20
49.1953131254987
 10
16.6467407007947
 20
49.1943900792928
 10
16.6471373882193
 20
49.1934416987112
 10
16.6476206858402
 20
49.1924994248079
 10
16.6481789428089
 20
49.1916342258099
 10
16.6485785983386
 20
49.1908009173248
  0
LWPOLYLINE
  5
20096
100
AcDbEntity
  8
0
100
AcDbPolyline
 70
0
 90
11
 10
16.6666248663671
 20
49.1856895573896
 10
16.6648376128855
 20
49.1859589106797
 10
16.6624422595932
 20
49.1864077095552
 10
16.658399321892
 20
49.1872860418792
 10
16.6560355191922
 20
49.1878087287987
 10
16.6543932706286
 20
49.1883391380564
 10
16.6527663574368
 20
49.1890429040526
 10
16.6515904427123
 20
49.189534350789
 10
16.6501329805984
 20
49.1900059410496
 10
16.6486647932538
 20
49.1902757445195
 10
16.6462764923107
 20
49.1904567105508
  0
LWPOLYLINE
  5
20097
100
AcDbEntity
  8
0
100
AcDbPolyline
 70
0
 90
6
 10
16.6631179258942
 20
49.189369906627
 10
16.665926946937
 20
49.187198541582
 10
16.666690485963
 20
49.186548731596
 10
16.6675375600154
 20
49.1857899317719
 10
16.668051240994
 20
49.1851943259363
 10
16.6681521560644
 20
49.1846775371897
  0
LWPOLYLINE
  5
20098
100
AcDbEntity
  8
0
100
AcDbPolyline
 70
0
 90
8
 10
16.6881948277358
 20
49.1843847104194
 10
16.6870197646627
 20
49.1843878010997
 10
16.6828018366181
 20
49.1844650070677
 10
16.6778515052417
 20
49.1847346838503
 10
16.6725120967744
 20
49.1851060163031
 10
16.6688245632581
 20
49.185421014701
 10
16.6672406317334
 20
49.1855967497685
 10
16.6666248663671
 20
49.1856895573896
  0
LWPOLYLINE
  5
20099
100
AcDbEntity
  8
0
100
AcDbPolyline
 70
0
 90
5
 10
16.6924351105632
 20
49.1854281442939
 10
16.6934541141135
 20
49.1872368249703
 10
16.6948330161358
 20
49.1896593656752
 10
16.6961183471797
 20
49.1917163925361
 10
16.6964054731812
 20
49.1922390162017
  0
LWPOLYLINE
  5
2009A
100
AcDbEntity
  8
0
100
AcDbPolyline
 70
0
 90
5
 10
16.6919873814668
 20
49.1822668639219
 10
16.6918723425415
 20
49.1831058733931
 10
16.6919080775951
 20
49.1838262427318
 10
16.6920319477295
 20
49.1844092201439
 10
16.6924351105632
 20
49.1854281442939
  0
LWPOLYLINE
  5
2009B
100
AcDbEntity
  8
0
100
AcDbPolyline
 70
0
 90
6
 10
16.6919873814668
 20
49.1822668639219
 10
16.689757861589
 20
49.1822396833892
 10
16.6870233595966
 20
49.182220093173
 10
16.6826571402713
 20
49.1824017337332
 10
16.6770844728353
 20
49.1827281631687
 10
16.6741681903531
 20
49.1828821448795
  0
LWPOLYLINE
  5
2009C
100
AcDbEntity
  8
0
100
AcDbPolyline
 70
0
 90
3
 10
16.6741681903531
 20
49.1828821448795
 10
16.6683672625021
 20
49.1832639049429
 10
16.6680447868914
 20
49.1832268626872
  0
LWPOLYLINE
  5
2009D
100
AcDbEntity
  8
0
100
AcDbPolyline
 70
0
 90
5
 10
16.6680447868914
 20
49.1832268626872
 10
16.6681678380584
 20
49.1828765752949
 10
16.6685507232433
 20
49.1825445656758
 10
16.6712979057534
 20
49.1810148572052
 10
16.674481085382
 20
49.1792285907198
  0
LWPOLYLINE
  5
2009E
100
AcDbEntity
  8
0
100
AcDbPolyline
 70
0
 90
6
 10
16.674481085382
 20
49.1792285907198
 10
16.6759527262891
 20
49.1783987881867
 10
16.6770044261355
 20
49.1777261072221
 10
16.6782231318144
 20
49.1768354333159
 10
16.6792593083382
 20
49.1759893553824
 10
16.6828879771175
 20
49.1732148194696
  0
LWPOLYLINE
  5
2009F
100
AcDbEntity
  8
0
100
AcDbPolyline
 70
0
 90
5
 10
16.6914337165168
 20
49.1776528468831
 10
16.6917958248481
 20
49.1786545419069
 10
16.6920132383808
 20
49.1792010105721
 10
16.6921364790894
 20
49.1804587362956
 10
16.6919873814668
 20
49.1822668639219
  0
LWPOLYLINE
  5
200A0
100
AcDbEntity
  8
0
100
AcDbPolyline
 70
0
 90
10
 10
16.6828879771175
 20
49.1732148194696
 10
16.6843457738231
 20
49.1742552098024
 10
16.6856997406021
 20
49.17508249982
 10
16.6866531919169
 20
49.1756806539456
 10
16.6876592931069
 20
49.1766270704383
 10
16.6877157664304
 20
49.1768176791414
 10
16.6879694196081
 20
49.1770077697431
 10
16.6893149101068
 20
49.1772170474086
 10
16.6909612153175
 20
49.177461769528
 10
16.6914337165168
 20
49.1776528468831
  0
LWPOLYLINE
  5
200A1
100
AcDbEntity
  8
0
100
AcDbPolyline
 70
0
 90
6
 10
16.6741681903531
 20
49.1828821448795
 10
16.6756525520002
 20
49.1822877399153
 10
16.6778287590653
 20
49.1814356375055
 10
16.6803320026348
 20
49.1801901041249
 10
16.6812096949156
 20
49.1797779558283
 10
16.6825690896157
 20
49.1782941059724
  0
LWPOLYLINE
  5
200A2
100
AcDbEntity
  8
0
100
AcDbPolyline
 70
0
 90
12
 10
16.6825690896157
 20
49.1782941059724
 10
16.6828985029845
 20
49.1782885240884
 10
16.6834258795996
 20
49.178411702306
 10
16.6841999212151
 20
49.178365549028
 10
16.6855624087652
 20
49.1782027708945
 10
16.6870617510579
 20
49.1780065099097
 10
16.687916227771
 20
49.1781382665547
 10
16.6885263804679
 20
49.1784251601682
 10
16.6893585596394
 20
49.1792301339468
 10
16.6899595393976
 20
49.1799758083659
 10
16.6902613104051
 20
49.1809445610852
 10
16.6902800017301
 20
49.1816350227095
  0
LWPOLYLINE
  5
200A3
100
AcDbEntity
  8
0
100
AcDbPolyline
 70
0
 90
10
 10
16.6825690896157
 20
49.1782941059724
 10
16.6829773551378
 20
49.1778059082652
 10
16.6845818504334
 20
49.1775022046941
 10
16.6860107981549
 20
49.177200515558
 10
16.6873322634557
 20
49.1770204812429
 10
16.6877234416497
 20
49.1771497602643
 10
16.6878330560582
 20
49.1776408169157
 10
16.6895720826614
 20
49.1774517749305
 10
16.6902138779189
 20
49.177410661654
 10
16.6914337165168
 20
49.1776528468831
  0
LWPOLYLINE
  5
200A4
100
AcDbEntity
  8
0
100
AcDbPolyline
 70
0
 90
8
 10
16.6914337165168
 20
49.1776528468831
 10
16.6926035179544
 20
49.1770601103506
 10
16.694399556731
 20
49.1762528510757
 10
16.6976134615226
 20
49.1749419663473
 10
16.7002829646754
 20
49.1738799961904
 10
16.7048586304336
 20
49.1720039297633
 10
16.7096103015607
 20
49.1702548812637
 10
16.7151793749494
 20
49.1681895670913
  0
LWPOLYLINE
  5
200A5
100
AcDbEntity
  8
0
100
AcDbPolyline
 70
0
 90
9
 10
16.7144569200397
 20
49.1824527699294
 10
16.7102070751257
 20
49.183131720579
 10
16.7071146959318
 20
49.1835613448639
 10
16.7031491319753
 20
49.1839728093666
 10
16.6986823089295
 20
49.1842341593121
 10
16.6955107810345
 20
49.1843420806039
 10
16.6920319477295
 20
49.1844092201439
 10
16.6895834681845
 20
49.1843810433596
 10
16.6881948277358
 20
49.1843847104194
  0
LWPOLYLINE
  5
200A6
100
AcDbEntity
  8
0
100
AcDbPolyline
 70
0
 90
6
 10
16.6919873814668
 20
49.1822668639219
 10
16.7000125509939
 20
49.1823891634833
 10
16.7080483409911
 20
49.1825355734025
 10
16.7107179058114
 20
49.1825501206243
 10
16.7133069288561
 20
49.1823866896386
 10
16.7146284333463
 20
49.1822063428653
  0
LWPOLYLINE
  5
200A7
100
AcDbEntity
  8
0
100
AcDbPolyline
 70
0
 90
5
 10
16.625847702343
 20
49.1890487053913
 10
16.625581812114
 20
49.1887786292471
 10
16.6251798729663
 20
49.1885587592122
 10
16.624722378122
 20
49.1884546138073
 10
16.6237552055781
 20
49.1882306601357
  0
LWPOLYLINE
  5
200A8
100
AcDbEntity
  8
0
100
AcDbPolyline
 70
0
 90
12
 10
16.6881526462546
 20
49.165834613079
 10
16.6900267665151
 20
49.1668275909248
 10
16.6907078538764
 20
49.1672072400541
 10
16.6914269261276
 20
49.1676309853315
 10
16.6927669349635
 20
49.1685433608289
 10
16.6940204007194
 20
49.1694496481406
 10
16.6964200389687
 20
49.1713838635714
 10
16.6995376010126
 20
49.173885189145
 10
16.7029083536217
 20
49.176447215019
 10
16.7052651741442
 20
49.1779762013424
 10
16.7081882728103
 20
49.1796596259187
 10
16.7113728737242
 20
49.1812176894342
  0
LWPOLYLINE
  5
200A9
100
AcDbEntity
  8
0
100
AcDbPolyline
 70
0
 90
4
 10
16.6896084113536
 20
49.168040773447
 10
16.6868597363077
 20
49.1701244897738
 10
16.6852231096881
 20
49.1714309704743
 10
16.6828879771175
 20
49.1732148194696
  0
LWPOLYLINE
  5
200AA
100
AcDbEntity
  8
0
100
AcDbPolyline
 70
0
 90
8
 10
16.6979532235865
 20
49.1602353315274
 10
16.697810291403
 20
49.1604406676977
 10
16.6974102099211
 20
49.1614176172359
 10
16.6968052330577
 20
49.1623084126073
 10
16.6959451193356
 20
49.1631525992864
 10
16.6933134556278
 20
49.165193385332
 10
16.6907078538764
 20
49.1672072400541
 10
16.6896084113536
 20
49.168040773447
  0
LWPOLYLINE
  5
200AB
100
AcDbEntity
  8
0
100
AcDbPolyline
 70
0
 90
2
 10
16.674481085382
 20
49.1792285907198
 10
16.6690708366791
 20
49.1752634975094
  0
LWPOLYLINE
  5
200AC
100
AcDbEntity
  8
0
100
AcDbPolyline
 70
0
 90
4
 10
16.6690708366791
 20
49.1752634975094
 10
16.6682158212368
 20
49.1746003197154
 10
16.6666077524508
 20
49.1738554258678
 10
16.6647785960241
 20
49.1731236605926
  0
LWPOLYLINE
  5
200AD
100
AcDbEntity
  8
0
100
AcDbPolyline
 70
0
 90
7
 10
16.6690708366791
 20
49.1752634975094
 10
16.6663486139745
 20
49.176909756165
 10
16.6642696372994
 20
49.1783715146669
 10
16.6619128390563
 20
49.1800577693426
 10
16.6603294423989
 20
49.1811667003754
 10
16.6596704023823
 20
49.1815797439269
 10
16.6562496611558
 20
49.1822720644236
  0
LWPOLYLINE
  5
200AE
100
AcDbEntity
  8
0
100
AcDbPolyline
 70
0
 90
9
 10
16.6647785960241
 20
49.1731236605926
 10
16.6634003551961
 20
49.1743188452664
 10
16.6610243943385
 20
49.1759893636192
 10
16.6582460365869
 20
49.1779760905327
 10
16.6563988671463
 20
49.1792243274002
 10
16.6558178256686
 20
49.17982949834
 10
16.6555669080089
 20
49.1805584349071
 10
16.6557203905673
 20
49.1813589379907
 10
16.6562496611558
 20
49.1822720644236
  0
LWPOLYLINE
  5
200AF
100
AcDbEntity
  8
0
100
AcDbPolyline
 70
0
 90
2
 10
16.6562496611558
 20
49.1822720644236
 10
16.6576611325292
 20
49.1852861589738
  0
LWPOLYLINE
  5
200B0
100
AcDbEntity
  8
0
100
AcDbPolyline
 70
0
 90
5
 10
16.6680447868914
 20
49.1832268626872
 10
16.6676575619628
 20
49.1833623431956
 10
16.6662159684986
 20
49.1836055051417
 10
16.6632081960733
 20
49.1841835124566
 10
16.6576611325292
 20
49.1852861589738
  0
LWPOLYLINE
  5
200B1
100
AcDbEntity
  8
0
100
AcDbPolyline
 70
0
 90
2
 10
16.6576611325292
 20
49.1852861589738
 10
16.6519012559196
 20
49.1864506682091
  0
LWPOLYLINE
  5
200B2
100
AcDbEntity
  8
0
100
AcDbPolyline
 70
0
 90
4
 10
16.6519012559196
 20
49.1864506682091
 10
16.6516574530442
 20
49.1864999514132
 10
16.648255586612
 20
49.1872077554539
 10
16.6427968027405
 20
49.1883015996717
  0
LWPOLYLINE
  5
200B3
100
AcDbEntity
  8
0
100
AcDbPolyline
 70
0
 90
6
 10
16.6427968027405
 20
49.1883015996717
 10
16.638899619002
 20
49.1890890600156
 10
16.6382119539804
 20
49.1892221522358
 10
16.6377415658907
 20
49.1893375449798
 10
16.6369556458039
 20
49.1894543535268
 10
16.6358548838593
 20
49.1896207160462
  0
LWPOLYLINE
  5
200B4
100
AcDbEntity
  8
0
100
AcDbPolyline
 70
0
 90
7
 10
16.6485785983386
 20
49.1908009173248
 10
16.6486647932538
 20
49.1902757445195
 10
16.6487544094772
 20
49.1896407337026
 10
16.6487099793984
 20
49.1889771272762
 10
16.6485032683849
 20
49.1881010649717
 10
16.648255586612
 20
49.1872077554539
 10
16.6480925326998
 20
49.1865531412291
  0
LWPOLYLINE
  5
200B5
100
AcDbEntity
  8
0
100
AcDbPolyline
 70
0
 90
7
 10
16.6462764923107
 20
49.1904567105508
 10
16.6446693045104
 20
49.1903720653403
 10
16.6432146928818
 20
49.1900253565818
 10
16.641933344012
 20
49.1896908537494
 10
16.6408885561321
 20
49.1895166145374
 10
16.6395289440776
 20
49.189391934421
 10
16.6358548838593
 20
49.1896207160462
  0
LWPOLYLINE
  5
200B6
100
AcDbEntity
  8
0
100
AcDbPolyline
 70
0
 90
2
 10
16.6427968027405
 20
49.1883015996717
 10
16.6413188580081
 20
49.1852969339281
  0
LWPOLYLINE
  5
200B7
100
AcDbEntity
  8
0
100
AcDbPolyline
 70
0
 90
2
 10
16.6413188580081
 20
49.1852969339281
 10
16.6370834902516
 20
49.1848112730577
  0
LWPOLYLINE
  5
200B8
100
AcDbEntity
  8
0
100
AcDbPolyline
 70
0
 90
2
 10
16.6370834902516
 20
49.1848112730577
 10
16.6358548838593
 20
49.1896207160462
  0
LWPOLYLINE
  5
200B9
100
AcDbEntity
  8
0
100
AcDbPolyline
 70
0
 90
6
 10
16.6370834902516
 20
49.1848112730577
 10
16.6360730905049
 20
49.1852281034414
 10
16.6351915706258
 20
49.1859268390725
 10
16.6338772224289
 20
49.1871262564629
 10
16.6324341775294
 20
49.1885750221776
 10
16.6311846559829
 20
49.1897789979944
  0
LWPOLYLINE
  5
200BA
100
AcDbEntity
  8
0
100
AcDbPolyline
 70
0
 90
6
 10
16.6311846559829
 20
49.1897789979944
 10
16.6319145722178
 20
49.1900028728334
 10
16.6331782236633
 20
49.1901782976036
 10
16.6342573516226
 20
49.1900104319649
 10
16.6353334827942
 20
49.189727477327
 10
16.6358548838593
 20
49.1896207160462
  0
LWPOLYLINE
  5
200BB
100
AcDbEntity
  8
0
100
AcDbPolyline
 70
0
 90
4
 10
16.6358548838593
 20
49.1896207160462
 10
16.6353763887077
 20
49.1899760204921
 10
16.6340237042059
 20
49.1902846127563
 10
16.6338218496356
 20
49.1904019733584
  0
LWPOLYLINE
  5
200BC
100
AcDbEntity
  8
0
100
AcDbPolyline
 70
0
 90
8
 10
16.6345098270721
 20
49.1926941409219
 10
16.6337507870568
 20
49.1926105421587
 10
16.6336097589702
 20
49.1924689620315
 10
16.6336111621901
 20
49.1923494076155
 10
16.6338283590612
 20
49.1916946906426
 10
16.6339686163664
 20
49.1912858103259
 10
16.6339508862196
 20
49.1909495278203
 10
16.6338218496356
 20
49.1904019733584
  0
LWPOLYLINE
  5
200BD
100
AcDbEntity
  8
0
100
AcDbPolyline
 70
0
 90
5
 10
16.6338218496356
 20
49.1904019733584
 10
16.6336189092757
 20
49.1903038801902
 10
16.6330058829926
 20
49.1903682639619
 10
16.6317364888764
 20
49.1906495093138
 10
16.6297340897558
 20
49.1910584229234
  0
LWPOLYLINE
  5
200BE
100
AcDbEntity
  8
0
100
AcDbPolyline
 70
0
 90
2
 10
16.6311846559829
 20
49.1897789979944
 10
16.6297340897558
 20
49.1910584229234
  0
LWPOLYLINE
  5
200BF
100
AcDbEntity
  8
0
100
AcDbPolyline
 70
0
 90
4
 10
16.6297340897558
 20
49.1910584229234
 10
16.6287928542992
 20
49.1912312095623
 10
16.6279149541414
 20
49.1912409494441
 10
16.6260889127476
 20
49.1912434777187
  0
LWPOLYLINE
  5
200C0
100
AcDbEntity
  8
0
100
AcDbPolyline
 70
0
 90
4
 10
16.6260889127476
 20
49.1912434777187
 10
16.6261249065311
 20
49.1895828209943
 10
16.6260272608927
 20
49.1892887459466
 10
16.625847702343
 20
49.1890487053913
  0
LWPOLYLINE
  5
200C1
100
AcDbEntity
  8
0
100
AcDbPolyline
 70
0
 90
4
 10
16.625847702343
 20
49.1890487053913
 10
16.6260787699337
 20
49.1887539410028
 10
16.6261771517081
 20
49.1883780019774
 10
16.6261686827197
 20
49.1878748530478
  0
LWPOLYLINE
  5
200C2
100
AcDbEntity
  8
0
100
AcDbPolyline
 70
0
 90
3
 10
16.6261686827197
 20
49.1878748530478
 10
16.626219717642
 20
49.1860118463718
 10
16.6262580175169
 20
49.1840043524372
  0
LWPOLYLINE
  5
200C3
100
AcDbEntity
  8
0
100
AcDbPolyline
 70
0
 90
17
 10
16.6262580175169
 20
49.1840043524372
 10
16.6263435513482
 20
49.1818207166672
 10
16.6264185621653
 20
49.1815867110631
 10
16.6266423333249
 20
49.1814469827912
 10
16.6269343818468
 20
49.1813360135763
 10
16.6274151679633
 20
49.1812982160565
 10
16.6282967837179
 20
49.1812648244752
 10
16.6287834052535
 20
49.1811915371961
 10
16.6292656019263
 20
49.1810341774007
 10
16.6297272746036
 20
49.1807796411637
 10
16.6300962493371
 20
49.1804228283323
 10
16.6301687608903
 20
49.1800929211446
 10
16.630221284135
 20
49.1797735672879
 10
16.6304552971727
 20
49.1796824196465
 10
16.6306518171316
 20
49.1797082749674
 10
16.6311729600344
 20
49.1773161289869
 10
16.631087315195
 20
49.1766160807634
  0
LWPOLYLINE
  5
200C4
100
AcDbEntity
  8
0
100
AcDbPolyline
 70
0
 90
13
 10
16.6480925326998
 20
49.1865531412291
 10
16.647464140532
 20
49.1840301688467
 10
16.6467828117779
 20
49.1813976457008
 10
16.6461290712037
 20
49.1790422559616
 10
16.6458331003246
 20
49.178399187912
 10
16.6455538047273
 20
49.1778769467397
 10
16.6449891649497
 20
49.1772029548823
 10
16.6444225987677
 20
49.1765407881985
 10
16.643660100955
 20
49.1759605118883
 10
16.6429226114452
 20
49.1755614735648
 10
16.641522069048
 20
49.1751993827226
 10
16.6405575783445
 20
49.1750714684227
 10
16.6400446672407
 20
49.1750831165735
  0
LWPOLYLINE
  5
200C5
100
AcDbEntity
  8
0
100
AcDbPolyline
 70
0
 90
5
 10
16.6400446672407
 20
49.1750831165735
 10
16.6401248817244
 20
49.1754836343733
 10
16.6402742071537
 20
49.1756856211452
 10
16.6406497406276
 20
49.1758437511718
 10
16.6409847492464
 20
49.1759152625537
  0
LWPOLYLINE
  5
200C6
100
AcDbEntity
  8
0
100
AcDbPolyline
 70
0
 90
10
 10
16.6409847492464
 20
49.1759152625537
 10
16.6405775893968
 20
49.1766163996657
 10
16.6403908020153
 20
49.1773091629254
 10
16.6401607106993
 20
49.1781544178459
 10
16.6395878114565
 20
49.1789754703388
 10
16.638881928679
 20
49.180050367665
 10
16.6380186197504
 20
49.1813055910711
 10
16.6377604478936
 20
49.1817659727357
 10
16.6370374587724
 20
49.1846105214618
 10
16.6370834902516
 20
49.1848112730577
  0
LWPOLYLINE
  5
200C7
100
AcDbEntity
  8
0
100
AcDbPolyline
 70
0
 90
8
 10
16.6400446672407
 20
49.1750831165735
 10
16.6391173718658
 20
49.1751731915355
 10
16.6384626280656
 20
49.1752705404029
 10
16.6372400006909
 20
49.1756029815604
 10
16.6353567651631
 20
49.1760682254359
 10
16.6343578233258
 20
49.1762608902627
 10
16.632889804892
 20
49.1764204009326
 10
16.631087315195
 20
49.1766160807634
  0
LWPOLYLINE
  5
200C8
100
AcDbEntity
  8
0
100
AcDbPolyline
 70
0
 90
19
 10
16.6409847492464
 20
49.1759152625537
 10
16.6412230648146
 20
49.175553185962
 10
16.6413133025987
 20
49.1748703582557
 10
16.6419497708099
 20
49.1747286282694
 10
16.643308615344
 20
49.1743219984292
 10
16.6444326076372
 20
49.1736116165328
 10
16.645095646599
 20
49.1730410000784
 10
16.6459698091598
 20
49.1723847696714
 10
16.6463078217009
 20
49.1721932442991
 10
16.6466591216978
 20
49.1717872830432
 10
16.6470569999611
 20
49.1710974438788
 10
16.6471831838451
 20
49.170862256209
 10
16.6483759504281
 20
49.1699987572959
 10
16.6487511945914
 20
49.1695801226659
 10
16.6489937908438
 20
49.1686352377515
 10
16.6490932226876
 20
49.167895626753
 10
16.6490618299021
 20
49.1674195933801
 10
16.6488088933258
 20
49.166425397203
 10
16.6486876455828
 20
49.1662301886475
  0
LWPOLYLINE
  5
200C9
100
AcDbEntity
  8
0
100
AcDbPolyline
 70
0
 90
20
 10
16.6486876455828
 20
49.1662301886475
 10
16.6484295425204
 20
49.166068399319
 10
16.6477385379913
 20
49.1658760701536
 10
16.6474541358654
 20
49.1657411401299
 10
16.6474218036854
 20
49.1655378438183
 10
16.6475968741998
 20
49.1650045842926
 10
16.6478052283671
 20
49.1644018821153
 10
16.6477222022703
 20
49.1637068309512
 10
16.6476471193828
 20
49.1626964602688
 10
16.6474921811662
 20
49.1620394090964
 10
16.647277661891
 20
49.1614786614975
 10
16.6467282277216
 20
49.1612245195066
 10
16.6464031766582
 20
49.1606703277634
 10
16.6461277232778
 20
49.1599473354095
 10
16.6460284245998
 20
49.1593516403421
 10
16.6463263549958
 20
49.1588701280281
 10
16.6467927552297
 20
49.1584292204421
 10
16.6470230067996
 20
49.1574260345077
 10
16.6471217601813
 20
49.1565571519178
 10
16.6469602746582
 20
49.156473965134
  0
LWPOLYLINE
  5
200CA
100
AcDbEntity
  8
0
100
AcDbPolyline
 70
0
 90
4
 10
16.6469602746582
 20
49.156473965134
 10
16.6438101778474
 20
49.1580607642703
 10
16.6397272702867
 20
49.1601272295525
 10
16.6386701118806
 20
49.1606986876343
  0
LWPOLYLINE
  5
200CB
100
AcDbEntity
  8
0
100
AcDbPolyline
 70
0
 90
4
 10
16.6386701118806
 20
49.1606986876343
 10
16.6357569003857
 20
49.1621728095682
 10
16.6332464500607
 20
49.1634599596793
 10
16.6325042167044
 20
49.1635797979963
  0
LWPOLYLINE
  5
200CC
100
AcDbEntity
  8
0
100
AcDbPolyline
 70
0
 90
3
 10
16.6311926422398
 20
49.1594379740407
 10
16.631914820088
 20
49.1615710179851
 10
16.6325042167044
 20
49.1635797979963
  0
LWPOLYLINE
  5
200CD
100
AcDbEntity
  8
0
100
AcDbPolyline
 70
0
 90
12
 10
16.6647785960241
 20
49.1731236605926
 10
16.6654961721689
 20
49.1723154171875
 10
16.6666797042017
 20
49.1703024754451
 10
16.6678763388085
 20
49.1680750835451
 10
16.6694533843202
 20
49.1651278487992
 10
16.6696745732252
 20
49.1647126799776
 10
16.6700526635937
 20
49.1644090530507
 10
16.670453141838
 20
49.1642362195423
 10
16.6710437782738
 20
49.1641054784145
 10
16.6724190273134
 20
49.1641304268949
 10
16.6738638553628
 20
49.1641315366149
 10
16.675259993207
 20
49.1640287006907
  0
LWPOLYLINE
  5
200CE
100
AcDbEntity
  8
0
100
AcDbPolyline
 70
0
 90
9
 10
16.675259993207
 20
49.1640287006907
 10
16.6754137424837
 20
49.1648291805302
 10
16.6759199934019
 20
49.1658841633639
 10
16.6764579911439
 20
49.1666111498019
 10
16.6774892112615
 20
49.1678035268636
 10
16.6794427893968
 20
49.1700513764807
 10
16.6804424537833
 20
49.1711697118604
 10
16.6818156090354
 20
49.1724147733868
 10
16.6828879771175
 20
49.1732148194696
  0
LWPOLYLINE
  5
200CF
100
AcDbEntity
  8
0
100
AcDbPolyline
 70
0
 90
3
 10
16.675259993207
 20
49.1640287006907
 10
16.6750196684984
 20
49.1632221327913
 10
16.6748535210373
 20
49.1627653632932
  0
LWPOLYLINE
  5
200D0
100
AcDbEntity
  8
0
100
AcDbPolyline
 70
0
 90
29
 10
16.6748535210373
 20
49.1627653632932
 10
16.6743379887952
 20
49.1621691637313
 10
16.6737559706461
 20
49.1617118615816
 10
16.6730247776222
 20
49.1612297060795
 10
16.6719983017937
 20
49.1608129209397
 10
16.6713158175433
 20
49.1604346826306
 10
16.6709989585259
 20
49.1600965208374
 10
16.6707826056844
 20
49.1596792828785
 10
16.6707703309949
 20
49.159218971856
 10
16.6707767116801
 20
49.158243095022
 10
16.6707760459163
 20
49.1577118121262
 10
16.6706354127419
 20
49.1575009084038
 10
16.6701461851583
 20
49.1572798347444
 10
16.6699050552086
 20
49.1571480055783
 10
16.6698533166697
 20
49.156928998051
 10
16.6700969390504
 20
49.1562426116622
 10
16.6700784511756
 20
49.1559541553252
 10
16.6699456239062
 20
49.1554279294044
 10
16.6697664514354
 20
49.1547835798419
 10
16.6695772511565
 20
49.154066734313
 10
16.6696059479378
 20
49.1536236630129
 10
16.669934628764
 20
49.1526848234315
 10
16.6702656200687
 20
49.1517317885179
 10
16.6704210783742
 20
49.1511827760095
 10
16.6704367507028
 20
49.1501501196888
 10
16.6702939023806
 20
49.1495513990155
 10
16.6700227182659
 20
49.1492020852742
 10
16.6691232819684
 20
49.148679332379
 10
16.6682386396464
 20
49.147798667136
  0
LWPOLYLINE
  5
200D1
100
AcDbEntity
  8
0
100
AcDbPolyline
 70
0
 90
12
 10
16.6682386396464
 20
49.147798667136
 10
16.6689782289452
 20
49.1476927928179
 10
16.6699604735564
 20
49.1475752769117
 10
16.6711266749989
 20
49.1472696891997
 10
16.6723052152638
 20
49.1470223896483
 10
16.6746181816949
 20
49.1467974501289
 10
16.6788962977493
 20
49.1464665605451
 10
16.6874114004732
 20
49.1457870703038
 10
16.694043110717
 20
49.1452476091163
 10
16.6943885027616
 20
49.1451426293844
 10
16.7001029291173
 20
49.140963525213
 10
16.7008051891519
 20
49.1406825551496
  0
LWPOLYLINE
  5
200D2
100
AcDbEntity
  8
0
100
AcDbPolyline
 70
0
 90
4
 10
16.6682386396464
 20
49.147798667136
 10
16.6677239752919
 20
49.1477337204931
 10
16.6661342751904
 20
49.1479520255543
 10
16.6657478496712
 20
49.148039677987
  0
LWPOLYLINE
  5
200D3
100
AcDbEntity
  8
0
100
AcDbPolyline
 70
0
 90
5
 10
16.6682386396464
 20
49.147798667136
 10
16.6679504844638
 20
49.1474194373889
 10
16.6671686897999
 20
49.1464454965036
 10
16.6666055009576
 20
49.1458746019471
 10
16.6660554060073
 20
49.145491279312
  0
LWPOLYLINE
  5
200D4
100
AcDbEntity
  8
0
100
AcDbPolyline
 70
0
 90
5
 10
16.6657478496712
 20
49.148039677987
 10
16.6660169153216
 20
49.1475991730891
 10
16.6661160495201
 20
49.1468595458385
 10
16.6659879337611
 20
49.1463049252182
 10
16.6660554060073
 20
49.145491279312
  0
LWPOLYLINE
  5
200D5
100
AcDbEntity
  8
0
100
AcDbPolyline
 70
0
 90
5
 10
16.6660554060073
 20
49.145491279312
 10
16.6653770903531
 20
49.1449553443421
 10
16.6652736788937
 20
49.1445173253304
 10
16.6650613557191
 20
49.1439424140809
 10
16.665036792737
 20
49.1434238005348
  0
LWPOLYLINE
  5
200D6
100
AcDbEntity
  8
0
100
AcDbPolyline
 70
0
 90
12
 10
16.665036792737
 20
49.1434238005348
 10
16.6655754904005
 20
49.1430740767854
 10
16.6660918090651
 20
49.1425935545764
 10
16.6668732359663
 20
49.1418301835794
 10
16.6683476967056
 20
49.1412448241991
 10
16.6707185166627
 20
49.1402630911632
 10
16.6717918623985
 20
49.1397212495402
 10
16.6729316567566
 20
49.1390404973544
 10
16.6775801598713
 20
49.1360365280272
 10
16.6803886164021
 20
49.1339798701994
 10
16.6829079207661
 20
49.1322187019942
 10
16.6836958997078
 20
49.1318146443039
  0
LWPOLYLINE
  5
200D7
100
AcDbEntity
  8
0
100
AcDbPolyline
 70
0
 90
9
 10
16.6836958997078
 20
49.1318146443039
 10
16.6948992934153
 20
49.1261694131006
 10
16.6954854778926
 20
49.1257941951864
 10
16.696063089983
 20
49.1252030143133
 10
16.69667850623
 20
49.1245139828358
 10
16.6974961762487
 20
49.1235232828069
 10
16.6983261940312
 20
49.1225908744136
 10
16.6991414889477
 20
49.1216143575
 10
16.7058711690763
 20
49.1137304811451
  0
LWPOLYLINE
  5
200D8
100
AcDbEntity
  8
0
100
AcDbPolyline
 70
0
 90
11
 10
16.6348384335623
 20
49.134472608771
 10
16.6386242041431
 20
49.1352714883886
 10
16.6393872955249
 20
49.1355551507933
 10
16.6401339942511
 20
49.1355120718519
 10
16.6403752658183
 20
49.1352419513545
 10
16.6407359950064
 20
49.1343772186314
 10
16.6411429700518
 20
49.1336306207579
 10
16.6415303149548
 20
49.1332703108335
 10
16.6424261269899
 20
49.1327449030973
 10
16.6438024436442
 20
49.1322247138677
 10
16.6445604767527
 20
49.1320054449775
  0
LWPOLYLINE
  5
200D9
100
AcDbEntity
  8
0
100
AcDbPolyline
 70
0
 90
14
 10
16.6445604767527
 20
49.1320054449775
 10
16.6448396325424
 20
49.1316374854795
 10
16.6453467232393
 20
49.1312138310764
 10
16.6464627261486
 20
49.1305460061703
 10
16.6476312671719
 20
49.1298244488492
 10
16.6485339324772
 20
49.1292564123989
 10
16.6493756526715
 20
49.1285261271997
 10
16.6499810680995
 20
49.1276355765609
 10
16.6504420419776
 20
49.1266917548291
 10
16.6509053241906
 20
49.1257337371041
 10
16.6513174241062
 20
49.1250879861078
 10
16.6519271802643
 20
49.124571049565
 10
16.6526311068083
 20
49.1241469047677
 10
16.6534029282208
 20
49.1238424121734
  0
LWPOLYLINE
  5
200DA
100
AcDbEntity
  8
0
100
AcDbPolyline
 70
0
 90
32
 10
16.6534029282208
 20
49.1238424121734
 10
16.6540959105686
 20
49.1236185013857
 10
16.6548305203517
 20
49.1235411054911
 10
16.6557697741948
 20
49.1235499310857
 10
16.6572504138032
 20
49.1237261545313
 10
16.660308246427
 20
49.1241571398845
 10
16.6606566059007
 20
49.1241673401368
 10
16.6611988912289
 20
49.1240619867876
 10
16.6619211598925
 20
49.1239262442576
 10
16.6623058063055
 20
49.1239820711197
 10
16.6625444312094
 20
49.1241281108939
 10
16.6628826307384
 20
49.1244678217629
 10
16.6630896176462
 20
49.1245398407665
 10
16.6638102943165
 20
49.1245475532527
 10
16.6649395735047
 20
49.1245984088027
 10
16.6659684166211
 20
49.124728324884
 10
16.6670412574504
 20
49.1249905511842
 10
16.668426925176
 20
49.1253465881377
 10
16.6692395104055
 20
49.1254612430822
 10
16.6705704316647
 20
49.1254831673146
 10
16.6740673146776
 20
49.1253703724726
 10
16.6773363075226
 20
49.1253132305069
 10
16.6783188558441
 20
49.1253249144371
 10
16.6791631313627
 20
49.1255135158072
 10
16.6799386643661
 20
49.1258552088773
 10
16.6805658944806
 20
49.1263013292415
 10
16.6811151182943
 20
49.1269573249459
 10
16.6817786884128
 20
49.1278510768791
 10
16.6821587634499
 20
49.1283372394199
 10
16.6824770513364
 20
49.1289339169473
 10
16.6828865190892
 20
49.129910298742
 10
16.6836958997078
 20
49.1318146443039
  0
LWPOLYLINE
  5
200DB
100
AcDbEntity
  8
0
100
AcDbPolyline
 70
0
 90
11
 10
16.6445604767527
 20
49.1320054449775
 10
16.6452519652493
 20
49.1319250541047
 10
16.6458652768918
 20
49.1320545137592
 10
16.647400761323
 20
49.1325649612586
 10
16.6487655578171
 20
49.133048979626
 10
16.6499124363482
 20
49.1336611821046
 10
16.6516180402659
 20
49.1340687078333
 10
16.6521695249104
 20
49.1343086333967
 10
16.6526954311276
 20
49.1347046916158
 10
16.653001776679
 20
49.1353724208924
 10
16.6532818456498
 20
49.1360670103942
  0
LWPOLYLINE
  5
200DC
100
AcDbEntity
  8
0
100
AcDbPolyline
 70
0
 90
5
 10
16.6532818456498
 20
49.1360670103942
 10
16.6537505610838
 20
49.1365451759571
 10
16.6541513586791
 20
49.1369036837464
 10
16.654645669482
 20
49.1372257100538
 10
16.6550311148621
 20
49.1374108343141
  0
LWPOLYLINE
  5
200DD
100
AcDbEntity
  8
0
100
AcDbPolyline
 70
0
 90
19
 10
16.6534029282208
 20
49.1238424121734
 10
16.653639683317
 20
49.1245339508223
 10
16.6539683093366
 20
49.1253324761114
 10
16.6548120721194
 20
49.12632528044
 10
16.6550621030829
 20
49.1268023779981
 10
16.6554168381636
 20
49.1279760498563
 10
16.6555310464119
 20
49.1282138348089
 10
16.6563055502907
 20
49.1288284275747
 10
16.6566953920278
 20
49.1293871700178
 10
16.6568187118295
 20
49.129970189605
 10
16.6567060398693
 20
49.131326261132
 10
16.6564744902734
 20
49.1324729368618
 10
16.6556351325148
 20
49.1331890785174
 10
16.6552269667077
 20
49.1336771836829
 10
16.654843453366
 20
49.1342818904511
 10
16.654330354278
 20
49.1344754288393
 10
16.6540898655143
 20
49.1348748510378
 10
16.6538044858188
 20
49.1354146882833
 10
16.6532818456498
 20
49.1360670103942
  0
LWPOLYLINE
  5
200DE
100
AcDbEntity
  8
0
100
AcDbPolyline
 70
0
 90
13
 10
16.6534029282208
 20
49.1238424121734
 10
16.6532710628592
 20
49.1234454372927
 10
16.6530621906392
 20
49.1212482572634
 10
16.6528361373219
 20
49.1194231751947
 10
16.6526096434453
 20
49.1184021185258
 10
16.6524347807902
 20
49.117600077021
 10
16.652225046049
 20
49.1170109469048
 10
16.6519234754872
 20
49.1163148267919
 10
16.6514396249581
 20
49.1156632703688
 10
16.65094252952
 20
49.1152261497992
 10
16.650264790216
 20
49.1146901239005
 10
16.6483827525853
 20
49.1134947240949
 10
16.6464212984588
 20
49.1122506023979
  0
LWPOLYLINE
  5
200DF
100
AcDbEntity
  8
0
100
AcDbPolyline
 70
0
 90
14
 10
16.6550311148621
 20
49.1374108343141
 10
16.6564587575338
 20
49.137827787573
 10
16.6574849896816
 20
49.13801979485
 10
16.6586052424992
 20
49.1381944915124
 10
16.6593436425628
 20
49.1384738768114
 10
16.6606903955473
 20
49.1390473952994
 10
16.6615986898368
 20
49.1396258968269
 10
16.6623465583817
 20
49.1405161391731
 10
16.6626947905697
 20
49.1408397979133
 10
16.6631628180009
 20
49.1411001053219
 10
16.6639584095009
 20
49.1419219060824
 10
16.6644740166318
 20
49.1424487863491
 10
16.664864034977
 20
49.1430745025331
 10
16.665036792737
 20
49.1434238005348
  0
LWPOLYLINE
  5
200E0
100
AcDbEntity
  8
0
100
AcDbPolyline
 70
0
 90
25
 10
16.6550311148621
 20
49.1374108343141
 10
16.6548083530536
 20
49.137773771562
 10
16.6545052766144
 20
49.1381544230945
 10
16.6544580634897
 20
49.1383090320361
 10
16.6548565550719
 20
49.1386817313558
 10
16.6551075609952
 20
49.1388860882419
 10
16.6545058353986
 20
49.1400210159814
 10
16.6542413613465
 20
49.140433106455
 10
16.6533918316507
 20
49.1410767348005
 10
16.6522098498165
 20
49.1420127865781
 10
16.6512241723016
 20
49.1428190966906
 10
16.6507965740286
 20
49.1432914640785
 10
16.6488513809138
 20
49.1448771902338
 10
16.6487848351463
 20
49.1450160759185
 10
16.6489732671299
 20
49.1452016714798
 10
16.649972935901
 20
49.1456455244903
 10
16.6499263937905
 20
49.1459294045472
 10
16.6487546603543
 20
49.147469199446
 10
16.6483630287407
 20
49.148389204519
 10
16.648019313923
 20
49.1492838743043
 10
16.6478421287607
 20
49.1507646253802
 10
16.647618371591
 20
49.1525292538145
 10
16.6473959703226
 20
49.1545524255637
 10
16.6471764238446
 20
49.1557573813113
 10
16.6469602746582
 20
49.156473965134
  0
LWPOLYLINE
  5
200E1
100
AcDbEntity
  8
0
100
AcDbPolyline
 70
0
 90
23
 10
16.6469602746582
 20
49.156473965134
 10
16.6478146910414
 20
49.1560034356117
 10
16.6488616413284
 20
49.1553593976287
 10
16.6497144942175
 20
49.154830881365
 10
16.6500360800704
 20
49.1547387029628
 10
16.6509775556045
 20
49.1546041017837
 10
16.6524037209794
 20
49.1543170208086
 10
16.6535245822868
 20
49.1540227531766
 10
16.6537163142145
 20
49.1539214085758
 10
16.6538033116582
 20
49.1531234898747
 10
16.6539233593358
 20
49.1526581380189
 10
16.6541437032821
 20
49.1525157364911
 10
16.6547295911297
 20
49.1524134658139
 10
16.6556447188981
 20
49.1523056888128
 10
16.6560127908527
 20
49.1519296115835
 10
16.6565423425453
 20
49.1516367068077
 10
16.6571205263713
 20
49.1514477348888
 10
16.6589514494693
 20
49.1513614069312
 10
16.6597569173112
 20
49.1509874274057
 10
16.6614613433049
 20
49.1502029667707
 10
16.6638273521469
 20
49.1491204940659
 10
16.6647525526454
 20
49.1486831275019
 10
16.6657478496712
 20
49.148039677987
  0
LWPOLYLINE
  5
200E2
100
AcDbEntity
  8
0
100
AcDbPolyline
 70
0
 90
8
 10
16.6495062381635
 20
49.1136511853427
 10
16.6477284757126
 20
49.1171582939492
 10
16.6456969733287
 20
49.1208772028759
 10
16.6438833859724
 20
49.1240658716054
 10
16.6413362515334
 20
49.1285236695669
 10
16.6394555500208
 20
49.1318511465914
 10
16.6377363450705
 20
49.1348597801589
 10
16.6364339871278
 20
49.137194302796
  0
LWPOLYLINE
  5
200E3
100
AcDbEntity
  8
0
100
AcDbPolyline
 70
0
 90
9
 10
16.6364339871278
 20
49.137194302796
 10
16.6364290280241
 20
49.1366914056803
 10
16.6363265459838
 20
49.1363826337149
 10
16.6358856044629
 20
49.1361360842651
 10
16.6353967423727
 20
49.135914862669
 10
16.63489557699
 20
49.1356353339546
 10
16.6347212197588
 20
49.135364553154
 10
16.6346736684732
 20
49.1349878693827
 10
16.6348384335623
 20
49.134472608771
  0
LWPOLYLINE
  5
200E4
100
AcDbEntity
  8
0
100
AcDbPolyline
 70
0
 90
3
 10
16.6348384335623
 20
49.134472608771
 10
16.6332807160132
 20
49.1341427233457
 10
16.6318973870232
 20
49.133772071589
  0
LWPOLYLINE
  5
200E5
100
AcDbEntity
  8
0
100
AcDbPolyline
 70
0
 90
5
 10
16.6318973870232
 20
49.133772071589
 10
16.6317209673399
 20
49.1340467635587
 10
16.6316533456665
 20
49.1344583791553
 10
16.6316389582755
 20
49.134945553036
 10
16.631594653244
 20
49.1352152324695
  0
LWPOLYLINE
  5
200E6
100
AcDbEntity
  8
0
100
AcDbPolyline
 70
0
 90
13
 10
16.6364339871278
 20
49.137194302796
 10
16.6337709939683
 20
49.1418161323651
 10
16.6325944508502
 20
49.1439154360078
 10
16.6318666033876
 20
49.1454146884328
 10
16.631229923271
 20
49.14689167037
 10
16.6307949342508
 20
49.1483398389761
 10
16.630404479263
 20
49.1500496117639
 10
16.6302201764469
 20
49.15117090394
 10
16.6300899876992
 20
49.1530283109471
 10
16.6301549554851
 20
49.1544974803848
 10
16.6303105143761
 20
49.1558151107355
 10
16.6306171587677
 20
49.1575454623598
 10
16.6311926422398
 20
49.1594379740407
  0
LWPOLYLINE
  5
200E7
100
AcDbEntity
  8
0
100
AcDbPolyline
 70
0
 90
24
 10
16.6311926422398
 20
49.1594379740407
 10
16.6326821223233
 20
49.1595006317583
 10
16.6345456600943
 20
49.1596179921696
 10
16.6358758059709
 20
49.1597837838802
 10
16.6383103763151
 20
49.160156806245
 10
16.6404636306741
 20
49.1605099082319
 10
16.644130939058
 20
49.1612426593722
 10
16.6472279558767
 20
49.1618488991813
 10
16.6497639468589
 20
49.1622718978522
 10
16.6530938253203
 20
49.1627938881651
 10
16.6556361874473
 20
49.1630449039122
 10
16.6586663768074
 20
49.1632584431055
 10
16.6616742261138
 20
49.1633411056064
 10
16.6643930035859
 20
49.1633171906897
 10
16.6701931198334
 20
49.1631941732258
 10
16.6732558803375
 20
49.1632086076897
 10
16.6754775737214
 20
49.1632786902475
 10
16.677923447753
 20
49.1634506323275
 10
16.6799920950323
 20
49.1636534444257
 10
16.6813611551719
 20
49.1638501417179
 10
16.6829567310256
 20
49.1641345214986
 10
16.6845314626034
 20
49.1645466298749
 10
16.686178899182
 20
49.1650499649714
 10
16.6881526462546
 20
49.165834613079
  0
LWPOLYLINE
  5
200E8
100
AcDbEntity
  8
0
100
AcDbPolyline
 70
0
 90
7
 10
16.6325042167044
 20
49.1635797979963
 10
16.6324497323732
 20
49.1639784162829
 10
16.6322252541658
 20
49.1642784359802
 10
16.6317200477196
 20
49.1646878370087
 10
16.6307019639115
 20
49.1654199407538
 10
16.6291896351452
 20
49.1663611848671
 10
16.6284083029656
 20
49.1668515589776
  0
LWPOLYLINE
  5
200E9
100
AcDbEntity
  8
0
100
AcDbPolyline
 70
0
 90
5
 10
16.6284083029656
 20
49.1668515589776
 10
16.627619522151
 20
49.1677865184305
 10
16.6259711853883
 20
49.1699529530584
 10
16.623653678457
 20
49.1729909841582
 10
16.622301537142
 20
49.1748193755056
  0
LWPOLYLINE
  5
200EA
100
AcDbEntity
  8
0
100
AcDbPolyline
 70
0
 90
8
 10
16.6284083029656
 20
49.1668515589776
 10
16.6276547653824
 20
49.1666403240284
 10
16.6261466359872
 20
49.166490576738
 10
16.6242665120515
 20
49.1664724343873
 10
16.6227613557418
 20
49.166437721424
 10
16.620957851725
 20
49.1663531535861
 10
16.6188413708197
 20
49.166174604369
 10
16.6167196253149
 20
49.1658951308594
  0
LWPOLYLINE
  5
200EB
100
AcDbEntity
  8
0
100
AcDbPolyline
 70
0
 90
7
 10
16.6167196253149
 20
49.1658951308594
 10
16.6165471629912
 20
49.1665434220726
 10
16.6163186727239
 20
49.1680636343812
 10
16.6161772752165
 20
49.1691879668776
 10
16.6160827101188
 20
49.1705597165579
 10
16.6158265793249
 20
49.1713169538831
 10
16.6155821315704
 20
49.1720032245296
  0
LWPOLYLINE
  5
200EC
100
AcDbEntity
  8
0
100
AcDbPolyline
 70
0
 90
13
 10
16.6155821315704
 20
49.1720032245296
 10
16.615259308535
 20
49.1728993262826
 10
16.6149341353785
 20
49.1738096201964
 10
16.6148990586
 20
49.1740225180016
 10
16.6149289244738
 20
49.1742400163009
 10
16.6151413268415
 20
49.1744130063529
 10
16.6154327043143
 20
49.1745054361751
 10
16.616041183717
 20
49.1745341684152
 10
16.6167169454914
 20
49.1745533028352
 10
16.6175858112656
 20
49.1747296929632
 10
16.6184470586891
 20
49.1748193843665
 10
16.6191397988101
 20
49.1748684236448
 10
16.622301537142
 20
49.1748193755056
  0
LWPOLYLINE
  5
200ED
100
AcDbEntity
  8
0
100
AcDbPolyline
 70
0
 90
3
 10
16.622301537142
 20
49.1748193755056
 10
16.6219688511894
 20
49.1756429972057
 10
16.621869476937
 20
49.1759805741363
  0
LWPOLYLINE
  5
200EE
100
AcDbEntity
  8
0
100
AcDbPolyline
 70
0
 90
9
 10
16.621869476937
 20
49.1759805741363
 10
16.623035083131
 20
49.1763502211494
 10
16.6242989823631
 20
49.1766550162086
 10
16.6255885882428
 20
49.1768036691426
 10
16.6267792950287
 20
49.1768878790385
 10
16.627671587051
 20
49.1769222589331
 10
16.6288879823356
 20
49.1768503184206
 10
16.6301833257444
 20
49.1766977959651
 10
16.631087315195
 20
49.1766160807634
  0
LWPOLYLINE
  5
200EF
100
AcDbEntity
  8
0
100
AcDbPolyline
 70
0
 90
4
 10
16.621869476937
 20
49.1759805741363
 10
16.6217521684001
 20
49.1770922507444
 10
16.6216905978026
 20
49.1787965783745
 10
16.6215545838637
 20
49.180021800801
  0
LWPOLYLINE
  5
200F0
100
AcDbEntity
  8
0
100
AcDbPolyline
 70
0
 90
6
 10
16.6311846559829
 20
49.1897789979944
 10
16.6291668445884
 20
49.1890029895251
 10
16.6283736921586
 20
49.1886310395087
 10
16.6277590913119
 20
49.1883722160873
 10
16.6271714558574
 20
49.1882158050265
 10
16.6261686827197
 20
49.1878748530478
  0
LWPOLYLINE
  5
200F1
100
AcDbEntity
  8
0
100
AcDbPolyline
 70
0
 90
7
 10
16.6261686827197
 20
49.1878748530478
 10
16.6257743542022
 20
49.1877867768
 10
16.6254085719013
 20
49.1877465529759
 10
16.6248338875849
 20
49.1877777062799
 10
16.6245676582453
 20
49.1879311824374
 10
16.6242054640407
 20
49.1881353045778
 10
16.6237552055781
 20
49.1882306601357
  0
LWPOLYLINE
  5
200F2
100
AcDbEntity
  8
0
100
AcDbPolyline
 70
0
 90
4
 10
16.6237552055781
 20
49.1882306601357
 10
16.623041441889
 20
49.1881534847881
 10
16.6215460750325
 20
49.1877892460313
 10
16.6194075223988
 20
49.1872071666889
  0
LWPOLYLINE
  5
200F3
100
AcDbEntity
  8
0
100
AcDbPolyline
 70
0
 90
2
 10
16.6194075223988
 20
49.1872071666889
 10
16.6174808752747
 20
49.1866687614823
  0
LWPOLYLINE
  5
200F4
100
AcDbEntity
  8
0
100
AcDbPolyline
 70
0
 90
3
 10
16.6174808752747
 20
49.1866687614823
 10
16.6158510000817
 20
49.1863236380839
 10
16.6149046818325
 20
49.1860843297087
  0
LWPOLYLINE
  5
200F5
100
AcDbEntity
  8
0
100
AcDbPolyline
 70
0
 90
8
 10
16.6215545838637
 20
49.180021800801
 10
16.6214969186963
 20
49.1810371881104
 10
16.6215886124421
 20
49.1826087723507
 10
16.6218638349409
 20
49.1833318208542
 10
16.6221208450024
 20
49.183766405845
 10
16.6223052728969
 20
49.1841097023113
 10
16.622255578506
 20
49.1842784911634
 10
16.6219636523659
 20
49.1845880877466
  0
LWPOLYLINE
  5
200F6
100
AcDbEntity
  8
0
100
AcDbPolyline
 70
0
 90
3
 10
16.6219636523659
 20
49.1845880877466
 10
16.6209129124021
 20
49.1856480807122
 10
16.6194075223988
 20
49.1872071666889
  0
LWPOLYLINE
  5
200F7
100
AcDbEntity
  8
0
100
AcDbPolyline
 70
0
 90
7
 10
16.6215545838637
 20
49.180021800801
 10
16.6210989555297
 20
49.1807936475156
 10
16.6205110693419
 20
49.1815704927881
 10
16.619985782886
 20
49.1823661251033
 10
16.6194177880492
 20
49.1832879618084
 10
16.6186783901432
 20
49.1845853517333
 10
16.6174808752747
 20
49.1866687614823
  0
LWPOLYLINE
  5
200F8
100
AcDbEntity
  8
0
100
AcDbPolyline
 70
0
 90
4
 10
16.6174808752747
 20
49.1866687614823
 10
16.6169601631272
 20
49.1874359929545
 10
16.6164885458881
 20
49.1879051640427
 10
16.6162668079174
 20
49.1883202300365
  0
LWPOLYLINE
  5
200F9
100
AcDbEntity
  8
0
100
AcDbPolyline
 70
0
 90
6
 10
16.6194075223988
 20
49.1872071666889
 10
16.6191126122549
 20
49.1874016767606
 10
16.6188487052024
 20
49.1875409464826
 10
16.6183372524974
 20
49.1877201296346
 10
16.6174892978532
 20
49.187947287177
 10
16.6162668079174
 20
49.1883202300365
  0
LWPOLYLINE
  5
200FA
100
AcDbEntity
  8
0
100
AcDbPolyline
 70
0
 90
4
 10
16.6149046818325
 20
49.1860843297087
 10
16.6144529736727
 20
49.1866984906654
 10
16.6133400046476
 20
49.1878688937391
 10
16.612523674535
 20
49.1887013278345
  0
LWPOLYLINE
  5
200FB
100
AcDbEntity
  8
0
100
AcDbPolyline
 70
0
 90
2
 10
16.612523674535
 20
49.1887013278345
 10
16.6147933388207
 20
49.1895512781139
  0
LWPOLYLINE
  5
200FC
100
AcDbEntity
  8
0
100
AcDbPolyline
 70
0
 90
5
 10
16.6147933388207
 20
49.1895512781139
 10
16.6151210265971
 20
49.1891580740527
 10
16.6155926687055
 20
49.1886889086511
 10
16.6158489703044
 20
49.1884629543332
 10
16.6162668079174
 20
49.1883202300365
  0
LWPOLYLINE
  5
200FD
100
AcDbEntity
  8
0
100
AcDbPolyline
 70
0
 90
2
 10
16.6260889127476
 20
49.1912434777187
 10
16.6217693736182
 20
49.1912224052935
  0
LWPOLYLINE
  5
200FE
100
AcDbEntity
  8
0
100
AcDbPolyline
 70
0
 90
2
 10
16.6217693736182
 20
49.1912224052935
 10
16.6201500223308
 20
49.1916103937306
  0
LWPOLYLINE
  5
200FF
100
AcDbEntity
  8
0
100
AcDbPolyline
 70
0
 90
3
 10
16.6201500223308
 20
49.1916103937306
 10
16.6188501938269
 20
49.1919204619169
 10
16.6183140914326
 20
49.1919830340851
  0
LWPOLYLINE
  5
20100
100
AcDbEntity
  8
0
100
AcDbPolyline
 70
0
 90
6
 10
16.6183140914326
 20
49.1919830340851
 10
16.6175877645766
 20
49.1920034241184
 10
16.6168678469023
 20
49.1918519567042
 10
16.616102283799
 20
49.1917116129162
 10
16.615505289112
 20
49.1916119152093
 10
16.6150774624498
 20
49.1916821377394
  0
LWPOLYLINE
  5
20101
100
AcDbEntity
  8
0
100
AcDbPolyline
 70
0
 90
6
 10
16.625847702343
 20
49.1890487053913
 10
16.6252668736927
 20
49.1892729022038
 10
16.6244013161057
 20
49.1893409209718
 10
16.6227198921663
 20
49.1893081492343
 10
16.6224097164825
 20
49.1893292843546
 10
16.6209730204839
 20
49.189672765556
  0
LWPOLYLINE
  5
20102
100
AcDbEntity
  8
0
100
AcDbPolyline
 70
0
 90
2
 10
16.6209730204839
 20
49.189672765556
 10
16.6217693736182
 20
49.1912224052935
  0
LWPOLYLINE
  5
20103
100
AcDbEntity
  8
0
100
AcDbPolyline
 70
0
 90
16
 10
16.6167196253149
 20
49.1658951308594
 10
16.6168487954497
 20
49.1652437736527
 10
16.6172125827957
 20
49.1648962076716
 10
16.617933129439
 20
49.1642436519188
 10
16.6186553815119
 20
49.163447626146
 10
16.6189968880299
 20
49.1629692498555
 10
16.6196108929166
 20
49.1621655557968
 10
16.6200073468613
 20
49.1616192744098
 10
16.6202107343033
 20
49.1609157355643
 10
16.6205076914422
 20
49.1601757458439
 10
16.6206168755009
 20
49.1593793853326
 10
16.6208395515084
 20
49.1586915707055
 10
16.621273956201
 20
49.1580474633714
 10
16.6217983462623
 20
49.1571225501543
 10
16.6219520222023
 20
49.1565877970984
 10
16.6219728984106
 20
49.1559287727794
  0
LWPOLYLINE
  5
20104
100
AcDbEntity
  8
0
100
AcDbPolyline
 70
0
 90
16
 10
16.6167196253149
 20
49.1658951308594
 10
16.61582927474
 20
49.1657172010954
 10
16.6149775422963
 20
49.1655707172562
 10
16.6139982890318
 20
49.1654008327681
 10
16.6125259147884
 20
49.1651672816145
 10
16.6114045289847
 20
49.1649298677155
 10
16.6100327911278
 20
49.1646172604247
 10
16.6085914613091
 20
49.1643284207115
 10
16.6079222788654
 20
49.1641373874119
 10
16.6067248880517
 20
49.1640955618466
 10
16.606481554858
 20
49.1639777925273
 10
16.6063195344356
 20
49.1637652768329
 10
16.6061668760447
 20
49.163495987792
 10
16.6059065853514
 20
49.1633482972368
 10
16.6054444895771
 20
49.163229370396
 10
16.603575059649
 20
49.1628813805203
  0
LWPOLYLINE
  5
20105
100
AcDbEntity
  8
0
100
AcDbPolyline
 70
0
 90
3
 10
16.603575059649
 20
49.1628813805203
 10
16.6029257885
 20
49.1628353187506
 10
16.6007451606442
 20
49.1627811040767
  0
LWPOLYLINE
  5
20106
100
AcDbEntity
  8
0
100
AcDbPolyline
 70
0
 90
6
 10
16.6007451606442
 20
49.1627811040767
 10
16.6006204695564
 20
49.1634040575576
 10
16.6005139483192
 20
49.1637841953966
 10
16.6002313775055
 20
49.1640369654602
 10
16.599625939881
 20
49.1641232299543
 10
16.59899126994
 20
49.1641212606975
  0
LWPOLYLINE
  5
20107
100
AcDbEntity
  8
0
100
AcDbPolyline
 70
0
 90
2
 10
16.59899126994
 20
49.1641212606975
 10
16.5995641288269
 20
49.1598541669776
  0
LWPOLYLINE
  5
20108
100
AcDbEntity
  8
0
100
AcDbPolyline
 70
0
 90
13
 10
16.5995641288269
 20
49.1598541669776
 10
16.6018370795517
 20
49.1596134232662
 10
16.6037064267071
 20
49.1594301587429
 10
16.6065151013625
 20
49.1591268180809
 10
16.6083750546417
 20
49.1590002491399
 10
16.6106801006442
 20
49.158962638437
 10
16.6131728972893
 20
49.1589813622362
 10
16.6160505631473
 20
49.1590560141859
 10
16.6189282363611
 20
49.1591305942274
 10
16.6221808300456
 20
49.1591885634514
 10
16.6255609441155
 20
49.1592698224701
 10
16.6282198941075
 20
49.1593430518147
 10
16.6311926422398
 20
49.1594379740407
  0
LWPOLYLINE
  5
20109
100
AcDbEntity
  8
0
100
AcDbPolyline
 70
0
 90
16
 10
16.6219728984106
 20
49.1559287727794
 10
16.621924185222
 20
49.1552935404776
 10
16.6217127984278
 20
49.1543165406148
 10
16.6214681017821
 20
49.1534089749815
 10
16.6214182983641
 20
49.1530464801112
 10
16.6216133865442
 20
49.1521269734571
 10
16.6217335931528
 20
49.1511303718081
 10
16.6217994625306
 20
49.1503309452643
 10
16.6218407380287
 20
49.1494149077514
 10
16.6218335904543
 20
49.1489262043288
 10
16.6216052654241
 20
49.1479192837247
 10
16.6214167883707
 20
49.1472023598633
 10
16.6204575376021
 20
49.1461149610137
 10
16.6202516295884
 20
49.1457701267299
 10
16.6199613959651
 20
49.1448736857583
 10
16.6196918190217
 20
49.1447827993479
  0
LWPOLYLINE
  5
2010A
100
AcDbEntity
  8
0
100
AcDbPolyline
 70
0
 90
8
 10
16.6196918190217
 20
49.1447827993479
 10
16.6201455394523
 20
49.1446857045061
 10
16.6209102566914
 20
49.1442947382999
 10
16.6220556674799
 20
49.1441173872702
 10
16.6225520257723
 20
49.1438940733528
 10
16.6229957727493
 20
49.1437244685741
 10
16.6232980348009
 20
49.1436166393895
 10
16.6235587387535
 20
49.1433622796094
  0
LWPOLYLINE
  5
2010B
100
AcDbEntity
  8
0
100
AcDbPolyline
 70
0
 90
16
 10
16.6196918190217
 20
49.1447827993479
 10
16.6190410443733
 20
49.1448802939357
 10
16.6173839795185
 20
49.1451075227639
 10
16.6162432041584
 20
49.1452564399905
 10
16.6142276658929
 20
49.1454007895441
 10
16.6123126834552
 20
49.1454660795072
 10
16.6104766315344
 20
49.1454507799679
 10
16.6090826362851
 20
49.1454093655957
 10
16.6082020367809
 20
49.1451746040612
 10
16.6075991932901
 20
49.1447154329155
 10
16.6069601101788
 20
49.1442106099449
 10
16.6065268428319
 20
49.1440506417234
 10
16.6058082320175
 20
49.1440283778571
 10
16.6049931502063
 20
49.1439274689872
 10
16.6041330365091
 20
49.1439669494283
 10
16.6022876800013
 20
49.1440082924943
  0
LWPOLYLINE
  5
2010C
100
AcDbEntity
  8
0
100
AcDbPolyline
 70
0
 90
12
 10
16.6022876800013
 20
49.1440082924943
 10
16.6005458100789
 20
49.1440856706818
 10
16.597984179754
 20
49.144090450761
 10
16.5958867851647
 20
49.1441999474054
 10
16.5921783751792
 20
49.1446544273755
 10
16.5896756549308
 20
49.1449647585846
 10
16.5879775310873
 20
49.1451742961072
 10
16.5859658372556
 20
49.1456917763433
 10
16.5845377129828
 20
49.1461215009
 10
16.5829328299868
 20
49.1468258253228
 10
16.58089468773
 20
49.1473700637482
 10
16.5803496308247
 20
49.1474892302541
  0
LWPOLYLINE
  5
2010D
100
AcDbEntity
  8
0
100
AcDbPolyline
 70
0
 90
22
 10
16.6196918190217
 20
49.1447827993479
 10
16.6193140669686
 20
49.144684250367
 10
16.6186180832986
 20
49.1438595757276
 10
16.6178489927481
 20
49.1428143337915
 10
16.6174056568296
 20
49.1420506232386
 10
16.6171388589621
 20
49.1410122416611
 10
16.6165654952242
 20
49.138645477979
 10
16.6158062465346
 20
49.1360788667932
 10
16.614951210237
 20
49.1335628909509
 10
16.6147009306
 20
49.1329564335051
 10
16.6147475958833
 20
49.132141283365
 10
16.6146522678699
 20
49.1317899113051
 10
16.6146790401887
 20
49.1308297609583
 10
16.6147537409639
 20
49.1298442904093
 10
16.6146238405411
 20
49.1287725199084
 10
16.6144057006686
 20
49.1278380829411
 10
16.6144828017778
 20
49.1273697040644
 10
16.6135936928291
 20
49.1267897438297
 10
16.6132441316302
 20
49.1265208548966
 10
16.6112368920294
 20
49.1256892754331
 10
16.6098627261739
 20
49.1251323124534
 10
16.609735880873
 20
49.1247069016857
  0
LWPOLYLINE
  5
2010E
100
AcDbEntity
  8
0
100
AcDbPolyline
 70
0
 90
20
 10
16.609735880873
 20
49.1247069016857
 10
16.611220473642
 20
49.1247260572238
 10
16.6129113870549
 20
49.124688029016
 10
16.6149430416697
 20
49.1245736223657
 10
16.6169723515836
 20
49.1244733723272
 10
16.6181997621223
 20
49.1244598505115
 10
16.6192308129317
 20
49.1245759902946
 10
16.6202701034739
 20
49.124908087192
 10
16.6210475540456
 20
49.1252359827806
 10
16.6217034945515
 20
49.125770648605
 10
16.6222373095949
 20
49.1263828112832
 10
16.6226279906097
 20
49.127200215242
 10
16.6231882842312
 20
49.1283168034247
 10
16.6237503127885
 20
49.1292899225916
 10
16.6242894837404
 20
49.1300029612453
 10
16.6252998420566
 20
49.1307780737736
 10
16.6265352290243
 20
49.1313824403696
 10
16.6284131764591
 20
49.1322045698642
 10
16.630139774887
 20
49.1330159554657
 10
16.6318973870232
 20
49.133772071589
  0
LWPOLYLINE
  5
2010F
100
AcDbEntity
  8
0
100
AcDbPolyline
 70
0
 90
8
 10
16.6044541870522
 20
49.1069718524288
 10
16.6048770407175
 20
49.1091844735135
 10
16.6050767141999
 20
49.1114243221709
 10
16.6049427384418
 20
49.1136979166938
 10
16.6047222610122
 20
49.1159653698362
 10
16.6045016759691
 20
49.1192953941991
 10
16.6041121212594
 20
49.1229867605346
 10
16.6040032384964
 20
49.1245499794242
  0
LWPOLYLINE
  5
20110
100
AcDbEntity
  8
0
100
AcDbPolyline
 70
0
 90
5
 10
16.602865457132
 20
49.1224961100456
 10
16.6041121212594
 20
49.1229867605346
 10
16.60735061128
 20
49.1241786843269
 10
16.6085821083279
 20
49.1245388911947
 10
16.609735880873
 20
49.1247069016857
  0
LWPOLYLINE
  5
20111
100
AcDbEntity
  8
0
100
AcDbPolyline
 70
0
 90
2
 10
16.602865457132
 20
49.1224961100456
 10
16.6006400335392
 20
49.1216201921386
  0
LWPOLYLINE
  5
20112
100
AcDbEntity
  8
0
100
AcDbPolyline
 70
0
 90
2
 10
16.6006400335392
 20
49.1216201921386
 10
16.6006015831076
 20
49.1172091743135
  0
LWPOLYLINE
  5
20113
100
AcDbEntity
  8
0
100
AcDbPolyline
 70
0
 90
5
 10
16.6006400335392
 20
49.1216201921386
 10
16.5947010059374
 20
49.1190299481333
 10
16.5940272574875
 20
49.1187379451948
 10
16.5924599591112
 20
49.118425486946
 10
16.5901452635015
 20
49.1180024126953
  0
LWPOLYLINE
  5
20114
100
AcDbEntity
  8
0
100
AcDbPolyline
 70
0
 90
8
 10
16.6040032384964
 20
49.1245499794242
 10
16.6037597824318
 20
49.1280448900253
 10
16.6037600453947
 20
49.1313618742439
 10
16.60370893732
 20
49.1339285337552
 10
16.6036333861641
 20
49.135316008361
 10
16.603321489621
 20
49.138136982063
 10
16.6026001129973
 20
49.1423791654435
 10
16.6022876800013
 20
49.1440082924943
  0
LWPOLYLINE
  5
20115
100
AcDbEntity
  8
0
100
AcDbPolyline
 70
0
 90
3
 10
16.6022876800013
 20
49.1440082924943
 10
16.6007443342124
 20
49.1532322036382
 10
16.6003287356057
 20
49.1554858129056
  0
LWPOLYLINE
  5
20116
100
AcDbEntity
  8
0
100
AcDbPolyline
 70
0
 90
2
 10
16.6003287356057
 20
49.1554858129056
 10
16.5995641288269
 20
49.1598541669776
  0
LWPOLYLINE
  5
20117
100
AcDbEntity
  8
0
100
AcDbPolyline
 70
0
 90
11
 10
16.6003287356057
 20
49.1554858129056
 10
16.5995386773589
 20
49.1550994701536
 10
16.5993934729389
 20
49.1559794323815
 10
16.5992102287589
 20
49.156957208485
 10
16.5990534043227
 20
49.1573768517211
 10
16.5986462650051
 20
49.1577212882564
 10
16.598120880784
 20
49.1585168237459
 10
16.5978693373186
 20
49.1587143529701
 10
16.5976365346976
 20
49.1587983388083
 10
16.597244107825
 20
49.1586556026365
 10
16.5881606405303
 20
49.1534727096865
  0
LWPOLYLINE
  5
20118
100
AcDbEntity
  8
0
100
AcDbPolyline
 70
0
 90
2
 10
16.59899126994
 20
49.1641212606975
 10
16.5986249354667
 20
49.1677999281664
  0
LWPOLYLINE
  5
20119
100
AcDbEntity
  8
0
100
AcDbPolyline
 70
0
 90
7
 10
16.5986249354667
 20
49.1677999281664
 10
16.5988956151471
 20
49.1686806906839
 10
16.5991879496019
 20
49.1695629886119
 10
16.5996821325383
 20
49.1704165317666
 10
16.600465321089
 20
49.1713767332534
 10
16.6012725286928
 20
49.1723242721491
 10
16.6014807585432
 20
49.172654945274
  0
LWPOLYLINE
  5
2011A
100
AcDbEntity
  8
0
100
AcDbPolyline
 70
0
 90
4
 10
16.5986249354667
 20
49.1677999281664
 10
16.598026696227
 20
49.1695667236489
 10
16.5977492061153
 20
49.1704516564754
 10
16.5971379515782
 20
49.1725621484461
  0
LWPOLYLINE
  5
2011B
100
AcDbEntity
  8
0
100
AcDbPolyline
 70
0
 90
5
 10
16.5971379515782
 20
49.1725621484461
 10
16.5988164487523
 20
49.1726094858714
 10
16.6005938120102
 20
49.1727212499534
 10
16.6010770644731
 20
49.1727124598322
 10
16.6014807585432
 20
49.172654945274
  0
LWPOLYLINE
  5
2011C
100
AcDbEntity
  8
0
100
AcDbPolyline
 70
0
 90
4
 10
16.6014807585432
 20
49.172654945274
 10
16.602004252925
 20
49.1735967070402
 10
16.6024318091846
 20
49.1745890958898
 10
16.6035922838587
 20
49.1776437340012
  0
LWPOLYLINE
  5
2011D
100
AcDbEntity
  8
0
100
AcDbPolyline
 70
0
 90
4
 10
16.6035922838587
 20
49.1776437340012
 10
16.6038631054075
 20
49.1785244836225
 10
16.603770575623
 20
49.1793507470863
 10
16.6036675305663
 20
49.1799752376291
  0
LWPOLYLINE
  5
2011E
100
AcDbEntity
  8
0
100
AcDbPolyline
 70
0
 90
5
 10
16.6036675305663
 20
49.1799752376291
 10
16.6036475436389
 20
49.1808927996981
 10
16.6038434898956
 20
49.1816964428532
 10
16.6041868904295
 20
49.1826684899388
 10
16.6046362200003
 20
49.1836624045216
  0
LWPOLYLINE
  5
2011F
100
AcDbEntity
  8
0
100
AcDbPolyline
 70
0
 90
3
 10
16.6036675305663
 20
49.1799752376291
 10
16.6041268615116
 20
49.179979092391
 10
16.6055744901079
 20
49.179966864814
  0
LWPOLYLINE
  5
20120
100
AcDbEntity
  8
0
100
AcDbPolyline
 70
0
 90
3
 10
16.6035922838587
 20
49.1776437340012
 10
16.6051434059344
 20
49.1776675742938
 10
16.6061222925933
 20
49.1777082609897
  0
LWPOLYLINE
  5
20121
100
AcDbEntity
  8
0
100
AcDbPolyline
 70
0
 90
3
 10
16.6035922838587
 20
49.1776437340012
 10
16.6031113244102
 20
49.177638341604
 10
16.6016298353959
 20
49.1775906952757
  0
LWPOLYLINE
  5
20122
100
AcDbEntity
  8
0
100
AcDbPolyline
 70
0
 90
3
 10
16.5971379515782
 20
49.1725621484461
 10
16.5959842340535
 20
49.1771613540423
 10
16.5950173130157
 20
49.1804958500506
  0
LWPOLYLINE
  5
20123
100
AcDbEntity
  8
0
100
AcDbPolyline
 70
0
 90
4
 10
16.5950173130157
 20
49.1804958500506
 10
16.5948023138806
 20
49.1813995778712
 10
16.5947436991887
 20
49.1817543977637
 10
16.5948195293697
 20
49.1826213340848
  0
LWPOLYLINE
  5
20124
100
AcDbEntity
  8
0
100
AcDbPolyline
 70
0
 90
4
 10
16.5948195293697
 20
49.1826213340848
 10
16.5936516415023
 20
49.1822655950693
 10
16.5913393720088
 20
49.1814121528388
 10
16.5889210700571
 20
49.1810680631426
  0
LWPOLYLINE
  5
20125
100
AcDbEntity
  8
0
100
AcDbPolyline
 70
0
 90
2
 10
16.5948195293697
 20
49.1826213340848
 10
16.6011977619753
 20
49.1832606093846
  0
LWPOLYLINE
  5
20126
100
AcDbEntity
  8
0
100
AcDbPolyline
 70
0
 90
2
 10
16.6011977619753
 20
49.1832606093846
 10
16.6024633440757
 20
49.1844847394107
  0
LWPOLYLINE
  5
20127
100
AcDbEntity
  8
0
100
AcDbPolyline
 70
0
 90
5
 10
16.5948195293697
 20
49.1826213340848
 10
16.5951478512207
 20
49.1846118549203
 10
16.5952401052404
 20
49.1853794412796
 10
16.5950707383293
 20
49.1862720499515
 10
16.5949143352193
 20
49.1868209583152
  0
LWPOLYLINE
  5
20128
100
AcDbEntity
  8
0
100
AcDbPolyline
 70
0
 90
3
 10
16.5971379515782
 20
49.1725621484461
 10
16.5953851440641
 20
49.1725669472777
 10
16.5838681291233
 20
49.1732133298435
  0
LWPOLYLINE
  5
20129
100
AcDbEntity
  8
0
100
AcDbPolyline
 70
0
 90
3
 10
16.5838681291233
 20
49.1732133298435
 10
16.58319190622
 20
49.1718728948245
 10
16.5823488040252
 20
49.1708795732584
  0
LWPOLYLINE
  5
2012A
100
AcDbEntity
  8
0
100
AcDbPolyline
 70
0
 90
2
 10
16.5838681291233
 20
49.1732133298435
 10
16.5715405026302
 20
49.1738583053638
  0
LWPOLYLINE
  5
2012B
100
AcDbEntity
  8
0
100
AcDbPolyline
 70
0
 90
7
 10
16.5838681291233
 20
49.1732133298435
 10
16.583712683566
 20
49.1740207680749
 10
16.5833613718391
 20
49.1745558091608
 10
16.5827544640743
 20
49.1749147214118
 10
16.5790518897052
 20
49.1762452967179
 10
16.5762351824217
 20
49.1772510975475
 10
16.575367916375
 20
49.1774622129578
  0
LWPOLYLINE
  5
2012C
100
AcDbEntity
  8
0
100
AcDbPolyline
 70
0
 90
12
 10
16.5823488040252
 20
49.1708795732584
 10
16.5832305281247
 20
49.1707125227882
 10
16.5840261867007
 20
49.1706685816755
 10
16.5848622643927
 20
49.1705126323826
 10
16.5854696275345
 20
49.170282981752
 10
16.5861333015198
 20
49.1697127035433
 10
16.5863956241755
 20
49.1691856920411
 10
16.5864334041726
 20
49.1684273273912
 10
16.5864010314398
 20
49.1675634601208
 10
16.586411945358
 20
49.1667026706427
 10
16.5863835014246
 20
49.1662124269768
 10
16.5862093018292
 20
49.1659415740882
  0
LWPOLYLINE
  5
2012D
100
AcDbEntity
  8
0
100
AcDbPolyline
 70
0
 90
11
 10
16.5862093018292
 20
49.1659415740882
 10
16.5869699221513
 20
49.1655792197407
 10
16.5879430217147
 20
49.1648586184737
 10
16.5885385735246
 20
49.1646999147409
 10
16.5906626458864
 20
49.1644344317453
 10
16.5927843512123
 20
49.164183102362
 10
16.594910722471
 20
49.1639033483241
 10
16.5971898002085
 20
49.1633615728112
 10
16.598731208023
 20
49.1629109882182
 10
16.5998940855035
 20
49.1627637809667
 10
16.6007451606442
 20
49.1627811040767
  0
LWPOLYLINE
  5
2012E
100
AcDbEntity
  8
0
100
AcDbPolyline
 70
0
 90
9
 10
16.5823488040252
 20
49.1708795732584
 10
16.5814791027942
 20
49.1704443735059
 10
16.5804946617819
 20
49.1701733176908
 10
16.5791865761894
 20
49.1701377002957
 10
16.5775707669469
 20
49.170108890284
 10
16.576712024846
 20
49.1700047012407
 10
16.5759049737654
 20
49.1695882730333
 10
16.5754583416857
 20
49.1691113342044
 10
16.5753711245146
 20
49.1683153447386
  0
LWPOLYLINE
  5
2012F
100
AcDbEntity
  8
0
100
AcDbPolyline
 70
0
 90
2
 10
16.5753711245146
 20
49.1683153447386
 10
16.5754922227855
 20
49.1648058475886
  0
LWPOLYLINE
  5
20130
100
AcDbEntity
  8
0
100
AcDbPolyline
 70
0
 90
5
 10
16.5754922227855
 20
49.1648058475886
 10
16.5763753660699
 20
49.1650266660803
 10
16.5778655201562
 20
49.1655491490517
 10
16.5782579442028
 20
49.1656919518294
 10
16.5790879283789
 20
49.1658371669911
  0
LWPOLYLINE
  5
20131
100
AcDbEntity
  8
0
100
AcDbPolyline
 70
0
 90
6
 10
16.5790879283789
 20
49.1658371669911
 10
16.5809450443367
 20
49.1661272430576
 10
16.5821184715402
 20
49.1661819894875
 10
16.5841067843715
 20
49.1662085139474
 10
16.5856306779705
 20
49.1661301896656
 10
16.5862093018292
 20
49.1659415740882
  0
LWPOLYLINE
  5
20132
100
AcDbEntity
  8
0
100
AcDbPolyline
 70
0
 90
5
 10
16.5753711245146
 20
49.1683153447386
 10
16.5741129338598
 20
49.1681109017206
 10
16.5729384860823
 20
49.167797528613
 10
16.5712454996533
 20
49.1670451422916
 10
16.5692900160459
 20
49.1661591492395
  0
LWPOLYLINE
  5
20133
100
AcDbEntity
  8
0
100
AcDbPolyline
 70
0
 90
4
 10
16.5692900160459
 20
49.1661591492395
 10
16.5689908124188
 20
49.1665111892626
 10
16.5682780355317
 20
49.1668481243248
 10
16.5678075497882
 20
49.1670443602319
  0
LWPOLYLINE
  5
20134
100
AcDbEntity
  8
0
100
AcDbPolyline
 70
0
 90
18
 10
16.5678075497882
 20
49.1670443602319
 10
16.5668063383871
 20
49.1674038158515
 10
16.5664374768236
 20
49.1677796069907
 10
16.5661937665838
 20
49.1681930354822
 10
16.5663226998759
 20
49.1686042991058
 10
16.5666944224515
 20
49.1690041431725
 10
16.5673978710638
 20
49.1693845409299
 10
16.5682142536709
 20
49.169744260585
 10
16.5686410479446
 20
49.170076221134
 10
16.5689502178148
 20
49.1704572399273
 10
16.5691351907123
 20
49.1710591668885
 10
16.5691352510147
 20
49.1717197206743
 10
16.5691672661954
 20
49.1719230385326
 10
16.5695032828779
 20
49.17240648511
 10
16.5700933845197
 20
49.1726782699248
 10
16.5709168952964
 20
49.1729953935782
 10
16.5713630293374
 20
49.1733430775634
 10
16.5715405026302
 20
49.1738583053638
  0
LWPOLYLINE
  5
20135
100
AcDbEntity
  8
0
100
AcDbPolyline
 70
0
 90
5
 10
16.569303139622
 20
49.1661650953402
 10
16.5680553756271
 20
49.1651521622363
 10
16.5669977007539
 20
49.1645311249947
 10
16.5664825212261
 20
49.1643364534503
 10
16.5652009459489
 20
49.1642738361946
  0
LWPOLYLINE
  5
20136
100
AcDbEntity
  8
0
100
AcDbPolyline
 70
0
 90
5
 10
16.5652009459489
 20
49.1642738361946
 10
16.5636827185762
 20
49.1645820498098
 10
16.5623583212617
 20
49.164645587566
 10
16.5614211224833
 20
49.1647510804405
 10
16.5592756950593
 20
49.1651437532946
  0
LWPOLYLINE
  5
20137
100
AcDbEntity
  8
0
100
AcDbPolyline
 70
0
 90
16
 10
16.5592756950593
 20
49.1651437532946
 10
16.5587276614997
 20
49.1644871827061
 10
16.5582868563783
 20
49.1642403384376
 10
16.557608451928
 20
49.1641057805669
 10
16.5566727088249
 20
49.163938498262
 10
16.5555271762098
 20
49.1635839166934
 10
16.5547566243151
 20
49.1632130039981
 10
16.5542693268052
 20
49.162718701809
 10
16.5538075063231
 20
49.1619390127345
 10
16.5532229264527
 20
49.1611074772522
 10
16.5529529440142
 20
49.1608871626711
 10
16.5521871634507
 20
49.1604878486951
 10
16.5511330143298
 20
49.1601110194413
 10
16.5501875094021
 20
49.159871178729
 10
16.5489182831127
 20
49.1598666925304
 10
16.5484859240425
 20
49.1599650532049
  0
LWPOLYLINE
  5
20138
100
AcDbEntity
  8
0
100
AcDbPolyline
 70
0
 90
8
 10
16.5592756950593
 20
49.1651437532946
 10
16.5588174140552
 20
49.1653982652689
 10
16.558570388933
 20
49.1655673244403
 10
16.5585270221425
 20
49.1662247919285
 10
16.5577788614864
 20
49.1667745428058
 10
16.5569525277077
 20
49.1676633539818
 10
16.5561167440353
 20
49.1686089279883
 10
16.5554366995446
 20
49.1694076485271
  0
LWPOLYLINE
  5
20139
100
AcDbEntity
  8
0
100
AcDbPolyline
 70
0
 90
5
 10
16.5595586422077
 20
49.1724157257123
 10
16.5570643914259
 20
49.1714767437093
 10
16.5484949028958
 20
49.1684813038544
 10
16.5471446826089
 20
49.1680402231486
 10
16.545156577554
 20
49.1673525065251
  0
LWPOLYLINE
  5
2013A
100
AcDbEntity
  8
0
100
AcDbPolyline
 70
0
 90
2
 10
16.5715405026302
 20
49.1738583053638
 10
16.5668743863182
 20
49.1741290644838
  0
LWPOLYLINE
  5
2013B
100
AcDbEntity
  8
0
100
AcDbPolyline
 70
0
 90
2
 10
16.5668743863182
 20
49.1741290644838
 10
16.5643163768844
 20
49.1742339833646
  0
LWPOLYLINE
  5
2013C
100
AcDbEntity
  8
0
100
AcDbPolyline
 70
0
 90
4
 10
16.5643163768844
 20
49.1742339833646
 10
16.5643267330106
 20
49.1737752054852
 10
16.5640462827288
 20
49.1733531407932
 10
16.5595586422077
 20
49.1724157257123
  0
LWPOLYLINE
  5
2013D
100
AcDbEntity
  8
0
100
AcDbPolyline
 70
0
 90
7
 10
16.5595586422077
 20
49.1724157257123
 10
16.5610695156108
 20
49.1733419780506
 10
16.5621357562059
 20
49.174308309726
 10
16.5627568737002
 20
49.175185460894
 10
16.5630721370944
 20
49.1759259280522
 10
16.5633549301719
 20
49.1769943560799
 10
16.5633963386043
 20
49.1771409059758
  0
LWPOLYLINE
  5
2013E
100
AcDbEntity
  8
0
100
AcDbPolyline
 70
0
 90
4
 10
16.5633963386043
 20
49.1771409059758
 10
16.563041031899
 20
49.1773022608118
 10
16.5626984229647
 20
49.1776511972148
 10
16.5625656901556
 20
49.1781874131557
  0
LWPOLYLINE
  5
2013F
100
AcDbEntity
  8
0
100
AcDbPolyline
 70
0
 90
3
 10
16.5625656901556
 20
49.1781874131557
 10
16.5633666608175
 20
49.1782445024688
 10
16.5647827176463
 20
49.1781587395601
  0
LWPOLYLINE
  5
20140
100
AcDbEntity
  8
0
100
AcDbPolyline
 70
0
 90
2
 10
16.5647827176463
 20
49.1781587395601
 10
16.5645897719655
 20
49.1766802845724
  0
LWPOLYLINE
  5
20141
100
AcDbEntity
  8
0
100
AcDbPolyline
 70
0
 90
4
 10
16.5645897719655
 20
49.1766802845724
 10
16.5640391784652
 20
49.176698485593
 10
16.5635977571062
 20
49.1769829432386
 10
16.5633963386043
 20
49.1771409059758
  0
LWPOLYLINE
  5
20142
100
AcDbEntity
  8
0
100
AcDbPolyline
 70
0
 90
2
 10
16.5645897719655
 20
49.1766802845724
 10
16.5643163768844
 20
49.1742339833646
  0
LWPOLYLINE
  5
20143
100
AcDbEntity
  8
0
100
AcDbPolyline
 70
0
 90
2
 10
16.5668743863182
 20
49.1741290644838
 10
16.5673889287715
 20
49.1780285111975
  0
LWPOLYLINE
  5
20144
100
AcDbEntity
  8
0
100
AcDbPolyline
 70
0
 90
2
 10
16.5647827176463
 20
49.1781587395601
 10
16.5673889287715
 20
49.1780285111975
  0
LWPOLYLINE
  5
20145
100
AcDbEntity
  8
0
100
AcDbPolyline
 70
0
 90
4
 10
16.5625656901556
 20
49.1781874131557
 10
16.5619110847629
 20
49.1780402317135
 10
16.5613303801146
 20
49.1777116369027
 10
16.5608640613694
 20
49.1770896347772
  0
LWPOLYLINE
  5
20146
100
AcDbEntity
  8
0
100
AcDbPolyline
 70
0
 90
13
 10
16.5608640613694
 20
49.1770896347772
 10
16.5605624332065
 20
49.1767952904084
 10
16.5600471527788
 20
49.1766005914096
 10
16.5595323321368
 20
49.1765351620493
 10
16.5585704448979
 20
49.1765240077995
 10
16.5578301911026
 20
49.1766291730125
 10
16.5564583594735
 20
49.1769764831275
 10
16.5554997130176
 20
49.1772096562502
 10
16.5543222309878
 20
49.1774415670021
 10
16.5524252241412
 20
49.1775215977258
 10
16.5520167206295
 20
49.1776073233707
 10
16.5515154300527
 20
49.1779879879172
 10
16.5512959838089
 20
49.1785180093846
  0
LWPOLYLINE
  5
20147
100
AcDbEntity
  8
0
100
AcDbPolyline
 70
0
 90
11
 10
16.5512959838089
 20
49.1785180093846
 10
16.5509404456387
 20
49.1793398798442
 10
16.5505497268574
 20
49.1797140742121
 10
16.549915723551
 20
49.1799703796672
 10
16.5493316524368
 20
49.1800579242638
 10
16.5483791317411
 20
49.1799899177608
 10
16.5461217442192
 20
49.179469710266
 10
16.5462267802083
 20
49.1792330885002
 10
16.5461251947179
 20
49.1790535097519
 10
16.5459106550695
 20
49.1788945846238
 10
16.5457036119691
 20
49.1788223557523
  0
LWPOLYLINE
  5
20148
100
AcDbEntity
  8
0
100
AcDbPolyline
 70
0
 90
9
 10
16.5525627084689
 20
49.1733956973933
 10
16.5521268390929
 20
49.1739102716542
 10
16.5514496268066
 20
49.1741634958067
 10
16.5504665752584
 20
49.1742800009706
 10
16.549603534978
 20
49.1743332659608
 10
16.5491498339786
 20
49.1745593554204
 10
16.5486170477585
 20
49.1748659572477
 10
16.5465361387212
 20
49.1775032343797
 10
16.5457036119691
 20
49.1788223557523
  0
LWPOLYLINE
  5
20149
100
AcDbEntity
  8
0
100
AcDbPolyline
 70
0
 90
3
 10
16.575367916375
 20
49.1774622129578
 10
16.5735796768884
 20
49.1776795667804
 10
16.5673889287715
 20
49.1780285111975
  0
LWPOLYLINE
  5
2014A
100
AcDbEntity
  8
0
100
AcDbPolyline
 70
0
 90
6
 10
16.5625656901556
 20
49.1781874131557
 10
16.5620926838798
 20
49.1790583712258
 10
16.5619622947674
 20
49.1795803933684
 10
16.5621824920034
 20
49.1806300021694
 10
16.5626266902858
 20
49.1824422899026
 10
16.5633829931467
 20
49.1834295824056
  0
LWPOLYLINE
  5
2014B
100
AcDbEntity
  8
0
100
AcDbPolyline
 70
0
 90
14
 10
16.5633829931467
 20
49.1834295824056
 10
16.564054139491
 20
49.1841379629736
 10
16.5646297603151
 20
49.1843656561898
 10
16.5649964107672
 20
49.1846646173451
 10
16.5650768971203
 20
49.1849719077615
 10
16.5649672322083
 20
49.1852369316931
 10
16.562683430623
 20
49.187515372984
 10
16.5626189400965
 20
49.1876400166679
 10
16.5623675417048
 20
49.1886272922889
 10
16.5623260947643
 20
49.1891412942329
 10
16.5624446734522
 20
49.1900113375572
 10
16.5626079882638
 20
49.1906117302945
 10
16.563083872476
 20
49.1911769558068
 10
16.5644150864461
 20
49.1927939471658
  0
LWPOLYLINE
  5
2014C
100
AcDbEntity
  8
0
100
AcDbPolyline
 70
0
 90
2
 10
16.5644150864461
 20
49.1927939471658
 10
16.5662401815506
 20
49.1932829489172
  0
LWPOLYLINE
  5
2014D
100
AcDbEntity
  8
0
100
AcDbPolyline
 70
0
 90
3
 10
16.5662401815506
 20
49.1932829489172
 10
16.5691080613797
 20
49.1940902857927
 10
16.5693246109008
 20
49.1941057035653
  0
LWPOLYLINE
  5
2014E
100
AcDbEntity
  8
0
100
AcDbPolyline
 70
0
 90
2
 10
16.5693246109008
 20
49.1941057035653
 10
16.5755419253878
 20
49.192020892552
  0
LWPOLYLINE
  5
2014F
100
AcDbEntity
  8
0
100
AcDbPolyline
 70
0
 90
25
 10
16.545156577554
 20
49.1673525065251
 10
16.5434894068947
 20
49.1677647121075
 10
16.5407625278881
 20
49.1683596329537
 10
16.5378478772783
 20
49.1688979864189
 10
16.5331784871696
 20
49.1695835832052
 10
16.5292873716208
 20
49.1700662228663
 10
16.5235599567739
 20
49.1707905922496
 10
16.5212982990564
 20
49.1710881077378
 10
16.5195560589825
 20
49.171422806507
 10
16.51791018138
 20
49.1718361919248
 10
16.5153038519925
 20
49.1727551286804
 10
16.5126470328359
 20
49.1737134756441
 10
16.5104967539524
 20
49.1743921673711
 10
16.5080119463918
 20
49.1749750112727
 10
16.5050796471991
 20
49.1754826002681
 10
16.5028416803378
 20
49.1757671162623
 10
16.5001037844679
 20
49.1761592935185
 10
16.4986182937941
 20
49.17639725089
 10
16.495573132257
 20
49.1770544763953
 10
16.4927662736775
 20
49.1778580113024
 10
16.4895678759732
 20
49.1789061930975
 10
16.4851128037814
 20
49.1805245058973
 10
16.481440726944
 20
49.1817825479186
 10
16.4792727795227
 20
49.1824307170668
 10
16.4778738335839
 20
49.1828039135342
  0
LWPOLYLINE
  5
20150
100
AcDbEntity
  8
0
100
AcDbPolyline
 70
0
 90
3
 10
16.5643163768844
 20
49.1742339833646
 10
16.562399287227
 20
49.1740398983499
 10
16.5580437553851
 20
49.1737580449929
  0
LWPOLYLINE
  5
20151
100
AcDbEntity
  8
0
100
AcDbPolyline
 70
0
 90
2
 10
16.5580437553851
 20
49.1737580449929
 10
16.5525627084689
 20
49.1733956973933
  0
LWPOLYLINE
  5
20152
100
AcDbEntity
  8
0
100
AcDbPolyline
 70
0
 90
7
 10
16.5525627084689
 20
49.1733956973933
 10
16.5500254878381
 20
49.1732432990656
 10
16.5484843897165
 20
49.1732912223771
 10
16.5406262010329
 20
49.1739217107527
 10
16.5371866114594
 20
49.1743220244824
 10
16.5351551023258
 20
49.1744208675572
 10
16.5332397051461
 20
49.1739535610929
  0
LWPOLYLINE
  5
20153
100
AcDbEntity
  8
0
100
AcDbPolyline
 70
0
 90
7
 10
16.5332397051461
 20
49.1739535610929
 10
16.5320964713431
 20
49.1735845548126
 10
16.5311055341351
 20
49.1734849251539
 10
16.5301968347207
 20
49.1735491393944
 10
16.5295167739363
 20
49.173687153091
 10
16.5287281084767
 20
49.1736881437583
 10
16.5277781006419
 20
49.1736057755816
  0
LWPOLYLINE
  5
20154
100
AcDbEntity
  8
0
100
AcDbPolyline
 70
0
 90
6
 10
16.5277781006419
 20
49.1736057755816
 10
16.5275514525415
 20
49.1733885010418
 10
16.5266463626854
 20
49.1730364860649
 10
16.5245844876944
 20
49.1717399781466
 10
16.5224130623675
 20
49.1699185912857
 10
16.5185482003677
 20
49.166826912541
  0
LWPOLYLINE
  5
20155
100
AcDbEntity
  8
0
100
AcDbPolyline
 70
0
 90
7
 10
16.5277781006419
 20
49.1736057755816
 10
16.5266021948211
 20
49.1735646675394
 10
16.5235088340347
 20
49.1739893701691
 10
16.5183149069699
 20
49.1747948092485
 10
16.5126304108126
 20
49.1756510097641
 10
16.5086956537294
 20
49.1762591211419
 10
16.5043255222028
 20
49.1768502107161
  0
LWPOLYLINE
  5
20156
100
AcDbEntity
  8
0
100
AcDbPolyline
 70
0
 90
7
 10
16.5043255222028
 20
49.1768502107161
 10
16.5035887173638
 20
49.1744420879253
 10
16.5037805240145
 20
49.1742117203205
 10
16.5078863956992
 20
49.1728405685612
 10
16.5077389838325
 20
49.1725427680836
 10
16.506943998213
 20
49.1719256296366
 10
16.5062373365251
 20
49.1710419636116
  0
LWPOLYLINE
  5
20157
100
AcDbEntity
  8
0
100
AcDbPolyline
 70
0
 90
8
 10
16.5043255222028
 20
49.1768502107161
 10
16.5029861887362
 20
49.1768689385612
 10
16.5014520465132
 20
49.1768736605316
 10
16.5002574163621
 20
49.1770750836897
 10
16.4981726499914
 20
49.1781460266091
 10
16.4948293013292
 20
49.1799307205162
 10
16.4921918191113
 20
49.1812921584429
 10
16.4911799981535
 20
49.1815784458045
  0
LWPOLYLINE
  5
20158
100
AcDbEntity
  8
0
100
AcDbPolyline
 70
0
 90
6
 10
16.5043255222028
 20
49.1768502107161
 10
16.5045749845175
 20
49.1775861750805
 10
16.5046294683331
 20
49.1792272506873
 10
16.5049430719652
 20
49.18259589553
 10
16.5051946287128
 20
49.1831883942104
 10
16.5066078278725
 20
49.1857455553197
  0
LWPOLYLINE
  5
20159
100
AcDbEntity
  8
0
100
AcDbPolyline
 70
0
 90
13
 10
16.5066078278725
 20
49.1857455553197
 10
16.5070092379822
 20
49.1866216601923
 10
16.5072401519802
 20
49.1876004174106
 10
16.5072748108085
 20
49.1889672011142
 10
16.5075313694908
 20
49.190579681211
 10
16.5081191915636
 20
49.1919143420057
 10
16.5087740484564
 20
49.193110195227
 10
16.5096042063055
 20
49.1941750056814
 10
16.5105930816203
 20
49.1952081073689
 10
16.5123094330557
 20
49.1966092933319
 10
16.5142478470694
 20
49.1982561378882
 10
16.5147953221683
 20
49.198783644658
 10
16.5165420559822
 20
49.2006608343217
  0
LWPOLYLINE
  5
2015A
100
AcDbEntity
  8
0
100
AcDbPolyline
 70
0
 90
25
 10
16.5165420559822
 20
49.2006608343217
 10
16.5175316374721
 20
49.198276038764
 10
16.5179342414744
 20
49.1977017300673
 10
16.5186051083487
 20
49.1967014546195
 10
16.5193649328443
 20
49.1956931877051
 10
16.5199258176448
 20
49.1949578843084
 10
16.5203943929017
 20
49.1947760351982
 10
16.5211912073946
 20
49.1949910715736
 10
16.5217258151332
 20
49.1952016865703
 10
16.5223534200525
 20
49.1951173822282
 10
16.5230672776151
 20
49.1949100054645
 10
16.5234692400256
 20
49.1949962282545
 10
16.5242624360687
 20
49.1956274421771
 10
16.5242941100471
 20
49.1966205945187
 10
16.5243235917326
 20
49.196838115271
 10
16.5244491550279
 20
49.1970050707347
 10
16.5248342126733
 20
49.1970613559969
 10
16.5253850452813
 20
49.1970433422
 10
16.5265776900072
 20
49.1968558516688
 10
16.5272702734289
 20
49.1967761700207
 10
16.5289498986929
 20
49.1969537960875
 10
16.529445221235
 20
49.1968743494698
 10
16.5303394045791
 20
49.1966367473867
 10
16.5311111259274
 20
49.1964765415228
 10
16.532147424339
 20
49.1963065335197
  0
LWPOLYLINE
  5
2015B
100
AcDbEntity
  8
0
100
AcDbPolyline
 70
0
 90
4
 10
16.532147424339
 20
49.1963065335197
 10
16.5320785546728
 20
49.1957989899757
 10
16.5322651977375
 20
49.1954676876332
 10
16.5326805832949
 20
49.1952101851217
  0
LWPOLYLINE
  5
2015C
100
AcDbEntity
  8
0
100
AcDbPolyline
 70
0
 90
9
 10
16.5326805832949
 20
49.1952101851217
 10
16.5313254945089
 20
49.1941367514992
 10
16.5303704414582
 20
49.1932929637818
 10
16.5302858106207
 20
49.193143304258
 10
16.5298646468989
 20
49.1922515405466
 10
16.529857639684
 20
49.1915042904958
 10
16.530132114733
 20
49.1907771802722
 10
16.5308297859816
 20
49.190008542714
 10
16.531053012613
 20
49.1898521852728
  0
LWPOLYLINE
  5
2015D
100
AcDbEntity
  8
0
100
AcDbPolyline
 70
0
 90
6
 10
16.531053012613
 20
49.1898521852728
 10
16.5324789510942
 20
49.1889202299643
 10
16.5340780453963
 20
49.1880006439977
 10
16.5355550500233
 20
49.1872877164134
 10
16.5362923556117
 20
49.1869383412701
 10
16.5410399965333
 20
49.1853964786035
  0
LWPOLYLINE
  5
2015E
100
AcDbEntity
  8
0
100
AcDbPolyline
 70
0
 90
11
 10
16.5410399965333
 20
49.1853964786035
 10
16.5420905053821
 20
49.184796813197
 10
16.5434799577588
 20
49.1843456018195
 10
16.544320276764
 20
49.1839030196347
 10
16.544619341176
 20
49.1834217716979
 10
16.5446251134556
 20
49.1827281049421
 10
16.5442733063914
 20
49.1817695575275
 10
16.5442115477563
 20
49.1812625364232
 10
16.5445695715675
 20
49.1804264953501
 10
16.5452476695034
 20
49.1794218468407
 10
16.5457036119691
 20
49.1788223557523
  0
LWPOLYLINE
  5
2015F
100
AcDbEntity
  8
0
100
AcDbPolyline
 70
0
 90
23
 10
16.5410399965333
 20
49.1853964786035
 10
16.5414955543736
 20
49.1855201865122
 10
16.5426292026293
 20
49.1852900436229
 10
16.543430912664
 20
49.1852994498311
 10
16.5469664469506
 20
49.1853365572507
 10
16.5493669372855
 20
49.1851728684113
 10
16.550221169437
 20
49.1853056446066
 10
16.5510800608714
 20
49.1856302157943
 10
16.551759267219
 20
49.1861573574387
 10
16.5522023342241
 20
49.1867873124125
 10
16.5521645090873
 20
49.1874547513127
 10
16.5519658951249
 20
49.1879910493007
 10
16.5513906944277
 20
49.1885962074742
 10
16.550606815913
 20
49.1891386046666
 10
16.549502062777
 20
49.1896341610393
 10
16.5480442718438
 20
49.1900566393828
 10
16.5469105409987
 20
49.1902868354015
 10
16.5462170111968
 20
49.1902851828914
 10
16.5454906256291
 20
49.1900418436037
 10
16.5450772373154
 20
49.1898926535074
 10
16.544628460041
 20
49.1899563384588
 10
16.5444565837153
 20
49.1901115995842
 10
16.5444612133714
 20
49.1903034001355
  0
LWPOLYLINE
  5
20160
100
AcDbEntity
  8
0
100
AcDbPolyline
 70
0
 90
15
 10
16.532147424339
 20
49.1963065335197
 10
16.5333665045984
 20
49.1961880878315
 10
16.5343081655574
 20
49.1960160810275
 10
16.5353416871273
 20
49.1957309631635
 10
16.5380517194252
 20
49.1943689700691
 10
16.5383555141693
 20
49.1940795407497
 10
16.5381625884836
 20
49.1939221482211
 10
16.5377216375943
 20
49.1939385007039
 10
16.5374965597534
 20
49.1937548751977
 10
16.5375798811437
 20
49.1934736235704
 10
16.5381605799161
 20
49.1932757883502
 10
16.538812110198
 20
49.1926522017445
 10
16.5386985648041
 20
49.1922372105995
 10
16.5387497227643
 20
49.1919297255709
 10
16.5391783697674
 20
49.1916771491765
  0
LWPOLYLINE
  5
20161
100
AcDbEntity
  8
0
100
AcDbPolyline
 70
0
 90
17
 10
16.5444612133714
 20
49.1903034001355
 10
16.5450989948072
 20
49.1904207497465
 10
16.5456653043879
 20
49.1907483957082
 10
16.5458307208383
 20
49.1910713458411
 10
16.5458439201401
 20
49.1914312930909
 10
16.5456924044254
 20
49.1916837451994
 10
16.5460304055438
 20
49.1920668850248
 10
16.5467982570587
 20
49.1927200516782
 10
16.5473928325226
 20
49.1930975710095
 10
16.5481192720763
 20
49.1933408991187
 10
16.5490615439762
 20
49.1933842237834
 10
16.5500123974991
 20
49.1935956881627
 10
16.5523315036563
 20
49.194144107195
 10
16.5540771275566
 20
49.1946276363504
 10
16.5546270929378
 20
49.194834397688
 10
16.5555897816483
 20
49.1949748566136
 10
16.5558667325374
 20
49.195066407091
  0
LWPOLYLINE
  5
20162
100
AcDbEntity
  8
0
100
AcDbPolyline
 70
0
 90
10
 10
16.5326805832949
 20
49.1952101851217
 10
16.5341126093833
 20
49.1963132414734
 10
16.5346506975136
 20
49.1965910553907
 10
16.5352924739215
 20
49.1966848060423
 10
16.5359900285111
 20
49.1966628710303
 10
16.5387040307892
 20
49.1952772106636
 10
16.5403293470608
 20
49.1945077955754
 10
16.5415465047814
 20
49.1939964099496
 10
16.5423955590721
 20
49.1937219896155
 10
16.5427721929415
 20
49.1936531584804
  0
LWPOLYLINE
  5
20163
100
AcDbEntity
  8
0
100
AcDbPolyline
 70
0
 90
18
 10
16.5427721929415
 20
49.1936531584804
 10
16.5434336121207
 20
49.1936286005607
 10
16.5443044001813
 20
49.1938822624309
 10
16.5450636936847
 20
49.1943672926482
 10
16.5452659081577
 20
49.1949082734226
 10
16.5455227520387
 20
49.1962190329152
 10
16.5456088375209
 20
49.1967995877899
 10
16.5458628903721
 20
49.197248533226
 10
16.5463092081268
 20
49.1976394034744
 10
16.5469274295349
 20
49.1978750076146
 10
16.5477936695632
 20
49.1979368429756
 10
16.5488678937297
 20
49.1978459805014
 10
16.5503133934788
 20
49.1972789994378
 10
16.5517713776259
 20
49.1968564929335
 10
16.5532943993633
 20
49.1967018774531
 10
16.5543639181178
 20
49.1964191637502
 10
16.5552600761692
 20
49.1958608108724
 10
16.5558667325374
 20
49.195066407091
  0
LWPOLYLINE
  5
20164
100
AcDbEntity
  8
0
100
AcDbPolyline
 70
0
 90
7
 10
16.5558667325374
 20
49.195066407091
 10
16.5566388665843
 20
49.1945949353013
 10
16.5572438148515
 20
49.1944705374243
 10
16.5585823639346
 20
49.1943266379793
 10
16.5600770464376
 20
49.1941220530038
 10
16.5611786379873
 20
49.1938655025054
 10
16.5644150864461
 20
49.1927939471658
  0
LWPOLYLINE
  5
20165
100
AcDbEntity
  8
0
100
AcDbPolyline
 70
0
 90
16
 10
16.5066078278725
 20
49.1857455553197
 10
16.5059517708258
 20
49.1893288375456
 10
16.5050867617779
 20
49.1929767014117
 10
16.5047645946006
 20
49.1940306618843
 10
16.5012534413985
 20
49.1977758171424
 10
16.5007570909234
 20
49.1981231473448
 10
16.4959055176861
 20
49.1998331823303
 10
16.4941587114829
 20
49.2004496906823
 10
16.4924365497586
 20
49.201355172049
 10
16.4904462962971
 20
49.2025525261242
 10
16.4883124746342
 20
49.2041703725115
 10
16.4870425783566
 20
49.2047732037533
 10
16.4868951290782
 20
49.2052173792473
 10
16.4872257397573
 20
49.2060788995329
 10
16.4876316174162
 20
49.2064910513337
 10
16.4874163848056
 20
49.2071218392538
  0
LWPOLYLINE
  5
20166
100
AcDbEntity
  8
0
100
AcDbPolyline
 70
0
 90
4
 10
16.4874163848056
 20
49.2071218392538
 10
16.488214929477
 20
49.2073707335751
 10
16.4897191307008
 20
49.2075506651887
 10
16.4902487119317
 20
49.2076605351506
  0
LWPOLYLINE
  5
20167
100
AcDbEntity
  8
0
100
AcDbPolyline
 70
0
 90
17
 10
16.4902487119317
 20
49.2076605351506
 10
16.4912668947075
 20
49.2074704164095
 10
16.4931914588666
 20
49.2073214777334
 10
16.495232217778
 20
49.207132981927
 10
16.4974415790869
 20
49.2070283649989
 10
16.4991015600782
 20
49.2069321363066
 10
16.5009138338248
 20
49.2067989440845
 10
16.5032067068112
 20
49.2064129912881
 10
16.5060325657257
 20
49.2058976856229
 10
16.5074714245603
 20
49.2055939975199
 10
16.5095442040198
 20
49.2054314894968
 10
16.5101014564424
 20
49.2053757065717
 10
16.5120648176788
 20
49.204774482599
 10
16.5143552468274
 20
49.203526495286
 10
16.5149231784408
 20
49.202968826417
 10
16.5160821100713
 20
49.201496116263
 10
16.5165420559822
 20
49.2006608343217
  0
LWPOLYLINE
  5
20168
100
AcDbEntity
  8
0
100
AcDbPolyline
 70
0
 90
4
 10
16.4874163848056
 20
49.2071218392538
 10
16.4860605537693
 20
49.2069286098525
 10
16.4855270277729
 20
49.206842372022
 10
16.4842605572916
 20
49.2072060683401
  0
LWPOLYLINE
  5
20169
100
AcDbEntity
  8
0
100
AcDbPolyline
 70
0
 90
10
 10
16.4842605572916
 20
49.2072060683401
 10
16.4836350241322
 20
49.2072328831928
 10
16.4830852178107
 20
49.2070257847953
 10
16.4825354162387
 20
49.2068186828787
 10
16.481673067984
 20
49.2067327073126
 10
16.4808349264515
 20
49.2067202734708
 10
16.4798603303139
 20
49.2066501427767
 10
16.4789539629219
 20
49.2066088506721
 10
16.4782760697264
 20
49.2065121877889
 10
16.4777104305651
 20
49.2063996654411
  0
LWPOLYLINE
  5
2016A
100
AcDbEntity
  8
0
100
AcDbPolyline
 70
0
 90
6
 10
16.4902487119317
 20
49.2076605351506
 10
16.4911307199363
 20
49.2082475113755
 10
16.4918696840923
 20
49.2087434188083
 10
16.4924385361166
 20
49.2093826791751
 10
16.4931626427739
 20
49.2104040879379
 10
16.493191299479
 20
49.210669436294
  0
LWPOLYLINE
  5
2016B
100
AcDbEntity
  8
0
100
AcDbPolyline
 70
0
 90
8
 10
16.4842605572916
 20
49.2072060683401
 10
16.4846670610145
 20
49.2076870920355
 10
16.4851110084964
 20
49.208090023424
 10
16.4850502533493
 20
49.2087797902266
 10
16.4852300789584
 20
49.2094509548449
 10
16.4848415636923
 20
49.2106796410246
 10
16.4846681023363
 20
49.2111698170248
 10
16.4843495848288
 20
49.2113264287977
  0
LWPOLYLINE
  5
2016C
100
AcDbEntity
  8
0
100
AcDbPolyline
 70
0
 90
7
 10
16.493191299479
 20
49.210669436294
 10
16.4911730926576
 20
49.2111587214524
 10
16.4900725049617
 20
49.2112950503746
 10
16.4896514149233
 20
49.2113006909596
 10
16.4880432125322
 20
49.2113047755056
 10
16.4846584138757
 20
49.2113366706957
 10
16.4843495848288
 20
49.2113264287977
  0
LWPOLYLINE
  5
2016D
100
AcDbEntity
  8
0
100
AcDbPolyline
 70
0
 90
32
 10
16.4843495848288
 20
49.2113264287977
 10
16.4838943747468
 20
49.2113176269168
 10
16.4808925827192
 20
49.2113530219896
 10
16.4803792598799
 20
49.2113639606799
 10
16.4798516433919
 20
49.2112422203394
 10
16.4794725992388
 20
49.2112149450361
 10
16.4791659606238
 20
49.211300590864
 10
16.4785348354909
 20
49.2115783069168
 10
16.4768730779968
 20
49.2119015180516
 10
16.4749526479258
 20
49.2122419876579
 10
16.473553659721
 20
49.2126319451191
 10
16.473114505319
 20
49.2126362254804
 10
16.4721719346564
 20
49.2125922795353
 10
16.4716246717676
 20
49.2126964801281
 10
16.4702877334257
 20
49.2130429972903
 10
16.4695823500322
 20
49.2133272889166
 10
16.4693397577411
 20
49.213357684184
 10
16.4691229699517
 20
49.2132343519451
 10
16.4692390266289
 20
49.2130871273503
 10
16.4697680634276
 20
49.2128739110249
 10
16.470329226886
 20
49.2126869437163
 10
16.4704512329541
 20
49.2125042421079
 10
16.4703467147551
 20
49.2123650637445
 10
16.4701420252984
 20
49.2122785095456
 10
16.4697008888737
 20
49.2122946018734
 10
16.4683955303365
 20
49.2123441686075
 10
16.4678099949062
 20
49.212349848974
 10
16.466887290039
 20
49.2121876097683
 10
16.465290973106
 20
49.2121204259394
 10
16.4620594198416
 20
49.2114565825517
 10
16.4614738942067
 20
49.2114622307636
 10
16.460766163811
 20
49.2115428398861
  0
LWPOLYLINE
  5
2016E
100
AcDbEntity
  8
0
100
AcDbPolyline
 70
0
 90
18
 10
16.493191299479
 20
49.210669436294
 10
16.4930497439233
 20
49.2114060530205
 10
16.4926081697715
 20
49.2119487800315
 10
16.492362042183
 20
49.2123715102741
 10
16.4922923635117
 20
49.2127877678408
 10
16.4926495686991
 20
49.2132729913591
 10
16.4936425566231
 20
49.213976219948
 10
16.4938937540378
 20
49.2143963784472
 10
16.4939043983568
 20
49.2148567027296
 10
16.4933223173202
 20
49.2157148630817
 10
16.4931473682065
 20
49.2164107843718
 10
16.4933503101587
 20
49.2167700321588
 10
16.4937510102102
 20
49.218043454332
 10
16.4935633902892
 20
49.2188150595277
 10
16.4933567622776
 20
49.2197001891828
 10
16.4934441764626
 20
49.2200511376982
 10
16.4937337918246
 20
49.220416608574
 10
16.4942446125471
 20
49.2206830743133
  0
LWPOLYLINE
  5
2016F
100
AcDbEntity
  8
0
100
AcDbPolyline
 70
0
 90
12
 10
16.4942446125471
 20
49.2206830743133
 10
16.4949924752839
 20
49.220755929207
 10
16.4966508499467
 20
49.2204537440241
 10
16.497809047956
 20
49.2203454088779
 10
16.4999010782917
 20
49.2202466416391
 10
16.5022891059053
 20
49.2204754431332
 10
16.50400328415
 20
49.220713304683
 10
16.5049854133702
 20
49.2207837493307
 10
16.5061083906639
 20
49.220711101992
 10
16.5070892408948
 20
49.2202644425421
 10
16.5080692124929
 20
49.219473050292
 10
16.5083881154524
 20
49.2191650173135
  0
LWPOLYLINE
  5
20170
100
AcDbEntity
  8
0
100
AcDbPolyline
 70
0
 90
6
 10
16.5194298220413
 20
49.2186594528549
 10
16.5203653688739
 20
49.2181328577387
 10
16.5205309445612
 20
49.2176660216847
 10
16.5205899731819
 20
49.2169617874032
 10
16.5208706061104
 20
49.2163308604632
 10
16.5217757728005
 20
49.2152850984239
  0
LWPOLYLINE
  5
20171
100
AcDbEntity
  8
0
100
AcDbPolyline
 70
0
 90
9
 10
16.5194298220413
 20
49.2186594528549
 10
16.5190389925297
 20
49.2188995360493
 10
16.5190168905572
 20
49.2190319868538
 10
16.51946690447
 20
49.2193131263087
 10
16.5196411613521
 20
49.2196702594459
 10
16.5195184983965
 20
49.2205805619966
 10
16.5194861208415
 20
49.2216505086841
 10
16.5190936429761
 20
49.2236520548149
 10
16.518964175311
 20
49.2244278372305
  0
LWPOLYLINE
  5
20172
100
AcDbEntity
  8
0
100
AcDbPolyline
 70
0
 90
13
 10
16.518964175311
 20
49.2244278372305
 10
16.5182048842598
 20
49.2237224547296
 10
16.5177191675706
 20
49.223304722842
 10
16.5171761467216
 20
49.2230552131861
 10
16.5165144209995
 20
49.2228163471598
 10
16.5158238135664
 20
49.2225754082414
 10
16.5160088583148
 20
49.2221674132093
 10
16.5160783510028
 20
49.2217511409936
 10
16.5159397746449
 20
49.2215305907942
 10
16.5156441286417
 20
49.2213753808317
 10
16.5151304809313
 20
49.2213002931669
 10
16.5126845812562
 20
49.2210676177639
 10
16.511355797019
 20
49.220972396999
  0
LWPOLYLINE
  5
20173
100
AcDbEntity
  8
0
100
AcDbPolyline
 70
0
 90
2
 10
16.518964175311
 20
49.2244278372305
 10
16.5179648660101
 20
49.2251604885847
  0
LWPOLYLINE
  5
20174
100
AcDbEntity
  8
0
100
AcDbPolyline
 70
0
 90
3
 10
16.5217757728005
 20
49.2152850984239
 10
16.5213479463232
 20
49.2183755248712
 10
16.5209217968106
 20
49.2209299403969
  0
LWPOLYLINE
  5
20175
100
AcDbEntity
  8
0
100
AcDbPolyline
 70
0
 90
4
 10
16.5209217968106
 20
49.2209299403969
 10
16.5214716043327
 20
49.2213139514179
 10
16.5217424946553
 20
49.2217928813177
 10
16.5218274364187
 20
49.2223350909222
  0
LWPOLYLINE
  5
20176
100
AcDbEntity
  8
0
100
AcDbPolyline
 70
0
 90
8
 10
16.5218274364187
 20
49.2223350909222
 10
16.520886768106
 20
49.2221911718734
 10
16.5202764962773
 20
49.2219943057171
 10
16.5197776793259
 20
49.2214799062639
 10
16.5198299380265
 20
49.2206411538703
 10
16.5199688535404
 20
49.2198086054495
 10
16.5198424217102
 20
49.2193400116828
 10
16.5194298220413
 20
49.2186594528549
  0
LWPOLYLINE
  5
20177
100
AcDbEntity
  8
0
100
AcDbPolyline
 70
0
 90
5
 10
16.5209217968106
 20
49.2209299403969
 10
16.5206250445982
 20
49.2227085681785
 10
16.5204207794128
 20
49.2242831941664
 10
16.5202670180522
 20
49.225555074778
 10
16.5201236677605
 20
49.2271149135745
  0
LWPOLYLINE
  5
20178
100
AcDbEntity
  8
0
100
AcDbPolyline
 70
0
 90
12
 10
16.5217757728005
 20
49.2152850984239
 10
16.5218139311775
 20
49.2140049444278
 10
16.5217334026483
 20
49.2127354408572
 10
16.5216565125208
 20
49.2116193779754
 10
16.5214383767605
 20
49.2104740546936
 10
16.5211777944662
 20
49.2090576248049
 10
16.5204794611043
 20
49.2071120110492
 10
16.5199694343248
 20
49.2059649267059
 10
16.5192951656019
 20
49.2045763040357
 10
16.5182933563122
 20
49.203049326102
 10
16.5173592947754
 20
49.2016420743295
 10
16.5165420559822
 20
49.2006608343217
  0
LWPOLYLINE
  5
20179
100
AcDbEntity
  8
0
100
AcDbPolyline
 70
0
 90
16
 10
16.5218274364187
 20
49.2223350909222
 10
16.5224673431818
 20
49.2222229219673
 10
16.5232946538415
 20
49.221994914179
 10
16.5241178283358
 20
49.2214410990509
 10
16.5248863649345
 20
49.2208642215123
 10
16.5252997586187
 20
49.2206640292424
 10
16.5260408633731
 20
49.2206021642346
 10
16.5268113487546
 20
49.2207147224479
 10
16.5279804505937
 20
49.2210664063312
 10
16.529333364297
 20
49.2217184305518
 10
16.5300707092175
 20
49.2225561929371
 10
16.5306447161216
 20
49.2234971556296
 10
16.5309975998224
 20
49.2245371886546
 10
16.5312349375809
 20
49.2255689605394
 10
16.5313945605063
 20
49.2263654084029
 10
16.532893720699
 20
49.2264917086158
  0
LWPOLYLINE
  5
2017A
100
AcDbEntity
  8
0
100
AcDbPolyline
 70
0
 90
6
 10
16.5179648660101
 20
49.2251604885847
 10
16.518326797946
 20
49.2254879782779
 10
16.5185670343065
 20
49.2265008542281
 10
16.5189566447122
 20
49.2269691419846
 10
16.5193421636968
 20
49.2271116261275
 10
16.5201236677605
 20
49.2271149135745
  0
LWPOLYLINE
  5
2017B
100
AcDbEntity
  8
0
100
AcDbPolyline
 70
0
 90
6
 10
16.5201236677605
 20
49.2271149135745
 10
16.5208507872425
 20
49.2271813191826
 10
16.5213550321107
 20
49.227313145858
 10
16.5218570811474
 20
49.2278086161921
 10
16.522307190795
 20
49.2280897451033
 10
16.5231938335199
 20
49.2283829586269
  0
LWPOLYLINE
  5
2017C
100
AcDbEntity
  8
0
100
AcDbPolyline
 70
0
 90
5
 10
16.5231938335199
 20
49.2283829586269
 10
16.5221682912905
 20
49.2289222952668
 10
16.5211070445226
 20
49.2293250363188
 10
16.5202060297718
 20
49.2296434994733
 10
16.517916418087
 20
49.2303986809379
  0
LWPOLYLINE
  5
2017D
100
AcDbEntity
  8
0
100
AcDbPolyline
 70
0
 90
11
 10
16.5231938335199
 20
49.2283829586269
 10
16.5247224135033
 20
49.2286837945131
 10
16.5265430872798
 20
49.2289863533362
 10
16.5282960330789
 20
49.2291691542954
 10
16.5293582287129
 20
49.2291110710141
 10
16.530307498382
 20
49.2288534326674
 10
16.5310540040161
 20
49.228408967512
 10
16.5315819778196
 20
49.2278722901253
 10
16.5320521570685
 20
49.2273314802279
 10
16.5324808237818
 20
49.226864290241
 10
16.532893720699
 20
49.2264917086158
  0
LWPOLYLINE
  5
2017E
100
AcDbEntity
  8
0
100
AcDbPolyline
 70
0
 90
92
 10
16.5179648660101
 20
49.2251604885847
 10
16.5162652550459
 20
49.2250531410829
 10
16.5109238853091
 20
49.2258767947312
 10
16.5100544810178
 20
49.2260059659345
 10
16.5090085724793
 20
49.2261416275243
 10
16.5085566915511
 20
49.226396453903
 10
16.5083007100857
 20
49.2267036191634
 10
16.5082022561154
 20
49.2271178145622
 10
16.508734793591
 20
49.2283048609179
 10
16.5090642498985
 20
49.2291326847816
 10
16.5092081520135
 20
49.2301961307764
 10
16.5094522585835
 20
49.2315348273069
 10
16.509621907741
 20
49.232619264568
 10
16.5095396977764
 20
49.2331112163702
 10
16.5090881905052
 20
49.2335384077669
 10
16.508456554257
 20
49.2338186517954
 10
16.5077219851778
 20
49.2340149231377
 10
16.5058289066355
 20
49.2343196157638
 10
16.505062261297
 20
49.2345327199527
 10
16.504664908974
 20
49.2348105956628
 10
16.5044187705456
 20
49.2352333501262
 10
16.5045202021042
 20
49.2360256899023
 10
16.5046838513878
 20
49.2373203368813
 10
16.5047378297197
 20
49.238396492833
 10
16.5046777108836
 20
49.2387559930652
 10
16.5042261102884
 20
49.2391831641479
 10
16.5035690572587
 20
49.2396147500173
 10
16.5018570898907
 20
49.2405834148472
 10
16.5001707880526
 20
49.2415730474564
 10
16.4994111411445
 20
49.2420929947809
 10
16.4983379504316
 20
49.2430882938256
 10
16.4973288510352
 20
49.2440498879285
 10
16.4964677688231
 20
49.2451752834832
 10
16.4957028549929
 20
49.2462501324885
 10
16.4952772269911
 20
49.2468706242366
 10
16.4947288771016
 20
49.2471759361271
 10
16.4939140714664
 20
49.247500415991
 10
16.4925984208699
 20
49.2478463802839
 10
16.4915072534445
 20
49.2480744110137
 10
16.4902680273648
 20
49.2481386140138
 10
16.4881589444546
 20
49.2483318094131
 10
16.4874850536411
 20
49.2485131824999
 10
16.4868178583622
 20
49.2488290728712
 10
16.486308562417
 20
49.2494243814678
 10
16.4857964357533
 20
49.2502109704941
 10
16.4853798141573
 20
49.2506023019228
 10
16.4841708111067
 20
49.2513579619331
 10
16.4834810002527
 20
49.2516339144657
 10
16.4827619347317
 20
49.2517354235993
 10
16.4815772378345
 20
49.2518226085779
 10
16.4803674786556
 20
49.2522335049162
 10
16.4796296811914
 20
49.2526208783427
 10
16.4792679553081
 20
49.2532076263221
 10
16.4790701220018
 20
49.2538636036497
 10
16.4785346224945
 20
49.2542655176113
 10
16.4775271120328
 20
49.2546909334839
 10
16.4762664303374
 20
49.2554045108358
 10
16.4753166874317
 20
49.2558340652005
 10
16.4740327682709
 20
49.2561629761232
 10
16.4733590294259
 20
49.2565166282903
 10
16.4728622023251
 20
49.2570361968592
 10
16.4720133563792
 20
49.2582580876704
 10
16.4715615985039
 20
49.2588574911381
 10
16.4705068559721
 20
49.2599113689174
 10
16.4698266831534
 20
49.2603028400304
 10
16.4693355476198
 20
49.2604398300733
 10
16.4682954515075
 20
49.2607096428232
 10
16.4674094232951
 20
49.260933092262
 10
16.4667060902156
 20
49.260939901743
 10
16.4660215543539
 20
49.2606608257564
 10
16.4652884709047
 20
49.2601484618317
 10
16.464655127434
 20
49.259739020742
 10
16.4644421190416
 20
49.259091762184
 10
16.4642033887977
 20
49.2584235017854
 10
16.4639710282293
 20
49.2577174014814
 10
16.4638164013138
 20
49.2574190281746
 10
16.4639860995179
 20
49.2571057179601
 10
16.4644801192571
 20
49.2567774696011
 10
16.4652056564498
 20
49.2566382340269
 10
16.4654785264399
 20
49.2565812893087
 10
16.4654620603757
 20
49.2563311659497
 10
16.4650730069314
 20
49.2560350617725
 10
16.4645908839841
 20
49.2557705493609
 10
16.4641795751557
 20
49.2556068807976
 10
16.4636208419542
 20
49.2556240813914
 10
16.4631490960185
 20
49.2558198877723
 10
16.4625967215064
 20
49.2557992430109
 10
16.4621886018075
 20
49.2556166482139
 10
16.4620464472647
 20
49.2550702318736
 10
16.4617022372134
 20
49.2546815982116
 10
16.4610334592164
 20
49.2541355327214
 10
16.4601854390837
 20
49.2539595276076
  0
LWPOLYLINE
  5
2017F
100
AcDbEntity
  8
0
100
AcDbPolyline
 70
0
 90
6
 10
16.5302442770742
 20
49.2411606000637
 10
16.5304235737231
 20
49.2399096966645
 10
16.5304882889783
 20
49.2389952545462
 10
16.5303454280458
 20
49.2384489209288
 10
16.5300780270684
 20
49.2381234526388
 10
16.5290020125051
 20
49.2379125062956
  0
LWPOLYLINE
  5
20180
100
AcDbEntity
  8
0
100
AcDbPolyline
 70
0
 90
12
 10
16.5290020125051
 20
49.2379125062956
 10
16.5275855530031
 20
49.2376389129934
 10
16.5273155160773
 20
49.2375047214198
 10
16.5274301065066
 20
49.2371682626795
 10
16.528498568426
 20
49.2347938001346
 10
16.5290766066652
 20
49.2337820247512
 10
16.5299435635397
 20
49.2327909019533
 10
16.531034817372
 20
49.2316817766554
 10
16.5320829730632
 20
49.2301291773832
 10
16.5327029031216
 20
49.2292161227491
 10
16.5335733798429
 20
49.2283784121941
 10
16.5338901481611
 20
49.2280563987223
  0
LWPOLYLINE
  5
20181
100
AcDbEntity
  8
0
100
AcDbPolyline
 70
0
 90
8
 10
16.5338901481611
 20
49.2280563987223
 10
16.5346466015174
 20
49.2266744140825
 10
16.5350747141419
 20
49.2260348529504
 10
16.5357018954832
 20
49.2254286612038
 10
16.536197745684
 20
49.2249088196575
 10
16.5365260184942
 20
49.2241663874543
 10
16.5368217125684
 20
49.2232684503488
 10
16.5370512300474
 20
49.2227678749445
  0
LWPOLYLINE
  5
20182
100
AcDbEntity
  8
0
100
AcDbPolyline
 70
0
 90
7
 10
16.532893720699
 20
49.2264917086158
 10
16.5335603207231
 20
49.2261755517143
 10
16.5346986140107
 20
49.2258356547022
 10
16.5354959859371
 20
49.2252607721607
 10
16.5359403588116
 20
49.2246989597826
 10
16.5362003469295
 20
49.2236644423694
 10
16.5362969729285
 20
49.2227331362488
  0
LWPOLYLINE
  5
20183
100
AcDbEntity
  8
0
100
AcDbPolyline
 70
0
 90
2
 10
16.5362969729285
 20
49.2227331362488
 10
16.5370512300474
 20
49.2227678749445
  0
LWPOLYLINE
  5
20184
100
AcDbEntity
  8
0
100
AcDbPolyline
 70
0
 90
3
 10
16.5370512300474
 20
49.2227678749445
 10
16.5370391189084
 20
49.2219628309746
 10
16.5369955011852
 20
49.2213470070733
  0
LWPOLYLINE
  5
20185
100
AcDbEntity
  8
0
100
AcDbPolyline
 70
0
 90
12
 10
16.5369955011852
 20
49.2213470070733
 10
16.5371703840486
 20
49.2208233814872
 10
16.537826359978
 20
49.2202192413316
 10
16.5388258138479
 20
49.2196587799924
 10
16.5399507825309
 20
49.2192221576376
 10
16.5406498190936
 20
49.2190614617102
 10
16.542718567721
 20
49.2187496488495
 10
16.5438645891183
 20
49.2188889029666
 10
16.5446771246424
 20
49.2191000775868
 10
16.5453483787582
 20
49.2192820156217
 10
16.5462024017391
 20
49.2194195510176
 10
16.5483526401671
 20
49.2194963907984
  0
LWPOLYLINE
  5
20186
100
AcDbEntity
  8
0
100
AcDbPolyline
 70
0
 90
12
 10
16.5362969729285
 20
49.2227331362488
 10
16.5364823514994
 20
49.2214443761075
 10
16.5369098649044
 20
49.2206324460328
 10
16.5376714048616
 20
49.2199209661141
 10
16.5388825117536
 20
49.2193181823241
 10
16.5402285740781
 20
49.2187824678171
 10
16.5418960527525
 20
49.2184228651852
 10
16.5436029460371
 20
49.2183532583164
 10
16.5450730078036
 20
49.2184773391996
 10
16.5464375357549
 20
49.2187087498297
 10
16.5477826282918
 20
49.218881317254
 10
16.5487007178946
 20
49.2189851129592
  0
LWPOLYLINE
  5
20187
100
AcDbEntity
  8
0
100
AcDbPolyline
 70
0
 90
2
 10
16.5487007178946
 20
49.2189851129592
 10
16.5483526401671
 20
49.2194963907984
  0
LWPOLYLINE
  5
20188
100
AcDbEntity
  8
0
100
AcDbPolyline
 70
0
 90
7
 10
16.5483526401671
 20
49.2194963907984
 10
16.5498665236784
 20
49.2202362295222
 10
16.5508266911972
 20
49.2204387407534
 10
16.551737942988
 20
49.2204079941809
 10
16.5527999232454
 20
49.2203496950665
 10
16.5536024982154
 20
49.2204452124447
 10
16.5543184108753
 20
49.2205345450015
  0
LWPOLYLINE
  5
20189
100
AcDbEntity
  8
0
100
AcDbPolyline
 70
0
 90
13
 10
16.5543184108753
 20
49.2205345450015
 10
16.5543879881011
 20
49.2211713446719
 10
16.5545719355322
 20
49.2214716567054
 10
16.5556200059689
 20
49.2220250301599
 10
16.5563176839348
 20
49.2224002477253
 10
16.5565022486871
 20
49.2228729191746
 10
16.5562760707092
 20
49.2233546113636
 10
16.555853946296
 20
49.2237840444226
 10
16.5552690931902
 20
49.2244890763003
 10
16.5545114714918
 20
49.225354111385
 10
16.5536923062916
 20
49.2260615835078
 10
16.5524918218587
 20
49.226952477804
 10
16.5517838581149
 20
49.227342373718
  0
LWPOLYLINE
  5
2018A
100
AcDbEntity
  8
0
100
AcDbPolyline
 70
0
 90
12
 10
16.5487007178946
 20
49.2189851129592
 10
16.5498367493835
 20
49.2190087131214
 10
16.5507348144801
 20
49.2188813024457
 10
16.5524179435102
 20
49.2184269353301
 10
16.5535069997427
 20
49.2178536036199
 10
16.5546048687311
 20
49.2170511324189
 10
16.5557881660923
 20
49.2159101027081
 10
16.5572050286402
 20
49.2145942468625
 10
16.5584114141937
 20
49.2136654560501
 10
16.5590487941674
 20
49.2133470928191
 10
16.5600742243898
 20
49.212979788913
 10
16.5628640711008
 20
49.2125467002388
  0
LWPOLYLINE
  5
2018B
100
AcDbEntity
  8
0
100
AcDbPolyline
 70
0
 90
10
 10
16.5543184108753
 20
49.2205345450015
 10
16.5544730585598
 20
49.2197797046043
 10
16.5544844502363
 20
49.219359290327
 10
16.5544531932188
 20
49.2186677834441
 10
16.5545386697469
 20
49.2183292374367
 10
16.5549130115755
 20
49.2180112845289
 10
16.5553262600808
 20
49.2178109846011
 10
16.5561024567194
 20
49.2177131400286
 10
16.5578959665878
 20
49.2176494987633
 10
16.5606132299739
 20
49.2174793229777
  0
LWPOLYLINE
  5
2018C
100
AcDbEntity
  8
0
100
AcDbPolyline
 70
0
 90
7
 10
16.5606132299739
 20
49.2174793229777
 10
16.5602578574406
 20
49.2168030246512
 10
16.5601567967692
 20
49.2163554557141
 10
16.5602937181827
 20
49.2160588670703
 10
16.5591241960653
 20
49.2128929491601
 10
16.5593427961409
 20
49.212104371883
 10
16.55941880332
 20
49.2118225897831
  0
LWPOLYLINE
  5
2018D
100
AcDbEntity
  8
0
100
AcDbPolyline
 70
0
 90
7
 10
16.55941880332
 20
49.2118225897831
 10
16.5599035360542
 20
49.2118954232686
 10
16.5609816427833
 20
49.2119147975796
 10
16.5618481459326
 20
49.211976527351
 10
16.5625576704462
 20
49.2121036539847
 10
16.5628408470971
 20
49.2123344351692
 10
16.5628640711008
 20
49.2125467002388
  0
LWPOLYLINE
  5
2018E
100
AcDbEntity
  8
0
100
AcDbPolyline
 70
0
 90
6
 10
16.55941880332
 20
49.2118225897831
 10
16.5590634888559
 20
49.2111462881869
 10
16.5582052197725
 20
49.2106830451774
 10
16.5576747016145
 20
49.2103580357891
 10
16.5569019043836
 20
49.2095562341739
 10
16.5560198918814
 20
49.2087083465056
  0
LWPOLYLINE
  5
2018F
100
AcDbEntity
  8
0
100
AcDbPolyline
 70
0
 90
9
 10
16.5560198918814
 20
49.2087083465056
 10
16.5551709530823
 20
49.2090690464585
 10
16.5541940881789
 20
49.208616459349
 10
16.5522653444057
 20
49.2084406144689
 10
16.5508570480876
 20
49.2084741858087
 10
16.5500452375487
 20
49.2084354172505
 10
16.5490575723263
 20
49.2085755623691
 10
16.5478174010016
 20
49.2090040300892
 10
16.5467567895942
 20
49.2094070083329
  0
LWPOLYLINE
  5
20190
100
AcDbEntity
  8
0
100
AcDbPolyline
 70
0
 90
13
 10
16.5560198918814
 20
49.2087083465056
 10
16.5555949090714
 20
49.2082759682609
 10
16.555426717181
 20
49.207881043906
 10
16.5554738591205
 20
49.2075972050367
 10
16.5557420197281
 20
49.2072142446454
 10
16.5563755936649
 20
49.2067424559005
 10
16.5575698378695
 20
49.2060617260648
 10
16.5594747853978
 20
49.204972119805
 10
16.5613771239035
 20
49.2040737677301
 10
16.5629497960979
 20
49.2034008080306
 10
16.5647986501742
 20
49.2028240866587
 10
16.5661025523262
 20
49.202361702639
 10
16.5662846027189
 20
49.2021449109006
  0
LWPOLYLINE
  5
20191
100
AcDbEntity
  8
0
100
AcDbPolyline
 70
0
 90
14
 10
16.5662846027189
 20
49.2021449109006
 10
16.5665426011712
 20
49.2016463315232
 10
16.5665538530501
 20
49.2003451795154
 10
16.5664194871425
 20
49.1995697566204
 10
16.5662185904833
 20
49.199019351135
 10
16.5660679099519
 20
49.1981661794776
 10
16.5662310893788
 20
49.1971821890197
 10
16.5662925831739
 20
49.1964590060421
 10
16.5661689106519
 20
49.195971538175
 10
16.5655204790718
 20
49.1949488875326
 10
16.5650208352786
 20
49.194262319248
 10
16.5650515900143
 20
49.1939007284336
 10
16.5654062207399
 20
49.1935239149501
 10
16.5662401815506
 20
49.1932829489172
  0
LWPOLYLINE
  5
20192
100
AcDbEntity
  8
0
100
AcDbPolyline
 70
0
 90
4
 10
16.5662846027189
 20
49.2021449109006
 10
16.5667642440068
 20
49.2026002850619
 10
16.5672589482497
 20
49.2027886812154
 10
16.5676312283201
 20
49.202834334304
  0
LWPOLYLINE
  5
20193
100
AcDbEntity
  8
0
100
AcDbPolyline
 70
0
 90
4
 10
16.5628640711008
 20
49.2125467002388
 10
16.5676035000654
 20
49.2118119806812
 10
16.5705150239087
 20
49.2113490850235
 10
16.57216687065
 20
49.2103752885144
  0
LWPOLYLINE
  5
20194
100
AcDbEntity
  8
0
100
AcDbPolyline
 70
0
 90
8
 10
16.5606132299739
 20
49.2174793229777
 10
16.5613316384126
 20
49.2173773275424
 10
16.5622553906251
 20
49.2172708069491
 10
16.5628224578403
 20
49.2170239992486
 10
16.56358733477
 20
49.2164657865676
 10
16.5642209510283
 20
49.21599395534
 10
16.5649481217333
 20
49.2156628075074
 10
16.5655283446809
 20
49.2155126566887
  0
LWPOLYLINE
  5
20195
100
AcDbEntity
  8
0
100
AcDbPolyline
 70
0
 90
5
 10
16.5655283446809
 20
49.2155126566887
 10
16.5665826562404
 20
49.2151473516312
 10
16.5672752713565
 20
49.21502434054
 10
16.5686190541694
 20
49.2148519409871
 10
16.5698089884066
 20
49.2147260168695
  0
LWPOLYLINE
  5
20196
100
AcDbEntity
  8
0
100
AcDbPolyline
 70
0
 90
7
 10
16.5655283446809
 20
49.2155126566887
 10
16.5660043375964
 20
49.2158145945729
 10
16.5673927727342
 20
49.2164303844422
 10
16.5686173377153
 20
49.2169770539871
 10
16.5727319538098
 20
49.2180739530324
 10
16.572982530199
 20
49.2181492150498
 10
16.5736218523613
 20
49.2183478563707
  0
LWPOLYLINE
  5
20197
100
AcDbEntity
  8
0
100
AcDbPolyline
 70
0
 90
3
 10
16.5698089884066
 20
49.2147260168695
 10
16.570544425054
 20
49.2157548065103
 10
16.5716529335706
 20
49.2170015938841
  0
LWPOLYLINE
  5
20198
100
AcDbEntity
  8
0
100
AcDbPolyline
 70
0
 90
7
 10
16.5736218523613
 20
49.2183478563707
 10
16.5743843246699
 20
49.2188615899927
 10
16.5753741197134
 20
49.2192383139648
 10
16.5764273084006
 20
49.2194089280253
 10
16.5778522473126
 20
49.2194527910504
 10
16.5790686999282
 20
49.2195201099948
 10
16.5797205998482
 20
49.2196430254353
  0
LWPOLYLINE
  5
20199
100
AcDbEntity
  8
0
100
AcDbPolyline
 70
0
 90
2
 10
16.5797205998482
 20
49.2196430254353
 10
16.5826929782392
 20
49.2206274519824
  0
LWPOLYLINE
  5
2019A
100
AcDbEntity
  8
0
100
AcDbPolyline
 70
0
 90
3
 10
16.5797205998482
 20
49.2196430254353
 10
16.5788913823615
 20
49.2209434552867
 10
16.5787319383078
 20
49.2212001664744
  0
LWPOLYLINE
  5
2019B
100
AcDbEntity
  8
0
100
AcDbPolyline
 70
0
 90
9
 10
16.5736218523613
 20
49.2183478563707
 10
16.5753876141842
 20
49.2177458796665
 10
16.5769155134321
 20
49.2178736633432
 10
16.5777720608336
 20
49.2178196810948
 10
16.5782586645409
 20
49.2175287900435
 10
16.5786868104771
 20
49.217061427723
 10
16.5791413796491
 20
49.216787402984
 10
16.5804932053754
 20
49.2162133717343
 10
16.5809352224349
 20
49.2160150329496
  0
LWPOLYLINE
  5
2019C
100
AcDbEntity
  8
0
100
AcDbPolyline
 70
0
 90
4
 10
16.5809352224349
 20
49.2160150329496
 10
16.5821909470001
 20
49.2154915929127
 10
16.583683999102
 20
49.2149467098409
 10
16.5824520478445
 20
49.2133849509986
  0
LWPOLYLINE
  5
2019D
100
AcDbEntity
  8
0
100
AcDbPolyline
 70
0
 90
6
 10
16.5716529335706
 20
49.2170015938841
 10
16.5730852367064
 20
49.216471660184
 10
16.5753444765
 20
49.2157133285281
 10
16.5773857718785
 20
49.215035193273
 10
16.5786164340519
 20
49.2146631775231
 10
16.5824520478445
 20
49.2133849509986
  0
LWPOLYLINE
  5
2019E
100
AcDbEntity
  8
0
100
AcDbPolyline
 70
0
 90
4
 10
16.5698089884066
 20
49.2147260168695
 10
16.5719445531928
 20
49.214361022217
 10
16.5733165291226
 20
49.2140182612713
 10
16.576008924276
 20
49.2132907355829
  0
LWPOLYLINE
  5
2019F
100
AcDbEntity
  8
0
100
AcDbPolyline
 70
0
 90
2
 10
16.5809352224349
 20
49.2160150329496
 10
16.5854059129442
 20
49.2174159513716
  0
LWPOLYLINE
  5
201A0
100
AcDbEntity
  8
0
100
AcDbPolyline
 70
0
 90
3
 10
16.57216687065
 20
49.2103752885144
 10
16.5726435105756
 20
49.2108495610634
 10
16.5734667613188
 20
49.2113484886628
  0
LWPOLYLINE
  5
201A1
100
AcDbEntity
  8
0
100
AcDbPolyline
 70
0
 90
8
 10
16.5734667613188
 20
49.2113484886628
 10
16.5745958702723
 20
49.2121180619514
 10
16.5755687165104
 20
49.2131254088787
 10
16.5761974451161
 20
49.2139168153642
 10
16.5772657507006
 20
49.2147011778285
 10
16.5782913128885
 20
49.2152144453937
 10
16.5798079660207
 20
49.2157626068415
 10
16.5809352224349
 20
49.2160150329496
  0
LWPOLYLINE
  5
201A2
100
AcDbEntity
  8
0
100
AcDbPolyline
 70
0
 90
8
 10
16.57216687065
 20
49.2103752885144
 10
16.5717348078688
 20
49.2098084537258
 10
16.5714559240318
 20
49.209022762294
 10
16.5710445389087
 20
49.2079787390858
 10
16.5694928954073
 20
49.2057047836348
 10
16.5681253592995
 20
49.2037310988122
 10
16.567783172617
 20
49.2031514932755
 10
16.5676312283201
 20
49.202834334304
  0
LWPOLYLINE
  5
201A3
100
AcDbEntity
  8
0
100
AcDbPolyline
 70
0
 90
10
 10
16.5676312283201
 20
49.202834334304
 10
16.5677397749042
 20
49.2018273070521
 10
16.5679073479506
 20
49.201169116554
 10
16.5675977829126
 20
49.1998642715891
 10
16.567773487685
 20
49.1988045873408
 10
16.567662293253
 20
49.1973606946089
 10
16.5677708257797
 20
49.196353666386
 10
16.5683131051361
 20
49.1955498408754
 10
16.5692131114822
 20
49.1943502643343
 10
16.5693246109008
 20
49.1941057035653
  0
LWPOLYLINE
  5
201A4
100
AcDbEntity
  8
0
100
AcDbPolyline
 70
0
 90
6
 10
16.5693246109008
 20
49.1941057035653
 10
16.5695783261547
 20
49.1933806592291
 10
16.569770938501
 20
49.1925710809711
 10
16.5696672615471
 20
49.1914340677199
 10
16.5692196280243
 20
49.1900811005453
 10
16.5689760387939
 20
49.1892596100053
  0
LWPOLYLINE
  5
201A5
100
AcDbEntity
  8
0
100
AcDbPolyline
 70
0
 90
12
 10
16.5689760387939
 20
49.1892596100053
 10
16.5674502679248
 20
49.188595710575
 10
16.5666174104725
 20
49.1879811447932
 10
16.5660538074296
 20
49.1873283138765
 10
16.5659414467148
 20
49.186420427541
 10
16.5660468540874
 20
49.1854323225642
 10
16.5662175311458
 20
49.1847552105904
 10
16.5660637567077
 20
49.183920959409
 10
16.5653991674049
 20
49.1828205578895
 10
16.5647697490173
 20
49.1816843638019
 10
16.5643675188131
 20
49.1804111814536
 10
16.5633963386043
 20
49.1771409059758
  0
LWPOLYLINE
  5
201A6
100
AcDbEntity
  8
0
100
AcDbPolyline
 70
0
 90
6
 10
16.5755419253878
 20
49.192020892552
 10
16.57741982767
 20
49.1942321634436
 10
16.5812031392872
 20
49.1943587198324
 10
16.5834746205796
 20
49.1945293791326
 10
16.5853803214252
 20
49.1946648045758
 10
16.5859101515375
 20
49.1948173252071
  0
LWPOLYLINE
  5
201A7
100
AcDbEntity
  8
0
100
AcDbPolyline
 70
0
 90
7
 10
16.5755419253878
 20
49.192020892552
 10
16.576106243986
 20
49.1917462118582
 10
16.5785532056574
 20
49.1909055224885
 10
16.5796295046996
 20
49.1905799971272
 10
16.5825873286137
 20
49.190005308693
 10
16.5836962770078
 20
49.189835236311
 10
16.5874116288311
 20
49.1894482917558
  0
LWPOLYLINE
  5
201A8
100
AcDbEntity
  8
0
100
AcDbPolyline
 70
0
 90
15
 10
16.5689760387939
 20
49.1892596100053
 10
16.569546420369
 20
49.1888477710449
 10
16.5700955073197
 20
49.1881784529806
 10
16.5707575698712
 20
49.1877086392231
 10
16.57195181098
 20
49.187200120837
 10
16.573120292764
 20
49.1866706119114
 10
16.5741538086501
 20
49.1860740495541
 10
16.5749118121386
 20
49.1855536058318
 10
16.5765651766997
 20
49.1843884554624
 10
16.5777008701798
 20
49.1837034070541
 10
16.5786201507918
 20
49.1834433157705
 10
16.5801901646701
 20
49.1831337672062
 10
16.581322258111
 20
49.1831759809563
 10
16.5825096469495
 20
49.1834135744492
 10
16.5833412408855
 20
49.183683299325
  0
LWPOLYLINE
  5
201A9
100
AcDbEntity
  8
0
100
AcDbPolyline
 70
0
 90
11
 10
16.5833412408855
 20
49.183683299325
 10
16.582566319516
 20
49.1839536909994
 10
16.5823141474206
 20
49.1842420978885
 10
16.5822351831823
 20
49.1845428191176
 10
16.5828911428099
 20
49.1849915192506
 10
16.5853404880512
 20
49.1864292470684
 10
16.5873454099648
 20
49.1873758383221
 10
16.587683171805
 20
49.1876295845604
 10
16.587810164418
 20
49.1880981062473
 10
16.5878060295353
 20
49.1886530415443
 10
16.5874116288311
 20
49.1894482917558
  0
LWPOLYLINE
  5
201AA
100
AcDbEntity
  8
0
100
AcDbPolyline
 70
0
 90
11
 10
16.5874116288311
 20
49.1894482917558
 10
16.588795040442
 20
49.1897380249109
 10
16.5897422619776
 20
49.1900159075098
 10
16.5905489796325
 20
49.1904369698298
 10
16.5911341175091
 20
49.1907848534261
 10
16.5919877763901
 20
49.1909220514339
 10
16.5923327981848
 20
49.1906019257053
 10
16.5927300296511
 20
49.1904961085825
 10
16.5942001187725
 20
49.1907919263186
 10
16.595217643073
 20
49.1909981680298
 10
16.5956132147224
 20
49.1912559901688
  0
LWPOLYLINE
  5
201AB
100
AcDbEntity
  8
0
100
AcDbPolyline
 70
0
 90
6
 10
16.5874116288311
 20
49.1894482917558
 10
16.5880822223168
 20
49.1887492459395
 10
16.5892300943028
 20
49.1886967641009
 10
16.5902593513586
 20
49.1886549920587
 10
16.5932179500864
 20
49.1898415047504
 10
16.5940193804758
 20
49.1897643783872
  0
LWPOLYLINE
  5
201AC
100
AcDbEntity
  8
0
100
AcDbPolyline
 70
0
 90
5
 10
16.5940193804758
 20
49.1897643783872
 10
16.5947231486262
 20
49.190101517748
 10
16.5957765208089
 20
49.1904443190231
 10
16.5958708628905
 20
49.1907573435316
 10
16.5956132147224
 20
49.1912559901688
  0
LWPOLYLINE
  5
201AD
100
AcDbEntity
  8
0
100
AcDbPolyline
 70
0
 90
7
 10
16.5833412408855
 20
49.183683299325
 10
16.5847602925932
 20
49.1841096500822
 10
16.5869570994583
 20
49.1849550179247
 10
16.5889932785949
 20
49.1857123458849
 10
16.5908875821914
 20
49.1862680995388
 10
16.5925370085267
 20
49.1865383933387
 10
16.5949143352193
 20
49.1868209583152
  0
LWPOLYLINE
  5
201AE
100
AcDbEntity
  8
0
100
AcDbPolyline
 70
0
 90
6
 10
16.5949143352193
 20
49.1868209583152
 10
16.594503091406
 20
49.1873672188928
 10
16.5941744690197
 20
49.1877650946618
 10
16.594079937089
 20
49.1881604426753
 10
16.5943099681516
 20
49.1887128498628
 10
16.5944488029738
 20
49.1889333071281
  0
LWPOLYLINE
  5
201AF
100
AcDbEntity
  8
0
100
AcDbPolyline
 70
0
 90
2
 10
16.5944488029738
 20
49.1889333071281
 10
16.5940193804758
 20
49.1897643783872
  0
LWPOLYLINE
  5
201B0
100
AcDbEntity
  8
0
100
AcDbPolyline
 70
0
 90
4
 10
16.5944488029738
 20
49.1889333071281
 10
16.5955678007386
 20
49.1888787128057
 10
16.5968530327878
 20
49.188701885345
 10
16.5982951136105
 20
49.1884595905427
  0
LWPOLYLINE
  5
201B1
100
AcDbEntity
  8
0
100
AcDbPolyline
 70
0
 90
6
 10
16.5859101515375
 20
49.1948173252071
 10
16.5854871643268
 20
49.1964912524455
 10
16.5846062990499
 20
49.1975774154807
 10
16.5834028758464
 20
49.1990235687943
 10
16.5821002210429
 20
49.2005392461382
 10
16.5802658236686
 20
49.2022660117704
  0
LWPOLYLINE
  5
201B2
100
AcDbEntity
  8
0
100
AcDbPolyline
 70
0
 90
12
 10
16.5859101515375
 20
49.1948173252071
 10
16.5849649539211
 20
49.1950564986263
 10
16.5845934134096
 20
49.1951832644749
 10
16.5839063314148
 20
49.195804544358
 10
16.5832794236526
 20
49.1962386388715
 10
16.5826518145146
 20
49.1965003669211
 10
16.5816846445599
 20
49.196871976829
 10
16.581221560822
 20
49.1973751452921
 10
16.5807678637821
 20
49.1978215420041
 10
16.5787011542451
 20
49.1991871358741
 10
16.5764617331154
 20
49.2007127310658
 10
16.5742824065992
 20
49.2020511060566
  0
LWPOLYLINE
  5
201B3
100
AcDbEntity
  8
0
100
AcDbPolyline
 70
0
 90
9
 10
16.5859101515375
 20
49.1948173252071
 10
16.5831030789957
 20
49.1946561392012
 10
16.5808028310791
 20
49.1953159039024
 10
16.5791283698429
 20
49.1960775650092
 10
16.5772071844022
 20
49.1969173876792
 10
16.5745038193456
 20
49.197892998163
 10
16.5727255547363
 20
49.1983982926739
 10
16.5711883245406
 20
49.1990355958694
 10
16.5699266261902
 20
49.1995967631127
  0
LWPOLYLINE
  5
201B4
100
AcDbEntity
  8
0
100
AcDbPolyline
 70
0
 90
7
 10
16.5859101515375
 20
49.1948173252071
 10
16.5872648291594
 20
49.195105024955
 10
16.5881223906877
 20
49.1953956907943
 10
16.5893177891082
 20
49.1959400913999
 10
16.5914957068574
 20
49.1967265503001
 10
16.5921988342869
 20
49.1968913427442
 10
16.5940858856341
 20
49.1971401666613
  0
LWPOLYLINE
  5
201B5
100
AcDbEntity
  8
0
100
AcDbPolyline
 70
0
 90
5
 10
16.5940858856341
 20
49.1971401666613
 10
16.5947802395524
 20
49.1952365942144
 10
16.5954784015361
 20
49.1934864569932
 10
16.5957314643272
 20
49.1926620095831
 10
16.5956132147224
 20
49.1912559901688
  0
LWPOLYLINE
  5
201B6
100
AcDbEntity
  8
0
100
AcDbPolyline
 70
0
 90
3
 10
16.5956132147224
 20
49.1912559901688
 10
16.5959416664629
 20
49.1915664831188
 10
16.596660365602
 20
49.1916366303723
  0
LWPOLYLINE
  5
201B7
100
AcDbEntity
  8
0
100
AcDbPolyline
 70
0
 90
4
 10
16.596660365602
 20
49.1916366303723
 10
16.5973564449042
 20
49.1916668764191
 10
16.5990873395437
 20
49.191445058131
 10
16.5999020348475
 20
49.191464558531
  0
LWPOLYLINE
  5
201B8
100
AcDbEntity
  8
0
100
AcDbPolyline
 70
0
 90
5
 10
16.5999020348475
 20
49.191464558531
 10
16.601228583394
 20
49.1919224094697
 10
16.6024451514118
 20
49.1921618443512
 10
16.6040300786454
 20
49.1922933641717
 10
16.6051748916821
 20
49.1922596478363
  0
LWPOLYLINE
  5
201B9
100
AcDbEntity
  8
0
100
AcDbPolyline
 70
0
 90
5
 10
16.6051748916821
 20
49.1922596478363
 10
16.6054417701396
 20
49.1924125824263
 10
16.6069650688555
 20
49.1923865298921
 10
16.6078734263263
 20
49.1925466262912
 10
16.6083510186918
 20
49.1924847420788
  0
LWPOLYLINE
  5
201BA
100
AcDbEntity
  8
0
100
AcDbPolyline
 70
0
 90
10
 10
16.6051748916821
 20
49.1922596478363
 10
16.605390314603
 20
49.1916622671444
 10
16.6052186609127
 20
49.1912863377882
 10
16.6049283934007
 20
49.190921146143
 10
16.6051484721102
 20
49.1906495666945
 10
16.6055066671327
 20
49.1904260685595
 10
16.6063525709309
 20
49.1902562827469
 10
16.6071188692758
 20
49.1902148673809
 10
16.6080256313914
 20
49.1900302383838
 10
16.6084087790955
 20
49.1896553383832
  0
LWPOLYLINE
  5
201BB
100
AcDbEntity
  8
0
100
AcDbPolyline
 70
0
 90
5
 10
16.6084087790955
 20
49.1896553383832
 10
16.6056020558465
 20
49.1873695770664
 10
16.6040181775773
 20
49.1859936936979
 10
16.6031872716923
 20
49.1851881051102
 10
16.6024633440757
 20
49.1844847394107
  0
LWPOLYLINE
  5
201BC
100
AcDbEntity
  8
0
100
AcDbPolyline
 70
0
 90
6
 10
16.5982951136105
 20
49.1884595905427
 10
16.5999897755848
 20
49.1895179437894
 10
16.6024837472048
 20
49.1892736245609
 10
16.6041606790342
 20
49.1892010741678
 10
16.6073545613962
 20
49.1891402893976
 10
16.6084087790955
 20
49.1896553383832
  0
LWPOLYLINE
  5
201BD
100
AcDbEntity
  8
0
100
AcDbPolyline
 70
0
 90
4
 10
16.6084087790955
 20
49.1896553383832
 10
16.6084540413322
 20
49.1890267518923
 10
16.6101496803528
 20
49.1888405702539
 10
16.6110017818795
 20
49.188632902444
  0
LWPOLYLINE
  5
201BE
100
AcDbEntity
  8
0
100
AcDbPolyline
 70
0
 90
9
 10
16.6110017818795
 20
49.188632902444
 10
16.6108589666408
 20
49.1882590273707
 10
16.6106232985788
 20
49.1879168639989
 10
16.6099935841222
 20
49.1876616537343
 10
16.6095628530576
 20
49.1874396838427
 10
16.6087255875763
 20
49.1859636088487
 10
16.6081692610758
 20
49.1849094860025
 10
16.6081606815343
 20
49.1844302459609
 10
16.6083619920107
 20
49.1835638299768
  0
LWPOLYLINE
  5
201BF
100
AcDbEntity
  8
0
100
AcDbPolyline
 70
0
 90
3
 10
16.6110017818795
 20
49.188632902444
 10
16.6117969235437
 20
49.1885935012648
 10
16.612523674535
 20
49.1887013278345
  0
LWPOLYLINE
  5
201C0
100
AcDbEntity
  8
0
100
AcDbPolyline
 70
0
 90
5
 10
16.6149046818325
 20
49.1860843297087
 10
16.6122391043545
 20
49.1850255314544
 10
16.6103851745559
 20
49.184224113919
 10
16.6091835841733
 20
49.183717779272
 10
16.6083619920107
 20
49.1835638299768
  0
LWPOLYLINE
  5
201C1
100
AcDbEntity
  8
0
100
AcDbPolyline
 70
0
 90
4
 10
16.6083619920107
 20
49.1835638299768
 10
16.6071112698052
 20
49.1835326210428
 10
16.6056139902013
 20
49.1835796465184
 10
16.6046362200003
 20
49.1836624045216
  0
LWPOLYLINE
  5
201C2
100
AcDbEntity
  8
0
100
AcDbPolyline
 70
0
 90
4
 10
16.6046362200003
 20
49.1836624045216
 10
16.6035790975339
 20
49.183875711658
 10
16.6029041436389
 20
49.1842490476414
 10
16.6024633440757
 20
49.1844847394107
  0
LWPOLYLINE
  5
201C3
100
AcDbEntity
  8
0
100
AcDbPolyline
 70
0
 90
8
 10
16.6024633440757
 20
49.1844847394107
 10
16.6007988608072
 20
49.1853250392218
 10
16.5990829275831
 20
49.1859882758038
 10
16.5979233712672
 20
49.1862889142466
 10
16.596706061417
 20
49.1865854425196
 10
16.5959725422768
 20
49.186782276928
 10
16.5953795083173
 20
49.186835914258
 10
16.5949143352193
 20
49.1868209583152
  0
LWPOLYLINE
  5
201C4
100
AcDbEntity
  8
0
100
AcDbPolyline
 70
0
 90
4
 10
16.6147933388207
 20
49.1895512781139
 10
16.6145571311663
 20
49.1904545998819
 10
16.6145977651446
 20
49.1909169588206
 10
16.6150774624498
 20
49.1916821377394
  0
LWPOLYLINE
  5
201C5
100
AcDbEntity
  8
0
100
AcDbPolyline
 70
0
 90
4
 10
16.6084087790955
 20
49.1896553383832
 10
16.6089909118852
 20
49.1900220558031
 10
16.6115606252477
 20
49.1909124730295
 10
16.6128974218814
 20
49.1914857796506
  0
LWPOLYLINE
  5
201C6
100
AcDbEntity
  8
0
100
AcDbPolyline
 70
0
 90
4
 10
16.6128974218814
 20
49.1914857796506
 10
16.6135334391524
 20
49.1917031250161
 10
16.6141499471431
 20
49.1918616499469
 10
16.6150774624498
 20
49.1916821377394
  0
LWPOLYLINE
  5
201C7
100
AcDbEntity
  8
0
100
AcDbPolyline
 70
0
 90
2
 10
16.6051748916821
 20
49.1922596478363
 10
16.6037784059265
 20
49.1962960478116
  0
LWPOLYLINE
  5
201C8
100
AcDbEntity
  8
0
100
AcDbPolyline
 70
0
 90
3
 10
16.6034364668389
 20
49.1973056562362
 10
16.603776739666
 20
49.1973680698328
 10
16.6035019199391
 20
49.1983250008059
  0
LWPOLYLINE
  5
201C9
100
AcDbEntity
  8
0
100
AcDbPolyline
 70
0
 90
3
 10
16.6037784059265
 20
49.1962960478116
 10
16.6024657304839
 20
49.1961072556533
 10
16.6010897118769
 20
49.1968329373628
  0
LWPOLYLINE
  5
201CA
100
AcDbEntity
  8
0
100
AcDbPolyline
 70
0
 90
3
 10
16.6035019199391
 20
49.1983250008059
 10
16.6023195641313
 20
49.1978774136506
 10
16.6010897118769
 20
49.1968329373628
  0
LWPOLYLINE
  5
201CB
100
AcDbEntity
  8
0
100
AcDbPolyline
 70
0
 90
6
 10
16.6010897118769
 20
49.1968329373628
 10
16.5995052647601
 20
49.1975821129989
 10
16.5984773212214
 20
49.1979686914561
 10
16.5971410921546
 20
49.1982759540365
 10
16.5939723598633
 20
49.1983574284542
 10
16.5936929744692
 20
49.1982801621843
  0
LWPOLYLINE
  5
201CC
100
AcDbEntity
  8
0
100
AcDbPolyline
 70
0
 90
2
 10
16.5936929744692
 20
49.1982801621843
 10
16.5940858856341
 20
49.1971401666613
  0
LWPOLYLINE
  5
201CD
100
AcDbEntity
  8
0
100
AcDbPolyline
 70
0
 90
4
 10
16.6035019199391
 20
49.1983250008059
 10
16.6045844055236
 20
49.1986697684415
 10
16.6053234964299
 20
49.1989710421118
 10
16.6054624076054
 20
49.1991914856982
  0
LWPOLYLINE
  5
201CE
100
AcDbEntity
  8
0
100
AcDbPolyline
 70
0
 90
3
 10
16.6054624076054
 20
49.1991914856982
 10
16.6059353642723
 20
49.1995121829775
 10
16.6078085277813
 20
49.2002001263915
  0
LWPOLYLINE
  5
201CF
100
AcDbEntity
  8
0
100
AcDbPolyline
 70
0
 90
3
 10
16.6054624076054
 20
49.1991914856982
 10
16.6057113981963
 20
49.1989219521904
 10
16.6070476126041
 20
49.1979062174125
  0
LWPOLYLINE
  5
201D0
100
AcDbEntity
  8
0
100
AcDbPolyline
 70
0
 90
3
 10
16.6070476126041
 20
49.1979062174125
 10
16.6076454712054
 20
49.1967615748193
 10
16.6081332647359
 20
49.1953985345578
  0
LWPOLYLINE
  5
201D1
100
AcDbEntity
  8
0
100
AcDbPolyline
 70
0
 90
2
 10
16.6070476126041
 20
49.1979062174125
 10
16.60816522914
 20
49.1989235229599
  0
LWPOLYLINE
  5
201D2
100
AcDbEntity
  8
0
100
AcDbPolyline
 70
0
 90
2
 10
16.60816522914
 20
49.1989235229599
 10
16.610022794288
 20
49.1997060501546
  0
LWPOLYLINE
  5
201D3
100
AcDbEntity
  8
0
100
AcDbPolyline
 70
0
 90
2
 10
16.6078085277813
 20
49.2002001263915
 10
16.60816522914
 20
49.1989235229599
  0
LWPOLYLINE
  5
201D4
100
AcDbEntity
  8
0
100
AcDbPolyline
 70
0
 90
3
 10
16.6078085277813
 20
49.2002001263915
 10
16.6084243429028
 20
49.200186319833
 10
16.610022794288
 20
49.1997060501546
  0
LWPOLYLINE
  5
201D5
100
AcDbEntity
  8
0
100
AcDbPolyline
 70
0
 90
3
 10
16.610022794288
 20
49.1997060501546
 10
16.613523185095
 20
49.1984989076192
 10
16.6140445054804
 20
49.1981720604381
  0
LWPOLYLINE
  5
201D6
100
AcDbEntity
  8
0
100
AcDbPolyline
 70
0
 90
2
 10
16.610022794288
 20
49.1997060501546
 10
16.6141919562319
 20
49.2011218204326
  0
LWPOLYLINE
  5
201D7
100
AcDbEntity
  8
0
100
AcDbPolyline
 70
0
 90
4
 10
16.6141919562319
 20
49.2011218204326
 10
16.6145527936386
 20
49.1998736653614
 10
16.6149109229395
 20
49.1989417655661
 10
16.6151332998818
 20
49.1984788811265
  0
LWPOLYLINE
  5
201D8
100
AcDbEntity
  8
0
100
AcDbPolyline
 70
0
 90
2
 10
16.6140445054804
 20
49.1981720604381
 10
16.6151332998818
 20
49.1984788811265
  0
LWPOLYLINE
  5
201D9
100
AcDbEntity
  8
0
100
AcDbPolyline
 70
0
 90
3
 10
16.6140445054804
 20
49.1981720604381
 10
16.6148287470006
 20
49.197136313301
 10
16.6157058230002
 20
49.196068843894
  0
LWPOLYLINE
  5
201DA
100
AcDbEntity
  8
0
100
AcDbPolyline
 70
0
 90
6
 10
16.6157058230002
 20
49.196068843894
 10
16.6163152369383
 20
49.1953844701346
 10
16.6164704762977
 20
49.1949742685127
 10
16.6163783085168
 20
49.1944699737042
 10
16.6157631678257
 20
49.193239437982
 10
16.6150774624498
 20
49.1916821377394
  0
LWPOLYLINE
  5
201DB
100
AcDbEntity
  8
0
100
AcDbPolyline
 70
0
 90
4
 10
16.6183140914326
 20
49.1919830340851
 10
16.61839850551
 20
49.1930239196727
 10
16.6184158642572
 20
49.1939823968871
 10
16.6165035035568
 20
49.1965464970178
  0
LWPOLYLINE
  5
201DC
100
AcDbEntity
  8
0
100
AcDbPolyline
 70
0
 90
7
 10
16.6201500223308
 20
49.1916103937306
 10
16.621627909978
 20
49.1936353083904
 10
16.6225747603931
 20
49.1944489327034
 10
16.6228113720585
 20
49.1949634341865
 10
16.6237302237073
 20
49.1959473684583
 10
16.6239948977029
 20
49.196291546692
 10
16.6253749995012
 20
49.1971357760164
  0
LWPOLYLINE
  5
201DD
100
AcDbEntity
  8
0
100
AcDbPolyline
 70
0
 90
3
 10
16.6253749995012
 20
49.1971357760164
 10
16.6240742903334
 20
49.1981159165636
 10
16.6232605171411
 20
49.198977322469
  0
LWPOLYLINE
  5
201DE
100
AcDbEntity
  8
0
100
AcDbPolyline
 70
0
 90
2
 10
16.6157058230002
 20
49.196068843894
 10
16.6165035035568
 20
49.1965464970178
  0
LWPOLYLINE
  5
201DF
100
AcDbEntity
  8
0
100
AcDbPolyline
 70
0
 90
6
 10
16.6165035035568
 20
49.1965464970178
 10
16.6179123624445
 20
49.197392859426
 10
16.6189668667894
 20
49.197907811449
 10
16.6201267305079
 20
49.1983153358244
 10
16.621616742936
 20
49.1986696198986
 10
16.6232605171411
 20
49.198977322469
  0
LWPOLYLINE
  5
201E0
100
AcDbEntity
  8
0
100
AcDbPolyline
 70
0
 90
3
 10
16.6261566854224
 20
49.2006451367287
 10
16.6262405601456
 20
49.2016385473822
 10
16.6263327083558
 20
49.2023108935912
  0
LWPOLYLINE
  5
201E1
100
AcDbEntity
  8
0
100
AcDbPolyline
 70
0
 90
5
 10
16.6232605171411
 20
49.198977322469
 10
16.6252352784412
 20
49.1994041252597
 10
16.6259260946489
 20
49.1996444102521
 10
16.6261316115159
 20
49.2003481485403
 10
16.6261566854224
 20
49.2006451367287
  0
LWPOLYLINE
  5
201E2
100
AcDbEntity
  8
0
100
AcDbPolyline
 70
0
 90
7
 10
16.6261566854224
 20
49.2006451367287
 10
16.6249461204906
 20
49.200628091694
 10
16.6228917393592
 20
49.2003296705676
 10
16.6217357477896
 20
49.2000756120548
 10
16.6193176394013
 20
49.1995025138503
 10
16.6176925819106
 20
49.1990812086448
 10
16.6151332998818
 20
49.1984788811265
  0
LWPOLYLINE
  5
201E3
100
AcDbEntity
  8
0
100
AcDbPolyline
 70
0
 90
10
 10
16.6156016348054
 20
49.2016092937238
 10
16.6159329387074
 20
49.2014263806123
 10
16.6165901229611
 20
49.2013388774319
 10
16.6175751463566
 20
49.2013894396233
 10
16.6189044254437
 20
49.2016558003912
 10
16.6204460539663
 20
49.2020520341623
 10
16.6220633430659
 20
49.2021664244459
 10
16.6248319019527
 20
49.2022090322857
 10
16.6261057553955
 20
49.202279939172
 10
16.6263327083558
 20
49.2023108935912
  0
LWPOLYLINE
  5
201E4
100
AcDbEntity
  8
0
100
AcDbPolyline
 70
0
 90
13
 10
16.5936929744692
 20
49.1982801621843
 10
16.5924512743586
 20
49.1981920234683
 10
16.5910979220722
 20
49.1982491088192
 10
16.5902073079733
 20
49.1985113492846
 10
16.5887711540478
 20
49.1987156958861
 10
16.5878352854297
 20
49.1988981222617
 10
16.586518453045
 20
49.1992640832457
 10
16.5857540987106
 20
49.199822449386
 10
16.5847072146935
 20
49.2003224452685
 10
16.5833558714288
 20
49.2008965274092
 10
16.5824954271397
 20
49.2015054853078
 10
16.5821805211618
 20
49.2021723574205
 10
16.5811450039773
 20
49.2031326376497
  0
LWPOLYLINE
  5
201E5
100
AcDbEntity
  8
0
100
AcDbPolyline
 70
0
 90
3
 10
16.5811450039773
 20
49.2031326376497
 10
16.5816320444882
 20
49.2046032015518
 10
16.5824743317703
 20
49.2074583650386
  0
LWPOLYLINE
  5
201E6
100
AcDbEntity
  8
0
100
AcDbPolyline
 70
0
 90
7
 10
16.5824743317703
 20
49.2074583650386
 10
16.583104157265
 20
49.207713724848
 10
16.5838081058475
 20
49.2080509308013
 10
16.5845214606953
 20
49.2083313616796
 10
16.5856290819398
 20
49.2085249193434
 10
16.5860473656247
 20
49.2088226717314
 10
16.5869100929082
 20
49.2103198799732
  0
LWPOLYLINE
  5
201E7
100
AcDbEntity
  8
0
100
AcDbPolyline
 70
0
 90
3
 10
16.5936929744692
 20
49.1982801621843
 10
16.5935601568506
 20
49.1987302302213
 10
16.5930343956615
 20
49.2003202910844
  0
LWPOLYLINE
  5
201E8
100
AcDbEntity
  8
0
100
AcDbPolyline
 70
0
 90
2
 10
16.5930343956615
 20
49.2003202910844
 10
16.5927365024212
 20
49.2019456717345
  0
LWPOLYLINE
  5
201E9
100
AcDbEntity
  8
0
100
AcDbPolyline
 70
0
 90
5
 10
16.5927365024212
 20
49.2019456717345
 10
16.5927627526236
 20
49.2028473797257
 10
16.5929897088628
 20
49.2034187121758
 10
16.5939213662235
 20
49.2044995496623
 10
16.5947151135828
 20
49.2048239139875
  0
LWPOLYLINE
  5
201EA
100
AcDbEntity
  8
0
100
AcDbPolyline
 70
0
 90
2
 10
16.5927365024212
 20
49.2019456717345
 10
16.5979104736105
 20
49.2026382743775
  0
LWPOLYLINE
  5
201EB
100
AcDbEntity
  8
0
100
AcDbPolyline
 70
0
 90
2
 10
16.5930343956615
 20
49.2003202910844
 10
16.599607625103
 20
49.2012078652118
  0
LWPOLYLINE
  5
201EC
100
AcDbEntity
  8
0
100
AcDbPolyline
 70
0
 90
4
 10
16.6035019199391
 20
49.1983250008059
 10
16.6035198271108
 20
49.1987474675683
 10
16.6006630010173
 20
49.2004786001085
 10
16.599607625103
 20
49.2012078652118
  0
LWPOLYLINE
  5
201ED
100
AcDbEntity
  8
0
100
AcDbPolyline
 70
0
 90
2
 10
16.599607625103
 20
49.2012078652118
 10
16.5979104736105
 20
49.2026382743775
  0
LWPOLYLINE
  5
201EE
100
AcDbEntity
  8
0
100
AcDbPolyline
 70
0
 90
3
 10
16.5979104736105
 20
49.2026382743775
 10
16.5950898278767
 20
49.2046781927206
 10
16.5947151135828
 20
49.2048239139875
  0
LWPOLYLINE
  5
201EF
100
AcDbEntity
  8
0
100
AcDbPolyline
 70
0
 90
3
 10
16.5947151135828
 20
49.2048239139875
 10
16.5946884284195
 20
49.2053389518499
 10
16.5960165942796
 20
49.2068499573786
  0
LWPOLYLINE
  5
201F0
100
AcDbEntity
  8
0
100
AcDbPolyline
 70
0
 90
2
 10
16.5960165942796
 20
49.2068499573786
 10
16.5973040977323
 20
49.2056011051829
  0
LWPOLYLINE
  5
201F1
100
AcDbEntity
  8
0
100
AcDbPolyline
 70
0
 90
3
 10
16.5973040977323
 20
49.2056011051829
 10
16.595372378921
 20
49.2047365316142
 10
16.5947151135828
 20
49.2048239139875
  0
LWPOLYLINE
  5
201F2
100
AcDbEntity
  8
0
100
AcDbPolyline
 70
0
 90
4
 10
16.5973040977323
 20
49.2056011051829
 10
16.5988916810853
 20
49.2062497816343
 10
16.600189733718
 20
49.2067055952588
 10
16.604290935013
 20
49.2077047037064
  0
LWPOLYLINE
  5
201F3
100
AcDbEntity
  8
0
100
AcDbPolyline
 70
0
 90
2
 10
16.604290935013
 20
49.2077047037064
 10
16.6053542589954
 20
49.205865528486
  0
LWPOLYLINE
  5
201F4
100
AcDbEntity
  8
0
100
AcDbPolyline
 70
0
 90
4
 10
16.6053542589954
 20
49.205865528486
 10
16.6019041945486
 20
49.2048168853678
 10
16.601585749024
 20
49.2046220004191
 10
16.5995572280175
 20
49.2036357635782
  0
LWPOLYLINE
  5
201F5
100
AcDbEntity
  8
0
100
AcDbPolyline
 70
0
 90
2
 10
16.6053542589954
 20
49.205865528486
 10
16.6063698857079
 20
49.20413784017
  0
LWPOLYLINE
  5
201F6
100
AcDbEntity
  8
0
100
AcDbPolyline
 70
0
 90
2
 10
16.6063698857079
 20
49.20413784017
 10
16.6066056302229
 20
49.2037716391543
  0
LWPOLYLINE
  5
201F7
100
AcDbEntity
  8
0
100
AcDbPolyline
 70
0
 90
4
 10
16.6066056302229
 20
49.2037716391543
 10
16.6056892844553
 20
49.2033046560863
 10
16.6044388916441
 20
49.2027374085269
 10
16.601985820777
 20
49.2014913755772
  0
LWPOLYLINE
  5
201F8
100
AcDbEntity
  8
0
100
AcDbPolyline
 70
0
 90
2
 10
16.6066056302229
 20
49.2037716391543
 10
16.6069420774774
 20
49.2029722325762
  0
LWPOLYLINE
  5
201F9
100
AcDbEntity
  8
0
100
AcDbPolyline
 70
0
 90
5
 10
16.6069420774774
 20
49.2029722325762
 10
16.6057431925883
 20
49.2024469384007
 10
16.6044701899208
 20
49.2018397961766
 10
16.6032487273483
 20
49.2012745825117
 10
16.6026540077332
 20
49.2009835314887
  0
LWPOLYLINE
  5
201FA
100
AcDbEntity
  8
0
100
AcDbPolyline
 70
0
 90
4
 10
16.6069420774774
 20
49.2029722325762
 10
16.6072886582259
 20
49.202288413988
 10
16.6075306476465
 20
49.2011759908285
 10
16.6078085277813
 20
49.2002001263915
  0
LWPOLYLINE
  5
201FB
100
AcDbEntity
  8
0
100
AcDbPolyline
 70
0
 90
5
 10
16.6054624076054
 20
49.1991914856982
 10
16.6046342652572
 20
49.1997837312342
 10
16.6036905905811
 20
49.200367782591
 10
16.602768762323
 20
49.2008193588904
 10
16.6026540077332
 20
49.2009835314887
  0
LWPOLYLINE
  5
201FC
100
AcDbEntity
  8
0
100
AcDbPolyline
 70
0
 90
2
 10
16.6026540077332
 20
49.2009835314887
 10
16.601985820777
 20
49.2014913755772
  0
LWPOLYLINE
  5
201FD
100
AcDbEntity
  8
0
100
AcDbPolyline
 70
0
 90
2
 10
16.601985820777
 20
49.2014913755772
 10
16.5995572280175
 20
49.2036357635782
  0
LWPOLYLINE
  5
201FE
100
AcDbEntity
  8
0
100
AcDbPolyline
 70
0
 90
2
 10
16.5995572280175
 20
49.2036357635782
 10
16.5973040977323
 20
49.2056011051829
  0
LWPOLYLINE
  5
201FF
100
AcDbEntity
  8
0
100
AcDbPolyline
 70
0
 90
4
 10
16.6063698857079
 20
49.20413784017
 10
16.607798311208
 20
49.2043347719081
 10
16.610459272231
 20
49.2046764162285
 10
16.6133774699092
 20
49.2049984707002
  0
LWPOLYLINE
  5
20200
100
AcDbEntity
  8
0
100
AcDbPolyline
 70
0
 90
3
 10
16.604290935013
 20
49.2077047037064
 10
16.605443891239
 20
49.2079778608724
 10
16.6058280964847
 20
49.2081069315116
  0
LWPOLYLINE
  5
20201
100
AcDbEntity
  8
0
100
AcDbPolyline
 70
0
 90
3
 10
16.6058280964847
 20
49.2081069315116
 10
16.6071050391865
 20
49.208535897293
 10
16.6089024491914
 20
49.2092764190627
  0
LWPOLYLINE
  5
20202
100
AcDbEntity
  8
0
100
AcDbPolyline
 70
0
 90
7
 10
16.576008924276
 20
49.2132907355829
 10
16.577711620967
 20
49.2127487499826
 10
16.5788329558909
 20
49.212330670647
 10
16.5796855925984
 20
49.2121232350518
 10
16.5813915294192
 20
49.2118807074689
 10
16.5822058647195
 20
49.2117279702273
 10
16.5832310882511
 20
49.2113604612418
  0
LWPOLYLINE
  5
20203
100
AcDbEntity
  8
0
100
AcDbPolyline
 70
0
 90
4
 10
16.5832310882511
 20
49.2113604612418
 10
16.5842594299757
 20
49.2109740196155
 10
16.5856921251239
 20
49.2106162915537
 10
16.5869100929082
 20
49.2103198799732
  0
LWPOLYLINE
  5
20204
100
AcDbEntity
  8
0
100
AcDbPolyline
 70
0
 90
2
 10
16.5869100929082
 20
49.2103198799732
 10
16.587886992399
 20
49.2114805622199
  0
LWPOLYLINE
  5
20205
100
AcDbEntity
  8
0
100
AcDbPolyline
 70
0
 90
3
 10
16.587886992399
 20
49.2114805622199
 10
16.5888343415808
 20
49.2124668227071
 10
16.5891590477267
 20
49.2126238960263
  0
LWPOLYLINE
  5
20206
100
AcDbEntity
  8
0
100
AcDbPolyline
 70
0
 90
2
 10
16.5824520478445
 20
49.2133849509986
 10
16.587886992399
 20
49.2114805622199
  0
LWPOLYLINE
  5
20207
100
AcDbEntity
  8
0
100
AcDbPolyline
 70
0
 90
3
 10
16.5947151135828
 20
49.2048239139875
 10
16.5925483819741
 20
49.2067953111369
 10
16.5917940898133
 20
49.2074693078777
  0
LWPOLYLINE
  5
20208
100
AcDbEntity
  8
0
100
AcDbPolyline
 70
0
 90
4
 10
16.5917940898133
 20
49.2074693078777
 10
16.5904197495409
 20
49.2087119469417
 10
16.5897739568431
 20
49.2092596167332
 10
16.5893452691223
 20
49.2095546581429
  0
LWPOLYLINE
  5
20209
100
AcDbEntity
  8
0
100
AcDbPolyline
 70
0
 90
4
 10
16.5893452691223
 20
49.2095546581429
 10
16.5885254408024
 20
49.2099176540329
 10
16.5877595291956
 20
49.2101313082337
 10
16.5869100929082
 20
49.2103198799732
  0
LWPOLYLINE
  5
2020A
100
AcDbEntity
  8
0
100
AcDbPolyline
 70
0
 90
4
 10
16.5893452691223
 20
49.2095546581429
 10
16.5897409584591
 20
49.2098124988122
 10
16.5902389518171
 20
49.2099818725055
 10
16.5907400780896
 20
49.2101323202614
  0
LWPOLYLINE
  5
2020B
100
AcDbEntity
  8
0
100
AcDbPolyline
 70
0
 90
2
 10
16.5907400780896
 20
49.2101323202614
 10
16.5891590477267
 20
49.2126238960263
  0
LWPOLYLINE
  5
2020C
100
AcDbEntity
  8
0
100
AcDbPolyline
 70
0
 90
3
 10
16.5917940898133
 20
49.2074693078777
 10
16.5924497160741
 20
49.2077455904955
 10
16.5949998174327
 20
49.2084051910904
  0
LWPOLYLINE
  5
2020D
100
AcDbEntity
  8
0
100
AcDbPolyline
 70
0
 90
2
 10
16.5960165942796
 20
49.2068499573786
 10
16.5949998174327
 20
49.2084051910904
  0
LWPOLYLINE
  5
2020E
100
AcDbEntity
  8
0
100
AcDbPolyline
 70
0
 90
2
 10
16.5907400780896
 20
49.2101323202614
 10
16.5935439798696
 20
49.2108482539031
  0
LWPOLYLINE
  5
2020F
100
AcDbEntity
  8
0
100
AcDbPolyline
 70
0
 90
2
 10
16.5949998174327
 20
49.2084051910904
 10
16.5935439798696
 20
49.2108482539031
  0
LWPOLYLINE
  5
20210
100
AcDbEntity
  8
0
100
AcDbPolyline
 70
0
 90
4
 10
16.5891590477267
 20
49.2126238960263
 10
16.5898234032662
 20
49.2126710605821
 10
16.5910536621386
 20
49.2130072832632
 10
16.5907349495599
 20
49.2135207396817
  0
LWPOLYLINE
  5
20211
100
AcDbEntity
  8
0
100
AcDbPolyline
 70
0
 90
4
 10
16.5935439798696
 20
49.2108482539031
 10
16.5927886859299
 20
49.2120582653693
 10
16.5920747574169
 20
49.2131946282133
 10
16.5907349495599
 20
49.2135207396817
  0
LWPOLYLINE
  5
20212
100
AcDbEntity
  8
0
100
AcDbPolyline
 70
0
 90
2
 10
16.604290935013
 20
49.2077047037064
 10
16.6026794147321
 20
49.2103857036962
  0
LWPOLYLINE
  5
20213
100
AcDbEntity
  8
0
100
AcDbPolyline
 70
0
 90
2
 10
16.6026794147321
 20
49.2103857036962
 10
16.6012340298645
 20
49.2129444529797
  0
LWPOLYLINE
  5
20214
100
AcDbEntity
  8
0
100
AcDbPolyline
 70
0
 90
2
 10
16.6012340298645
 20
49.2129444529797
 10
16.599768985979
 20
49.215444362871
  0
LWPOLYLINE
  5
20215
100
AcDbEntity
  8
0
100
AcDbPolyline
 70
0
 90
2
 10
16.599768985979
 20
49.215444362871
 10
16.6012562419423
 20
49.2158178329804
  0
LWPOLYLINE
  5
20216
100
AcDbEntity
  8
0
100
AcDbPolyline
 70
0
 90
2
 10
16.6012562419423
 20
49.2158178329804
 10
16.6043706551654
 20
49.2165483744577
  0
LWPOLYLINE
  5
20217
100
AcDbEntity
  8
0
100
AcDbPolyline
 70
0
 90
2
 10
16.6058280964847
 20
49.2081069315116
 10
16.6012562419423
 20
49.2158178329804
  0
LWPOLYLINE
  5
20218
100
AcDbEntity
  8
0
100
AcDbPolyline
 70
0
 90
3
 10
16.5960165942796
 20
49.2068499573786
 10
16.5993316399412
 20
49.2078317641895
 10
16.5984141044963
 20
49.2093174771164
  0
LWPOLYLINE
  5
20219
100
AcDbEntity
  8
0
100
AcDbPolyline
 70
0
 90
2
 10
16.5949998174327
 20
49.2084051910904
 10
16.5984141044963
 20
49.2093174771164
  0
LWPOLYLINE
  5
2021A
100
AcDbEntity
  8
0
100
AcDbPolyline
 70
0
 90
2
 10
16.5984141044963
 20
49.2093174771164
 10
16.6026794147321
 20
49.2103857036962
  0
LWPOLYLINE
  5
2021B
100
AcDbEntity
  8
0
100
AcDbPolyline
 70
0
 90
3
 10
16.5935439798696
 20
49.2108482539031
 10
16.5936953854982
 20
49.2109930166989
 10
16.5969427711864
 20
49.2118552005355
  0
LWPOLYLINE
  5
2021C
100
AcDbEntity
  8
0
100
AcDbPolyline
 70
0
 90
2
 10
16.5969427711864
 20
49.2118552005355
 10
16.6012340298645
 20
49.2129444529797
  0
LWPOLYLINE
  5
2021D
100
AcDbEntity
  8
0
100
AcDbPolyline
 70
0
 90
4
 10
16.5907349495599
 20
49.2135207396817
 10
16.5922066686914
 20
49.2132805724518
 10
16.5953995345995
 20
49.2141197766348
 10
16.5955220690742
 20
49.2142624877799
  0
LWPOLYLINE
  5
2021E
100
AcDbEntity
  8
0
100
AcDbPolyline
 70
0
 90
3
 10
16.5955220690742
 20
49.2142624877799
 10
16.5956734922806
 20
49.2144072480028
 10
16.599768985979
 20
49.215444362871
  0
LWPOLYLINE
  5
2021F
100
AcDbEntity
  8
0
100
AcDbPolyline
 70
0
 90
2
 10
16.5984141044963
 20
49.2093174771164
 10
16.5969427711864
 20
49.2118552005355
  0
LWPOLYLINE
  5
20220
100
AcDbEntity
  8
0
100
AcDbPolyline
 70
0
 90
2
 10
16.5969427711864
 20
49.2118552005355
 10
16.5955220690742
 20
49.2142624877799
  0
LWPOLYLINE
  5
20221
100
AcDbEntity
  8
0
100
AcDbPolyline
 70
0
 90
2
 10
16.5854059129442
 20
49.2174159513716
 10
16.5876156443129
 20
49.2180665746959
  0
LWPOLYLINE
  5
20222
100
AcDbEntity
  8
0
100
AcDbPolyline
 70
0
 90
2
 10
16.5876156443129
 20
49.2180665746959
 10
16.5924021996624
 20
49.219344460732
  0
LWPOLYLINE
  5
20223
100
AcDbEntity
  8
0
100
AcDbPolyline
 70
0
 90
2
 10
16.5924021996624
 20
49.219344460732
 10
16.5968126930715
 20
49.2204231529357
  0
LWPOLYLINE
  5
20224
100
AcDbEntity
  8
0
100
AcDbPolyline
 70
0
 90
6
 10
16.6012562419423
 20
49.2158178329804
 10
16.5998036200816
 20
49.2182420477566
 10
16.5983578559963
 20
49.2208007567617
 10
16.5980865223181
 20
49.2226194806136
 10
16.5974522417221
 20
49.2236275059664
 10
16.5964937659093
 20
49.2257055217452
  0
LWPOLYLINE
  5
20225
100
AcDbEntity
  8
0
100
AcDbPolyline
 70
0
 90
3
 10
16.5891590477267
 20
49.2126238960263
 10
16.5877232980296
 20
49.2145896943865
 10
16.5854059129442
 20
49.2174159513716
  0
LWPOLYLINE
  5
20226
100
AcDbEntity
  8
0
100
AcDbPolyline
 70
0
 90
2
 10
16.5853200725678
 20
49.2214663699473
 10
16.5876156443129
 20
49.2180665746959
  0
LWPOLYLINE
  5
20227
100
AcDbEntity
  8
0
100
AcDbPolyline
 70
0
 90
2
 10
16.5907349495599
 20
49.2135207396817
 10
16.5876156443129
 20
49.2180665746959
  0
LWPOLYLINE
  5
20228
100
AcDbEntity
  8
0
100
AcDbPolyline
 70
0
 90
2
 10
16.5955220690742
 20
49.2142624877799
 10
16.5924021996624
 20
49.219344460732
  0
LWPOLYLINE
  5
20229
100
AcDbEntity
  8
0
100
AcDbPolyline
 70
0
 90
4
 10
16.5924021996624
 20
49.219344460732
 10
16.5916084699477
 20
49.2206091843723
 10
16.5918973708746
 20
49.2229271577632
 10
16.5918340659735
 20
49.2232809432423
  0
LWPOLYLINE
  5
2022A
100
AcDbEntity
  8
0
100
AcDbPolyline
 70
0
 90
2
 10
16.594681557448
 20
49.2240692882255
 10
16.5968126930715
 20
49.2204231529357
  0
LWPOLYLINE
  5
2022B
100
AcDbEntity
  8
0
100
AcDbPolyline
 70
0
 90
3
 10
16.5968126930715
 20
49.2204231529357
 10
16.5987974195333
 20
49.2170794201169
 10
16.599768985979
 20
49.215444362871
  0
LWPOLYLINE
  5
2022C
100
AcDbEntity
  8
0
100
AcDbPolyline
 70
0
 90
2
 10
16.6023340274906
 20
49.2213148228832
 10
16.6030020278258
 20
49.2208239366351
  0
LWPOLYLINE
  5
2022D
100
AcDbEntity
  8
0
100
AcDbPolyline
 70
0
 90
6
 10
16.5854059129442
 20
49.2174159513716
 10
16.5865638528933
 20
49.218240786552
 10
16.5974223473927
 20
49.2211556224598
 10
16.5999225530316
 20
49.2212371608304
 10
16.6013670766357
 20
49.221339552626
 10
16.6023340274906
 20
49.2213148228832
  0
LWPOLYLINE
  5
2022E
100
AcDbEntity
  8
0
100
AcDbPolyline
 70
0
 90
8
 10
16.5854059129442
 20
49.2174159513716
 10
16.5871982860236
 20
49.2172328201967
 10
16.5917372725811
 20
49.2184165791419
 10
16.5954730971305
 20
49.2193325772917
 10
16.5979285298019
 20
49.2202150978568
 10
16.5994041555893
 20
49.2208366477729
 10
16.6007658758403
 20
49.2210863409251
 10
16.6030020278258
 20
49.2208239366351
  0
LWPOLYLINE
  5
2022F
100
AcDbEntity
  8
0
100
AcDbPolyline
 70
0
 90
16
 10
16.5702885479205
 20
49.278677345595
 10
16.5728910236485
 20
49.275339407347
 10
16.5737923713354
 20
49.274139810809
 10
16.5746804545584
 20
49.2728435387663
 10
16.5752221294731
 20
49.2716949698268
 10
16.5755135998517
 20
49.2706435028592
 10
16.5757044145659
 20
49.269316844431
 10
16.5756073858283
 20
49.2683143651942
 10
16.5754135292157
 20
49.267190131818
 10
16.5751448256705
 20
49.2658116823282
 10
16.5748855538323
 20
49.2643764641227
 10
16.5749550926952
 20
49.2632517941501
 10
16.5751541655781
 20
49.2624043704185
 10
16.5756963821653
 20
49.2614281584698
 10
16.5763643109635
 20
49.260575750188
 10
16.5768402257821
 20
49.2601555683063
  0
LWPOLYLINE
  5
20230
100
AcDbEntity
  8
0
100
AcDbPolyline
 70
0
 90
10
 10
16.5768402257821
 20
49.2601555683063
 10
16.5779107775531
 20
49.2593645337632
 10
16.5787565988309
 20
49.2588502315632
 10
16.5800033429598
 20
49.2582112278402
 10
16.5818847178423
 20
49.2572726460705
 10
16.5838652918829
 20
49.2562644975823
 10
16.5851690240577
 20
49.2554571813224
 10
16.5864431009731
 20
49.2544754375234
 10
16.5874053979037
 20
49.2534332711187
 10
16.5880949492688
 20
49.2524483306866
  0
LWPOLYLINE
  5
20231
100
AcDbEntity
  8
0
100
AcDbPolyline
 70
0
 90
3
 10
16.5880949492688
 20
49.2524483306866
 10
16.5875021305375
 20
49.2519659207354
 10
16.5865671257661
 20
49.2511087145113
  0
LWPOLYLINE
  5
20232
100
AcDbEntity
  8
0
100
AcDbPolyline
 70
0
 90
12
 10
16.5880949492688
 20
49.2524483306866
 10
16.5884992402836
 20
49.251596316325
 10
16.5887081450717
 20
49.2508644582649
 10
16.5889312824165
 20
49.2496932614079
 10
16.5890036138842
 20
49.2485496574667
 10
16.5890557217944
 20
49.2471748710249
 10
16.5890648138278
 20
49.2439399081004
 10
16.5891244513909
 20
49.2412828984256
 10
16.5892324865309
 20
49.2386867598723
 10
16.5895140698564
 20
49.2376920218175
 10
16.589988540712
 20
49.2367684076272
 10
16.5904604823488
 20
49.2358913747547
  0
LWPOLYLINE
  5
20233
100
AcDbEntity
  8
0
100
AcDbPolyline
 70
0
 90
7
 10
16.5886129419285
 20
49.2403193309261
 10
16.5886120570418
 20
49.2392553938359
 10
16.5885834443675
 20
49.2385449748466
 10
16.5886742738584
 20
49.2379961972837
 10
16.5892299112882
 20
49.2372889460955
 10
16.5896393350565
 20
49.2369350857286
 10
16.5904604823488
 20
49.2358913747547
  0
LWPOLYLINE
  5
20234
100
AcDbEntity
  8
0
100
AcDbPolyline
 70
0
 90
6
 10
16.5904604823488
 20
49.2358913747547
 10
16.5915209300873
 20
49.2347519673699
 10
16.5943554270236
 20
49.2317557218985
 10
16.5954420860949
 20
49.2306649106763
 10
16.5963787023623
 20
49.2297740543776
 10
16.5972904934671
 20
49.2290646052099
  0
LWPOLYLINE
  5
20235
100
AcDbEntity
  8
0
100
AcDbPolyline
 70
0
 90
4
 10
16.5972904934671
 20
49.2290646052099
 10
16.5982595798135
 20
49.2282991930954
 10
16.5987829481145
 20
49.227608770165
 10
16.5994638900326
 20
49.2269690984516
  0
LWPOLYLINE
  5
20236
100
AcDbEntity
  8
0
100
AcDbPolyline
 70
0
 90
14
 10
16.5938166799542
 20
49.2607648824883
 10
16.5937323420223
 20
49.2605674498686
 10
16.5937376169596
 20
49.2599168782569
 10
16.5937253044303
 20
49.259284206437
 10
16.5937047995909
 20
49.2586126623706
 10
16.5936139470958
 20
49.2580127130775
 10
16.5935941721921
 20
49.2575135300247
 10
16.5935059816552
 20
49.2571626596637
 10
16.5927457367812
 20
49.256984314701
 10
16.5915065429551
 20
49.2566954210226
 10
16.5905315396494
 20
49.2562242212923
 10
16.5897972333442
 20
49.2557126478606
 10
16.5889063582261
 20
49.2549985065296
 10
16.5883248221467
 20
49.254536049057
  0
LWPOLYLINE
  5
20237
100
AcDbEntity
  8
0
100
AcDbPolyline
 70
0
 90
3
 10
16.5826929782392
 20
49.2206274519824
 10
16.5828390075973
 20
49.2204525137407
 10
16.5854059129442
 20
49.2174159513716
  0
LWPOLYLINE
  5
20238
100
AcDbEntity
  8
0
100
AcDbPolyline
 70
0
 90
2
 10
16.6156016348054
 20
49.2016092937238
 10
16.6184316523195
 20
49.2027859583714
  0
LWPOLYLINE
  5
20239
100
AcDbEntity
  8
0
100
AcDbPolyline
 70
0
 90
6
 10
16.6758827870906
 20
49.2131104258333
 10
16.6765200776396
 20
49.2122838952859
 10
16.676534036518
 20
49.2119307241122
 10
16.6764582334502
 20
49.2115903914699
 10
16.678466002438
 20
49.2106593607018
 10
16.6791701380926
 20
49.2106417982199
  0
LWPOLYLINE
  5
2023A
100
AcDbEntity
  8
0
100
AcDbPolyline
 70
0
 90
3
 10
16.6615227888032
 20
49.206056296576
 10
16.6615431612435
 20
49.2053972710119
 10
16.657191902326
 20
49.2054103410032
  0
LWPOLYLINE
  5
2023B
100
AcDbEntity
  8
0
100
AcDbPolyline
 70
0
 90
11
 10
16.6869197509163
 20
49.2073955730681
 10
16.6862821593301
 20
49.2070062715867
 10
16.6852546241906
 20
49.2065896062735
 10
16.6843052651663
 20
49.2063650624518
 10
16.6830920872296
 20
49.2062799260429
 10
16.6822735035863
 20
49.2061937587215
 10
16.6814108189156
 20
49.2059752722907
 10
16.6807059776362
 20
49.2055955713245
 10
16.6799462210346
 20
49.2048817890575
 10
16.6792731373763
 20
49.2041740862258
 10
16.6788618789073
 20
49.2038820291987
  0
LWPOLYLINE
  5
2023C
100
AcDbEntity
  8
0
100
AcDbPolyline
 70
0
 90
2
 10
16.6685705006686
 20
49.201308895219
 10
16.6688672636249
 20
49.2008154696308
  0
LWPOLYLINE
  5
2023D
100
AcDbEntity
  8
0
100
AcDbPolyline
 70
0
 90
22
 10
16.5995641288269
 20
49.1598541669776
 10
16.5960346030722
 20
49.1602957722077
 10
16.5917739836394
 20
49.1608164100128
 10
16.5882339404712
 20
49.1612158032729
 10
16.5861000823292
 20
49.1614087399677
 10
16.583840707523
 20
49.1614778355053
 10
16.5814526996216
 20
49.161442006889
 10
16.5796637051192
 20
49.1613147288045
 10
16.5773101558376
 20
49.1610706582145
 10
16.5753925758458
 20
49.1608384285166
 10
16.5731388213091
 20
49.1606971051632
 10
16.5711290950952
 20
49.1606688502348
 10
16.5689882824254
 20
49.1607269530347
 10
16.5668161101359
 20
49.1609742461325
 10
16.5641094875333
 20
49.1614514510268
 10
16.5612371940609
 20
49.162223128889
 10
16.5585448221476
 20
49.1631416023878
 10
16.5558843461032
 20
49.1640431489678
 10
16.553313481025
 20
49.1649318910955
 10
16.5500474129917
 20
49.1659624115305
 10
16.5476200590133
 20
49.1666889649504
 10
16.545156577554
 20
49.1673525065251
  0
LWPOLYLINE
  5
2023E
100
AcDbEntity
  8
0
100
AcDbPolyline
 70
0
 90
5
 10
16.5391783697674
 20
49.1916771491765
 10
16.5394379910208
 20
49.191524167512
 10
16.5414483363603
 20
49.1908540628948
 10
16.5433753460809
 20
49.1904651801716
 10
16.5444612133714
 20
49.1903034001355
  0
LWPOLYLINE
  5
2023F
100
AcDbEntity
  8
0
100
AcDbPolyline
 70
0
 90
11
 10
16.5083881154524
 20
49.2191650173135
 10
16.5090103490483
 20
49.2185639806615
 10
16.5101509209092
 20
49.2178606802188
 10
16.5111894466338
 20
49.2174181266168
 10
16.5122347193763
 20
49.2171100822708
 10
16.5132772687772
 20
49.2169933128533
 10
16.5144615284887
 20
49.2170781646321
 10
16.5162496694365
 20
49.2173977375887
 10
16.5176176547323
 20
49.2177829308652
 10
16.5186327227122
 20
49.218181130726
 10
16.5194298220413
 20
49.2186594528549
  0
LWPOLYLINE
  5
20240
100
AcDbEntity
  8
0
100
AcDbPolyline
 70
0
 90
2
 10
16.5716529335706
 20
49.2170015938841
 10
16.5736218523613
 20
49.2183478563707
  0
LWPOLYLINE
  5
20241
100
AcDbEntity
  8
0
100
AcDbPolyline
 70
0
 90
2
 10
16.576008924276
 20
49.2132907355829
 10
16.5746151723629
 20
49.2112961525759
  0
LWPOLYLINE
  5
20242
100
AcDbEntity
  8
0
100
AcDbPolyline
 70
0
 90
2
 10
16.6037784059265
 20
49.1962960478116
 10
16.6034364668389
 20
49.1973056562362
  0
LWPOLYLINE
  5
20243
100
AcDbEntity
  8
0
100
AcDbPolyline
 70
0
 90
3
 10
16.6485785983386
 20
49.1908009173248
 10
16.646998818214
 20
49.1906615689245
 10
16.6462764923107
 20
49.1904567105508
  0
LWPOLYLINE
  5
20244
100
AcDbEntity
  8
0
100
AcDbPolyline
 70
0
 90
2
 10
16.6137820591749
 20
49.2018398822319
 10
16.6141880563655
 20
49.2011454753228
  0
LWPOLYLINE
  5
20245
100
AcDbEntity
  8
0
100
AcDbPolyline
 70
0
 90
2
 10
16.5580437553851
 20
49.1737580449929
 10
16.5595586422077
 20
49.1724157257123
  0
LWPOLYLINE
  5
20246
100
AcDbEntity
  8
0
100
AcDbPolyline
 70
0
 90
6
 10
16.5554366995446
 20
49.1694076485271
 10
16.5545481470421
 20
49.1704068900732
 10
16.5538252056898
 20
49.1713317848572
 10
16.5533088229851
 20
49.1721996184874
 10
16.5527302806268
 20
49.173177895197
 10
16.5525627084689
 20
49.1733956973933
  0
LWPOLYLINE
  5
20247
100
AcDbEntity
  8
0
100
AcDbPolyline
 70
0
 90
5
 10
16.6480925326998
 20
49.1865531412291
 10
16.6501879077024
 20
49.186234900568
 10
16.6513055431945
 20
49.1860983153732
 10
16.6517276786252
 20
49.1863290838924
 10
16.6519012559196
 20
49.1864506682091
  0
LWPOLYLINE
  5
20248
100
AcDbEntity
  8
0
100
AcDbPolyline
 70
0
 90
6
 10
16.6681521560644
 20
49.1846775371897
 10
16.6674761429371
 20
49.1845943848837
 10
16.6669612013928
 20
49.1846179818435
 10
16.666651793252
 20
49.1848355094716
 10
16.6666439496983
 20
49.1852178310819
 10
16.6666248663671
 20
49.1856895573896
  0
LWPOLYLINE
  5
20249
100
AcDbEntity
  8
0
100
AcDbPolyline
 70
0
 90
4
 10
16.6681521560644
 20
49.1846775371897
 10
16.6681867582906
 20
49.1845003303754
 10
16.6682047096349
 20
49.1838554947279
 10
16.6680447868914
 20
49.1832268626872
  0
LWPOLYLINE
  5
2024A
100
AcDbEntity
  8
0
100
AcDbPolyline
 70
0
 90
6
 10
16.6924351105632
 20
49.1854281442939
 10
16.6919878815084
 20
49.1848281196666
 10
16.6916666551199
 20
49.1847385892364
 10
16.6899085008995
 20
49.1845961201407
 10
16.6889185727171
 20
49.184488383732
 10
16.6881948277358
 20
49.1843847104194
  0
LWPOLYLINE
  5
2024B
100
AcDbEntity
  8
0
100
AcDbPolyline
 70
0
 90
6
 10
16.6881526462546
 20
49.165834613079
 10
16.6883201125355
 20
49.1663403084577
 10
16.6882370824601
 20
49.1668489531376
 10
16.6883138123725
 20
49.1672730955666
 10
16.6888286173562
 20
49.1675844114285
 10
16.6896084113536
 20
49.168040773447
  0
LWPOLYLINE
  5
2024C
100
AcDbEntity
  8
0
100
AcDbPolyline
 70
0
 90
7
 10
16.602865457132
 20
49.1224961100456
 10
16.6027758509356
 20
49.1229896878113
 10
16.6028128218725
 20
49.1233847978081
 10
16.603100738485
 20
49.1236732788304
 10
16.6035098524148
 20
49.123845917112
 10
16.6037720603814
 20
49.1241134249084
 10
16.6040032384964
 20
49.1245499794242
  0
ENDSEC
  0
SECTION
  2
OBJECTS
  0
DICTIONARY
  5
C
330
0
100
AcDbDictionary
281
     1
  3
ACAD_GROUP
350
D
  3
ACAD_LAYOUT
350
1A
  3
ACAD_MLEADERSTYLE
350
43
  3
ACAD_PLOTSETTINGS
350
19
  3
ACAD_PLOTSTYLENAME
350
E
  3
ACAD_TABLESTYLE
350
42
  0
DICTIONARY
  5
D
102
{ACAD_REACTORS
330
C
102
}
330
C
100
AcDbDictionary
281
     1
  0
DICTIONARY
  5
1A
102
{ACAD_REACTORS
330
C
102
}
330
C
100
AcDbDictionary
281
     1
  3
Layout1
350
1E
  3
Model
350
22
  0
DICTIONARY
  5
43
102
{ACAD_REACTORS
330
C
102
}
330
C
100
AcDbDictionary
281
     1
  0
DICTIONARY
  5
19
102
{ACAD_REACTORS
330
C
102
}
330
C
100
AcDbDictionary
281
     1
  0
ACDBDICTIONARYWDFLT
  5
E
102
{ACAD_REACTORS
330
C
102
}
330
C
100
AcDbDictionary
281
     1
  3
Normal
350
F
100
AcDbDictionaryWithDefault
340
F
  0
DICTIONARY
  5
42
102
{ACAD_REACTORS
330
C
102
}
330
C
100
AcDbDictionary
281
     1
  0
LAYOUT
  5
1E
102
{ACAD_REACTORS
330
1A
102
}
330
1A
100
AcDbPlotSettings
  1

  2
none_device
  4

  6

 40
0.0
 41
0.0
 42
0.0
 43
0.0
 44
0.0
 45
0.0
 46
0.0
 47
0.0
 48
0.0
 49
0.0
140
0.0
141
0.0
142
1.0
143
1.0
 70
   688
 72
     0
 73
     0
 74
     5
  7

 75
    16
 76
     0
 77
     2
 78
   300
147
1.0
148
0.0
149
0.0
100
AcDbLayout
  1
Layout1
 70
     1
 71
     1
 10
0.0
 20
0.0
 11
12.0
 21
9.0
 12
0.0
 22
0.0
 32
0.0
 14
1.000000000000000E+20
 24
1.000000000000000E+20
 34
1.000000000000000E+20
 15
-1.000000000000000E+20
 25
-1.000000000000000E+20
 35
-1.000000000000000E+20
146
0.0
 13
0.0
 23
0.0
 33
0.0
 16
1.0
 26
0.0
 36
0.0
 17
0.0
 27
1.0
 37
0.0
 76
     0
330
1B
  0
LAYOUT
  5
22
102
{ACAD_REACTORS
330
1A
102
}
330
1A
100
AcDbPlotSettings
  1

  2
none_device
  4

  6

 40
0.0
 41
0.0
 42
0.0
 43
0.0
 44
0.0
 45
0.0
 46
0.0
 47
0.0
 48
0.0
 49
0.0
140
0.0
141
0.0
142
1.0
143
1.0
 70
  1712
 72
     0
 73
     0
 74
     0
  7

 75
     0
 76
     0
 77
     2
 78
   300
147
1.0
148
0.0
149
0.0
100
AcDbLayout
  1
Model
 70
     1
 71
     0
 10
0.0
 20
0.0
 11
12.0
 21
9.0
 12
0.0
 22
0.0
 32
0.0
 14
30.0
 24
49.75
 34
0.0
 15
130.5
 25
163.1318914119703
 35
0.0
146
0.0
 13
0.0
 23
0.0
 33
0.0
 16
1.0
 26
0.0
 36
0.0
 17
0.0
 27
1.0
 37
0.0
 76
     0
330
1F
331
29
  0
ENDSEC
  0
EOF
