  0
SECTION
  2
HEADER
  9
$ACADVER
  1
AC1018
  9
$ACADMAINTVER
 70
     0
  9
$DWGCODEPAGE
  3
ANSI_1252
  9
$EXTMIN
 10
-608074.604
 20
-1170162.85690239
 30
0.0
  9
$EXTMAX
 10
-589893.38
 20
-1150320.44810799
 30
0.0
  9
$LIMMIN
 10
0.0
 20
0.0
  9
$LIMMAX
 10
12.0
 20
9.0
  9
$ORTHOMODE
 70
     0
  9
$REGENMODE
 70
     1
  9
$FILLMODE
 70
     1
  9
$QTEXTMODE
 70
     0
  9
$MIRRTEXT
 70
     1
  9
$LTSCALE
 40
1.0
  9
$ATTMODE
 70
     1
  9
$TEXTSIZE
 40
0.2
  9
$TRACEWID
 40
0.05
  9
$TEXTSTYLE
  7
Standard
  9
$CLAYER
  8
0
  9
$CELTYPE
  6
ByLayer
  9
$CECOLOR
 62
   256
  9
$CELTSCALE
 40
1.0
  9
$DISPSILH
 70
     0
  9
$LUNITS
 70
     2
  9
$LUPREC
 70
     4
  9
$SKETCHINC
 40
0.1
  9
$FILLETRAD
 40
0.5
  9
$AUNITS
 70
     0
  9
$AUPREC
 70
     0
  9
$MENU
  1
.
  9
$ELEVATION
 40
0.0
  9
$PELEVATION
 40
0.0
  9
$THICKNESS
 40
0.0
  9
$LIMCHECK
 70
     0
  9
$CHAMFERA
 40
0.5
  9
$CHAMFERB
 40
0.5
  9
$CHAMFERC
 40
1.0
  9
$CHAMFERD
 40
0.0
  9
$SKPOLY
 70
     0
  9
$ANGBASE
 50
0.0
  9
$ANGDIR
 70
     0
  9
$PDMODE
 70
     0
  9
$PDSIZE
 40
0.0
  9
$PLINEWID
 40
0.0
  9
$SPLFRAME
 70
     0
  9
$SPLINETYPE
 70
     6
  9
$SPLINESEGS
 70
     8
  9
$HANDSEED
  5
00020296
  9
$SURFTAB1
 70
     6
  9
$SURFTAB2
 70
     6
  9
$SURFTYPE
 70
     6
  9
$SURFU
 70
     6
  9
$SURFV
 70
     6
  9
$UCSBASE
  2

  9
$UCSNAME
  2

  9
$UCSORG
 10
0.0
 20
0.0
 30
0.0
  9
$UCSXDIR
 10
1.0
 20
0.0
 30
0.0
  9
$UCSYDIR
 10
0.0
 20
1.0
 30
0.0
  9
$UCSORTHOREF
  2

  9
$UCSORTHOVIEW
 70
     0
  9
$UCSORGTOP
 10
0.0
 20
0.0
 30
0.0
  9
$UCSORGBOTTOM
 10
0.0
 20
0.0
 30
0.0
  9
$UCSORGLEFT
 10
0.0
 20
0.0
 30
0.0
  9
$UCSORGRIGHT
 10
0.0
 20
0.0
 30
0.0
  9
$UCSORGFRONT
 10
0.0
 20
0.0
 30
0.0
  9
$UCSORGBACK
 10
0.0
 20
0.0
 30
0.0
  9
$PUCSBASE
  2

  9
$PUCSNAME
  2

  9
$PUCSORG
 10
0.0
 20
0.0
 30
0.0
  9
$PUCSXDIR
 10
1.0
 20
0.0
 30
0.0
  9
$PUCSYDIR
 10
0.0
 20
1.0
 30
0.0
  9
$PUCSORTHOREF
  2

  9
$PUCSORTHOVIEW
 70
     0
  9
$PUCSORGTOP
 10
0.0
 20
0.0
 30
0.0
  9
$PUCSORGBOTTOM
 10
0.0
 20
0.0
 30
0.0
  9
$PUCSORGLEFT
 10
0.0
 20
0.0
 30
0.0
  9
$PUCSORGRIGHT
 10
0.0
 20
0.0
 30
0.0
  9
$PUCSORGFRONT
 10
0.0
 20
0.0
 30
0.0
  9
$PUCSORGBACK
 10
0.0
 20
0.0
 30
0.0
  9
$WORLDVIEW
 70
     1
  9
$SHADEDGE
 70
     3
  9
$SHADEDIF
 70
    70
  9
$TILEMODE
 70
     1
  9
$MAXACTVP
 70
    64
  9
$PINSBASE
 10
0.0
 20
0.0
 30
0.0
  9
$PLIMCHECK
 70
     0
  9
$PEXTMIN
 10
1.000000000000000E+20
 20
1.000000000000000E+20
 30
1.000000000000000E+20
  9
$PEXTMAX
 10
-1.000000000000000E+20
 20
-1.000000000000000E+20
 30
-1.000000000000000E+20
  9
$PLIMMIN
 10
0.0
 20
0.0
  9
$PLIMMAX
 10
12.0
 20
9.0
  9
$UNITMODE
 70
     0
  9
$VISRETAIN
 70
     1
  9
$PLINEGEN
 70
     0
  9
$PSLTSCALE
 70
     1
  9
$TREEDEPTH
 70
  3020
  9
$CMLSTYLE
  2
Standard
  9
$CMLJUST
 70
     0
  9
$CMLSCALE
 40
1.0
  9
$PROXYGRAPHICS
 70
     1
  9
$MEASUREMENT
 70
     0
  9
$CELWEIGHT
370
    -1
  9
$ENDCAPS
280
     0
  9
$JOINSTYLE
280
     0
  9
$LWDISPLAY
290
     0
  9
$INSUNITS
 70
     1
  9
$HYPERLINKBASE
  1

  9
$STYLESHEET
  1

  9
$XEDIT
290
     1
  9
$CEPSNTYPE
380
     0
  9
$PSTYLEMODE
290
     1
  9
$EXTNAMES
290
     1
  9
$PSVPSCALE
 40
0.0
  9
$OLESTARTUP
290
     0
  9
$SORTENTS
280
   127
  9
$INDEXCTL
280
     0
  9
$HIDETEXT
280
     1
  9
$XCLIPFRAME
290
     0
  9
$HALOGAP
280
     0
  9
$OBSCOLOR
 70
   257
  9
$OBSLTYPE
280
     0
  9
$INTERSECTIONDISPLAY
280
     0
  9
$INTERSECTIONCOLOR
 70
   257
  9
$DIMASSOC
280
     2
  9
$PROJECTNAME
  1

  0
ENDSEC
  0
SECTION
  2
CLASSES
  0
CLASS
  1
ACDBDICTIONARYWDFLT
  2
AcDbDictionaryWithDefault
  3
ObjectDBX Classes
 90
        0
 91
        4
280
     0
281
     0
  0
ENDSEC
  0
SECTION
  2
TABLES
  0
TABLE
  2
VPORT
  5
8
330
0
100
AcDbSymbolTable
 70
     1
  0
VPORT
  5
29
330
8
100
AcDbSymbolTableRecord
100
AcDbViewportTableRecord
  2
*Active
 70
     0
 10
0.0
 20
0.0
 11
1.0
 21
1.0
 12
80.25
 22
106.4409457059851
 13
0.0
 23
0.0
 14
0.5
 24
0.5
 15
0.5
 25
0.5
 16
0.0
 26
0.0
 36
1.0
 17
0.0
 27
0.0
 37
0.0
 40
113.3818914119703
 41
0.8863849310366128
 42
50.0
 43
0.0
 44
0.0
 50
0.0
 51
0.0
 71
     0
 72
  1000
 73
     1
 74
     3
 75
     0
 76
     0
 77
     0
 78
     0
281
     0
 65
     1
110
0.0
120
0.0
130
0.0
111
1.0
121
0.0
131
0.0
112
0.0
122
1.0
132
0.0
 79
     0
146
0.0
  0
ENDTAB
  0
TABLE
  2
LTYPE
  5
5
330
0
100
AcDbSymbolTable
 70
     1
  0
LTYPE
  5
14
330
5
100
AcDbSymbolTableRecord
100
AcDbLinetypeTableRecord
  2
ByBlock
 70
     0
  3

 72
    65
 73
     0
 40
0.0
  0
LTYPE
  5
15
330
5
100
AcDbSymbolTableRecord
100
AcDbLinetypeTableRecord
  2
ByLayer
 70
     0
  3

 72
    65
 73
     0
 40
0.0
  0
LTYPE
  5
16
330
5
100
AcDbSymbolTableRecord
100
AcDbLinetypeTableRecord
  2
Continuous
 70
     0
  3
Solid line
 72
    65
 73
     0
 40
0.0
  0
ENDTAB
  0
TABLE
  2
LAYER
  5
2
330
0
100
AcDbSymbolTable
 70
     1
  0
LAYER
  5
10
330
2
100
AcDbSymbolTableRecord
100
AcDbLayerTableRecord
  2
0
 70
     0
 62
     7
  6
Continuous
370
    -3
390
F
  0
ENDTAB
  0
TABLE
  2
STYLE
  5
3
330
0
100
AcDbSymbolTable
 70
     1
  0
STYLE
  5
11
330
3
100
AcDbSymbolTableRecord
100
AcDbTextStyleTableRecord
  2
Standard
 70
     0
 40
0.0
 41
1.0
 50
0.0
 71
     0
 42
0.2
  3
txt
  4

  0
ENDTAB
  0
TABLE
  2
VIEW
  5
6
330
0
100
AcDbSymbolTable
 70
     0
  0
ENDTAB
  0
TABLE
  2
UCS
  5
7
330
0
100
AcDbSymbolTable
 70
     0
  0
ENDTAB
  0
TABLE
  2
APPID
  5
9
330
0
100
AcDbSymbolTable
 70
     1
  0
APPID
  5
12
330
9
100
AcDbSymbolTableRecord
100
AcDbRegAppTableRecord
  2
ACAD
 70
     0
  0
ENDTAB
  0
TABLE
  2
DIMSTYLE
  5
A
330
0
100
AcDbSymbolTable
 70
     1
100
AcDbDimStyleTable
  0
DIMSTYLE
105
27
330
A
100
AcDbSymbolTableRecord
100
AcDbDimStyleTableRecord
  2
Standard
 70
     0
340
11
  0
ENDTAB
  0
TABLE
  2
BLOCK_RECORD
  5
1
330
0
100
AcDbSymbolTable
 70
     1
  0
BLOCK_RECORD
  5
1F
330
1
100
AcDbSymbolTableRecord
100
AcDbBlockTableRecord
  2
*Model_Space
340
22
  0
BLOCK_RECORD
  5
1B
330
1
100
AcDbSymbolTableRecord
100
AcDbBlockTableRecord
  2
*Paper_Space
340
1E
  0
ENDTAB
  0
ENDSEC
  0
SECTION
  2
BLOCKS
  0
BLOCK
  5
20
330
1F
100
AcDbEntity
  8
0
100
AcDbBlockBegin
  2
*Model_Space
 70
     0
 10
0.0
 20
0.0
 30
0.0
  3
*Model_Space
  1

  0
ENDBLK
  5
21
330
1F
100
AcDbEntity
  8
0
100
AcDbBlockEnd
  0
BLOCK
  5
1C
330
1B
100
AcDbEntity
 67
     1
  8
0
100
AcDbBlockBegin
  2
*Paper_Space
 70
     0
 10
0.0
 20
0.0
 30
0.0
  3
*Paper_Space
  1

  0
ENDBLK
  5
1D
330
1B
100
AcDbEntity
 67
     1
  8
0
100
AcDbBlockEnd
  0
ENDSEC
  0
SECTION
  2
ENTITIES
  0
LWPOLYLINE
  5
20000
100
AcDbEntity
  8
0
100
AcDbPolyline
 70
0
 90
5
 10
-598758.73
 20
-1160153.9
 10
-598667.83
 20
-1160144.68
 10
-598641.5
 20
-1160142.01
 10
-598623.87
 20
-1160140.22
 10
-598609.76
 20
-1160138.5
  0
LWPOLYLINE
  5
20001
100
AcDbEntity
  8
0
100
AcDbPolyline
 70
0
 90
2
 10
-597756.3
 20
-1160630.41
 10
-597803.58
 20
-1160651.54
  0
LWPOLYLINE
  5
20002
100
AcDbEntity
  8
0
100
AcDbPolyline
 70
0
 90
5
 10
-595361.92
 20
-1160941.09
 10
-595362.89
 20
-1160937.57
 10
-595363.29
 20
-1160922.62
 10
-595363.17
 20
-1160903.02
 10
-595362.38
 20
-1160887.9
  0
LWPOLYLINE
  5
20003
100
AcDbEntity
  8
0
100
AcDbPolyline
 70
0
 90
14
 10
-598920.19
 20
-1160170.64
 10
-598955.66
 20
-1160174.31
 10
-598975.47
 20
-1160176.36
 10
-598981.66
 20
-1160177
 10
-598991.14
 20
-1160177.98
 10
-599004.53
 20
-1160179.37
 10
-599018.03
 20
-1160180.77
 10
-599036.3
 20
-1160182.66
 10
-599057.47
 20
-1160184.85
 10
-599065.86
 20
-1160185.75
 10
-599098.84
 20
-1160189.3
 10
-599138.43
 20
-1160193.55
 10
-599153.92
 20
-1160194.84
 10
-599167.07
 20
-1160196.63
  0
LWPOLYLINE
  5
20004
100
AcDbEntity
  8
0
100
AcDbPolyline
 70
0
 90
6
 10
-598231.95
 20
-1160915.88
 10
-598237.94
 20
-1160905.54
 10
-598240.29
 20
-1160900.26
 10
-598244.38
 20
-1160879.08
 10
-598250.14
 20
-1160845.83
 10
-598242.22
 20
-1160844.15
  0
LWPOLYLINE
  5
20005
100
AcDbEntity
  8
0
100
AcDbPolyline
 70
0
 90
31
 10
-597572.62
 20
-1161766.8
 10
-597576.31
 20
-1161753.54
 10
-597578.85
 20
-1161742.91
 10
-597580
 20
-1161737.61
 10
-597579.81
 20
-1161729.04
 10
-597584.31
 20
-1161716.85
 10
-597590.81
 20
-1161698.79
 10
-597595.13
 20
-1161688.41
 10
-597600.5
 20
-1161674.35
 10
-597608.75
 20
-1161654.78
 10
-597613.19
 20
-1161644.16
 10
-597621.76
 20
-1161626.84
 10
-597629.44
 20
-1161611.59
 10
-597642.38
 20
-1161586.34
 10
-597650.57
 20
-1161570.96
 10
-597652.32
 20
-1161566.58
 10
-597656.57
 20
-1161552.21
 10
-597663.32
 20
-1161540.77
 10
-597676.01
 20
-1161519.27
 10
-597685.76
 20
-1161501.76
 10
-597704.27
 20
-1161465.26
 10
-597717.58
 20
-1161437.63
 10
-597722.33
 20
-1161426.63
 10
-597727.83
 20
-1161407.06
 10
-597728.58
 20
-1161400.5
 10
-597729.46
 20
-1161377.37
 10
-597729.83
 20
-1161367.43
 10
-597730.71
 20
-1161349.68
 10
-597731.77
 20
-1161334.99
 10
-597732.21
 20
-1161323.99
 10
-597732.27
 20
-1161323.05
  0
LWPOLYLINE
  5
20006
100
AcDbEntity
  8
0
100
AcDbPolyline
 70
0
 90
14
 10
-597694.2
 20
-1161541.99
 10
-597677.08
 20
-1161573.37
 10
-597669.14
 20
-1161587.9
 10
-597663.53
 20
-1161598.18
 10
-597654.2
 20
-1161608.75
 10
-597646.54
 20
-1161615.74
 10
-597642.57
 20
-1161622.59
 10
-597630.99
 20
-1161639.12
 10
-597621.91
 20
-1161661.15
 10
-597616.13
 20
-1161675.35
 10
-597604.38
 20
-1161704.91
 10
-597597.25
 20
-1161725.29
 10
-597592.45
 20
-1161732.26
 10
-597579.5
 20
-1161774.23
  0
LWPOLYLINE
  5
20007
100
AcDbEntity
  8
0
100
AcDbPolyline
 70
0
 90
9
 10
-599357.16
 20
-1160454.1
 10
-599394.91
 20
-1160470.54
 10
-599494.19
 20
-1160511.16
 10
-599505.64
 20
-1160516.41
 10
-599528.91
 20
-1160529.75
 10
-599551.44
 20
-1160544.86
 10
-599591.72
 20
-1160566.35
 10
-599610.44
 20
-1160576.18
 10
-599620.38
 20
-1160578.75
  0
LWPOLYLINE
  5
20008
100
AcDbEntity
  8
0
100
AcDbPolyline
 70
0
 90
37
 10
-603763.45
 20
-1160290.22
 10
-603765.45
 20
-1160292.17
 10
-603776.15
 20
-1160304.26
 10
-603791.04
 20
-1160322.49
 10
-603803.55
 20
-1160339.66
 10
-603810.62
 20
-1160348.85
 10
-603817.37
 20
-1160360.68
 10
-603831.46
 20
-1160386.87
 10
-603844.64
 20
-1160418.3
 10
-603852.92
 20
-1160441.29
 10
-603857
 20
-1160458
 10
-603863.65
 20
-1160490.35
 10
-603865.8
 20
-1160509.31
 10
-603867
 20
-1160529
 10
-603866.56
 20
-1160547.43
 10
-603865.76
 20
-1160559.27
 10
-603864.7
 20
-1160571.94
 10
-603862.5
 20
-1160587.91
 10
-603857.13
 20
-1160612.96
 10
-603853.73
 20
-1160625.47
 10
-603848.19
 20
-1160642.35
 10
-603844.95
 20
-1160651.36
 10
-603840.35
 20
-1160662.05
 10
-603833.32
 20
-1160676.64
 10
-603827
 20
-1160689
 10
-603820.82
 20
-1160699.73
 10
-603809.19
 20
-1160718.54
 10
-603800.78
 20
-1160730.7
 10
-603791.3
 20
-1160744.43
 10
-603775.89
 20
-1160764.09
 10
-603746.68
 20
-1160799.05
 10
-603688
 20
-1160862
 10
-603660.01
 20
-1160892.24
 10
-603647
 20
-1160907
 10
-603629
 20
-1160925.59
 10
-603599.34
 20
-1160958.23
 10
-603570.39
 20
-1160988.86
  0
LWPOLYLINE
  5
20009
100
AcDbEntity
  8
0
100
AcDbPolyline
 70
0
 90
4
 10
-597871.97
 20
-1160548.42
 10
-597932.42
 20
-1160557.82
 10
-597985.68
 20
-1160567.24
 10
-598004.06
 20
-1160573.37
  0
LWPOLYLINE
  5
2000A
100
AcDbEntity
  8
0
100
AcDbPolyline
 70
0
 90
2
 10
-598006.66
 20
-1160283.24
 10
-597980.78
 20
-1160273.29
  0
LWPOLYLINE
  5
2000B
100
AcDbEntity
  8
0
100
AcDbPolyline
 70
0
 90
18
 10
-604447.58
 20
-1157540.71
 10
-604429.64
 20
-1157534.89
 10
-604400.82
 20
-1157523.45
 10
-604367.82
 20
-1157509.45
 10
-604350.44
 20
-1157500.89
 10
-604335.19
 20
-1157491.57
 10
-604320.75
 20
-1157481.7
 10
-604309.81
 20
-1157472.13
 10
-604301.43
 20
-1157464.51
 10
-604287.87
 20
-1157449.32
 10
-604281.56
 20
-1157440.94
 10
-604275.81
 20
-1157432.69
 10
-604269.43
 20
-1157423.63
 10
-604264.99
 20
-1157414.82
 10
-604261.62
 20
-1157406.94
 10
-604258.12
 20
-1157398.5
 10
-604254.49
 20
-1157388.5
 10
-604254.24
 20
-1157387.25
  0
LWPOLYLINE
  5
2000C
100
AcDbEntity
  8
0
100
AcDbPolyline
 70
0
 90
41
 10
-605938.84
 20
-1157064.29
 10
-605971.11
 20
-1157052.05
 10
-606006.31
 20
-1157037.89
 10
-606023.98
 20
-1157031.46
 10
-606037.41
 20
-1157028.39
 10
-606047.14
 20
-1157026.47
 10
-606056.47
 20
-1157025.47
 10
-606068.59
 20
-1157025.11
 10
-606077.94
 20
-1157025.91
 10
-606088.09
 20
-1157028.03
 10
-606098.09
 20
-1157031.32
 10
-606106.96
 20
-1157034.95
 10
-606116.75
 20
-1157040.53
 10
-606127.35
 20
-1157047.23
 10
-606134.35
 20
-1157053.37
 10
-606139.39
 20
-1157058.53
 10
-606148.24
 20
-1157069.59
 10
-606152.17
 20
-1157075.61
 10
-606156.22
 20
-1157082.24
 10
-606159.66
 20
-1157088.38
 10
-606164.02
 20
-1157098.89
 10
-606168.62
 20
-1157112.47
 10
-606171.12
 20
-1157122.61
 10
-606171.84
 20
-1157129.67
 10
-606171.67
 20
-1157149.58
 10
-606164.1
 20
-1157248.16
 10
-606162.42
 20
-1157278.43
 10
-606163.03
 20
-1157297.59
 10
-606164.46
 20
-1157309.82
 10
-606167.72
 20
-1157330.2
 10
-606173.83
 20
-1157351.6
 10
-606213.99
 20
-1157457.28
 10
-606217.86
 20
-1157467.88
 10
-606220.71
 20
-1157476.65
 10
-606222.12
 20
-1157483.81
 10
-606223.75
 20
-1157491.3
 10
-606225.86
 20
-1157504.66
 10
-606227.07
 20
-1157522.3
 10
-606226.11
 20
-1157545.03
 10
-606223.68
 20
-1157558.69
 10
-606221.63
 20
-1157568
  0
LWPOLYLINE
  5
2000D
100
AcDbEntity
  8
0
100
AcDbPolyline
 70
0
 90
54
 10
-596281.29
 20
-1157826.88
 10
-596256.28
 20
-1157769.25
 10
-596244.66
 20
-1157741.74
 10
-596239.53
 20
-1157726.74
 10
-596233.65
 20
-1157712.99
 10
-596215.9
 20
-1157671.98
 10
-596197.94
 20
-1157631.52
 10
-596184.31
 20
-1157599.64
 10
-596178.18
 20
-1157589.22
 10
-596168.44
 20
-1157571.16
 10
-596155.18
 20
-1157539.66
 10
-596146.75
 20
-1157516.76
 10
-596137.65
 20
-1157491.11
 10
-596132.9
 20
-1157477.98
 10
-596125.52
 20
-1157456.6
 10
-596116.38
 20
-1157426.64
 10
-596111.52
 20
-1157405.6
 10
-596109.15
 20
-1157390.72
 10
-596104.65
 20
-1157373.59
 10
-596095.64
 20
-1157333.84
 10
-596091.64
 20
-1157314.05
 10
-596088.14
 20
-1157294.05
 10
-596084.39
 20
-1157275.42
 10
-596081.64
 20
-1157264.42
 10
-596080.14
 20
-1157256.42
 10
-596078.52
 20
-1157245.42
 10
-596077.39
 20
-1157238.29
 10
-596077.14
 20
-1157229.54
 10
-596076.52
 20
-1157209.54
 10
-596074.77
 20
-1157186.29
 10
-596073.39
 20
-1157159.41
 10
-596072.14
 20
-1157128.91
 10
-596070.02
 20
-1157100.15
 10
-596070.39
 20
-1157079.58
 10
-596070.89
 20
-1157068.33
 10
-596071.39
 20
-1157051.2
 10
-596071.89
 20
-1157037.08
 10
-596075.14
 20
-1157000.07
 10
-596079.52
 20
-1156968.25
 10
-596082.64
 20
-1156940.75
 10
-596086.43
 20
-1156914.3
 10
-596091.81
 20
-1156878.92
 10
-596096.93
 20
-1156849.66
 10
-596099.83
 20
-1156837.02
 10
-596102.71
 20
-1156821.27
 10
-596105.21
 20
-1156810.01
 10
-596105.58
 20
-1156800.64
 10
-596107.71
 20
-1156788.76
 10
-596115.25
 20
-1156771.42
 10
-596120.37
 20
-1156753.42
 10
-596128.25
 20
-1156726.92
 10
-596135.25
 20
-1156705.54
 10
-596139.75
 20
-1156691.16
 10
-596144.87
 20
-1156672.58
  0
LWPOLYLINE
  5
2000E
100
AcDbEntity
  8
0
100
AcDbPolyline
 70
0
 90
5
 10
-599439.08
 20
-1159151.24
 10
-599471.59
 20
-1159162.84
 10
-599509.31
 20
-1159188.84
 10
-599593.53
 20
-1159243
 10
-599514.53
 20
-1159371.14
  0
LWPOLYLINE
  5
2000F
100
AcDbEntity
  8
0
100
AcDbPolyline
 70
0
 90
9
 10
-605363.66
 20
-1158452.29
 10
-604961.61
 20
-1158595.31
 10
-604995.61
 20
-1158681.32
 10
-605030.62
 20
-1158704.32
 10
-605143.63
 20
-1158776.33
 10
-604678.58
 20
-1159016.36
 10
-604629.57
 20
-1159012.36
 10
-604594.56
 20
-1159012.36
 10
-604442.55
 20
-1159053.36
  0
LWPOLYLINE
  5
20010
100
AcDbEntity
  8
0
100
AcDbPolyline
 70
0
 90
2
 10
-597869.74
 20
-1161107.1
 10
-597858.97
 20
-1161085.63
  0
LWPOLYLINE
  5
20011
100
AcDbEntity
  8
0
100
AcDbPolyline
 70
0
 90
4
 10
-600540.3
 20
-1160848.68
 10
-600540.28
 20
-1160844.2
 10
-600540.91
 20
-1160840.48
 10
-600541.41
 20
-1160833.28
  0
LWPOLYLINE
  5
20012
100
AcDbEntity
  8
0
100
AcDbPolyline
 70
0
 90
7
 10
-598760.67
 20
-1160154.1
 10
-598674.85
 20
-1160145.4
 10
-598618.24
 20
-1160139.65
 10
-598609.82
 20
-1160138.51
 10
-598607.3
 20
-1160137.85
 10
-598606.43
 20
-1160137.53
 10
-598598.81
 20
-1160132.17
  0
LWPOLYLINE
  5
20013
100
AcDbEntity
  8
0
100
AcDbPolyline
 70
0
 90
7
 10
-598915.63
 20
-1160167.34
 10
-598886.43
 20
-1160164.4
 10
-598876.96
 20
-1160163.45
 10
-598867.02
 20
-1160162.45
 10
-598853.9
 20
-1160161.13
 10
-598843.93
 20
-1160160.12
 10
-598840.47
 20
-1160159.8
  0
LWPOLYLINE
  5
20014
100
AcDbEntity
  8
0
100
AcDbPolyline
 70
0
 90
2
 10
-597839.95
 20
-1160662.07
 10
-597850.24
 20
-1160663.65
  0
LWPOLYLINE
  5
20015
100
AcDbEntity
  8
0
100
AcDbPolyline
 70
0
 90
6
 10
-594882.6
 20
-1158161.96
 10
-594904.43
 20
-1158179.42
 10
-594932.08
 20
-1158198.61
 10
-594952.06
 20
-1158214.08
 10
-594962.77
 20
-1158226.12
 10
-594971.11
 20
-1158240.67
  0
LWPOLYLINE
  5
20016
100
AcDbEntity
  8
0
100
AcDbPolyline
 70
0
 90
2
 10
-595736.36
 20
-1168968.07
 10
-595721.55
 20
-1168945.88
  0
LWPOLYLINE
  5
20017
100
AcDbEntity
  8
0
100
AcDbPolyline
 70
0
 90
4
 10
-601528.06
 20
-1155107.02
 10
-601617.02
 20
-1155108.16
 10
-601836.68
 20
-1155140.53
 10
-602133
 20
-1155185
  0
LWPOLYLINE
  5
20018
100
AcDbEntity
  8
0
100
AcDbPolyline
 70
0
 90
22
 10
-602063.94
 20
-1156128.17
 10
-602061.35
 20
-1156106.78
 10
-602060.87
 20
-1156095.48
 10
-602062
 20
-1156070
 10
-602064.72
 20
-1156059.97
 10
-602068
 20
-1156053
 10
-602079.14
 20
-1156035.12
 10
-602091.57
 20
-1156012.71
 10
-602098.66
 20
-1155984.54
 10
-602100.22
 20
-1155953.25
 10
-602102
 20
-1155920
 10
-602107.6
 20
-1155901.87
 10
-602113.51
 20
-1155887.41
 10
-602118.81
 20
-1155865.21
 10
-602121.05
 20
-1155844.95
 10
-602122.88
 20
-1155819.9
 10
-602123
 20
-1155798
 10
-602124.71
 20
-1155675.33
 10
-602126.39
 20
-1155619.05
 10
-602127
 20
-1155549
 10
-602133
 20
-1155195
 10
-602133
 20
-1155185
  0
LWPOLYLINE
  5
20019
100
AcDbEntity
  8
0
100
AcDbPolyline
 70
0
 90
5
 10
-602061.98
 20
-1156196.26
 10
-602063.96
 20
-1156184.87
 10
-602065.55
 20
-1156173.2
 10
-602066
 20
-1156149
 10
-602063.94
 20
-1156128.17
  0
LWPOLYLINE
  5
2001A
100
AcDbEntity
  8
0
100
AcDbPolyline
 70
0
 90
21
 10
-601660.71
 20
-1156011.68
 10
-601684.42
 20
-1156012.91
 10
-601723.98
 20
-1156012.18
 10
-601734.88
 20
-1156012.74
 10
-601743.68
 20
-1156013.71
 10
-601783.64
 20
-1156019.04
 10
-601797.45
 20
-1156021.14
 10
-601806.33
 20
-1156023.6
 10
-601813.67
 20
-1156026.5
 10
-601819.16
 20
-1156029.65
 10
-601836.12
 20
-1156041.76
 10
-601849.11
 20
-1156050.11
 10
-601916.36
 20
-1156080.75
 10
-601934.44
 20
-1156089.79
 10
-601950.83
 20
-1156097.74
 10
-601981.03
 20
-1156110.49
 10
-602019.22
 20
-1156122.36
 10
-602028.25
 20
-1156124.62
 10
-602038.99
 20
-1156126.4
 10
-602056.76
 20
-1156128.5
 10
-602063.94
 20
-1156128.17
  0
LWPOLYLINE
  5
2001B
100
AcDbEntity
  8
0
100
AcDbPolyline
 70
0
 90
8
 10
-601487.2
 20
-1155987.28
 10
-601500.44
 20
-1155992.44
 10
-601515.06
 20
-1155994.87
 10
-601553.64
 20
-1155999.67
 10
-601602.73
 20
-1156004.67
 10
-601626.05
 20
-1156007.66
 10
-601657.87
 20
-1156011.53
 10
-601660.71
 20
-1156011.68
  0
LWPOLYLINE
  5
2001C
100
AcDbEntity
  8
0
100
AcDbPolyline
 70
0
 90
39
 10
-601800.21
 20
-1156803.72
 10
-601847.63
 20
-1156737.71
 10
-601850.27
 20
-1156734.61
 10
-601877.36
 20
-1156706.27
 10
-601896.68
 20
-1156682.22
 10
-601910.52
 20
-1156660.89
 10
-601922.7
 20
-1156641.07
 10
-601928.39
 20
-1156627.96
 10
-601934
 20
-1156614
 10
-601939.11
 20
-1156596.86
 10
-601942.9
 20
-1156575.87
 10
-601946.36
 20
-1156552.37
 10
-601947.37
 20
-1156540.09
 10
-601948.82
 20
-1156530.82
 10
-601952.06
 20
-1156514.02
 10
-601956.08
 20
-1156496.38
 10
-601961.55
 20
-1156479.35
 10
-601967.36
 20
-1156458.87
 10
-601968.01
 20
-1156452.66
 10
-601968.09
 20
-1156446.04
 10
-601966.58
 20
-1156432.51
 10
-601966.35
 20
-1156427.82
 10
-601966.91
 20
-1156423.58
 10
-601971.16
 20
-1156409.46
 10
-601975.96
 20
-1156391.71
 10
-601978.97
 20
-1156381.83
 10
-601982.21
 20
-1156373.9
 10
-601986.79
 20
-1156363.18
 10
-601991.7
 20
-1156352.46
 10
-601997.91
 20
-1156341.65
 10
-602002.98
 20
-1156332.98
 10
-602014.82
 20
-1156314.11
 10
-602019.29
 20
-1156306.82
 10
-602027.39
 20
-1156289.34
 10
-602047.59
 20
-1156243.9
 10
-602052.23
 20
-1156231.34
 10
-602054.77
 20
-1156224.19
 10
-602060
 20
-1156208
 10
-602062.01
 20
-1156196.29
  0
LWPOLYLINE
  5
2001D
100
AcDbEntity
  8
0
100
AcDbPolyline
 70
0
 90
6
 10
-604137.85
 20
-1157071.58
 10
-604126.6
 20
-1157070.15
 10
-604115.22
 20
-1157069.71
 10
-604105.54
 20
-1157070.27
 10
-604095.97
 20
-1157071.15
 10
-604093.6
 20
-1157072.15
  0
LWPOLYLINE
  5
2001E
100
AcDbEntity
  8
0
100
AcDbPolyline
 70
0
 90
11
 10
-599332.06
 20
-1159325.81
 10
-599342.44
 20
-1159309.56
 10
-599345.8
 20
-1159306.48
 10
-599350.51
 20
-1159304.25
 10
-599358.39
 20
-1159303.34
 10
-599362.85
 20
-1159303.9
 10
-599368.53
 20
-1159306.68
 10
-599437.4
 20
-1159346.18
 10
-599514.53
 20
-1159371.14
 10
-599554.83
 20
-1159389.73
 10
-599755.71
 20
-1159515.53
  0
LWPOLYLINE
  5
2001F
100
AcDbEntity
  8
0
100
AcDbPolyline
 70
0
 90
3
 10
-594697.74
 20
-1163054.97
 10
-594582.31
 20
-1162969.76
 10
-594438.66
 20
-1162862.92
  0
LWPOLYLINE
  5
20020
100
AcDbEntity
  8
0
100
AcDbPolyline
 70
0
 90
17
 10
-601820.55
 20
-1157851.67
 10
-601805.3
 20
-1157874.5
 10
-601789.65
 20
-1157900.33
 10
-601774.21
 20
-1157927.11
 10
-601750.16
 20
-1157970.21
 10
-601726.35
 20
-1158011.61
 10
-601707.55
 20
-1158045.37
 10
-601694.29
 20
-1158068.62
 10
-601673.53
 20
-1158105.31
 10
-601637.62
 20
-1158168.16
 10
-601606.39
 20
-1158223.95
 10
-601583.13
 20
-1158263.58
 10
-601561.01
 20
-1158297.64
 10
-601541.18
 20
-1158321.33
 10
-601517.45
 20
-1158345.32
 10
-601489.63
 20
-1158370.52
 10
-601486.17
 20
-1158373.45
  0
LWPOLYLINE
  5
20021
100
AcDbEntity
  8
0
100
AcDbPolyline
 70
0
 90
3
 10
-601485.1
 20
-1158374.19
 10
-601451.92
 20
-1158391.41
 10
-601388.41
 20
-1158420.66
  0
LWPOLYLINE
  5
20022
100
AcDbEntity
  8
0
100
AcDbPolyline
 70
0
 90
75
 10
-607886
 20
-1155347
 10
-607852
 20
-1155364
 10
-607784
 20
-1155399
 10
-607715
 20
-1155435
 10
-607675
 20
-1155462
 10
-607625
 20
-1155494
 10
-607615
 20
-1155499
 10
-607603
 20
-1155504
 10
-607577
 20
-1155512
 10
-607541
 20
-1155518
 10
-607508.49
 20
-1155524.45
 10
-607464.53
 20
-1155535.79
 10
-607432.49
 20
-1155552.24
 10
-607403
 20
-1155565
 10
-607365
 20
-1155582
 10
-607328
 20
-1155598
 10
-607272
 20
-1155622.98
 10
-607213.31
 20
-1155648.64
 10
-607177.58
 20
-1155665.93
 10
-607146.39
 20
-1155682.1
 10
-607128.53
 20
-1155698.54
 10
-607114.63
 20
-1155712.15
 10
-607090.53
 20
-1155740.23
 10
-607070.4
 20
-1155765.32
 10
-607019.79
 20
-1155818.34
 10
-607009.44
 20
-1155828.55
 10
-606986.47
 20
-1155849.67
 10
-606963.93
 20
-1155871.86
 10
-606934
 20
-1155902
 10
-606916.86
 20
-1155920.56
 10
-606905.38
 20
-1155928.78
 10
-606889.78
 20
-1155938.71
 10
-606860
 20
-1155943
 10
-606845.12
 20
-1155945.44
 10
-606793.09
 20
-1155951.25
 10
-606747
 20
-1155958
 10
-606711
 20
-1155969
 10
-606675
 20
-1155988
 10
-606609.21
 20
-1156023.69
 10
-606577.45
 20
-1156041.56
 10
-606543
 20
-1156061
 10
-606516
 20
-1156076
 10
-606505
 20
-1156081.61
 10
-606493.8
 20
-1156086.29
 10
-606471
 20
-1156095
 10
-606451
 20
-1156101
 10
-606420
 20
-1156110
 10
-606362.94
 20
-1156126.62
 10
-606343.52
 20
-1156132.01
 10
-606328.35
 20
-1156136.12
 10
-606303
 20
-1156140
 10
-606267
 20
-1156141
 10
-606195.08
 20
-1156140.66
 10
-606170.98
 20
-1156141.08
 10
-606147.16
 20
-1156143.49
 10
-606085
 20
-1156154
 10
-606074
 20
-1156156
 10
-606042
 20
-1156162
 10
-606010
 20
-1156167
 10
-605966
 20
-1156174
 10
-605905
 20
-1156185
 10
-605892
 20
-1156187
 10
-605875
 20
-1156189
 10
-605865
 20
-1156190
 10
-605836
 20
-1156191
 10
-605769
 20
-1156192
 10
-605726.23
 20
-1156193.39
 10
-605701
 20
-1156195
 10
-605686
 20
-1156197
 10
-605667
 20
-1156202
 10
-605638
 20
-1156215
 10
-605599
 20
-1156233
 10
-605573
 20
-1156246
 10
-605529.6
 20
-1156265.15
 10
-605501.27
 20
-1156275.81
  0
LWPOLYLINE
  5
20023
100
AcDbEntity
  8
0
100
AcDbPolyline
 70
0
 90
3
 10
-598034.1
 20
-1160691.62
 10
-598031.84
 20
-1160708.82
 10
-598026.18
 20
-1160744.83
  0
LWPOLYLINE
  5
20024
100
AcDbEntity
  8
0
100
AcDbPolyline
 70
0
 90
4
 10
-598755.88
 20
-1160153.61
 10
-598712.6
 20
-1160149.22
 10
-598638.03
 20
-1160141.66
 10
-598621.35
 20
-1160139.97
  0
LWPOLYLINE
  5
20025
100
AcDbEntity
  8
0
100
AcDbPolyline
 70
0
 90
5
 10
-597478.18
 20
-1162124.09
 10
-597436.73
 20
-1162103.78
 10
-597395.26
 20
-1162083.45
 10
-597305.37
 20
-1162039.38
 10
-597282.79
 20
-1162028.31
  0
LWPOLYLINE
  5
20026
100
AcDbEntity
  8
0
100
AcDbPolyline
 70
0
 90
5
 10
-599277.61
 20
-1157741.26
 10
-599273.14
 20
-1157755.11
 10
-599263.12
 20
-1157786.16
 10
-599249.44
 20
-1157828.57
 10
-599237.93
 20
-1157864.24
  0
LWPOLYLINE
  5
20027
100
AcDbEntity
  8
0
100
AcDbPolyline
 70
0
 90
2
 10
-597736.43
 20
-1160621.47
 10
-597755.93
 20
-1160630.09
  0
LWPOLYLINE
  5
20028
100
AcDbEntity
  8
0
100
AcDbPolyline
 70
0
 90
2
 10
-599439.08
 20
-1159151.24
 10
-599383.78
 20
-1159230.34
  0
LWPOLYLINE
  5
20029
100
AcDbEntity
  8
0
100
AcDbPolyline
 70
0
 90
2
 10
-599363.57
 20
-1157767.93
 10
-599324.87
 20
-1157886.19
  0
LWPOLYLINE
  5
2002A
100
AcDbEntity
  8
0
100
AcDbPolyline
 70
0
 90
3
 10
-597850.02
 20
-1160535.41
 10
-597826.5
 20
-1160523.87
 10
-597799.77
 20
-1160510.84
  0
LWPOLYLINE
  5
2002B
100
AcDbEntity
  8
0
100
AcDbPolyline
 70
0
 90
2
 10
-598066.06
 20
-1160591.74
 10
-598049.23
 20
-1160595.92
  0
LWPOLYLINE
  5
2002C
100
AcDbEntity
  8
0
100
AcDbPolyline
 70
0
 90
3
 10
-598026.68
 20
-1158949.04
 10
-597969.44
 20
-1159162.35
 10
-597960.21
 20
-1159195.76
  0
LWPOLYLINE
  5
2002D
100
AcDbEntity
  8
0
100
AcDbPolyline
 70
0
 90
9
 10
-598356.75
 20
-1161030.4
 10
-598348.24
 20
-1161028.6
 10
-598283.09
 20
-1161038.11
 10
-598266.16
 20
-1161036.72
 10
-598236.43
 20
-1161032.86
 10
-598216.84
 20
-1161032.67
 10
-598199.28
 20
-1161034.76
 10
-598181.9
 20
-1161038.17
 10
-598175.98
 20
-1161042.44
  0
LWPOLYLINE
  5
2002E
100
AcDbEntity
  8
0
100
AcDbPolyline
 70
0
 90
3
 10
-598203.08
 20
-1161074.1
 10
-598213.98
 20
-1161065.6
 10
-598277.78
 20
-1161038.11
  0
LWPOLYLINE
  5
2002F
100
AcDbEntity
  8
0
100
AcDbPolyline
 70
0
 90
2
 10
-598562
 20
-1159923
 10
-598699.88
 20
-1160008.87
  0
LWPOLYLINE
  5
20030
100
AcDbEntity
  8
0
100
AcDbPolyline
 70
0
 90
11
 10
-601881.02
 20
-1158588.05
 10
-601869.4
 20
-1158529.16
 10
-601853.19
 20
-1158490.23
 10
-601863.28
 20
-1158345.36
 10
-601883.39
 20
-1158299.16
 10
-601912.95
 20
-1158178.48
 10
-601928.11
 20
-1158117.86
 10
-601928.77
 20
-1158027.6
 10
-601928.76
 20
-1157978.46
 10
-601928.07
 20
-1157915.35
 10
-601935.28
 20
-1157878.4
  0
LWPOLYLINE
  5
20031
100
AcDbEntity
  8
0
100
AcDbPolyline
 70
0
 90
4
 10
-601935.11
 20
-1157878.29
 10
-601946.66
 20
-1157860.05
 10
-601863.76
 20
-1157824.09
 10
-601846.85
 20
-1157812.11
  0
LWPOLYLINE
  5
20032
100
AcDbEntity
  8
0
100
AcDbPolyline
 70
0
 90
2
 10
-600372.780395176
 20
-1157922.88215145
 10
-600360.405297328
 20
-1157912.90223384
  0
LWPOLYLINE
  5
20033
100
AcDbEntity
  8
0
100
AcDbPolyline
 70
0
 90
4
 10
-597538.79
 20
-1161339.85
 10
-597471.11
 20
-1161371.51
 10
-597391.54
 20
-1161408.43
 10
-597353
 20
-1161426
  0
LWPOLYLINE
  5
20034
100
AcDbEntity
  8
0
100
AcDbPolyline
 70
0
 90
4
 10
-598559.787340324
 20
-1159073.67660489
 10
-598684.209999997
 20
-1159108.32
 10
-598797.969999999
 20
-1159140.44
 10
-598925.785238214
 20
-1159175.52125884
  0
LWPOLYLINE
  5
20035
100
AcDbEntity
  8
0
100
AcDbPolyline
 70
0
 90
4
 10
-599564.35
 20
-1158449.82
 10
-599616.48
 20
-1158414.28
 10
-599654.54
 20
-1158388.86
 10
-599677.22
 20
-1158374.69
  0
LWPOLYLINE
  5
20036
100
AcDbEntity
  8
0
100
AcDbPolyline
 70
0
 90
9
 10
-595853.629999999
 20
-1162093.842
 10
-595854.098099999
 20
-1162087.989
 10
-595854.078899994
 20
-1162084.914
 10
-595853.229999997
 20
-1162080.36
 10
-595852.029999997
 20
-1162076.07
 10
-595801.999999996
 20
-1161961
 10
-595773.999999996
 20
-1161898
 10
-595740.129999999
 20
-1161821.17
 10
-595726.599799998
 20
-1161789.9296
  0
LWPOLYLINE
  5
20037
100
AcDbEntity
  8
0
100
AcDbPolyline
 70
0
 90
6
 10
-597475.3
 20
-1162325.05
 10
-597444.79
 20
-1162323.24
 10
-597429.2
 20
-1162322.98
 10
-597409.37
 20
-1162324.49
 10
-597374.01
 20
-1162330.15
 10
-597350.36
 20
-1162336.34
  0
LWPOLYLINE
  5
20038
100
AcDbEntity
  8
0
100
AcDbPolyline
 70
0
 90
22
 10
-603532.04
 20
-1157176.07
 10
-603539.35
 20
-1157182.63
 10
-603547.62
 20
-1157190.31
 10
-603555.12
 20
-1157196.01
 10
-603566.43
 20
-1157204.32
 10
-603588.2
 20
-1157219.02
 10
-603598.67
 20
-1157225.74
 10
-603616.57
 20
-1157237.06
 10
-603626.83
 20
-1157242.27
 10
-603633.53
 20
-1157245.52
 10
-603640.11
 20
-1157248.57
 10
-603647.98
 20
-1157252.25
 10
-603652.97
 20
-1157254.46
 10
-603661.19
 20
-1157257.55
 10
-603668.48
 20
-1157260.27
 10
-603690.75
 20
-1157267.99
 10
-603727.56
 20
-1157279.91
 10
-603743.38
 20
-1157284.51
 10
-603755.6
 20
-1157287.45
 10
-603763.73
 20
-1157289.16
 10
-603771.91
 20
-1157290.57
 10
-603773.41
 20
-1157290.77
  0
LWPOLYLINE
  5
20039
100
AcDbEntity
  8
0
100
AcDbPolyline
 70
0
 90
4
 10
-598930.76
 20
-1158240.6
 10
-598918.08
 20
-1158286.81
 10
-598905.14
 20
-1158332.25
 10
-598892.48
 20
-1158378.87
  0
LWPOLYLINE
  5
2003A
100
AcDbEntity
  8
0
100
AcDbPolyline
 70
0
 90
4
 10
-598888.27
 20
-1158394.78
 10
-598879.01
 20
-1158428.38
 10
-598855.2
 20
-1158513.05
 10
-598848.32
 20
-1158535.8
  0
LWPOLYLINE
  5
2003B
100
AcDbEntity
  8
0
100
AcDbPolyline
 70
0
 90
2
 10
-598842.88
 20
-1158563.27
 10
-598823.02
 20
-1158634.76
  0
LWPOLYLINE
  5
2003C
100
AcDbEntity
  8
0
100
AcDbPolyline
 70
0
 90
3
 10
-598819.58
 20
-1158646.58
 10
-598813.22
 20
-1158668.03
 10
-598801
 20
-1158714.31
  0
LWPOLYLINE
  5
2003D
100
AcDbEntity
  8
0
100
AcDbPolyline
 70
0
 90
9
 10
-594804.03
 20
-1162547.86
 10
-594806.15
 20
-1162540.74
 10
-594797.9
 20
-1162522.48
 10
-594793.4
 20
-1162514.23
 10
-594785.78
 20
-1162492.48
 10
-594780.28
 20
-1162478.73
 10
-594780.53
 20
-1162473.6
 10
-594754.06
 20
-1162409.51
 10
-594739.49
 20
-1162374.62
  0
LWPOLYLINE
  5
2003E
100
AcDbEntity
  8
0
100
AcDbPolyline
 70
0
 90
4
 10
-599110.75
 20
-1161089.43
 10
-599116.26
 20
-1161095.68
 10
-599122.38
 20
-1161101.06
 10
-599128.76
 20
-1161105.06
  0
LWPOLYLINE
  5
2003F
100
AcDbEntity
  8
0
100
AcDbPolyline
 70
0
 90
29
 10
-604258.32
 20
-1157385.17
 10
-604256.35
 20
-1157379.07
 10
-604253.94
 20
-1157370.21
 10
-604251
 20
-1157356.76
 10
-604249.55
 20
-1157349.04
 10
-604247.53
 20
-1157326.96
 10
-604246.66
 20
-1157311.8
 10
-604246.32
 20
-1157296.93
 10
-604244.85
 20
-1157264.98
 10
-604244.34
 20
-1157236.35
 10
-604243.1
 20
-1157213.78
 10
-604242.41
 20
-1157202.42
 10
-604241.54
 20
-1157191.08
 10
-604239.99
 20
-1157179.15
 10
-604237.47
 20
-1157163.25
 10
-604234.73
 20
-1157153.14
 10
-604231.74
 20
-1157143.78
 10
-604230.8
 20
-1157140.84
 10
-604227.86
 20
-1157134.84
 10
-604221.07
 20
-1157124.22
 10
-604214.59
 20
-1157114.69
 10
-604205.39
 20
-1157103.66
 10
-604196.87
 20
-1157096.41
 10
-604184.36
 20
-1157086.39
 10
-604174.97
 20
-1157080.86
 10
-604163.95
 20
-1157075.46
 10
-604149.43
 20
-1157070.5
 10
-604145.12
 20
-1157069.11
 10
-604139.43
 20
-1157067.98
  0
LWPOLYLINE
  5
20040
100
AcDbEntity
  8
0
100
AcDbPolyline
 70
0
 90
5
 10
-604099.72
 20
-1157065.57
 10
-604110.8
 20
-1157065
 10
-604124.01
 20
-1157065.71
 10
-604133.87
 20
-1157066.98
 10
-604139.58
 20
-1157067.49
  0
LWPOLYLINE
  5
20041
100
AcDbEntity
  8
0
100
AcDbPolyline
 70
0
 90
4
 10
-597916.67
 20
-1159152.61
 10
-597917.21
 20
-1159150.82
 10
-597917.93
 20
-1159144.63
 10
-597917.57
 20
-1159126.63
  0
LWPOLYLINE
  5
20042
100
AcDbEntity
  8
0
100
AcDbPolyline
 70
0
 90
2
 10
-595746.99
 20
-1169053.58
 10
-595750.62
 20
-1168978.45
  0
LWPOLYLINE
  5
20043
100
AcDbEntity
  8
0
100
AcDbPolyline
 70
0
 90
2
 10
-596624.94
 20
-1160059.08
 10
-596623.15
 20
-1160047.92
  0
LWPOLYLINE
  5
20044
100
AcDbEntity
  8
0
100
AcDbPolyline
 70
0
 90
22
 10
-594454.93
 20
-1157557.67
 10
-594436.75
 20
-1157559.69
 10
-594407.18
 20
-1157564.3
 10
-594393.25
 20
-1157566.74
 10
-594378.32
 20
-1157570.4
 10
-594361.42
 20
-1157574.61
 10
-594342.24
 20
-1157580.31
 10
-594331.66
 20
-1157583.7
 10
-594319.64
 20
-1157588.04
 10
-594311.77
 20
-1157591.11
 10
-594289
 20
-1157601
 10
-594269.35
 20
-1157611.06
 10
-594251
 20
-1157620.87
 10
-594228.84
 20
-1157633.44
 10
-594179
 20
-1157661
 10
-594140.25
 20
-1157682.3
 10
-594018.99
 20
-1157748.81
 10
-593992.75
 20
-1157759.48
 10
-593978.45
 20
-1157765.85
 10
-593956.32
 20
-1157776.62
 10
-593946.01
 20
-1157782.09
 10
-593938.6
 20
-1157786.88
  0
LWPOLYLINE
  5
20045
100
AcDbEntity
  8
0
100
AcDbPolyline
 70
0
 90
2
 10
-599100.29
 20
-1156434.59
 10
-599208.9
 20
-1156462.65
  0
LWPOLYLINE
  5
20046
100
AcDbEntity
  8
0
100
AcDbPolyline
 70
0
 90
2
 10
-597562.5
 20
-1161799.05
 10
-597539.87
 20
-1161882.5
  0
LWPOLYLINE
  5
20047
100
AcDbEntity
  8
0
100
AcDbPolyline
 70
0
 90
4
 10
-597720.01
 20
-1160847.75
 10
-597780.13
 20
-1160873.16
 10
-597795.51
 20
-1160877.65
 10
-597811.89
 20
-1160877.43
  0
LWPOLYLINE
  5
20048
100
AcDbEntity
  8
0
100
AcDbPolyline
 70
0
 90
2
 10
-598049.23
 20
-1160595.92
 10
-598034.1
 20
-1160691.62
  0
LWPOLYLINE
  5
20049
100
AcDbEntity
  8
0
100
AcDbPolyline
 70
0
 90
7
 10
-598359.13
 20
-1159017.24
 10
-598354.89
 20
-1159017.68
 10
-598351.16
 20
-1159016.65
 10
-598303.31
 20
-1159003.53
 10
-598253.96
 20
-1158990
 10
-598251.44
 20
-1158989.31
 10
-598249.86
 20
-1158987.59
  0
LWPOLYLINE
  5
2004A
100
AcDbEntity
  8
0
100
AcDbPolyline
 70
0
 90
2
 10
-598196.4
 20
-1161104.45
 10
-598217.32
 20
-1161117.87
  0
LWPOLYLINE
  5
2004B
100
AcDbEntity
  8
0
100
AcDbPolyline
 70
0
 90
2
 10
-598165.61
 20
-1161087.21
 10
-598196.36
 20
-1161104.43
  0
LWPOLYLINE
  5
2004C
100
AcDbEntity
  8
0
100
AcDbPolyline
 70
0
 90
5
 10
-598196.32
 20
-1161104.3
 10
-598205.37
 20
-1161081.84
 10
-598204.77
 20
-1161077.92
 10
-598202.5
 20
-1161075.65
 10
-598171.06
 20
-1161071.56
  0
LWPOLYLINE
  5
2004D
100
AcDbEntity
  8
0
100
AcDbPolyline
 70
0
 90
14
 10
-598175.98
 20
-1161042.44
 10
-598171.05
 20
-1161043.59
 10
-598165.36
 20
-1161043.16
 10
-598111.56
 20
-1161029.69
 10
-598101.38
 20
-1161025.85
 10
-598092.63
 20
-1161043
 10
-598089.5
 20
-1161052.73
 10
-598087.9
 20
-1161063.84
 10
-598085.48
 20
-1161080.74
 10
-598111.33
 20
-1161087.45
 10
-598160.02
 20
-1161098.72
 10
-598166.14
 20
-1161086.12
 10
-598171.06
 20
-1161071.56
 10
-598175.98
 20
-1161042.44
  0
LWPOLYLINE
  5
2004E
100
AcDbEntity
  8
0
100
AcDbPolyline
 70
0
 90
2
 10
-599970.579999998
 20
-1158831.03
 10
-599833
 20
-1158897
  0
LWPOLYLINE
  5
2004F
100
AcDbEntity
  8
0
100
AcDbPolyline
 70
0
 90
5
 10
-599237.93
 20
-1157864.24
 10
-599224.64
 20
-1157905.08
 10
-599213.44
 20
-1157939.5
 10
-599202.6
 20
-1157972.8
 10
-599196.13
 20
-1157992.69
  0
LWPOLYLINE
  5
20050
100
AcDbEntity
  8
0
100
AcDbPolyline
 70
0
 90
10
 10
-603854.51
 20
-1157275.53
 10
-603846.19
 20
-1157280.27
 10
-603841.77
 20
-1157282.14
 10
-603835.07
 20
-1157284.56
 10
-603828.11
 20
-1157286.63
 10
-603822
 20
-1157288.45
 10
-603814.81
 20
-1157289.85
 10
-603809.38
 20
-1157290.85
 10
-603803.36
 20
-1157291.68
 10
-603798.36
 20
-1157292.07
  0
LWPOLYLINE
  5
20051
100
AcDbEntity
  8
0
100
AcDbPolyline
 70
0
 90
11
 10
-598763.36
 20
-1158815.4
 10
-598789
 20
-1158720
 10
-598803
 20
-1158667
 10
-598811
 20
-1158640
 10
-598836
 20
-1158550
 10
-598842
 20
-1158526
 10
-598857
 20
-1158474
 10
-598882
 20
-1158386
 10
-598922.38
 20
-1158239.15
 10
-598964.18
 20
-1158087.16
 10
-599002.88
 20
-1157946.44
  0
LWPOLYLINE
  5
20052
100
AcDbEntity
  8
0
100
AcDbPolyline
 70
0
 90
11
 10
-604258.32
 20
-1157385.17
 10
-604261.32
 20
-1157393.66
 10
-604270.37
 20
-1157410.94
 10
-604282.12
 20
-1157430.75
 10
-604293.64
 20
-1157446.15
 10
-604302.52
 20
-1157456.53
 10
-604325.16
 20
-1157478.05
 10
-604346.44
 20
-1157492.13
 10
-604369.46
 20
-1157504.56
 10
-604396.63
 20
-1157516.64
 10
-604413.59
 20
-1157523.24
  0
LWPOLYLINE
  5
20053
100
AcDbEntity
  8
0
100
AcDbPolyline
 70
0
 90
12
 10
-605770.46
 20
-1157113.81
 10
-605751.08
 20
-1157115.93
 10
-605733.16
 20
-1157117.9
 10
-605707.86
 20
-1157120.68
 10
-605697.47
 20
-1157121.81
 10
-605674.95
 20
-1157122.68
 10
-605636.57
 20
-1157122.64
 10
-605606.07
 20
-1157123.81
 10
-605559.56
 20
-1157121.31
 10
-605545.68
 20
-1157120.43
 10
-605532.06
 20
-1157120.81
 10
-605529.93
 20
-1157120.81
  0
LWPOLYLINE
  5
20054
100
AcDbEntity
  8
0
100
AcDbPolyline
 70
0
 90
4
 10
-605476.43
 20
-1157118.06
 10
-605451.42
 20
-1157115.56
 10
-605436.8
 20
-1157113.81
 10
-605392.73
 20
-1157109.69
  0
LWPOLYLINE
  5
20055
100
AcDbEntity
  8
0
100
AcDbPolyline
 70
0
 90
11
 10
-596623.15
 20
-1160047.92
 10
-596621
 20
-1160047.87
 10
-596618.05
 20
-1160048.2
 10
-596614.31
 20
-1160049.4
 10
-596607.54
 20
-1160053.24
 10
-596591.67
 20
-1160063.08
 10
-596587.25
 20
-1160065.49
 10
-596585.02
 20
-1160066.71
 10
-596580.19
 20
-1160070.05
 10
-596573.61
 20
-1160075.75
 10
-596568.23
 20
-1160080.67
  0
LWPOLYLINE
  5
20056
100
AcDbEntity
  8
0
100
AcDbPolyline
 70
0
 90
2
 10
-597730
 20
-1159816
 10
-597771.41
 20
-1159815.05
  0
LWPOLYLINE
  5
20057
100
AcDbEntity
  8
0
100
AcDbPolyline
 70
0
 90
2
 10
-599056.15
 20
-1160183.73
 10
-599070.11
 20
-1160050.75
  0
LWPOLYLINE
  5
20058
100
AcDbEntity
  8
0
100
AcDbPolyline
 70
0
 90
5
 10
-598751.22
 20
-1160167.27
 10
-598746.02
 20
-1160173.8
 10
-598658.46
 20
-1160283.46
 10
-598600.05
 20
-1160356.4
 10
-598559.23
 20
-1160407.33
  0
LWPOLYLINE
  5
20059
100
AcDbEntity
  8
0
100
AcDbPolyline
 70
0
 90
2
 10
-605767.850000001
 20
-1157640.93
 10
-605714.222899999
 20
-1157681.4518
  0
LWPOLYLINE
  5
2005A
100
AcDbEntity
  8
0
100
AcDbPolyline
 70
0
 90
27
 10
-605392.16
 20
-1157110.06
 10
-605380.54
 20
-1157109.56
 10
-605360.29
 20
-1157108.31
 10
-605347.78
 20
-1157108.06
 10
-605326.53
 20
-1157109.31
 10
-605311.9
 20
-1157110.93
 10
-605296.9
 20
-1157113.56
 10
-605279.03
 20
-1157117.06
 10
-605262.77
 20
-1157122.56
 10
-605245.9
 20
-1157129.56
 10
-605229.52
 20
-1157137.44
 10
-605215.02
 20
-1157146.31
 10
-605199.77
 20
-1157156.69
 10
-605185.39
 20
-1157168.07
 10
-605172.76
 20
-1157180.57
 10
-605161.39
 20
-1157194.82
 10
-605150.01
 20
-1157210.82
 10
-605138.88
 20
-1157228.32
 10
-605131.01
 20
-1157241.7
 10
-605124.51
 20
-1157256.45
 10
-605110.75
 20
-1157289.08
 10
-605101.63
 20
-1157307.46
 10
-605093.75
 20
-1157322.21
 10
-605081.88
 20
-1157341.71
 10
-605070.62
 20
-1157359.59
 10
-605054.12
 20
-1157382.84
 10
-605040
 20
-1157400.47
  0
LWPOLYLINE
  5
2005B
100
AcDbEntity
  8
0
100
AcDbPolyline
 70
0
 90
10
 10
-598749.43
 20
-1157537
 10
-598741.66
 20
-1157535.97
 10
-598724.66
 20
-1157533.75
 10
-598693.46
 20
-1157529.66
 10
-598672.48
 20
-1157526.91
 10
-598661.91
 20
-1157525.58
 10
-598644.96
 20
-1157523.6
 10
-598636.44
 20
-1157522.71
 10
-598611.52
 20
-1157520.28
 10
-598591.49
 20
-1157518.46
  0
LWPOLYLINE
  5
2005C
100
AcDbEntity
  8
0
100
AcDbPolyline
 70
0
 90
6
 10
-596977.97
 20
-1163103.03
 10
-596935
 20
-1163103.18
 10
-596932.15
 20
-1163102.7
 10
-596929.61
 20
-1163101.67
 10
-596926.96
 20
-1163099.86
 10
-596895.9
 20
-1163078.61
  0
LWPOLYLINE
  5
2005D
100
AcDbEntity
  8
0
100
AcDbPolyline
 70
0
 90
5
 10
-598287.82
 20
-1161121.43
 10
-598256.58
 20
-1161136.36
 10
-598250.56
 20
-1161137.09
 10
-598244.26
 20
-1161135.08
 10
-598217.32
 20
-1161117.87
  0
LWPOLYLINE
  5
2005E
100
AcDbEntity
  8
0
100
AcDbPolyline
 70
0
 90
15
 10
-601823.69
 20
-1158781.31
 10
-601825.05
 20
-1158778.51
 10
-601825.95
 20
-1158776.08
 10
-601837.64
 20
-1158735.95
 10
-601896.13
 20
-1158536.61
 10
-601908.2
 20
-1158497.69
 10
-601913.61
 20
-1158487.16
 10
-601921.06
 20
-1158476.45
 10
-601926.77
 20
-1158470.57
 10
-601934
 20
-1158465.22
 10
-601946.55
 20
-1158459.32
 10
-601958.75
 20
-1158456.82
 10
-601977.6
 20
-1158457.27
 10
-602001.97
 20
-1158460.52
 10
-602065.85
 20
-1158469.4
  0
LWPOLYLINE
  5
2005F
100
AcDbEntity
  8
0
100
AcDbPolyline
 70
0
 90
7
 10
-599734.09
 20
-1160433.47
 10
-599739.19
 20
-1160430.79
 10
-599742
 20
-1160430
 10
-599748.36
 20
-1160428.38
 10
-599754.98
 20
-1160427.31
 10
-599766
 20
-1160427.23
 10
-599776
 20
-1160428
  0
LWPOLYLINE
  5
20060
100
AcDbEntity
  8
0
100
AcDbPolyline
 70
0
 90
3
 10
-598324.82
 20
-1160480.6
 10
-598313.35
 20
-1160548.94
 10
-598245.37
 20
-1160524.76
  0
LWPOLYLINE
  5
20061
100
AcDbEntity
  8
0
100
AcDbPolyline
 70
0
 90
4
 10
-596630.56
 20
-1160028.13
 10
-596623.51
 20
-1160028.64
 10
-596613.19
 20
-1160032.8
 10
-596604.93
 20
-1160037.55
  0
LWPOLYLINE
  5
20062
100
AcDbEntity
  8
0
100
AcDbPolyline
 70
0
 90
10
 10
-597550.04
 20
-1161187.6
 10
-597550.13
 20
-1161211.54
 10
-597550.18
 20
-1161225.29
 10
-597550.23
 20
-1161237.98
 10
-597550.27
 20
-1161250.48
 10
-597550.34
 20
-1161268.61
 10
-597550.5
 20
-1161310.46
 10
-597550.52
 20
-1161314.55
 10
-597550.53
 20
-1161317.49
 10
-597550.79
 20
-1161320.87
  0
LWPOLYLINE
  5
20063
100
AcDbEntity
  8
0
100
AcDbPolyline
 70
0
 90
6
 10
-598548.47
 20
-1160410.15
 10
-598544.67
 20
-1160407.03
 10
-598540.44
 20
-1160404.04
 10
-598527.01
 20
-1160396.55
 10
-598525.05
 20
-1160395.67
 10
-598509.74
 20
-1160388.82
  0
LWPOLYLINE
  5
20064
100
AcDbEntity
  8
0
100
AcDbPolyline
 70
0
 90
5
 10
-600708.739999998
 20
-1163102.83
 10
-600700.309999999
 20
-1163103.1368
 10
-600695.84
 20
-1163103.82
 10
-600559.800000001
 20
-1163134.3
 10
-600550
 20
-1163137
  0
LWPOLYLINE
  5
20065
100
AcDbEntity
  8
0
100
AcDbPolyline
 70
0
 90
5
 10
-599318.21
 20
-1161139.62
 10
-599311.05
 20
-1161138.36
 10
-599309
 20
-1161138
 10
-599251.21
 20
-1161128.17
 10
-599131.74
 20
-1161107.72
  0
LWPOLYLINE
  5
20066
100
AcDbEntity
  8
0
100
AcDbPolyline
 70
0
 90
2
 10
-596272.97
 20
-1160222.91
 10
-596220.74
 20
-1160086.43
  0
LWPOLYLINE
  5
20067
100
AcDbEntity
  8
0
100
AcDbPolyline
 70
0
 90
5
 10
-597580.75
 20
-1161782.92
 10
-597576.19
 20
-1161794.3
 10
-597572.94
 20
-1161808.18
 10
-597562.37
 20
-1161844.43
 10
-597552.5
 20
-1161884.87
  0
LWPOLYLINE
  5
20068
100
AcDbEntity
  8
0
100
AcDbPolyline
 70
0
 90
2
 10
-600225.66
 20
-1158815.76
 10
-600152.47
 20
-1158869.74
  0
LWPOLYLINE
  5
20069
100
AcDbEntity
  8
0
100
AcDbPolyline
 70
0
 90
3
 10
-598855.2
 20
-1157898.82
 10
-598859.67
 20
-1157876.16
 10
-598865.92
 20
-1157844.4
  0
LWPOLYLINE
  5
2006A
100
AcDbEntity
  8
0
100
AcDbPolyline
 70
0
 90
34
 10
-604066.33
 20
-1157070.03
 10
-604060.5
 20
-1157071.47
 10
-604050.85
 20
-1157075.06
 10
-604038.69
 20
-1157080.57
 10
-604023.88
 20
-1157086.76
 10
-604009.2
 20
-1157093.73
 10
-603999.33
 20
-1157099.52
 10
-603988.18
 20
-1157106.56
 10
-603979.21
 20
-1157112.93
 10
-603971.29
 20
-1157121.46
 10
-603963.12
 20
-1157128.17
 10
-603952.57
 20
-1157139.04
 10
-603947.31
 20
-1157144.66
 10
-603944.87
 20
-1157147.27
 10
-603941.66
 20
-1157151.77
 10
-603934.78
 20
-1157161.39
 10
-603930.42
 20
-1157167.8
 10
-603925.06
 20
-1157176.87
 10
-603920.01
 20
-1157185.62
 10
-603914.69
 20
-1157195.62
 10
-603910.4
 20
-1157203.26
 10
-603905.85
 20
-1157211.36
 10
-603899.37
 20
-1157222.9
 10
-603896.6
 20
-1157228.32
 10
-603894.97
 20
-1157231.33
 10
-603890.96
 20
-1157237.12
 10
-603886.79
 20
-1157243.15
 10
-603883.81
 20
-1157246.79
 10
-603877.51
 20
-1157254.35
 10
-603872.06
 20
-1157259.99
 10
-603864.78
 20
-1157266.74
 10
-603860.23
 20
-1157270.84
 10
-603857.26
 20
-1157273.36
 10
-603855.49
 20
-1157274.84
  0
LWPOLYLINE
  5
2006B
100
AcDbEntity
  8
0
100
AcDbPolyline
 70
0
 90
13
 10
-599705.95
 20
-1157774.7
 10
-599618.94
 20
-1158014.73
 10
-599615.94
 20
-1158052.74
 10
-599621.94
 20
-1158088.74
 10
-599684.15
 20
-1158133.41
 10
-599668.81
 20
-1158178.68
 10
-599625.92
 20
-1158165.92
 10
-599599.72
 20
-1158160.91
 10
-599578.94
 20
-1158176.75
 10
-599564.94
 20
-1158189.76
 10
-599550.93
 20
-1158204.76
 10
-599488.93
 20
-1158341.77
 10
-599475.93
 20
-1158354.78
  0
LWPOLYLINE
  5
2006C
100
AcDbEntity
  8
0
100
AcDbPolyline
 70
0
 90
2
 10
-600542.367999997
 20
-1160831.894
 10
-600549.372000001
 20
-1160827.36699999
  0
LWPOLYLINE
  5
2006D
100
AcDbEntity
  8
0
100
AcDbPolyline
 70
0
 90
9
 10
-595624.66
 20
-1160888.82
 10
-595624.49
 20
-1160895.74
 10
-595622.81
 20
-1160932.69
 10
-595621.2
 20
-1160951.72
 10
-595620.23
 20
-1160965.66
 10
-595615.69
 20
-1161035.77
 10
-595614.61
 20
-1161052.48
 10
-595613.97
 20
-1161056.63
 10
-595612.3
 20
-1161061.97
  0
LWPOLYLINE
  5
2006E
100
AcDbEntity
  8
0
100
AcDbPolyline
 70
0
 90
10
 10
-597531.91
 20
-1161968
 10
-597528.03
 20
-1161983.79
 10
-597527.12
 20
-1161991.14
 10
-597520.18
 20
-1162031.14
 10
-597513.99
 20
-1162058.83
 10
-597501.55
 20
-1162106.21
 10
-597497.43
 20
-1162119.34
 10
-597495.37
 20
-1162134.34
 10
-597486.11
 20
-1162170.1
 10
-597485.86
 20
-1162172.16
  0
LWPOLYLINE
  5
2006F
100
AcDbEntity
  8
0
100
AcDbPolyline
 70
0
 90
17
 10
-605099.75
 20
-1157290.96
 10
-605105.13
 20
-1157281.08
 10
-605113.75
 20
-1157260.45
 10
-605120.26
 20
-1157243.7
 10
-605126.13
 20
-1157232.7
 10
-605136.76
 20
-1157214.57
 10
-605149.38
 20
-1157196.57
 10
-605160.64
 20
-1157181.82
 10
-605174.76
 20
-1157165.82
 10
-605195.01
 20
-1157149.19
 10
-605222.52
 20
-1157131.81
 10
-605243.65
 20
-1157120.43
 10
-605275.27
 20
-1157109.56
 10
-605298.78
 20
-1157103.68
 10
-605327.16
 20
-1157100.06
 10
-605350.03
 20
-1157100.18
 10
-605358.79
 20
-1157099.93
  0
LWPOLYLINE
  5
20070
100
AcDbEntity
  8
0
100
AcDbPolyline
 70
0
 90
3
 10
-598260
 20
-1160649
 10
-598294.22
 20
-1160663.16
 10
-598300.65
 20
-1160664.17
  0
LWPOLYLINE
  5
20071
100
AcDbEntity
  8
0
100
AcDbPolyline
 70
0
 90
3
 10
-605135.16
 20
-1155586.59
 10
-605116.661925152
 20
-1155581.87729287
 10
-605068.89299177
 20
-1155588.44552121
  0
LWPOLYLINE
  5
20072
100
AcDbEntity
  8
0
100
AcDbPolyline
 70
0
 90
19
 10
-598356.94
 20
-1161023.97
 10
-598355.92
 20
-1161015.19
 10
-598354.15
 20
-1161007.49
 10
-598350.86
 20
-1160998.81
 10
-598345.88
 20
-1160989.28
 10
-598340.32
 20
-1160979.27
 10
-598334.61
 20
-1160970.91
 10
-598330.48
 20
-1160965.53
 10
-598326
 20
-1160961.85
 10
-598319.09
 20
-1160956.67
 10
-598304.72
 20
-1160946.02
 10
-598297.31
 20
-1160941.23
 10
-598288.82
 20
-1160936.72
 10
-598284.98
 20
-1160935.09
 10
-598279.84
 20
-1160933.03
 10
-598273.16
 20
-1160930.78
 10
-598264.27
 20
-1160928.46
 10
-598256.77
 20
-1160926.71
 10
-598247.08
 20
-1160924.44
  0
LWPOLYLINE
  5
20073
100
AcDbEntity
  8
0
100
AcDbPolyline
 70
0
 90
2
 10
-600547.772278734
 20
-1160857.58133269
 10
-600540.710000001
 20
-1160849.87
  0
LWPOLYLINE
  5
20074
100
AcDbEntity
  8
0
100
AcDbPolyline
 70
0
 90
15
 10
-599594.42
 20
-1160166.74
 10
-599625.4
 20
-1160147.75
 10
-599656.97
 20
-1160126.17
 10
-599682.18
 20
-1160103.96
 10
-599686.52
 20
-1160098.31
 10
-599695.1
 20
-1160084.57
 10
-599706.57
 20
-1160064.81
 10
-599713.01
 20
-1160057.09
 10
-599723.29
 20
-1160047.01
 10
-599771.28
 20
-1160002.59
 10
-599801.52
 20
-1159976.21
 10
-599841.02
 20
-1159941.71
 10
-599873.85
 20
-1159907.84
 10
-599887.52
 20
-1159892.47
 10
-599893.24
 20
-1159885.47
  0
LWPOLYLINE
  5
20075
100
AcDbEntity
  8
0
100
AcDbPolyline
 70
0
 90
14
 10
-600941.88
 20
-1162911.25
 10
-600909.22
 20
-1162907.13
 10
-600892.28
 20
-1162905.44
 10
-600869
 20
-1162904
 10
-600848.23
 20
-1162904.36
 10
-600828.52
 20
-1162906.21
 10
-600807.42
 20
-1162908.98
 10
-600789.71
 20
-1162912.99
 10
-600775.08
 20
-1162917.14
 10
-600748
 20
-1162927
 10
-600714.4
 20
-1162942.71
 10
-600693
 20
-1162956
 10
-600666.66
 20
-1162974.74
 10
-600659.66
 20
-1162981.29
  0
LWPOLYLINE
  5
20076
100
AcDbEntity
  8
0
100
AcDbPolyline
 70
0
 90
23
 10
-597423.23
 20
-1162313.61
 10
-597432.67
 20
-1162288.61
 10
-597437.39
 20
-1162276.11
 10
-597443.73
 20
-1162256.48
 10
-597449.11
 20
-1162236.79
 10
-597456.74
 20
-1162209.04
 10
-597459.8
 20
-1162195.41
 10
-597464.67
 20
-1162176.16
 10
-597471.05
 20
-1162152.47
 10
-597475.68
 20
-1162134.03
 10
-597481.93
 20
-1162114.28
 10
-597486.49
 20
-1162100.71
 10
-597492.68
 20
-1162078.46
 10
-597496.93
 20
-1162060.52
 10
-597505.24
 20
-1162026.02
 10
-597508.68
 20
-1162007.58
 10
-597511.24
 20
-1161991.76
 10
-597514.81
 20
-1161976.45
 10
-597516.74
 20
-1161966.32
 10
-597523.18
 20
-1161946.88
 10
-597524.68
 20
-1161936.07
 10
-597527.81
 20
-1161924.5
 10
-597528.12
 20
-1161922.82
  0
LWPOLYLINE
  5
20077
100
AcDbEntity
  8
0
100
AcDbPolyline
 70
0
 90
12
 10
-605359.54
 20
-1157099.93
 10
-605388.16
 20
-1157100.93
 10
-605426.42
 20
-1157104.31
 10
-605489.92
 20
-1157109.47
 10
-605523.06
 20
-1157111.93
 10
-605543.81
 20
-1157113.81
 10
-605581.83
 20
-1157116.43
 10
-605626.82
 20
-1157116.81
 10
-605671.32
 20
-1157116.43
 10
-605699.06
 20
-1157114.08
 10
-605741.08
 20
-1157109.68
 10
-605752.58
 20
-1157108.31
  0
LWPOLYLINE
  5
20078
100
AcDbEntity
  8
0
100
AcDbPolyline
 70
0
 90
17
 10
-602148.49
 20
-1158649.23
 10
-602147.71
 20
-1158646.7
 10
-602147.45
 20
-1158645.46
 10
-602147.39
 20
-1158644.57
 10
-602147.44
 20
-1158643.62
 10
-602147.64
 20
-1158641.68
 10
-602148.03
 20
-1158639.2
 10
-602157.65
 20
-1158589.34
 10
-602166.86
 20
-1158545.4
 10
-602167.17
 20
-1158544.27
 10
-602167.65
 20
-1158542.94
 10
-602168.35
 20
-1158541.32
 10
-602168.91
 20
-1158540.26
 10
-602169.78
 20
-1158539
 10
-602173.23
 20
-1158534.95
 10
-602182.31
 20
-1158527.5
 10
-602192.95
 20
-1158520.05
  0
LWPOLYLINE
  5
20079
100
AcDbEntity
  8
0
100
AcDbPolyline
 70
0
 90
12
 10
-603531.48
 20
-1157175.69
 10
-603510.6
 20
-1157152.27
 10
-603474.77
 20
-1157107.19
 10
-603463.91
 20
-1157089.71
 10
-603438.72
 20
-1157045.59
 10
-603421.54
 20
-1157008.81
 10
-603401.25
 20
-1156955.31
 10
-603384.7
 20
-1156902.84
 10
-603367.15
 20
-1156840.39
 10
-603355.55
 20
-1156795.27
 10
-603343.49
 20
-1156743.05
 10
-603340.7
 20
-1156728.79
  0
LWPOLYLINE
  5
2007A
100
AcDbEntity
  8
0
100
AcDbPolyline
 70
0
 90
5
 10
-602097.92
 20
-1158652.56
 10
-602142.53
 20
-1158650.99
 10
-602143.79
 20
-1158650.83
 10
-602144.79
 20
-1158650.55
 10
-602148.49
 20
-1158649.23
  0
LWPOLYLINE
  5
2007B
100
AcDbEntity
  8
0
100
AcDbPolyline
 70
0
 90
5
 10
-597102.32
 20
-1159443.28
 10
-597102.53
 20
-1159438.51
 10
-597111.54
 20
-1159420.5
 10
-597127.1
 20
-1159390.87
 10
-597130.66
 20
-1159388.87
  0
LWPOLYLINE
  5
2007C
100
AcDbEntity
  8
0
100
AcDbPolyline
 70
0
 90
2
 10
-605848.87
 20
-1157579.84
 10
-605804.42
 20
-1157521.89
  0
LWPOLYLINE
  5
2007D
100
AcDbEntity
  8
0
100
AcDbPolyline
 70
0
 90
2
 10
-597464.219000001
 20
-1164030.992
 10
-597465.239999998
 20
-1164043.98
  0
LWPOLYLINE
  5
2007E
100
AcDbEntity
  8
0
100
AcDbPolyline
 70
0
 90
3
 10
-605804.42
 20
-1157521.89
 10
-605764.64
 20
-1157469.23
 10
-605760.83
 20
-1157464.18
  0
LWPOLYLINE
  5
2007F
100
AcDbEntity
  8
0
100
AcDbPolyline
 70
0
 90
3
 10
-605892.12
 20
-1157638.15
 10
-605852.2
 20
-1157584.32
 10
-605848.87
 20
-1157579.84
  0
LWPOLYLINE
  5
20080
100
AcDbEntity
  8
0
100
AcDbPolyline
 70
0
 90
2
 10
-605680.61
 20
-1157525.3
 10
-605724.3
 20
-1157583.36
  0
LWPOLYLINE
  5
20081
100
AcDbEntity
  8
0
100
AcDbPolyline
 70
0
 90
2
 10
-604186.5
 20
-1162079.15
 10
-604138.88
 20
-1162044.26
  0
LWPOLYLINE
  5
20082
100
AcDbEntity
  8
0
100
AcDbPolyline
 70
0
 90
2
 10
-605724.3
 20
-1157583.36
 10
-605767.85
 20
-1157640.93
  0
LWPOLYLINE
  5
20083
100
AcDbEntity
  8
0
100
AcDbPolyline
 70
0
 90
3
 10
-605767.85
 20
-1157640.93
 10
-605809.62
 20
-1157695.99
 10
-605811.96
 20
-1157699.08
  0
LWPOLYLINE
  5
20084
100
AcDbEntity
  8
0
100
AcDbPolyline
 70
0
 90
3
 10
-604524.82
 20
-1156686.98
 10
-604586.68
 20
-1156586.24
 10
-604592.7
 20
-1156535.39
  0
LWPOLYLINE
  5
20085
100
AcDbEntity
  8
0
100
AcDbPolyline
 70
0
 90
2
 10
-604591.74
 20
-1156528
 10
-604592.7
 20
-1156535.39
  0
LWPOLYLINE
  5
20086
100
AcDbEntity
  8
0
100
AcDbPolyline
 70
0
 90
9
 10
-604758.45
 20
-1156410.18
 10
-604758.24
 20
-1156410.33
 10
-604743.72
 20
-1156420.78
 10
-604731.36
 20
-1156426.14
 10
-604711.01
 20
-1156431.34
 10
-604697.34
 20
-1156437.19
 10
-604679.12
 20
-1156450.68
 10
-604645.92
 20
-1156478.31
 10
-604591.74
 20
-1156528
  0
LWPOLYLINE
  5
20087
100
AcDbEntity
  8
0
100
AcDbPolyline
 70
0
 90
8
 10
-604591.74
 20
-1156528
 10
-604588.16
 20
-1156516.13
 10
-604587.35
 20
-1156504.76
 10
-604589.14
 20
-1156460.88
 10
-604589.63
 20
-1156447.6
 10
-604595.33
 20
-1156409.8
 10
-604596.29
 20
-1156348.63
 10
-604596.29
 20
-1156348.47
  0
LWPOLYLINE
  5
20088
100
AcDbEntity
  8
0
100
AcDbPolyline
 70
0
 90
3
 10
-604596.29
 20
-1156348.47
 10
-604596.32
 20
-1156346.62
 10
-604596.33
 20
-1156345.64
  0
LWPOLYLINE
  5
20089
100
AcDbEntity
  8
0
100
AcDbPolyline
 70
0
 90
8
 10
-604145.02
 20
-1155603.85
 10
-604149.1
 20
-1155587.95
 10
-604149.1
 20
-1155587.95
 10
-604152.84
 20
-1155550.83
 10
-604149.09
 20
-1155550.02
 10
-604148.15
 20
-1155536.93
 10
-604149.99
 20
-1155529.63
 10
-604161.28
 20
-1155513.75
  0
LWPOLYLINE
  5
2008A
100
AcDbEntity
  8
0
100
AcDbPolyline
 70
0
 90
5
 10
-607803.13
 20
-1152570.44
 10
-607810
 20
-1152568.29
 10
-607887.39
 20
-1152556.33
 10
-607920.31
 20
-1152551.24
 10
-607952.23
 20
-1152547.04
  0
LWPOLYLINE
  5
2008B
100
AcDbEntity
  8
0
100
AcDbPolyline
 70
0
 90
2
 10
-598720.72
 20
-1159659.45
 10
-598676.56
 20
-1159732.45
  0
LWPOLYLINE
  5
2008C
100
AcDbEntity
  8
0
100
AcDbPolyline
 70
0
 90
2
 10
-598771.4
 20
-1158822.93
 10
-598774.21
 20
-1158812.37
  0
LWPOLYLINE
  5
2008D
100
AcDbEntity
  8
0
100
AcDbPolyline
 70
0
 90
7
 10
-607777.64
 20
-1152517.45
 10
-607790.096065379
 20
-1152508.6756214
 10
-607802.038298724
 20
-1152508.6756214
 10
-607806.218080395
 20
-1152514.04962641
 10
-607803.232522059
 20
-1152521.81207808
 10
-607809.203638731
 20
-1152533.15719976
 10
-607821.145872077
 20
-1152543.30809811
  0
LWPOLYLINE
  5
2008E
100
AcDbEntity
  8
0
100
AcDbPolyline
 70
0
 90
4
 10
-607622.5
 20
-1152371.92
 10
-607615.739458534
 20
-1152357.00925792
 10
-607599.617443517
 20
-1152351.63525291
 10
-607568.567636819
 20
-1152342.6785779
  0
LWPOLYLINE
  5
2008F
100
AcDbEntity
  8
0
100
AcDbPolyline
 70
0
 90
2
 10
-605969.376226854
 20
-1153998.04939042
 10
-606115.668585337
 20
-1153961.62557872
  0
LWPOLYLINE
  5
20090
100
AcDbEntity
  8
0
100
AcDbPolyline
 70
0
 90
15
 10
-605968.779115187
 20
-1153997.45227875
 10
-605973.556008525
 20
-1154008.20028877
 10
-605967.584891852
 20
-1154020.73963378
 10
-605943.700425161
 20
-1154045.22121214
 10
-605932.95241515
 20
-1154055.96922215
 10
-605890.557486774
 20
-1154087.61614051
 10
-605862.493238412
 20
-1154119.86017055
 10
-605843.982776726
 20
-1154145.53597224
 10
-605840.99721839
 20
-1154173.6002206
 10
-605837.414548386
 20
-1154193.90201729
 10
-605843.982776726
 20
-1154221.96626565
 10
-605860.70190341
 20
-1154243.46228567
 10
-605882.197923432
 20
-1154265.55541736
 10
-605901.305496785
 20
-1154289.43988405
 10
-605909.067948459
 20
-1154321.68391409
  0
LWPOLYLINE
  5
20091
100
AcDbEntity
  8
0
100
AcDbPolyline
 70
0
 90
2
 10
-603222.33
 20
-1161886.48
 10
-603213.84
 20
-1161831.97
  0
LWPOLYLINE
  5
20092
100
AcDbEntity
  8
0
100
AcDbPolyline
 70
0
 90
2
 10
-598761.7
 20
-1159591.73
 10
-598718.87
 20
-1159662.5
  0
LWPOLYLINE
  5
20093
100
AcDbEntity
  8
0
100
AcDbPolyline
 70
0
 90
2
 10
-598819.79
 20
-1158644.87
 10
-598821.72
 20
-1158639.63
  0
LWPOLYLINE
  5
20094
100
AcDbEntity
  8
0
100
AcDbPolyline
 70
0
 90
8
 10
-605168.622
 20
-1155445.229
 10
-605110.166
 20
-1155423.456
 10
-605083.269
 20
-1155407.594
 10
-605072.234
 20
-1155383.111
 10
-605071.2
 20
-1155331.904
 10
-605083.269
 20
-1155298.284
 10
-605085.015006786
 20
-1155231.96985585
 10
-605084.417895119
 20
-1155215.84784083
  0
LWPOLYLINE
  5
20095
100
AcDbEntity
  8
0
100
AcDbPolyline
 70
0
 90
10
 10
-605119.86167579
 20
-1155427.80516061
 10
-605103.525468472
 20
-1155436.18204606
 10
-605092.777458461
 20
-1155449.9156144
 10
-605080.238113448
 20
-1155477.3827511
 10
-605064.713210099
 20
-1155501.86432946
 10
-605057.547870092
 20
-1155525.15168448
 10
-605031.274956732
 20
-1155555.60437951
 10
-604999.030926699
 20
-1155584.26573954
 10
-604963.801338329
 20
-1155606.35887123
 10
-604941.70820664
 20
-1155617.70399291
  0
LWPOLYLINE
  5
20096
100
AcDbEntity
  8
0
100
AcDbPolyline
 70
0
 90
2
 10
-604865.09
 20
-1155963.49
 10
-604857.030430922
 20
-1155968.16038918
  0
LWPOLYLINE
  5
20097
100
AcDbEntity
  8
0
100
AcDbPolyline
 70
0
 90
6
 10
-604820.443233152
 20
-1161679.25190311
 10
-604881.167126363
 20
-1161617.47648074
 10
-604902.74
 20
-1161595.95
 10
-604936.89
 20
-1161514.44
 10
-604974
 20
-1161466.5
 10
-605082.742
 20
-1161307.195
  0
LWPOLYLINE
  5
20098
100
AcDbEntity
  8
0
100
AcDbPolyline
 70
0
 90
9
 10
-598967.69
 20
-1154912.33
 10
-598961.34
 20
-1154883.18
 10
-598948.88
 20
-1154874.95
 10
-598917.41856768
 20
-1154874.72444884
 10
-598873.54
 20
-1154880
 10
-598848.48
 20
-1154887.94
 10
-598848.865903926
 20
-1154914.55947327
 10
-598849.044
 20
-1154950.937
 10
-598851.683
 20
-1155027.123
  0
LWPOLYLINE
  5
20099
100
AcDbEntity
  8
0
100
AcDbPolyline
 70
0
 90
6
 10
-598986.29
 20
-1155031.72
 10
-598967.52
 20
-1155016.83
 10
-598962.83
 20
-1155004.47
 10
-598962.28
 20
-1154986.17
 10
-598965.029317288
 20
-1154950.12645035
 10
-598967.69
 20
-1154912.33
  0
LWPOLYLINE
  5
2009A
100
AcDbEntity
  8
0
100
AcDbPolyline
 70
0
 90
14
 10
-607261.115
 20
-1152662.604
 10
-607272.415
 20
-1152659.607
 10
-607277.230647718
 20
-1152653.85021475
 10
-607304.018
 20
-1152620.103
 10
-607332.681
 20
-1152599.708
 10
-607389.456
 20
-1152583.172
 10
-607427.858
 20
-1152584.826
 10
-607444.578
 20
-1152600.995
 10
-607462.768
 20
-1152628.372
 10
-607470.852
 20
-1152638.11
 10
-607485.551
 20
-1152649.134
 10
-607528.546
 20
-1152661.077
 10
-607548.206
 20
-1152664.936
 10
-607564.559
 20
-1152662.915
  0
LWPOLYLINE
  5
2009B
100
AcDbEntity
  8
0
100
AcDbPolyline
 70
0
 90
3
 10
-596053.699999999
 20
-1160661.39
 10
-596062.440327961
 20
-1160668.81233524
 10
-596089.393700782
 20
-1160684.65984832
  0
LWPOLYLINE
  5
2009C
100
AcDbEntity
  8
0
100
AcDbPolyline
 70
0
 90
11
 10
-606177
 20
-1153929
 10
-606191.812811248
 20
-1153937.99225453
 10
-606218.085724608
 20
-1153943.9633712
 10
-606320.788931379
 20
-1153945.7547062
 10
-606381.097209774
 20
-1153963.07094455
 10
-606519.627116582
 20
-1154061.59436965
 10
-606560.230709957
 20
-1154087.86728301
 10
-606589.489181654
 20
-1154108.1690797
 10
-606600.237191665
 20
-1154115.93153138
 10
-606606.208308337
 20
-1154121.90264805
 10
-606622.927435021
 20
-1154147.57844974
  0
LWPOLYLINE
  5
2009D
100
AcDbEntity
  8
0
100
AcDbPolyline
 70
0
 90
8
 10
-606115.071473669
 20
-1153961.02846705
 10
-606235.090918792
 20
-1154027.90497379
 10
-606289.428080514
 20
-1154046.41543547
 10
-606367.649708927
 20
-1154049.99810548
 10
-606393.922622287
 20
-1154060.14900382
 10
-606408.850413969
 20
-1154074.47968383
 10
-606414.821530642
 20
-1154088.81036385
 10
-606410.641748971
 20
-1154117.47172388
  0
LWPOLYLINE
  5
2009E
100
AcDbEntity
  8
0
100
AcDbPolyline
 70
0
 90
5
 10
-595494.409999996
 20
-1157765.86
 10
-595424.818465956
 20
-1157753.33974125
 10
-595314.190000001
 20
-1157726.28999999
 10
-595211.075482115
 20
-1157684.34045165
 10
-595136.870000001
 20
-1157646.75
  0
LWPOLYLINE
  5
2009F
100
AcDbEntity
  8
0
100
AcDbPolyline
 70
0
 90
2
 10
-604429.64
 20
-1154627.64
 10
-604490.627
 20
-1154739.632
  0
LWPOLYLINE
  5
200A0
100
AcDbEntity
  8
0
100
AcDbPolyline
 70
0
 90
5
 10
-605811.96
 20
-1157699.08
 10
-605791.13
 20
-1157714.75
 10
-605789.58
 20
-1157716.18
 10
-605788.3
 20
-1157717.53
 10
-605784.07
 20
-1157727.01
  0
LWPOLYLINE
  5
200A1
100
AcDbEntity
  8
0
100
AcDbPolyline
 70
0
 90
28
 10
-602750.18
 20
-1161351.36
 10
-602770.75
 20
-1161412.49
 10
-602770.869
 20
-1161417.196
 10
-602768.97
 20
-1161424.13
 10
-602758.72
 20
-1161433.28
 10
-602644.469
 20
-1161504.998
 10
-602546
 20
-1161558
 10
-602477.536
 20
-1161605.91
 10
-602450.118
 20
-1161626.399
 10
-602404.716016429
 20
-1161654.87024261
 10
-602341.32900531
 20
-1161705.33642478
 10
-602325
 20
-1161717
 10
-602290
 20
-1161750
 10
-602265.121
 20
-1161766.656
 10
-602215.432
 20
-1161827.53
 10
-602205.534
 20
-1161977.29
 10
-602210.47
 20
-1162002.49
 10
-602215.78
 20
-1162028.25
 10
-602202.62
 20
-1162071.74
 10
-602186.04
 20
-1162091.87
 10
-602158.31
 20
-1162094.52
 10
-602147.3
 20
-1162109.59
 10
-602134.64
 20
-1162176.84
 10
-602139.92
 20
-1162236.02
 10
-602111.38
 20
-1162278.77
 10
-602098.485365335
 20
-1162304.60231832
 10
-602079.555
 20
-1162338.088
 10
-601980.12
 20
-1162391.58
  0
LWPOLYLINE
  5
200A2
100
AcDbEntity
  8
0
100
AcDbPolyline
 70
0
 90
6
 10
-602289.38
 20
-1161035.91
 10
-602228.11
 20
-1160980.4
 10
-602214.07
 20
-1160979.58
 10
-602205.62
 20
-1160987.01
 10
-602196.87
 20
-1161012.5
 10
-602197.17
 20
-1161019.93
  0
LWPOLYLINE
  5
200A3
100
AcDbEntity
  8
0
100
AcDbPolyline
 70
0
 90
4
 10
-599165.458
 20
-1156704.587
 10
-599188.789
 20
-1156632.963
 10
-599194.974
 20
-1156627.229
 10
-599253.526
 20
-1156646.928
  0
LWPOLYLINE
  5
200A4
100
AcDbEntity
  8
0
100
AcDbPolyline
 70
0
 90
66
 10
-604284.51
 20
-1156198.62
 10
-604288.25
 20
-1156205.66
 10
-604300.46
 20
-1156220.78
 10
-604327.89
 20
-1156249.77
 10
-604335.51
 20
-1156258.12
 10
-604375.84
 20
-1156314.33
 10
-604411.32
 20
-1156363.03
 10
-604425.11
 20
-1156381.48
 10
-604436.87
 20
-1156400.27
 10
-604445.76
 20
-1156416.18
 10
-604446.96
 20
-1156417.5
 10
-604447.76
 20
-1156418.13
 10
-604450.37
 20
-1156420.95
 10
-604454.46
 20
-1156423.61
 10
-604457.12
 20
-1156425.14
 10
-604461.72
 20
-1156427.29
 10
-604463.56
 20
-1156428
 10
-604466.22
 20
-1156428.72
 10
-604474.09
 20
-1156430.56
 10
-604483.71
 20
-1156431.18
 10
-604485.65
 20
-1156431.18
 10
-604490.87
 20
-1156430.87
 10
-604496.58
 20
-1156428.68
 10
-604498.24
 20
-1156428.11
 10
-604503.14
 20
-1156426.06
 10
-604510.92
 20
-1156421.91
 10
-604536
 20
-1156405
 10
-604545.72
 20
-1156393.67
 10
-604556.12
 20
-1156382.98
 10
-604583.48
 20
-1156358.08
 10
-604603.79
 20
-1156339.96
 10
-604607.57
 20
-1156337.43
 10
-604622.88
 20
-1156328.32
 10
-604641.59
 20
-1156319.94
 10
-604655.18
 20
-1156315.98
 10
-604657.82
 20
-1156315.64
 10
-604669.86
 20
-1156315.58
 10
-604684.78
 20
-1156319.08
 10
-604686.22
 20
-1156319.71
 10
-604687.36
 20
-1156320.74
 10
-604706.23
 20
-1156345.58
 10
-604721.37
 20
-1156363.78
 10
-604737.22
 20
-1156382.91
 10
-604747.76
 20
-1156395.89
 10
-604766.37
 20
-1156420.03
 10
-604767.9
 20
-1156421.56
 10
-604769.39
 20
-1156422.72
 10
-604776.49
 20
-1156426.06
 10
-604791.64
 20
-1156429.72
 10
-604798.53
 20
-1156431.23
 10
-604802.88
 20
-1156431.99
 10
-604829.98
 20
-1156436.49
 10
-604851.76
 20
-1156439.15
 10
-604857.92
 20
-1156440.29
 10
-604867.87
 20
-1156439.66
 10
-604870.51
 20
-1156438.91
 10
-604876.8
 20
-1156435.01
 10
-604879
 20
-1156433
 10
-604881.62
 20
-1156429.64
 10
-604883.67
 20
-1156424.43
 10
-604885
 20
-1156416
 10
-604888.07
 20
-1156334.91
 10
-604888.57
 20
-1156328.68
 10
-604889.85
 20
-1156323.59
 10
-604891.99
 20
-1156321.09
 10
-604893.84
 20
-1156318.93
  0
LWPOLYLINE
  5
200A5
100
AcDbEntity
  8
0
100
AcDbPolyline
 70
0
 90
6
 10
-605822.28
 20
-1154042.86
 10
-605828.457873377
 20
-1154024.91941545
 10
-605835.623213385
 20
-1153992.67538542
 10
-605842.191441725
 20
-1153971.77647706
 10
-605850.551005066
 20
-1153961.62557872
 10
-605909.665060127
 20
-1153938.33822369
  0
LWPOLYLINE
  5
200A6
100
AcDbEntity
  8
0
100
AcDbPolyline
 70
0
 90
6
 10
-605715.91
 20
-1154127.12
 10
-605701.273088248
 20
-1154130.60818056
 10
-605686.345296566
 20
-1154149.71575391
 10
-605679.179956558
 20
-1154170.0175506
 10
-605671.417504884
 20
-1154186.73667728
 10
-605654.6983782
 20
-1154208.2326973
  0
LWPOLYLINE
  5
200A7
100
AcDbEntity
  8
0
100
AcDbPolyline
 70
0
 90
8
 10
-605657.17
 20
-1154271.44
 10
-605645.144591524
 20
-1154272.1236457
 10
-605642.159033187
 20
-1154276.90053904
 10
-605637.979251516
 20
-1154286.45432572
 10
-605633.202358178
 20
-1154298.39655906
 10
-605627.828353173
 20
-1154321.68391409
 10
-605608.123668153
 20
-1154333.62614743
 10
-605600.361216478
 20
-1154339.00015244
  0
LWPOLYLINE
  5
200A8
100
AcDbEntity
  8
0
100
AcDbPolyline
 70
0
 90
2
 10
-605566.93391077
 20
-1154507.65552162
 10
-605550.800948094
 20
-1154500.2203026
  0
LWPOLYLINE
  5
200A9
100
AcDbEntity
  8
0
100
AcDbPolyline
 70
0
 90
5
 10
-605520.886
 20
-1154615.749
 10
-605535.453
 20
-1154615.05
 10
-605556.007
 20
-1154607.467
 10
-605602.858
 20
-1154587.868
 10
-605639.241
 20
-1154571.922
  0
LWPOLYLINE
  5
200AA
100
AcDbEntity
  8
0
100
AcDbPolyline
 70
0
 90
4
 10
-595494.409999996
 20
-1157765.86
 10
-595532.947999999
 20
-1157756.396
 10
-595569.000999995
 20
-1157764.435
 10
-595637.895999998
 20
-1157771.69399999
  0
LWPOLYLINE
  5
200AB
100
AcDbEntity
  8
0
100
AcDbPolyline
 70
0
 90
12
 10
-605482.32
 20
-1154667.949
 10
-605469.358
 20
-1154661.606
 10
-605464.785
 20
-1154662.23
 10
-605452.036
 20
-1154672.485
 10
-605439.91
 20
-1154688.075
 10
-605432.358
 20
-1154698.052
 10
-605423.627
 20
-1154705.813
 10
-605408.173
 20
-1154716.469
 10
-605388.345
 20
-1154731.469
 10
-605368.69
 20
-1154746.986
 10
-605344.207
 20
-1154776.469
 10
-605330.427902037
 20
-1154798.16822957
  0
LWPOLYLINE
  5
200AC
100
AcDbEntity
  8
0
100
AcDbPolyline
 70
0
 90
6
 10
-605455.011
 20
-1154740.308
 10
-605479.456
 20
-1154734.488
 10
-605495.005
 20
-1154734.738
 10
-605536.249023749
 20
-1154744.85353851
 10
-605577.82
 20
-1154759.051
 10
-605607.613
 20
-1154775.81
  0
LWPOLYLINE
  5
200AD
100
AcDbEntity
  8
0
100
AcDbPolyline
 70
0
 90
2
 10
-605131.469752254
 20
-1155231.53911854
 10
-605084.119339286
 20
-1155231.96985585
  0
LWPOLYLINE
  5
200AE
100
AcDbEntity
  8
0
100
AcDbPolyline
 70
0
 90
2
 10
-604910.83
 20
-1156311.665
 10
-604896.294911595
 20
-1156302.59890694
  0
LWPOLYLINE
  5
200AF
100
AcDbEntity
  8
0
100
AcDbPolyline
 70
0
 90
5
 10
-604298.500769939
 20
-1156188.55395809
 10
-604339
 20
-1156161
 10
-604360.866
 20
-1156149.738
 10
-604377.679
 20
-1156136.661
 10
-604387.394
 20
-1156121.84
  0
LWPOLYLINE
  5
200B0
100
AcDbEntity
  8
0
100
AcDbPolyline
 70
0
 90
5
 10
-604127.239292304
 20
-1156241.30390361
 10
-604194.86
 20
-1156223.18
 10
-604211.42
 20
-1156219.48
 10
-604284.51
 20
-1156198.62
 10
-604298.659176343
 20
-1156188.43998827
  0
LWPOLYLINE
  5
200B1
100
AcDbEntity
  8
0
100
AcDbPolyline
 70
0
 90
2
 10
-604181.43
 20
-1156193.61
 10
-604194.86
 20
-1156223.18
  0
LWPOLYLINE
  5
200B2
100
AcDbEntity
  8
0
100
AcDbPolyline
 70
0
 90
10
 10
-604402.475
 20
-1155125.935
 10
-604380.231936314
 20
-1155146.10883509
 10
-604370.821
 20
-1155156.152
 10
-604369.011
 20
-1155200.851
 10
-604366.387
 20
-1155228.165
 10
-604345.749
 20
-1155273.114
 10
-604322.781875921
 20
-1155324.47365812
 10
-604289.139
 20
-1155389.073
 10
-604192.294
 20
-1155482.256
 10
-604161.285
 20
-1155513.749
  0
LWPOLYLINE
  5
200B3
100
AcDbEntity
  8
0
100
AcDbPolyline
 70
0
 90
3
 10
-604450.424
 20
-1154983.855
 10
-604464.384230319
 20
-1154978.94178024
 10
-604513.944498703
 20
-1154981.92733857
  0
LWPOLYLINE
  5
200B4
100
AcDbEntity
  8
0
100
AcDbPolyline
 70
0
 90
4
 10
-604417.903
 20
-1155102.997
 10
-604432.737311954
 20
-1155066.12008366
 10
-604461.398671983
 20
-1155022.53093195
 10
-604478.714910334
 20
-1154980.73311524
  0
LWPOLYLINE
  5
200B5
100
AcDbEntity
  8
0
100
AcDbPolyline
 70
0
 90
12
 10
-604867.079
 20
-1154359.231
 10
-604871.127
 20
-1154392.607
 10
-604862.331
 20
-1154471.767
 10
-604860.479
 20
-1154502.239
 10
-604827.557
 20
-1154536.631
 10
-604739.329082148
 20
-1154585.93022587
 10
-604676.88
 20
-1154619.01
 10
-604653
 20
-1154634
 10
-604586
 20
-1154681
 10
-604523.876
 20
-1154727.618
 10
-604509
 20
-1154736
 10
-604490.627
 20
-1154739.632
  0
LWPOLYLINE
  5
200B6
100
AcDbEntity
  8
0
100
AcDbPolyline
 70
0
 90
5
 10
-601707.755935424
 20
-1162232.68267763
 10
-601714.921275431
 20
-1162230.29423096
 10
-601734.028848784
 20
-1162223.72600262
 10
-601764.481543815
 20
-1162214.76932761
 10
-601815.941569156
 20
-1162188.65355922
  0
LWPOLYLINE
  5
200B7
100
AcDbEntity
  8
0
100
AcDbPolyline
 70
0
 90
3
 10
-602200
 20
-1162240.515
 10
-602155.689
 20
-1162247.813
 10
-602105.71
 20
-1162288.87
  0
LWPOLYLINE
  5
200B8
100
AcDbEntity
  8
0
100
AcDbPolyline
 70
0
 90
7
 10
-602332.997
 20
-1162102.129
 10
-602328.375
 20
-1162104.262
 10
-602324.464
 20
-1162111.658
 10
-602325.744
 20
-1162146.575
 10
-602320.481
 20
-1162164.141
 10
-602290.642907026
 20
-1162181.81601419
 10
-602155.689
 20
-1162247.813
  0
LWPOLYLINE
  5
200B9
100
AcDbEntity
  8
0
100
AcDbPolyline
 70
0
 90
3
 10
-602403
 20
-1162474
 10
-602300.47
 20
-1162485.93
 10
-602032.39
 20
-1162618.44
  0
LWPOLYLINE
  5
200BA
100
AcDbEntity
  8
0
100
AcDbPolyline
 70
0
 90
2
 10
-599239.184962372
 20
-1156691.09486837
 10
-599264.42
 20
-1156693.1
  0
LWPOLYLINE
  5
200BB
100
AcDbEntity
  8
0
100
AcDbPolyline
 70
0
 90
15
 10
-598721.270970597
 20
-1156179.90216931
 10
-598741.7
 20
-1156117.62
 10
-598757.21
 20
-1156049.92
 10
-598760.18
 20
-1155961.95
 10
-598763.34
 20
-1155950.91
 10
-598777.11
 20
-1155938.23
 10
-598797.76
 20
-1155921.68
 10
-598804.74
 20
-1155906.99
 10
-598807
 20
-1155880
 10
-598798.24
 20
-1155855.26
 10
-598779.56
 20
-1155825.77
 10
-598779.94
 20
-1155813.84
 10
-598785.637
 20
-1155793.739
 10
-598796.256
 20
-1155767.787
 10
-598797.285
 20
-1155744.544
  0
LWPOLYLINE
  5
200BC
100
AcDbEntity
  8
0
100
AcDbPolyline
 70
0
 90
22
 10
-598797.285
 20
-1155744.544
 10
-598791.922
 20
-1155719.567
 10
-598794.739
 20
-1155694.265
 10
-598791.163
 20
-1155660.077
 10
-598781.519
 20
-1155632.987
 10
-598779.46
 20
-1155599.558
 10
-598772.016
 20
-1155574.325
 10
-598760.862
 20
-1155561.804
 10
-598733.943
 20
-1155551.21
 10
-598719.558
 20
-1155523.11
 10
-598720.028
 20
-1155495.514
 10
-598723.87
 20
-1155479.93
 10
-598744.927
 20
-1155464
 10
-598772.593
 20
-1155450.533
 10
-598787.68
 20
-1155440.11
 10
-598799.101
 20
-1155423.606
 10
-598798.383
 20
-1155409.263
 10
-598789.907
 20
-1155384.028
 10
-598787.643
 20
-1155376.767
 10
-598790.818
 20
-1155372.984
 10
-598814.452
 20
-1155370.223
 10
-598833.034
 20
-1155363.967
  0
LWPOLYLINE
  5
200BD
100
AcDbEntity
  8
0
100
AcDbPolyline
 70
0
 90
15
 10
-598897.458
 20
-1155597.559
 10
-598893.38
 20
-1155507.83
 10
-598833.034
 20
-1155363.967
 10
-598829.737
 20
-1155329.151
 10
-598827.505
 20
-1155283.366
 10
-598832.172
 20
-1155248.029
 10
-598828.655
 20
-1155226.32
 10
-598829.94
 20
-1155198.153
 10
-598838.299352087
 20
-1155160.31288411
 10
-598843.939
 20
-1155134.784
 10
-598845.011130795
 20
-1155090.40991405
 10
-598845.734
 20
-1155070.003
 10
-598854.593
 20
-1155046.346
 10
-598854.788
 20
-1155039.336
 10
-598851.867
 20
-1155027.361
  0
LWPOLYLINE
  5
200BE
100
AcDbEntity
  8
0
100
AcDbPolyline
 70
0
 90
2
 10
-599006
 20
-1155331
 10
-598831.698
 20
-1155339.769
  0
LWPOLYLINE
  5
200BF
100
AcDbEntity
  8
0
100
AcDbPolyline
 70
0
 90
6
 10
-607537.599871788
 20
-1158645.74981314
 10
-607554.916110139
 20
-1158667.24583316
 10
-607578.80057683
 20
-1158697.10141653
 10
-607625.972398544
 20
-1158734.71945156
 10
-607711.359366965
 20
-1158781.29416161
 10
-607777.041650365
 20
-1158819.50930832
  0
LWPOLYLINE
  5
200C0
100
AcDbEntity
  8
0
100
AcDbPolyline
 70
0
 90
2
 10
-604718.370578078
 20
-1159572.52278908
 10
-604841.375581537
 20
-1159708.66424922
  0
LWPOLYLINE
  5
200C1
100
AcDbEntity
  8
0
100
AcDbPolyline
 70
0
 90
5
 10
-605302.089544482
 20
-1161464.31327432
 10
-605165.871
 20
-1161711.845
 10
-605126.468
 20
-1161765.504
 10
-605071.873263123
 20
-1161810.86867467
 10
-604742.52
 20
-1162061.346
  0
LWPOLYLINE
  5
200C2
100
AcDbEntity
  8
0
100
AcDbPolyline
 70
0
 90
10
 10
-602962.308
 20
-1161759.88
 10
-602986.083
 20
-1161743.261
 10
-603007.852
 20
-1161714.584
 10
-603013.403
 20
-1161691.236
 10
-603038.954
 20
-1161666.616
 10
-603074.917
 20
-1161639.408
 10
-603140.448
 20
-1161611.727
 10
-603215.311
 20
-1161582.422
 10
-603223.172
 20
-1161582.721
 10
-603227.907
 20
-1161585.558
  0
LWPOLYLINE
  5
200C3
100
AcDbEntity
  8
0
100
AcDbPolyline
 70
0
 90
6
 10
-601949.668
 20
-1162196.002
 10
-601956.691
 20
-1162169.838
 10
-601955.752
 20
-1162117.413
 10
-601887.055
 20
-1162038.429
 10
-601881.466
 20
-1162030.713
 10
-601843.549
 20
-1161927.549
  0
LWPOLYLINE
  5
200C4
100
AcDbEntity
  8
0
100
AcDbPolyline
 70
0
 90
12
 10
-595005.73
 20
-1168987.51
 10
-594997.001
 20
-1168945.364
 10
-594975.381
 20
-1168878.484
 10
-594969.451
 20
-1168812.383
 10
-594987.521
 20
-1168772.653
 10
-594994.369
 20
-1168752.732
 10
-594990.945
 20
-1168695.147
 10
-595031.935
 20
-1168637.056
 10
-595088.917860423
 20
-1168581.18038219
 10
-595115.336
 20
-1168539.244
 10
-595107.41
 20
-1168498.355
 10
-595027.71
 20
-1168286.89
  0
LWPOLYLINE
  5
200C5
100
AcDbEntity
  8
0
100
AcDbPolyline
 70
0
 90
2
 10
-598491.76
 20
-1159299.17
 10
-598574.7
 20
-1159319.75
  0
LWPOLYLINE
  5
200C6
100
AcDbEntity
  8
0
100
AcDbPolyline
 70
0
 90
10
 10
-598125.08
 20
-1160492.87
 10
-598129.147
 20
-1160469.753
 10
-598134.365
 20
-1160467.687
 10
-598158.704
 20
-1160471.508
 10
-598163.132
 20
-1160469.804
 10
-598164.642
 20
-1160460.795
 10
-598169.197638446
 20
-1160430.40494574
 10
-598170.992
 20
-1160418.435
 10
-598171.044
 20
-1160417.773
 10
-598170.861
 20
-1160415.806
  0
LWPOLYLINE
  5
200C7
100
AcDbEntity
  8
0
100
AcDbPolyline
 70
0
 90
6
 10
-595698.102
 20
-1159490.739
 10
-595745.291
 20
-1159551.929
 10
-595805.468152421
 20
-1159654.03047062
 10
-595821.346
 20
-1159680.928
 10
-595837.185
 20
-1159675.282
 10
-595784.761
 20
-1159577.639
  0
LWPOLYLINE
  5
200C8
100
AcDbEntity
  8
0
100
AcDbPolyline
 70
0
 90
6
 10
-590257.193
 20
-1160573.462
 10
-590252.38
 20
-1160578.26
 10
-590253.923486484
 20
-1160603.06975103
 10
-590257.167523404
 20
-1160642.6636711
 10
-590259.564
 20
-1160671.913
 10
-590255.188
 20
-1160691.393
  0
LWPOLYLINE
  5
200C9
100
AcDbEntity
  8
0
100
AcDbPolyline
 70
0
 90
9
 10
-590097.55
 20
-1160284.92
 10
-590120.03
 20
-1160246.18
 10
-590149.638
 20
-1160215.656
 10
-590195.867
 20
-1160188.042
 10
-590220
 20
-1160180
 10
-590323.93296609
 20
-1160141.97377404
 10
-590392.03
 20
-1160104.586
 10
-590417.281100355
 20
-1160075.1114265
 10
-590435.804
 20
-1160047.619
  0
LWPOLYLINE
  5
200CA
100
AcDbEntity
  8
0
100
AcDbPolyline
 70
0
 90
11
 10
-590201.24
 20
-1160671.913
 10
-590184
 20
-1160643
 10
-590166.874144519
 20
-1160611.95938694
 10
-590152
 20
-1160585
 10
-590131
 20
-1160549
 10
-590099.434905679
 20
-1160512.81562358
 10
-590067
 20
-1160477
 10
-590043
 20
-1160438
 10
-590017.41
 20
-1160353.02
 10
-590007.12
 20
-1160329.66
 10
-590006.59
 20
-1160301.57
  0
LWPOLYLINE
  5
200CB
100
AcDbEntity
  8
0
100
AcDbPolyline
 70
0
 90
2
 10
-597793.799999997
 20
-1160955.67
 10
-597749.149999995
 20
-1160978.35
  0
LWPOLYLINE
  5
200CC
100
AcDbEntity
  8
0
100
AcDbPolyline
 70
0
 90
31
 10
-590537
 20
-1159873
 10
-590547
 20
-1159800
 10
-590538.999
 20
-1159721.692
 10
-590526.944579378
 20
-1159682.83084566
 10
-590514
 20
-1159655
 10
-590490
 20
-1159617
 10
-590462.779928188
 20
-1159590.37689969
 10
-590442.150474705
 20
-1159573.75527606
 10
-590410.330069929
 20
-1159549.20344879
 10
-590374.987
 20
-1159522.983
 10
-590362.57063277
 20
-1159507.50077476
 10
-590346.463
 20
-1159485.093
 10
-590324.218
 20
-1159470.299
 10
-590283.050734403
 20
-1159451.90619332
 10
-590242.798
 20
-1159444.755
 10
-590215.847238322
 20
-1159450.69191334
 10
-590193
 20
-1159459
 10
-590176
 20
-1159466
 10
-590153
 20
-1159477
 10
-590125
 20
-1159494
 10
-590095
 20
-1159515
 10
-590069
 20
-1159530
 10
-590042
 20
-1159532
 10
-590026.74
 20
-1159525.431
 10
-590016
 20
-1159519
 10
-590006
 20
-1159509
 10
-589995.324623155
 20
-1159491.2295973
 10
-589980.988082517
 20
-1159464.49241599
 10
-589959
 20
-1159425
 10
-589928.208729086
 20
-1159374.87467526
 10
-589893.38
 20
-1159316.823
  0
LWPOLYLINE
  5
200CD
100
AcDbEntity
  8
0
100
AcDbPolyline
 70
0
 90
16
 10
-594261.169
 20
-1156172.41
 10
-594280.7
 20
-1156123.238
 10
-594304.87
 20
-1156086.07
 10
-594333.026
 20
-1156054.168
 10
-594397.078317486
 20
-1155981.36753164
 10
-594457.02
 20
-1155918.22
 10
-594493.419
 20
-1155886.516
 10
-594586.936937926
 20
-1155806.62331127
 10
-594689.243
 20
-1155720.874
 10
-594771.902
 20
-1155646.359
 10
-594780.717
 20
-1155635.514
 10
-594805.605
 20
-1155601.098
 10
-594833.951
 20
-1155574.006
 10
-594852.69
 20
-1155560.5
 10
-594919.83315894
 20
-1155530.50863892
 10
-594967.55
 20
-1155511.151
  0
LWPOLYLINE
  5
200CE
100
AcDbEntity
  8
0
100
AcDbPolyline
 70
0
 90
3
 10
-597829.620000001
 20
-1160660.55999999
 10
-597817.876130357
 20
-1160748.66298199
 10
-597816.721000001
 20
-1160766.375
  0
LWPOLYLINE
  5
200CF
100
AcDbEntity
  8
0
100
AcDbPolyline
 70
0
 90
3
 10
-597891.719999995
 20
-1160670.17
 10
-597888.975168381
 20
-1160714.81711468
 10
-597887.979999997
 20
-1160757.976
  0
LWPOLYLINE
  5
200D0
100
AcDbEntity
  8
0
100
AcDbPolyline
 70
0
 90
64
 10
-596643.03
 20
-1153754.87
 10
-596865.490729711
 20
-1153667.31623166
 10
-596943.188785516
 20
-1153641.61490884
 10
-597060.4
 20
-1153594.52
 10
-597141.68
 20
-1153573.56
 10
-597202.72809134
 20
-1153562.9861436
 10
-597264.199284255
 20
-1153558.61269683
 10
-597301
 20
-1153559
 10
-597334
 20
-1153570
 10
-597352
 20
-1153580
 10
-597368
 20
-1153598
 10
-597376.91
 20
-1153614.89
 10
-597381
 20
-1153639
 10
-597382.020284944
 20
-1153654.03644935
 10
-597383.4
 20
-1153674.37
 10
-597395
 20
-1153707
 10
-597412.98
 20
-1153739.91
 10
-597419.58
 20
-1153772.41
 10
-597418.09
 20
-1153795.23
 10
-597409.55660335
 20
-1153829.8539937
 10
-597400.32
 20
-1153865.24
 10
-597396.4714445
 20
-1153900.86949961
 10
-597399.89
 20
-1153959.93
 10
-597408.3
 20
-1154012.6
 10
-597417.45
 20
-1154041.38
 10
-597427.24
 20
-1154051.27
 10
-597445.96
 20
-1154054.57
 10
-597454.05
 20
-1154052.55
 10
-597492.03
 20
-1154037.12
 10
-597593.264253694
 20
-1153981.92816492
 10
-597623.63
 20
-1153966.95
 10
-597656.62
 20
-1153961.1
 10
-597687.36
 20
-1153959.19
 10
-597725.77
 20
-1153955.36
 10
-597740.88
 20
-1153951.95
 10
-597762.9
 20
-1153940.14
 10
-597810.88
 20
-1153914.45
 10
-597825.03
 20
-1153910.19
 10
-597868.01
 20
-1153905.4
 10
-597882.8
 20
-1153895.67
 10
-597887
 20
-1153880
 10
-597882.8
 20
-1153867.37
 10
-597875.03
 20
-1153860.03
 10
-597860.23
 20
-1153854.74
 10
-597833.29
 20
-1153846.77
 10
-597823.46
 20
-1153841.91
 10
-597815.66
 20
-1153830.95
 10
-597816.12
 20
-1153812.54
 10
-597820.92
 20
-1153805.02
 10
-597829.01
 20
-1153800.66
 10
-597870.23
 20
-1153791.47
 10
-597887.11
 20
-1153788.87
 10
-597922
 20
-1153784
 10
-597947
 20
-1153788
 10
-597963.08
 20
-1153799.88
 10
-597992.664207591
 20
-1153828.95494558
 10
-598011.987575559
 20
-1153847.87989359
 10
-598029.56
 20
-1153865.09
 10
-598046.466889808
 20
-1153881.33729087
 10
-598056.73
 20
-1153891.2
 10
-598073.44
 20
-1153897.61
 10
-598110.84
 20
-1153892.82
 10
-598153.16
 20
-1153877.64
 10
-598196.05
 20
-1153851.07
  0
LWPOLYLINE
  5
200D1
100
AcDbEntity
  8
0
100
AcDbPolyline
 70
0
 90
4
 10
-598196.05
 20
-1153851.07
 10
-598231.95
 20
-1153815.2
 10
-598245.31
 20
-1153802.6
 10
-598270.92
 20
-1153785.05
  0
LWPOLYLINE
  5
200D2
100
AcDbEntity
  8
0
100
AcDbPolyline
 70
0
 90
5
 10
-602422
 20
-1162344.83
 10
-602392.07
 20
-1162336.12
 10
-602285
 20
-1162349
 10
-602032.08
 20
-1162473.244
 10
-602009.79
 20
-1162503.1
  0
LWPOLYLINE
  5
200D3
100
AcDbEntity
  8
0
100
AcDbPolyline
 70
0
 90
8
 10
-595429.999999996
 20
-1158756
 10
-595424.176448092
 20
-1158733.16837239
 10
-595421.734151669
 20
-1158713.17124853
 10
-595422.43
 20
-1158677.77
 10
-595426.969999995
 20
-1158657.02
 10
-595435.005371545
 20
-1158637.47936649
 10
-595447.730330694
 20
-1158618.02535675
 10
-595456.011999998
 20
-1158607.472
  0
LWPOLYLINE
  5
200D4
100
AcDbEntity
  8
0
100
AcDbPolyline
 70
0
 90
71
 10
-596164.468
 20
-1153725.639
 10
-596144.546
 20
-1153730.246
 10
-596121.306084644
 20
-1153746.07640317
 10
-596096.814993644
 20
-1153760.78816447
 10
-596084.16
 20
-1153768.39
 10
-596074.67
 20
-1153772.23
 10
-596065.111
 20
-1153770.153
 10
-596057.33
 20
-1153761.61
 10
-596046.113
 20
-1153747.966
 10
-596038.759
 20
-1153746.599
 10
-596034.152
 20
-1153747.915
 10
-596029.596
 20
-1153753.041
 10
-596027.95
 20
-1153758.142
 10
-596016.875
 20
-1153813.364
 10
-595989.46
 20
-1153872.36
 10
-595956.066680233
 20
-1153901.50192889
 10
-595919.84
 20
-1153927.28
 10
-595842.11
 20
-1153956.58
 10
-595828.01
 20
-1153957.34
 10
-595796.54
 20
-1153950.78
 10
-595791.34
 20
-1153956.21
 10
-595790.89
 20
-1153962.54
 10
-595794.733
 20
-1153984.498
 10
-595794.733
 20
-1153984.498
 10
-595792.13
 20
-1153997.91
 10
-595783.2
 20
-1154013.5
 10
-595752.46
 20
-1154033.62
 10
-595748.16
 20
-1154045.25
 10
-595753.45
 20
-1154051.2
 10
-595760.14
 20
-1154055.99
 10
-595776.42
 20
-1154068.31
 10
-595786.354
 20
-1154083.678
 10
-595796.81
 20
-1154101.42
 10
-595806.53
 20
-1154108.99
 10
-595838.41
 20
-1154120.07
 10
-595852.54
 20
-1154146.85
 10
-595853.1
 20
-1154174.08
 10
-595848.69
 20
-1154187.65
 10
-595823.260598339
 20
-1154222.22626185
 10
-595802.644
 20
-1154252.294
 10
-595798.51
 20
-1154266.41
 10
-595809.7
 20
-1154291.27
 10
-595821.68
 20
-1154308.11
 10
-595839.65
 20
-1154323.7
 10
-595861.489911282
 20
-1154352.38350317
 10
-595874.244
 20
-1154371.801
 10
-595870.827
 20
-1154388.647
 10
-595859.66
 20
-1154402.59
 10
-595850.183
 20
-1154410.708
 10
-595830.49
 20
-1154428.8
 10
-595807.632170454
 20
-1154455.48673166
 10
-595780.811
 20
-1154485.473
 10
-595757.408
 20
-1154506.205
 10
-595727.25
 20
-1154547.01
 10
-595691.82
 20
-1154563.06
 10
-595649.484220418
 20
-1154580.9163531
 10
-595628.71
 20
-1154595.37
 10
-595605.2
 20
-1154619.1
 10
-595574.61246389
 20
-1154652.36395566
 10
-595546.3
 20
-1154688.13
 10
-595515.110784078
 20
-1154734.00067412
 10
-595486.348965024
 20
-1154801.28547661
 10
-595458.833518563
 20
-1154862.96293865
 10
-595421.09
 20
-1154936.08
 10
-595382.032637595
 20
-1154971.86493617
 10
-595345.99
 20
-1155006.26
 10
-595278.58
 20
-1155038.93
 10
-595222.06
 20
-1155091.02
 10
-595178.16
 20
-1155135.1
 10
-595155.362
 20
-1155205.105
 10
-595161.411
 20
-1155250.417
  0
LWPOLYLINE
  5
200D5
100
AcDbEntity
  8
0
100
AcDbPolyline
 70
0
 90
35
 10
-596055.84
 20
-1153334.98
 10
-596054
 20
-1153301
 10
-596056
 20
-1153266
 10
-596056
 20
-1153266
 10
-596061
 20
-1153240
 10
-596074.490225733
 20
-1153195.5293228
 10
-596105
 20
-1153104
 10
-596112.551428318
 20
-1153094.47863386
 10
-596137
 20
-1153063
 10
-596150
 20
-1153017
 10
-596159
 20
-1152990
 10
-596173
 20
-1152967
 10
-596194.513992299
 20
-1152943.87245828
 10
-596234
 20
-1152908
 10
-596280
 20
-1152877
 10
-596320.387505506
 20
-1152846.55657489
 10
-596351
 20
-1152826
 10
-596381
 20
-1152815
 10
-596430
 20
-1152803
 10
-596494.220965387
 20
-1152768.74460488
 10
-596531
 20
-1152735
 10
-596561.223621924
 20
-1152696.62547493
 10
-596590
 20
-1152656
 10
-596608
 20
-1152614
 10
-596624
 20
-1152570
 10
-596635
 20
-1152549
 10
-596653
 20
-1152530
 10
-596684
 20
-1152510
 10
-596716
 20
-1152495
 10
-596739.846949588
 20
-1152488.77905663
 10
-596762
 20
-1152483
 10
-596790
 20
-1152482
 10
-596810
 20
-1152490
 10
-596842.284
 20
-1152522.892
 10
-596898.021
 20
-1152563.923
  0
LWPOLYLINE
  5
200D6
100
AcDbEntity
  8
0
100
AcDbPolyline
 70
0
 90
2
 10
-595319.69
 20
-1151140.65
 10
-595345.279978101
 20
-1151146.25354383
  0
LWPOLYLINE
  5
200D7
100
AcDbEntity
  8
0
100
AcDbPolyline
 70
0
 90
5
 10
-595433.951060691
 20
-1150332.39034133
 10
-595481.122882406
 20
-1150330.00189466
 10
-595513.964024106
 20
-1150325.82211299
 10
-595527.100480786
 20
-1150327.01633633
 10
-595562.927180822
 20
-1150320.44810799
  0
LWPOLYLINE
  5
200D8
100
AcDbEntity
  8
0
100
AcDbPolyline
 70
0
 90
9
 10
-600470.211
 20
-1153016.507
 10
-600499.939
 20
-1153045.21
 10
-600509.101
 20
-1153052.394
 10
-600530.603
 20
-1153073.976
 10
-600543.303
 20
-1153093.223
 10
-600558.521
 20
-1153122.409
 10
-600584.989741089
 20
-1153182.92933925
 10
-600616.3
 20
-1153251.67
 10
-600630.69
 20
-1153277.63
  0
LWPOLYLINE
  5
200D9
100
AcDbEntity
  8
0
100
AcDbPolyline
 70
0
 90
6
 10
-595589.504000001
 20
-1166775.769
 10
-595579.773792315
 20
-1166794.23517114
 10
-595570.800999999
 20
-1166805.827
 10
-595565.636999995
 20
-1166820.496
 10
-595558.75
 20
-1166848.52
 10
-595552.039999999
 20
-1166852.667
  0
LWPOLYLINE
  5
200DA
100
AcDbEntity
  8
0
100
AcDbPolyline
 70
0
 90
6
 10
-604058.719999995
 20
-1162399.80999999
 10
-604042.369999997
 20
-1162416.51
 10
-603976.939999998
 20
-1162466.25
 10
-603929.221018959
 20
-1162503.88078628
 10
-603916.829999994
 20
-1162513.36
 10
-603901.149999999
 20
-1162520.52
  0
LWPOLYLINE
  5
200DB
100
AcDbEntity
  8
0
100
AcDbPolyline
 70
0
 90
3
 10
-604058.719999995
 20
-1162399.80999999
 10
-604034.426175062
 20
-1162380.56126738
 10
-603990.969999995
 20
-1162348.21
  0
LWPOLYLINE
  5
200DC
100
AcDbEntity
  8
0
100
AcDbPolyline
 70
0
 90
7
 10
-604332.529999997
 20
-1162146.77
 10
-604298.729999997
 20
-1162148.71
 10
-604288.699999999
 20
-1162145.78
 10
-604249.279999997
 20
-1162120.67
 10
-604221.839999996
 20
-1162098.57
 10
-604202.699999999
 20
-1162096.97
 10
-604187.059999999
 20
-1162092.98
  0
LWPOLYLINE
  5
200DD
100
AcDbEntity
  8
0
100
AcDbPolyline
 70
0
 90
4
 10
-599263.82
 20
-1162611.629
 10
-599273.38305977
 20
-1162657.65861235
 10
-599279.699999999
 20
-1162666.68
 10
-599371.66
 20
-1162790.91
  0
LWPOLYLINE
  5
200DE
100
AcDbEntity
  8
0
100
AcDbPolyline
 70
0
 90
5
 10
-599208.961591732
 20
-1162571.12145431
 10
-599185.129999999
 20
-1162540.25
 10
-599169.709999997
 20
-1162530.49
 10
-599158.999999996
 20
-1162517
 10
-599103.589999996
 20
-1162444.43
  0
LWPOLYLINE
  5
200DF
100
AcDbEntity
  8
0
100
AcDbPolyline
 70
0
 90
2
 10
-597965.999999996
 20
-1161214
 10
-598139.597999997
 20
-1161271.178
  0
LWPOLYLINE
  5
200E0
100
AcDbEntity
  8
0
100
AcDbPolyline
 70
0
 90
3
 10
-598401.859999996
 20
-1161045.37
 10
-598399.719999999
 20
-1161038.13
 10
-598356.749999996
 20
-1161030.4
  0
LWPOLYLINE
  5
200E1
100
AcDbEntity
  8
0
100
AcDbPolyline
 70
0
 90
2
 10
-598420.226999998
 20
-1160884.71
 10
-598354.777999997
 20
-1160877.65
  0
LWPOLYLINE
  5
200E2
100
AcDbEntity
  8
0
100
AcDbPolyline
 70
0
 90
2
 10
-598425.299999997
 20
-1160844.84
 10
-598359.780000001
 20
-1160837.78
  0
LWPOLYLINE
  5
200E3
100
AcDbEntity
  8
0
100
AcDbPolyline
 70
0
 90
4
 10
-605977.816
 20
-1157573.601
 10
-606013.82
 20
-1157621.98
 10
-606015.793000001
 20
-1157624.787
 10
-606021.149999999
 20
-1157632.41
  0
LWPOLYLINE
  5
200E4
100
AcDbEntity
  8
0
100
AcDbPolyline
 70
0
 90
16
 10
-601841.785999995
 20
-1158001.42
 10
-601841.405999999
 20
-1158023.042
 10
-601857.991999995
 20
-1158080.043
 10
-601857.098999996
 20
-1158098.076
 10
-601834.442000002
 20
-1158209.863
 10
-601829.169
 20
-1158257.769
 10
-601820.372000001
 20
-1158291.56899999
 10
-601792.177000001
 20
-1158375.558
 10
-601783.131999996
 20
-1158416.07999999
 10
-601780.535999998
 20
-1158471.825
 10
-601780.220999993
 20
-1158535.953
 10
-601771.787999995
 20
-1158578.311
 10
-601736.531999998
 20
-1158627.805
 10
-601706.829999994
 20
-1158653.73999999
 10
-601679.399
 20
-1158667.013
 10
-601644.969999995
 20
-1158678.506
  0
LWPOLYLINE
  5
200E5
100
AcDbEntity
  8
0
100
AcDbPolyline
 70
0
 90
2
 10
-599182.49
 20
-1160061.47
 10
-599070.86
 20
-1160050.82
  0
LWPOLYLINE
  5
200E6
100
AcDbEntity
  8
0
100
AcDbPolyline
 70
0
 90
4
 10
-601800.209999997
 20
-1156803.72
 10
-601742.122100551
 20
-1156881.8482042
 10
-601700.079999998
 20
-1156938.99
 10
-601626.27
 20
-1157085.98
  0
LWPOLYLINE
  5
200E7
100
AcDbEntity
  8
0
100
AcDbPolyline
 70
0
 90
10
 10
-596044.065000001
 20
-1158762.554
 10
-596041.278000001
 20
-1158741.735
 10
-596041.438000001
 20
-1158721.342
 10
-596046.336999997
 20
-1158698.439
 10
-596057.390823912
 20
-1158675.30209634
 10
-596069.259
 20
-1158655.363
 10
-596078.898000002
 20
-1158642.219
 10
-596103.011647627
 20
-1158618.49624056
 10
-596119.513298359
 20
-1158604.35127149
 10
-596131.750999995
 20
-1158593.455
  0
LWPOLYLINE
  5
200E8
100
AcDbEntity
  8
0
100
AcDbPolyline
 70
0
 90
7
 10
-608061.426
 20
-1152996.308
 10
-608069.933
 20
-1152979.384
 10
-608074.604
 20
-1152952.266
 10
-608074.54
 20
-1152926.75
 10
-608069.923449729
 20
-1152890.4330872
 10
-608047.426
 20
-1152836.015
 10
-608035.432
 20
-1152816.121
  0
LWPOLYLINE
  5
200E9
100
AcDbEntity
  8
0
100
AcDbPolyline
 70
0
 90
7
 10
-595428
 20
-1158070
 10
-595445.269999996
 20
-1158028.14999999
 10
-595441.030000001
 20
-1158008.38
 10
-595461.379999995
 20
-1157908.66
 10
-595493.780000001
 20
-1157782.93
 10
-595498
 20
-1157780
 10
-595494.409999996
 20
-1157765.86
  0
LWPOLYLINE
  5
200EA
100
AcDbEntity
  8
0
100
AcDbPolyline
 70
0
 90
14
 10
-595637.895999998
 20
-1157771.69399999
 10
-595660.889999997
 20
-1157700.27
 10
-595692.219999999
 20
-1157679.29
 10
-595685.570999995
 20
-1157655.13
 10
-595673.369999997
 20
-1157630.66
 10
-595646.970215939
 20
-1157589.93164055
 10
-595617.521000002
 20
-1157547.725
 10
-595611.679999996
 20
-1157514.08
 10
-595582.018999998
 20
-1157475.485
 10
-595523.744971238
 20
-1157434.8172761
 10
-595444.00507671
 20
-1157404.51059435
 10
-595382.275389027
 20
-1157385.88649977
 10
-595351.539999995
 20
-1157378.32
 10
-595305.27
 20
-1157376.09
  0
LWPOLYLINE
  5
200EB
100
AcDbEntity
  8
0
100
AcDbPolyline
 70
0
 90
22
 10
-595532.947999999
 20
-1157756.396
 10
-595513.318999995
 20
-1157674.278
 10
-595481.925000001
 20
-1157630.646
 10
-595423.080999997
 20
-1157572.317
 10
-595397.107999995
 20
-1157532.54899999
 10
-595386.670000002
 20
-1157507.91
 10
-595354.168000001
 20
-1157513.903
 10
-595319.631999999
 20
-1157495.594
 10
-595290.179999996
 20
-1157473.748
 10
-595263.802000001
 20
-1157461.062
 10
-595244.662999999
 20
-1157455.811
 10
-595216.818999998
 20
-1157452.508
 10
-595185.204999994
 20
-1157456.41099999
 10
-595147.738999996
 20
-1157452.23
 10
-595125.267000001
 20
-1157454.7
 10
-595090.941999998
 20
-1157450.872
 10
-595044.399380263
 20
-1157431.60887927
 10
-594988.831999999
 20
-1157410.25
 10
-594956.694999997
 20
-1157404.907
 10
-594925.194999997
 20
-1157409.754
 10
-594867.890016466
 20
-1157405.85016043
 10
-594807.339999996
 20
-1157399.32
  0
LWPOLYLINE
  5
200EC
100
AcDbEntity
  8
0
100
AcDbPolyline
 70
0
 90
17
 10
-594208.329999994
 20
-1159179.98
 10
-594175.82
 20
-1159203.36
 10
-594143.398000002
 20
-1159223.03599999
 10
-594119.719999995
 20
-1159228.28
 10
-594102.800000001
 20
-1159224.38
 10
-594072.81052972
 20
-1159202.45335941
 10
-594039.109999999
 20
-1159182.12
 10
-594001.93
 20
-1159174.55999999
 10
-593980.350000001
 20
-1159175.03
 10
-593942.329999998
 20
-1159186.25
 10
-593913.429999996
 20
-1159198.71
 10
-593859.329999994
 20
-1159209.21
 10
-593787.75
 20
-1159220.86
 10
-593738.890000001
 20
-1159227.98999999
 10
-593667.390000001
 20
-1159260.7
 10
-593619.49359566
 20
-1159281.55709771
 10
-593558.439999998
 20
-1159307.57
  0
LWPOLYLINE
  5
200ED
100
AcDbEntity
  8
0
100
AcDbPolyline
 70
0
 90
9
 10
-596651.933417514
 20
-1160817.4803839
 10
-596649.019999996
 20
-1160835.84
 10
-596646.849999998
 20
-1160846.12
 10
-596648.517060161
 20
-1160862.73830727
 10
-596664.850688186
 20
-1160929.62721868
 10
-596685.901501201
 20
-1161012.71802925
 10
-596697.637409594
 20
-1161056.17873828
 10
-596702.248391524
 20
-1161077.65109568
 10
-596705.657504454
 20
-1161097.22006315
  0
LWPOLYLINE
  5
200EE
100
AcDbEntity
  8
0
100
AcDbPolyline
 70
0
 90
2
 10
-597354.959999997
 20
-1162563.36
 10
-597319.819999997
 20
-1162560.27
  0
LWPOLYLINE
  5
200EF
100
AcDbEntity
  8
0
100
AcDbPolyline
 70
0
 90
7
 10
-597887.949999999
 20
-1163367.67
 10
-597838.609999999
 20
-1163360.54
 10
-597815.742957532
 20
-1163344.5238653
 10
-597756.537601072
 20
-1163319.22400044
 10
-597673.992999997
 20
-1163281.333
 10
-597648.449999999
 20
-1163272.013
 10
-597640.185863577
 20
-1163272.32211393
  0
LWPOLYLINE
  5
200F0
100
AcDbEntity
  8
0
100
AcDbPolyline
 70
0
 90
3
 10
-597367.069999997
 20
-1163787.264
 10
-597362.504000001
 20
-1163736.179
 10
-597358.784999996
 20
-1163697.93499999
  0
LWPOLYLINE
  5
200F1
100
AcDbEntity
  8
0
100
AcDbPolyline
 70
0
 90
7
 10
-596472.13
 20
-1162956.82
 10
-596374.46
 20
-1162890.83
 10
-596319.75
 20
-1162897.76
 10
-596296.23
 20
-1162906.12
 10
-596265.22
 20
-1162914.29
 10
-596171.78
 20
-1162928.09
 10
-596126.12
 20
-1162939.67
  0
LWPOLYLINE
  5
200F2
100
AcDbEntity
  8
0
100
AcDbPolyline
 70
0
 90
10
 10
-596582.01
 20
-1160548.65
 10
-596571.47
 20
-1160488.38
 10
-596571.36
 20
-1160467.33
 10
-596564.2
 20
-1160421.09
 10
-596563.86
 20
-1160392.53
 10
-596566.38
 20
-1160362.38
 10
-596574.21
 20
-1160332.48
 10
-596601.34
 20
-1160214.38
 10
-596621.16
 20
-1160134.85
 10
-596623.3
 20
-1160112.93
  0
LWPOLYLINE
  5
200F3
100
AcDbEntity
  8
0
100
AcDbPolyline
 70
0
 90
10
 10
-596594.004000001
 20
-1164133.586
 10
-596604.873999998
 20
-1164113.585
 10
-596622.482999999
 20
-1163611.607
 10
-596619.260999996
 20
-1163581.665
 10
-596637.877999995
 20
-1163544.244
 10
-596647.091999996
 20
-1163317.64999999
 10
-596643.142999999
 20
-1163271.579
 10
-596649.537
 20
-1163232.84099999
 10
-596651.416999996
 20
-1163153.862
 10
-596655.511999998
 20
-1162939.947
  0
LWPOLYLINE
  5
200F4
100
AcDbEntity
  8
0
100
AcDbPolyline
 70
0
 90
10
 10
-597384.819999997
 20
-1164052.77
 10
-597395.729999997
 20
-1164118.76
 10
-597396.23
 20
-1164178.85
 10
-597376.039999995
 20
-1164259.71
 10
-597351.454002839
 20
-1164342.74530982
 10
-597327.089999996
 20
-1164414.61
 10
-597317.289999999
 20
-1164447.03
 10
-597298.589999996
 20
-1164538.02
 10
-597282.640000001
 20
-1164631.52
 10
-597268.642499998
 20
-1164651.7051
  0
LWPOLYLINE
  5
200F5
100
AcDbEntity
  8
0
100
AcDbPolyline
 70
0
 90
2
 10
-597370.355
 20
-1165227.14999999
 10
-597308.539999999
 20
-1165211.37
  0
LWPOLYLINE
  5
200F6
100
AcDbEntity
  8
0
100
AcDbPolyline
 70
0
 90
5
 10
-597328.050999999
 20
-1166861.814
 10
-597306.075982977
 20
-1166785.59694126
 10
-597279.767999999
 20
-1166725.26
 10
-597180.719000001
 20
-1166508.06899999
 10
-597154.535
 20
-1166458.677
  0
LWPOLYLINE
  5
200F7
100
AcDbEntity
  8
0
100
AcDbPolyline
 70
0
 90
13
 10
-596144.440000001
 20
-1166683.29
 10
-596201.918740351
 20
-1166637.53311374
 10
-596304.519999996
 20
-1166574.91
 10
-596410.59873857
 20
-1166535.25975224
 10
-596629.960963745
 20
-1166455.7572416
 10
-596738.915999997
 20
-1166417.063
 10
-596855.675999999
 20
-1166375.425
 10
-596924.194999997
 20
-1166361.411
 10
-596952.593999997
 20
-1166360.667
 10
-597080.205999997
 20
-1166381.192
 10
-597108.853999995
 20
-1166396.074
 10
-597131.424999997
 20
-1166420.381
 10
-597154.535
 20
-1166458.677
  0
LWPOLYLINE
  5
200F8
100
AcDbEntity
  8
0
100
AcDbPolyline
 70
0
 90
3
 10
-596077.879480645
 20
-1167544.7086033
 10
-596212.774
 20
-1167534.77
 10
-596297.357999999
 20
-1167514.42
  0
LWPOLYLINE
  5
200F9
100
AcDbEntity
  8
0
100
AcDbPolyline
 70
0
 90
12
 10
-595708.989999995
 20
-1166523.43
 10
-595654.219999995
 20
-1166475.53
 10
-595631.710000001
 20
-1166451.38
 10
-595613.389999997
 20
-1166442.22
 10
-595610.989999998
 20
-1166430.66
 10
-595620.260000002
 20
-1166360.57
 10
-595609.41
 20
-1166319
 10
-595578.939999998
 20
-1166269.09
 10
-595554.120000001
 20
-1166224.89
 10
-595543.780999999
 20
-1166165.203
 10
-595535.520593923
 20
-1166115.2581496
 10
-595527.779999997
 20
-1166069.47
  0
LWPOLYLINE
  5
200FA
100
AcDbEntity
  8
0
100
AcDbPolyline
 70
0
 90
7
 10
-595449.140000001
 20
-1165949.88
 10
-595431.288275782
 20
-1165950.95316519
 10
-595409.514065534
 20
-1165950.30935312
 10
-595384.704003792
 20
-1165950.00698733
 10
-595354.249999996
 20
-1165949.82
 10
-595346.249999996
 20
-1165951.65
 10
-595342.559999995
 20
-1165954.04
  0
LWPOLYLINE
  5
200FB
100
AcDbEntity
  8
0
100
AcDbPolyline
 70
0
 90
4
 10
-594113.989999995
 20
-1166555.37
 10
-594109.879999995
 20
-1166543.89
 10
-594133.895
 20
-1166430.063
 10
-594129.239999995
 20
-1166397.35
  0
LWPOLYLINE
  5
200FC
100
AcDbEntity
  8
0
100
AcDbPolyline
 70
0
 90
17
 10
-605577
 20
-1153894
 10
-605589
 20
-1153868
 10
-605587
 20
-1153826
 10
-605592
 20
-1153817
 10
-605606
 20
-1153810
 10
-605630
 20
-1153817
 10
-605660
 20
-1153815
 10
-605654
 20
-1153818
 10
-605666
 20
-1153808
 10
-605678
 20
-1153780
 10
-605695
 20
-1153766
 10
-605719
 20
-1153756
 10
-605725
 20
-1153747
 10
-605726
 20
-1153736
 10
-605717
 20
-1153694
 10
-605719.512142589
 20
-1153671.3907167
 10
-605727
 20
-1153621
  0
LWPOLYLINE
  5
200FD
100
AcDbEntity
  8
0
100
AcDbPolyline
 70
0
 90
9
 10
-603862.27
 20
-1157142.65
 10
-603815.184985237
 20
-1157185.61962323
 10
-603788.85
 20
-1157207.35
 10
-603764.55
 20
-1157210.8
 10
-603746.99
 20
-1157210.8
 10
-603736.16
 20
-1157202.28
 10
-603712.09
 20
-1157182.73
 10
-603675
 20
-1157139
 10
-603639.36
 20
-1157100.18
  0
LWPOLYLINE
  5
200FE
100
AcDbEntity
  8
0
100
AcDbPolyline
 70
0
 90
3
 10
-602956.774848782
 20
-1157199.43751083
 10
-602910.797250402
 20
-1157198.2432875
 10
-602837.352515327
 20
-1157171.97037414
  0
LWPOLYLINE
  5
200FF
100
AcDbEntity
  8
0
100
AcDbPolyline
 70
0
 90
4
 10
-602094.48
 20
-1157214.44
 10
-602103.076
 20
-1157260.199
 10
-602108.45
 20
-1157311.06
 10
-602109.33
 20
-1157394.77
  0
LWPOLYLINE
  5
20100
100
AcDbEntity
  8
0
100
AcDbPolyline
 70
0
 90
5
 10
-601663.55
 20
-1157380.23
 10
-601684.13
 20
-1157363.94
 10
-601710.77
 20
-1157354.19
 10
-601756.330525058
 20
-1157318.25331345
 10
-601785.39
 20
-1157293.15
  0
LWPOLYLINE
  5
20101
100
AcDbEntity
  8
0
100
AcDbPolyline
 70
0
 90
5
 10
-600278.29
 20
-1157295.42
 10
-600292.76
 20
-1157306.3
 10
-600298.08
 20
-1157305.68
 10
-600340.866874406
 20
-1157281.53889924
 10
-600447.66
 20
-1157223.61
  0
LWPOLYLINE
  5
20102
100
AcDbEntity
  8
0
100
AcDbPolyline
 70
0
 90
5
 10
-598815.02
 20
-1161548.15
 10
-598836.74
 20
-1161611.03
 10
-598850.16
 20
-1161627.93
 10
-598867.21
 20
-1161636.46
 10
-598895.12
 20
-1161675.02
  0
LWPOLYLINE
  5
20103
100
AcDbEntity
  8
0
100
AcDbPolyline
 70
0
 90
10
 10
-595698
 20
-1161729
 10
-595674.624
 20
-1161738.657
 10
-595652.27
 20
-1161690.662
 10
-595616.696
 20
-1161703.524
 10
-595607.789
 20
-1161693.06
 10
-595558.01
 20
-1161715.088
 10
-595579.462
 20
-1161765.589
 10
-595611.442
 20
-1161752.797
 10
-595625.873
 20
-1161760.213
 10
-595674.624
 20
-1161738.657
  0
LWPOLYLINE
  5
20104
100
AcDbEntity
  8
0
100
AcDbPolyline
 70
0
 90
10
 10
-600282.18
 20
-1159283.33
 10
-600264.31
 20
-1159327.65
 10
-600259.9
 20
-1159356.13
 10
-600271.07
 20
-1159386.22
 10
-600292.99
 20
-1159403.79
 10
-600309.13
 20
-1159433.75
 10
-600310.78
 20
-1159458.14
 10
-600321.771
 20
-1159482.717
 10
-600323.949
 20
-1159500.014
 10
-600326.772
 20
-1159519.308
  0
LWPOLYLINE
  5
20105
100
AcDbEntity
  8
0
100
AcDbPolyline
 70
0
 90
10
 10
-600203.177938056
 20
-1159114.05554029
 10
-600194.221263046
 20
-1159134.95444864
 10
-600191.23570471
 20
-1159172.57248368
 10
-600184.66747637
 20
-1159193.47139204
 10
-600188.250146374
 20
-1159215.56452372
 10
-600182.876141368
 20
-1159249.00277709
 10
-600186.458811372
 20
-1159284.23236546
 10
-600190.638593043
 20
-1159316.47639549
 10
-600186.458811372
 20
-1159337.37530385
 10
-600170.995
 20
-1159358.219
  0
LWPOLYLINE
  5
20106
100
AcDbEntity
  8
0
100
AcDbPolyline
 70
0
 90
14
 10
-600271.07
 20
-1159386.22
 10
-600251.693261022
 20
-1159377.97889722
 10
-600239.751027676
 20
-1159366.63377555
 10
-600236.168357673
 20
-1159359.46843554
 10
-600233.182799336
 20
-1159358.87132387
 10
-600231.391464334
 20
-1159364.24532888
 10
-600231.391464334
 20
-1159373.79911555
 10
-600231.988576002
 20
-1159393.50380057
 10
-600231.391464334
 20
-1159404.25181058
 10
-600225.420347662
 20
-1159402.46047558
 10
-600218.255007654
 20
-1159395.29513557
 10
-600206.312774309
 20
-1159388.12979557
 10
-600195.564764298
 20
-1159387.5326839
 10
-600173.21
 20
-1159396.65
  0
LWPOLYLINE
  5
20107
100
AcDbEntity
  8
0
100
AcDbPolyline
 70
0
 90
4
 10
-599755.713
 20
-1159515.532
 10
-599766.951
 20
-1159514.047
 10
-599815.217
 20
-1159461.323
 10
-599815.217
 20
-1159461.323
  0
LWPOLYLINE
  5
20108
100
AcDbEntity
  8
0
100
AcDbPolyline
 70
0
 90
3
 10
-605937.38
 20
-1157696.51
 10
-605930.48
 20
-1157687.64
 10
-605892.12
 20
-1157638.15
  0
LWPOLYLINE
  5
20109
100
AcDbEntity
  8
0
100
AcDbPolyline
 70
0
 90
2
 10
-598550.02
 20
-1158865.62
 10
-598526.85
 20
-1158953.98
  0
LWPOLYLINE
  5
2010A
100
AcDbEntity
  8
0
100
AcDbPolyline
 70
0
 90
90
 10
-603028.1886
 20
-1157302.4643
 10
-603027.151999999
 20
-1157306.438
 10
-603026.171999998
 20
-1157314
 10
-603024.9998
 20
-1157319.372
 10
-603022.810899999
 20
-1157329.403
 10
-603019.804699998
 20
-1157342.7646
 10
-603019.3136
 20
-1157344.9475
 10
-603019.030000001
 20
-1157346.208
 10
-603013.848999999
 20
-1157361.612
 10
-603010.532900002
 20
-1157370.523
 10
-603007.127
 20
-1157379.676
 10
-603001.945999999
 20
-1157393.4
 10
-603000.413199998
 20
-1157396.0985
 10
-602998.580200002
 20
-1157399.3258
 10
-602995.504000001
 20
-1157404.742
 10
-602986.6998
 20
-1157421.6742
 10
-602986.401999999
 20
-1157422.247
 10
-602985.402399998
 20
-1157423.7042
 10
-602974.778999999
 20
-1157439.191
 10
-602966.314399999
 20
-1157450.4769
 10
-602961.335000001
 20
-1157457.116
 10
-602945.155200001
 20
-1157476.0524
 10
-602942.4309
 20
-1157479.241
 10
-602941.068799999
 20
-1157480.6773
 10
-602921.846000001
 20
-1157500.947
 10
-602896.735100001
 20
-1157523.801
 10
-602892.996599998
 20
-1157527.2035
 10
-602873.533
 20
-1157544.918
 10
-602863.9538
 20
-1157552.779
 10
-602852.401500002
 20
-1157562.2592
 10
-602842.3059
 20
-1157570.544
 10
-602831.548999999
 20
-1157578.3546
 10
-602820.32
 20
-1157586.508
 10
-602808.0678
 20
-1157594.086
 10
-602771.868000001
 20
-1157616.476
 10
-602763.734299999
 20
-1157620.4767
 10
-602759.718199998
 20
-1157622.4521
 10
-602745.960999999
 20
-1157629.219
 10
-602725.655999999
 20
-1157638.1809
 10
-602719.400699999
 20
-1157640.713
 10
-602708.011999998
 20
-1157645.323
 10
-602679.725000001
 20
-1157655.125
 10
-602675.0671
 20
-1157656.4189
 10
-602657.039000001
 20
-1157661.427
 10
-602637.065000001
 20
-1157666.399
 10
-602630.733399998
 20
-1157667.9751
 10
-602624.410999998
 20
-1157669.549
 10
-602603.405000001
 20
-1157674.59
 10
-602596.684
 20
-1157675.851
 10
-602586.399799999
 20
-1157677.6939
 10
-602581.84
 20
-1157678.511
 10
-602564.756000001
 20
-1157681.032
 10
-602554.113000002
 20
-1157682.572
 10
-602542.066199999
 20
-1157683.6903
 10
-602540.530000001
 20
-1157683.833
 10
-602519.664000001
 20
-1157683.693
 10
-602497.7326
 20
-1157683.8084
 10
-602493.057999998
 20
-1157683.833
 10
-602482.975000001
 20
-1157682.712
 10
-602466.171
 20
-1157681.312
 10
-602453.399
 20
-1157679.9751
 10
-602409.065400001
 20
-1157675.3346
 10
-602391.252
 20
-1157673.4699
 10
-602364.731800001
 20
-1157670.5872
 10
-602333.276999999
 20
-1157667.168
 10
-602320.398200002
 20
-1157665.7681
 10
-602288.599800002
 20
-1157662.3117
 10
-602276.064599998
 20
-1157660.9491
 10
-602262.420000002
 20
-1157659.466
 10
-602231.730900001
 20
-1157657.3107
 10
-602228.530999999
 20
-1157657.086
 10
-602213.967
 20
-1157655.966
 10
-602202.625
 20
-1157655.545
 10
-602179.798999999
 20
-1157655.405
 10
-602158.373
 20
-1157655.826
 10
-602144.510000002
 20
-1157657.226
 10
-602119.583999999
 20
-1157660.167
 10
-602096.478
 20
-1157664.088
 10
-602069.870900001
 20
-1157671.229
 10
-602051.169199999
 20
-1157676.2009
 10
-602047.745900001
 20
-1157677.111
 10
-602036.264899999
 20
-1157680.8346
 10
-602027.02
 20
-1157683.833
 10
-601992.991999999
 20
-1157699.236
 10
-601974.366999999
 20
-1157709.3189
 10
-601962.883900002
 20
-1157716.041
 10
-601939.919
 20
-1157729.344
 10
-601919.473000001
 20
-1157743.2069
 10
-601880.824000001
 20
-1157776.816
 10
-601862.199000001
 20
-1157795.021
  0
LWPOLYLINE
  5
2010B
100
AcDbEntity
  8
0
100
AcDbPolyline
 70
0
 90
13
 10
-601472.019517813
 20
-1158534.76437131
 10
-601480.926845882
 20
-1158549.09033425
 10
-601503.508549374
 20
-1158584.93615595
 10
-601513.073785171
 20
-1158597.08584691
 10
-601527.520064071
 20
-1158611.29400032
 10
-601538.950086929
 20
-1158620.42214358
 10
-601550.92989492
 20
-1158627.4600127
 10
-601559.756394915
 20
-1158633.1776127
 10
-601575.459994916
 20
-1158643.3500127
 10
-601597.375994921
 20
-1158657.4090127
 10
-601614.182099082
 20
-1158670.81417329
 10
-601621.987323023
 20
-1158677.62720775
 10
-601631.380050141
 20
-1158686.88764294
  0
LWPOLYLINE
  5
2010C
100
AcDbEntity
  8
0
100
AcDbPolyline
 70
0
 90
3
 10
-600225.8
 20
-1158816.29
 10
-600254.62
 20
-1158795.08
 10
-600305.49
 20
-1158757.22
  0
LWPOLYLINE
  5
2010D
100
AcDbEntity
  8
0
100
AcDbPolyline
 70
0
 90
3
 10
-599363.469900001
 20
-1157767.69
 10
-599294.912
 20
-1157746.586
 10
-599277.609999999
 20
-1157741.26
  0
LWPOLYLINE
  5
2010E
100
AcDbEntity
  8
0
100
AcDbPolyline
 70
0
 90
40
 10
-598662.093199998
 20
-1161865.5294
 10
-598645.5009
 20
-1161845.1803
 10
-598638.3189
 20
-1161836.3722
 10
-598628.307300001
 20
-1161824.0938
 10
-598625.620700002
 20
-1161820.799
 10
-598616
 20
-1161809
 10
-598610.667199999
 20
-1161803.0074
 10
-598607.735199999
 20
-1161799.7127
 10
-598599.350000001
 20
-1161790.29
 10
-598593
 20
-1161783
 10
-598592.136799999
 20
-1161781.9209
 10
-598591.188000001
 20
-1161780.7349
 10
-598585
 20
-1161773
 10
-598574.137899999
 20
-1161760.8344
 10
-598560
 20
-1161745
 10
-598555.5559
 20
-1161739.748
 10
-598549
 20
-1161732
 10
-598536.550799999
 20
-1161718.6616
 10
-598535
 20
-1161717
 10
-598520
 20
-1161700
 10
-598517.795600001
 20
-1161697.575
 10
-598516.944699999
 20
-1161696.6391
 10
-598490
 20
-1161667
 10
-598460
 20
-1161634
 10
-598444
 20
-1161616
 10
-598421.097100001
 20
-1161592.1428
 10
-598420
 20
-1161591
 10
-598402.0506
 20
-1161571.0562
 10
-598402
 20
-1161571
 10
-598389
 20
-1161557
 10
-598382.4234
 20
-1161549.9698
 10
-598362.6974
 20
-1161528.8834
 10
-598360
 20
-1161526
 10
-598349
 20
-1161515
 10
-598344.310199998
 20
-1161510.4977
 10
-598341.496800002
 20
-1161507.7968
 10
-598331.0671
 20
-1161497.7843
 10
-598324
 20
-1161491
 10
-598318.791299999
 20
-1161486.7105
 10
-598316.1226
 20
-1161484.5127
  0
LWPOLYLINE
  5
2010F
100
AcDbEntity
  8
0
100
AcDbPolyline
 70
0
 90
3
 10
-600382.98
 20
-1158696.81
 10
-600326
 20
-1158742
 10
-600305.49
 20
-1158757.22
  0
LWPOLYLINE
  5
20110
100
AcDbEntity
  8
0
100
AcDbPolyline
 70
0
 90
10
 10
-604102.6182
 20
-1162391.4808
 10
-604113.984999999
 20
-1162381.426
 10
-604119.960000001
 20
-1162376.14
 10
-604130.859999999
 20
-1162365.84
 10
-604142.75
 20
-1162352.65
 10
-604191.260000002
 20
-1162296.08
 10
-604205.899999999
 20
-1162279
 10
-604222.379999999
 20
-1162262.81
 10
-604236.690000001
 20
-1162245.24
 10
-604259.1987
 20
-1162217.7247
  0
LWPOLYLINE
  5
20111
100
AcDbEntity
  8
0
100
AcDbPolyline
 70
0
 90
2
 10
-595616.696
 20
-1161703.524
 10
-595640.911
 20
-1161754.059
  0
LWPOLYLINE
  5
20112
100
AcDbEntity
  8
0
100
AcDbPolyline
 70
0
 90
11
 10
-603149.402899999
 20
-1160443.9615
 10
-603153.350000001
 20
-1160441.12
 10
-603167
 20
-1160433
 10
-603182
 20
-1160424
 10
-603189
 20
-1160419
 10
-603203
 20
-1160406
 10
-603217
 20
-1160393
 10
-603231
 20
-1160381
 10
-603248
 20
-1160368
 10
-603255
 20
-1160363
 10
-603269.804900002
 20
-1160353.4204
  0
LWPOLYLINE
  5
20113
100
AcDbEntity
  8
0
100
AcDbPolyline
 70
0
 90
3
 10
-605844.329999998
 20
-1157399.67
 10
-605869.083999999
 20
-1157432.237
 10
-605888.91
 20
-1157458.32
  0
LWPOLYLINE
  5
20114
100
AcDbEntity
  8
0
100
AcDbPolyline
 70
0
 90
2
 10
-605888.91
 20
-1157458.32
 10
-605933.090999998
 20
-1157515.718
  0
LWPOLYLINE
  5
20115
100
AcDbEntity
  8
0
100
AcDbPolyline
 70
0
 90
2
 10
-605933.090999998
 20
-1157515.718
 10
-605977.816
 20
-1157573.601
  0
LWPOLYLINE
  5
20116
100
AcDbEntity
  8
0
100
AcDbPolyline
 70
0
 90
2
 10
-605804.420000002
 20
-1157521.89
 10
-605888.91
 20
-1157458.32
  0
LWPOLYLINE
  5
20117
100
AcDbEntity
  8
0
100
AcDbPolyline
 70
0
 90
2
 10
-605933.090999998
 20
-1157515.718
 10
-605848.870000001
 20
-1157579.84
  0
LWPOLYLINE
  5
20118
100
AcDbEntity
  8
0
100
AcDbPolyline
 70
0
 90
2
 10
-605892.118000001
 20
-1157638.147
 10
-605977.816
 20
-1157573.601
  0
LWPOLYLINE
  5
20119
100
AcDbEntity
  8
0
100
AcDbPolyline
 70
0
 90
3
 10
-600486.149999995
 20
-1163152.28
 10
-600466.438999996
 20
-1163108.689
 10
-600440.712999996
 20
-1163051.795
  0
LWPOLYLINE
  5
2011A
100
AcDbEntity
  8
0
100
AcDbPolyline
 70
0
 90
4
 10
-597803.8
 20
-1160651.64
 10
-597819.99
 20
-1160658.48
 10
-597829.62
 20
-1160660.56
 10
-597840.01
 20
-1160662.14
  0
LWPOLYLINE
  5
2011B
100
AcDbEntity
  8
0
100
AcDbPolyline
 70
0
 90
3
 10
-598212.587000001
 20
-1160946.0559
 10
-598169.6996
 20
-1160927.2513
 10
-598142.829999998
 20
-1160915.4699
  0
LWPOLYLINE
  5
2011C
100
AcDbEntity
  8
0
100
AcDbPolyline
 70
0
 90
5
 10
-597811.892000001
 20
-1160877.426
 10
-597819.557
 20
-1160879.736
 10
-597829.772700001
 20
-1160884.3718
 10
-597838.168099999
 20
-1160888.696
 10
-597843.859999999
 20
-1160891.69
  0
LWPOLYLINE
  5
2011D
100
AcDbEntity
  8
0
100
AcDbPolyline
 70
0
 90
4
 10
-598142.829999998
 20
-1160915.4699
 10
-598127
 20
-1160973
 10
-598113.736000001
 20
-1161023.079
 10
-598111.556000002
 20
-1161029.693
  0
LWPOLYLINE
  5
2011E
100
AcDbEntity
  8
0
100
AcDbPolyline
 70
0
 90
2
 10
-598211.74
 20
-1160422.35
 10
-598201.42
 20
-1160432.99
  0
LWPOLYLINE
  5
2011F
100
AcDbEntity
  8
0
100
AcDbPolyline
 70
0
 90
5
 10
-597811.892000001
 20
-1160877.426
 10
-597805.487
 20
-1160882.571
 10
-597802.475099999
 20
-1160899.7153
 10
-597794.798
 20
-1160949.2329
 10
-597793.800000001
 20
-1160955.67
  0
LWPOLYLINE
  5
20120
100
AcDbEntity
  8
0
100
AcDbPolyline
 70
0
 90
6
 10
-600887.278
 20
-1152623.681
 10
-600906.021
 20
-1152623.117
 10
-600936.47
 20
-1152622.77
 10
-600964.31
 20
-1152614.36
 10
-601036.940447327
 20
-1152580.08485621
 10
-601128.965
 20
-1152541.446
  0
LWPOLYLINE
  5
20121
100
AcDbEntity
  8
0
100
AcDbPolyline
 70
0
 90
3
 10
-599008.26
 20
-1157957.97
 10
-598983.45
 20
-1158047.93
 10
-598972.34
 20
-1158089.36
  0
LWPOLYLINE
  5
20122
100
AcDbEntity
  8
0
100
AcDbPolyline
 70
0
 90
15
 10
-596857.959999997
 20
-1160097.44
 10
-597060.379999995
 20
-1160083.36
 10
-597103.957228914
 20
-1160080.78112366
 10
-597158.440772556
 20
-1160080.95173014
 10
-597189.925000001
 20
-1160084.02499999
 10
-597291.689999998
 20
-1160112.89
 10
-597333.57
 20
-1160123.84
 10
-597370.589999996
 20
-1160129.7
 10
-597405.139999997
 20
-1160131.76
 10
-597422.182762731
 20
-1160132.22401921
 10
-597430.850000001
 20
-1160132.46
 10
-597467.259999998
 20
-1160129.67
 10
-597508.300000001
 20
-1160116.45
 10
-597524.68
 20
-1160108.2
 10
-597534.569999997
 20
-1160093.71
  0
LWPOLYLINE
  5
20123
100
AcDbEntity
  8
0
100
AcDbPolyline
 70
0
 90
2
 10
-598929.67
 20
-1160037.51
 10
-598916.37
 20
-1160167.41
  0
LWPOLYLINE
  5
20124
100
AcDbEntity
  8
0
100
AcDbPolyline
 70
0
 90
2
 10
-598774
 20
-1160022
 10
-598929.67
 20
-1160037.51
  0
LWPOLYLINE
  5
20125
100
AcDbEntity
  8
0
100
AcDbPolyline
 70
0
 90
4
 10
-598699.88
 20
-1160008.87
 10
-598706.82
 20
-1160014.22
 10
-598721.12
 20
-1160016.65
 10
-598774
 20
-1160022
  0
LWPOLYLINE
  5
20126
100
AcDbEntity
  8
0
100
AcDbPolyline
 70
0
 90
3
 10
-598949.25
 20
-1159853.97
 10
-598937.31
 20
-1159969.34
 10
-598929.67
 20
-1160037.51
  0
LWPOLYLINE
  5
20127
100
AcDbEntity
  8
0
100
AcDbPolyline
 70
0
 90
8
 10
-598953.3
 20
-1159633.23
 10
-598959.67
 20
-1159637.26
 10
-598964.46
 20
-1159640.01
 10
-598970.46
 20
-1159644.99
 10
-598971.71
 20
-1159650.48
 10
-598963.23
 20
-1159727.3
 10
-598959.34
 20
-1159762.6
 10
-598949.25
 20
-1159853.97
  0
LWPOLYLINE
  5
20128
100
AcDbEntity
  8
0
100
AcDbPolyline
 70
0
 90
2
 10
-597860.14
 20
-1159812.74
 10
-597771.41
 20
-1159815.05
  0
LWPOLYLINE
  5
20129
100
AcDbEntity
  8
0
100
AcDbPolyline
 70
0
 90
6
 10
-596053.7
 20
-1160661.39
 10
-596049.47
 20
-1160668.6
 10
-596042.02
 20
-1160689.5
 10
-595998.64
 20
-1160811.25
 10
-595982.74
 20
-1160856
 10
-595968.3
 20
-1160894.57
  0
LWPOLYLINE
  5
2012A
100
AcDbEntity
  8
0
100
AcDbPolyline
 70
0
 90
9
 10
-595890.63
 20
-1161158.05
 10
-595894.69
 20
-1161144.31
 10
-595900.81
 20
-1161112.77
 10
-595903.85
 20
-1161095.82
 10
-595914.07
 20
-1161055.41
 10
-595921
 20
-1161028
 10
-595931.56
 20
-1160998.28
 10
-595958.5
 20
-1160922.47
 10
-595968.3
 20
-1160894.57
  0
LWPOLYLINE
  5
2012B
100
AcDbEntity
  8
0
100
AcDbPolyline
 70
0
 90
5
 10
-602019.495
 20
-1162524.422
 10
-602048.14
 20
-1162520.04
 10
-602215.485446982
 20
-1162436.92212633
 10
-602292.44
 20
-1162398.7
 10
-602397.67
 20
-1162387.04
  0
LWPOLYLINE
  5
2012C
100
AcDbEntity
  8
0
100
AcDbPolyline
 70
0
 90
2
 10
-602394
 20
-1162358
 10
-602401.17
 20
-1162420.21
  0
LWPOLYLINE
  5
2012D
100
AcDbEntity
  8
0
100
AcDbPolyline
 70
0
 90
4
 10
-601971.635
 20
-1162447.415
 10
-602000.981
 20
-1162446.057
 10
-602013.933
 20
-1162465.806
 10
-602033.297
 20
-1162473.308
  0
LWPOLYLINE
  5
2012E
100
AcDbEntity
  8
0
100
AcDbPolyline
 70
0
 90
5
 10
-600354.443
 20
-1163411.598
 10
-600345.979
 20
-1163404.771
 10
-600313.636
 20
-1163395.907
 10
-600312.081
 20
-1163392.331
 10
-600311.693
 20
-1163385.8
  0
LWPOLYLINE
  5
2012F
100
AcDbEntity
  8
0
100
AcDbPolyline
 70
0
 90
16
 10
-600685.875
 20
-1164103.445
 10
-600685.875
 20
-1164103.445
 10
-600550.48483841
 20
-1164102.75397537
 10
-600539.139716732
 20
-1164114.69620872
 10
-600518.240808378
 20
-1164117.68176706
 10
-600509.284133368
 20
-1164121.26443706
 10
-600444.198961635
 20
-1164132.60955874
 10
-600370.157114893
 20
-1164126.0413304
 10
-600317.611288173
 20
-1164130.81822374
 10
-600275.813471464
 20
-1164127.8326654
 10
-600225.058979745
 20
-1164137.98356374
 10
-600154.002691339
 20
-1164161.27091877
 10
-600142.657569661
 20
-1164170.82470544
 10
-600113.399097964
 20
-1164175.60159878
 10
-600107.427981292
 20
-1164172.61604044
 10
-600097.277082948
 20
-1164122.45866039
  0
LWPOLYLINE
  5
20130
100
AcDbEntity
  8
0
100
AcDbPolyline
 70
0
 90
2
 10
-601115.89
 20
-1163836.72
 10
-601205.741
 20
-1163823.064
  0
LWPOLYLINE
  5
20131
100
AcDbEntity
  8
0
100
AcDbPolyline
 70
0
 90
7
 10
-601428.364
 20
-1160784.374
 10
-601441.341208902
 20
-1160783.78116282
 10
-601475.973685604
 20
-1160783.18405115
 10
-601617.489150749
 20
-1160757.50824946
 10
-601648.538957447
 20
-1160755.71691446
 10
-601731.537479198
 20
-1160774.22737615
 10
-601791.845757593
 20
-1160792.73783783
  0
LWPOLYLINE
  5
20132
100
AcDbEntity
  8
0
100
AcDbPolyline
 70
0
 90
6
 10
-601442.535432237
 20
-1160783.18405115
 10
-601440.146985568
 20
-1160759.29958446
 10
-601443.132543904
 20
-1160733.62378277
 10
-601490.901477286
 20
-1160673.91261604
 10
-601518.965725648
 20
-1160648.23681435
 10
-601539.864634003
 20
-1160639.28013934
  0
LWPOLYLINE
  5
20133
100
AcDbEntity
  8
0
100
AcDbPolyline
 70
0
 90
2
 10
-598943.02
 20
-1161870.09
 10
-598899.03
 20
-1161934.31
  0
LWPOLYLINE
  5
20134
100
AcDbEntity
  8
0
100
AcDbPolyline
 70
0
 90
2
 10
-595589.323
 20
-1161700.964
 10
-595611.442
 20
-1161752.797
  0
LWPOLYLINE
  5
20135
100
AcDbEntity
  8
0
100
AcDbPolyline
 70
0
 90
2
 10
-598283
 20
-1159949
 10
-598325
 20
-1159973
  0
LWPOLYLINE
  5
20136
100
AcDbEntity
  8
0
100
AcDbPolyline
 70
0
 90
3
 10
-597730
 20
-1159816
 10
-597664.17
 20
-1159818.07
 10
-597658.25
 20
-1159818.26
  0
LWPOLYLINE
  5
20137
100
AcDbEntity
  8
0
100
AcDbPolyline
 70
0
 90
8
 10
-594149.642864574
 20
-1160753.31020306
 10
-594263.308963712
 20
-1160866.11698392
 10
-594308.389999997
 20
-1160903.03
 10
-594327.236613091
 20
-1160915.71613636
 10
-594344
 20
-1160927
 10
-594373.800000001
 20
-1160938.02
 10
-594381.759999998
 20
-1160945.26
 10
-594403.394715589
 20
-1160948.65715107
  0
LWPOLYLINE
  5
20138
100
AcDbEntity
  8
0
100
AcDbPolyline
 70
0
 90
2
 10
-594138.25314261
 20
-1160741.79459808
 10
-594101.93
 20
-1160705.07
  0
LWPOLYLINE
  5
20139
100
AcDbEntity
  8
0
100
AcDbPolyline
 70
0
 90
4
 10
-600070.232058312
 20
-1156941.63888248
 10
-600074.04314721
 20
-1156967.08956286
 10
-600078.350000001
 20
-1157020.55
 10
-600078.699999999
 20
-1157031.15
  0
LWPOLYLINE
  5
2013A
100
AcDbEntity
  8
0
100
AcDbPolyline
 70
0
 90
2
 10
-596551.836300001
 20
-1156641.6782
 10
-596509.282299999
 20
-1156632.3765
  0
LWPOLYLINE
  5
2013B
100
AcDbEntity
  8
0
100
AcDbPolyline
 70
0
 90
15
 10
-604651.08
 20
-1157584.26
 10
-604653.32
 20
-1157584.45
 10
-604689.99
 20
-1157587.64
 10
-604712.92
 20
-1157587.85
 10
-604730.21
 20
-1157587.23
 10
-604761.06
 20
-1157582.85
 10
-604792.89
 20
-1157575.31
 10
-604811.95
 20
-1157568.91
 10
-604838.09
 20
-1157557.67
 10
-604862.65
 20
-1157544.94
 10
-604891.69
 20
-1157527.67
 10
-604918
 20
-1157510.56
 10
-604948.09
 20
-1157487.41
 10
-604977.19
 20
-1157462.48
 10
-604999.43
 20
-1157439.99
  0
LWPOLYLINE
  5
2013C
100
AcDbEntity
  8
0
100
AcDbPolyline
 70
0
 90
9
 10
-604650.99
 20
-1157584.25
 10
-604624.01
 20
-1157580.36
 10
-604600.01
 20
-1157576.16
 10
-604579.73
 20
-1157572.17
 10
-604550.47
 20
-1157565.41
 10
-604524.91
 20
-1157559.05
 10
-604502.6
 20
-1157552.46
 10
-604474.24
 20
-1157544.08
 10
-604450.62
 20
-1157536.51
  0
LWPOLYLINE
  5
2013D
100
AcDbEntity
  8
0
100
AcDbPolyline
 70
0
 90
14
 10
-592241.649999995
 20
-1159944.97
 10
-592215.409999996
 20
-1159899.89
 10
-592198.279999997
 20
-1159860.12
 10
-592185.059999995
 20
-1159811.57
 10
-592182
 20
-1159798
 10
-592179.039999999
 20
-1159726.66
 10
-592184.530000001
 20
-1159679.24
 10
-592215.889999997
 20
-1159563.58
 10
-592221.449999996
 20
-1159539.48
 10
-592240.329
 20
-1159346.616
 10
-592258.717
 20
-1159324.457
 10
-592377.80117844
 20
-1159294.27411703
 10
-592558.339415867
 20
-1159253.81187611
 10
-592666.899999995
 20
-1159227.52
  0
LWPOLYLINE
  5
2013E
100
AcDbEntity
  8
0
100
AcDbPolyline
 70
0
 90
5
 10
-594078.719999995
 20
-1160645.87
 10
-594077.659999996
 20
-1160661.77
 10
-594081.23
 20
-1160676.68
 10
-594087.429999996
 20
-1160689.2
 10
-594092.765954405
 20
-1160695.0401101
  0
LWPOLYLINE
  5
2013F
100
AcDbEntity
  8
0
100
AcDbPolyline
 70
0
 90
2
 10
-599064.53
 20
-1159596.71
 10
-599030.03
 20
-1159548.21
  0
LWPOLYLINE
  5
20140
100
AcDbEntity
  8
0
100
AcDbPolyline
 70
0
 90
5
 10
-594702.126473382
 20
-1160989.63517724
 10
-594597.840066526
 20
-1160976.11154133
 10
-594514.598054685
 20
-1160965.27515471
 10
-594438.985106908
 20
-1160954.24566622
 10
-594415.722754218
 20
-1160950.59293846
  0
LWPOLYLINE
  5
20141
100
AcDbEntity
  8
0
100
AcDbPolyline
 70
0
 90
3
 10
-605036.27
 20
-1157396.82
 10
-605012.59
 20
-1157425.7
 10
-604999.26
 20
-1157440.17
  0
LWPOLYLINE
  5
20142
100
AcDbEntity
  8
0
100
AcDbPolyline
 70
0
 90
8
 10
-594415.722754218
 20
-1160950.59293846
 10
-594381.759999998
 20
-1160945.26
 10
-594373.800000001
 20
-1160938.02
 10
-594344
 20
-1160927
 10
-594308.389999997
 20
-1160903.03
 10
-594263.308963712
 20
-1160866.11698392
 10
-594207.789999999
 20
-1160812.1
 10
-594163.336413264
 20
-1160767.15509741
  0
LWPOLYLINE
  5
20143
100
AcDbEntity
  8
0
100
AcDbPolyline
 70
0
 90
5
 10
-599172.060889585
 20
-1159787.55550259
 10
-599165.469900001
 20
-1159761.07
 10
-599153.489999998
 20
-1159732.69
 10
-599134.890000001
 20
-1159696.12
 10
-599118.523899999
 20
-1159672.9904
  0
LWPOLYLINE
  5
20144
100
AcDbEntity
  8
0
100
AcDbPolyline
 70
0
 90
4
 10
-600860.419999998
 20
-1160636.43
 10
-600807.129999995
 20
-1160673.69
 10
-600787.559999995
 20
-1160686.6
 10
-600778.043983426
 20
-1160692.43903178
  0
LWPOLYLINE
  5
20145
100
AcDbEntity
  8
0
100
AcDbPolyline
 70
0
 90
20
 10
-601106.59
 20
-1160596.40989999
 10
-601090.829999994
 20
-1160591.35
 10
-601065.620000001
 20
-1160583.26
 10
-601024.163399998
 20
-1160569.9976
 10
-601020.919999998
 20
-1160568.96
 10
-601012.069999997
 20
-1160566.57
 10
-601005.779999997
 20
-1160565.18
 10
-601002.959999997
 20
-1160564.68
 10
-600994.2685
 20
-1160564.4659
 10
-600991.552999996
 20
-1160564.60899999
 10
-600984.825599995
 20
-1160565.4159
 10
-600978.995900001
 20
-1160566.565
 10
-600969.440000001
 20
-1160568.92
 10
-600963.640699998
 20
-1160571.8093
 10
-600952.357699998
 20
-1160577.4307
 10
-600946.174999997
 20
-1160580.511
 10
-600933.430199999
 20
-1160588.3768
 10
-600914.159899998
 20
-1160600.27
 10
-600875.269999996
 20
-1160626.71
 10
-600860.419999998
 20
-1160636.43
  0
LWPOLYLINE
  5
20146
100
AcDbEntity
  8
0
100
AcDbPolyline
 70
0
 90
4
 10
-601106.59
 20
-1160596.40989999
 10
-601151.859999996
 20
-1160611.29
 10
-601193.278242771
 20
-1160623.90601741
 10
-601269.991631705
 20
-1160648.07810399
  0
LWPOLYLINE
  5
20147
100
AcDbEntity
  8
0
100
AcDbPolyline
 70
0
 90
3
 10
-598309.248561822
 20
-1161478.8517675
 10
-598294.529344719
 20
-1161466.73004859
 10
-598260.235559821
 20
-1161435.23555982
  0
LWPOLYLINE
  5
20148
100
AcDbEntity
  8
0
100
AcDbPolyline
 70
0
 90
2
 10
-598267.206999999
 20
-1158429.323
 10
-598260.561000001
 20
-1158427.801
  0
LWPOLYLINE
  5
20149
100
AcDbEntity
  8
0
100
AcDbPolyline
 70
0
 90
2
 10
-598385.265000001
 20
-1158450.881
 10
-598386.583999995
 20
-1158444.793
  0
LWPOLYLINE
  5
2014A
100
AcDbEntity
  8
0
100
AcDbPolyline
 70
0
 90
2
 10
-599193.366999999
 20
-1158009.116
 10
-599187.100999996
 20
-1158007.266
  0
LWPOLYLINE
  5
2014B
100
AcDbEntity
  8
0
100
AcDbPolyline
 70
0
 90
2
 10
-599666.271999996
 20
-1157746.792
 10
-599699.18028478
 20
-1157758.96416533
  0
LWPOLYLINE
  5
2014C
100
AcDbEntity
  8
0
100
AcDbPolyline
 70
0
 90
2
 10
-599668.261999998
 20
-1161476.47799999
 10
-599663.500999995
 20
-1161472.628
  0
LWPOLYLINE
  5
2014D
100
AcDbEntity
  8
0
100
AcDbPolyline
 70
0
 90
2
 10
-599252.752
 20
-1162610.888
 10
-599263.82
 20
-1162611.629
  0
LWPOLYLINE
  5
2014E
100
AcDbEntity
  8
0
100
AcDbPolyline
 70
0
 90
2
 10
-600523.719000001
 20
-1158050.17
 10
-600531.580999997
 20
-1158058.936
  0
LWPOLYLINE
  5
2014F
100
AcDbEntity
  8
0
100
AcDbPolyline
 70
0
 90
2
 10
-601205.793999996
 20
-1160618.633
 10
-601231.022
 20
-1160626.756
  0
LWPOLYLINE
  5
20150
100
AcDbEntity
  8
0
100
AcDbPolyline
 70
0
 90
2
 10
-601187.087999996
 20
-1160627.263
 10
-601190.175000001
 20
-1160616.966
  0
LWPOLYLINE
  5
20151
100
AcDbEntity
  8
0
100
AcDbPolyline
 70
0
 90
2
 10
-600851.956
 20
-1160631.125
 10
-600858.575999998
 20
-1160626.897
  0
LWPOLYLINE
  5
20152
100
AcDbEntity
  8
0
100
AcDbPolyline
 70
0
 90
8
 10
-599918.77
 20
-1156628.29
 10
-599958.14
 20
-1156675.28
 10
-599993.29
 20
-1156725.76
 10
-600024.86
 20
-1156783.16
 10
-600042.94
 20
-1156829.01
 10
-600052.03
 20
-1156858.12
 10
-600062.82
 20
-1156892.11
 10
-600070.23
 20
-1156941.64
  0
LWPOLYLINE
  5
20153
100
AcDbEntity
  8
0
100
AcDbPolyline
 70
0
 90
3
 10
-598972.34
 20
-1158089.36
 10
-598964.6
 20
-1158117.05
 10
-598930.76
 20
-1158240.6
  0
LWPOLYLINE
  5
20154
100
AcDbEntity
  8
0
100
AcDbPolyline
 70
0
 90
2
 10
-597386.125
 20
-1164036.366
 10
-597386.965999994
 20
-1164050.498
  0
LWPOLYLINE
  5
20155
100
AcDbEntity
  8
0
100
AcDbPolyline
 70
0
 90
2
 10
-601363.955999997
 20
-1158065.463
 10
-601363.004999995
 20
-1158048.056
  0
LWPOLYLINE
  5
20156
100
AcDbEntity
  8
0
100
AcDbPolyline
 70
0
 90
2
 10
-601635.75
 20
-1158688.566
 10
-601643.763999995
 20
-1158682.20699999
  0
LWPOLYLINE
  5
20157
100
AcDbEntity
  8
0
100
AcDbPolyline
 70
0
 90
2
 10
-601472.66
 20
-1158531.709
 10
-601468.881999996
 20
-1158510.809
  0
LWPOLYLINE
  5
20158
100
AcDbEntity
  8
0
100
AcDbPolyline
 70
0
 90
2
 10
-596575.683200002
 20
-1156646.9378
 10
-596567.0372
 20
-1156645.0008
  0
LWPOLYLINE
  5
20159
100
AcDbEntity
  8
0
100
AcDbPolyline
 70
0
 90
9
 10
-596846.842399999
 20
-1156720.1164
 10
-596824.350000001
 20
-1156709.21
 10
-596809.422600001
 20
-1156703.4615
 10
-596798.850000001
 20
-1156699.39
 10
-596775.66
 20
-1156692.49
 10
-596753.543499999
 20
-1156686.8846
 10
-596716.811000001
 20
-1156678.4039
 10
-596686.850000001
 20
-1156671.91
 10
-596654.2086
 20
-1156664.5737
  0
LWPOLYLINE
  5
2015A
100
AcDbEntity
  8
0
100
AcDbPolyline
 70
0
 90
6
 10
-596963.433200002
 20
-1156877.027
 10
-596954.670000002
 20
-1156859.25
 10
-596939.197999999
 20
-1156827.2753
 10
-596926
 20
-1156800
 10
-596900
 20
-1156761
 10
-596873.350000001
 20
-1156737.1
  0
LWPOLYLINE
  5
2015B
100
AcDbEntity
  8
0
100
AcDbPolyline
 70
0
 90
2
 10
-598595.873599999
 20
-1159417.7606
 10
-598569.024300002
 20
-1159483.1784
  0
LWPOLYLINE
  5
2015C
100
AcDbEntity
  8
0
100
AcDbPolyline
 70
0
 90
64
 10
-597606.870000001
 20
-1163086.05999999
 10
-597607.569999997
 20
-1163104.74
 10
-597608.029999997
 20
-1163126.42
 10
-597607.667499311
 20
-1163151.94841403
 10
-597606.022211634
 20
-1163188.02244625
 10
-597605.109999996
 20
-1163203.34
 10
-597600.100000001
 20
-1163232.31
 10
-597593.119999997
 20
-1163255.13
 10
-597586.825999998
 20
-1163265.713
 10
-597585.239999998
 20
-1163269.01
 10
-597584.479999997
 20
-1163281.71
 10
-597583.34
 20
-1163294.04
 10
-597579.188497514
 20
-1163315.2127999
 10
-597572.144243009
 20
-1163338.12878141
 10
-597569.65476172
 20
-1163346.61847928
 10
-597566.994999997
 20
-1163354.382
 10
-597557.399999999
 20
-1163377.57
 10
-597554.263414349
 20
-1163391.71471009
 10
-597550.841999996
 20
-1163408.713
 10
-597542.595999997
 20
-1163428.64
 10
-597534.065999996
 20
-1163443.34099999
 10
-597519.456506614
 20
-1163463.04829485
 10
-597510.778999995
 20
-1163474.1
 10
-597505.59
 20
-1163481.705
 10
-597501.233758464
 20
-1163494.74466252
 10
-597497.419
 20
-1163506.463
 10
-597488.525658686
 20
-1163520.04205879
 10
-597480.937612563
 20
-1163530.89261523
 10
-597477.416000001
 20
-1163536.015
 10
-597473.322157029
 20
-1163544.6428674
 10
-597469.178208735
 20
-1163554.97528827
 10
-597466.565000001
 20
-1163561.491
 10
-597458.695999999
 20
-1163575.361
 10
-597455.095545243
 20
-1163580.07320566
 10
-597447.115904234
 20
-1163589.00402958
 10
-597442.807
 20
-1163593.609
 10
-597437.568119552
 20
-1163606.23452378
 10
-597435.484999999
 20
-1163612.53599999
 10
-597435.446999997
 20
-1163619.594
 10
-597432.708738133
 20
-1163631.91699062
 10
-597431.217171535
 20
-1163638.62948273
 10
-597427.161404457
 20
-1163651.61969807
 10
-597422.521000002
 20
-1163664.94
 10
-597418.49485755
 20
-1163680.45758565
 10
-597412.932
 20
-1163703.663
 10
-597408.385283239
 20
-1163726.42474034
 10
-597404.989158176
 20
-1163746.63107029
 10
-597403.177999996
 20
-1163770.56
 10
-597403.393103674
 20
-1163792.53367065
 10
-597402.626353782
 20
-1163810.73298325
 10
-597402.668999996
 20
-1163835.0609
 10
-597403.405999999
 20
-1163840.75
 10
-597405.026999995
 20
-1163851.95
 10
-597403.743999999
 20
-1163858.649
 10
-597401.932999998
 20
-1163864.839
 10
-597400.198357064
 20
-1163889.30198361
 10
-597399.573999997
 20
-1163913.337
 10
-597400.671556376
 20
-1163943.7276332
 10
-597401.419847056
 20
-1163964.44769771
 10
-597401.930685364
 20
-1163978.59273916
 10
-597401.120900001
 20
-1163994.32999999
 10
-597397.063999999
 20
-1164006.55799999
 10
-597394.675999999
 20
-1164012.223
 10
-597386.092999995
 20
-1164032.603
  0
LWPOLYLINE
  5
2015D
100
AcDbEntity
  8
0
100
AcDbPolyline
 70
0
 90
13
 10
-595385.914999995
 20
-1160612.482
 10
-595395.18428909
 20
-1160582.3059039
 10
-595441.93
 20
-1160461.791
 10
-595443.971000001
 20
-1160444.183
 10
-595451.116999999
 20
-1160422.875
 10
-595457.386
 20
-1160413.697
 10
-595460.175236568
 20
-1160406.27510752
 10
-595472.021999996
 20
-1160374.752
 10
-595485.044999998
 20
-1160354.039
 10
-595506.873999998
 20
-1160299.46599999
 10
-595509.600451633
 20
-1160286.37890652
 10
-595511.214999996
 20
-1160278.629
 10
-595514.411787562
 20
-1160270.32301361
  0
LWPOLYLINE
  5
2015E
100
AcDbEntity
  8
0
100
AcDbPolyline
 70
0
 90
29
 10
-601269.991631705
 20
-1160648.07810399
 10
-601291.853
 20
-1160655.073
 10
-601326.243999999
 20
-1160660.185
 10
-601369.269999996
 20
-1160654.75
 10
-601385.84
 20
-1160645.91
 10
-601421.093398347
 20
-1160624.1725255
 10
-601455.166973758
 20
-1160602.37851434
 10
-601496.005521066
 20
-1160575.65771795
 10
-601527.770067826
 20
-1160554.64215528
 10
-601558.969999999
 20
-1160534.68
 10
-601573.469999995
 20
-1160526.14
 10
-601595.287013832
 20
-1160514.13007715
 10
-601607.0363
 20
-1160508.0631
 10
-601615.859273996
 20
-1160503.50724712
 10
-601643.049799997
 20
-1160490.8812
 10
-601659.793049186
 20
-1160483.32931389
 10
-601679.623
 20
-1160475.206
 10
-601705.104732074
 20
-1160465.81928825
 10
-601725.711413529
 20
-1160459.60566952
 10
-601734.746999998
 20
-1160457.107
 10
-601784.979999993
 20
-1160444.44
 10
-601807.081123389
 20
-1160438.18179088
 10
-601832.77
 20
-1160430.02
 10
-601848.667588022
 20
-1160424.63219154
 10
-601866.472260602
 20
-1160417.09744019
 10
-601881.989999998
 20
-1160408.65
 10
-601896.279999997
 20
-1160397.45
 10
-601913.359999996
 20
-1160380.78
 10
-601931.030000001
 20
-1160355.8
  0
LWPOLYLINE
  5
2015F
100
AcDbEntity
  8
0
100
AcDbPolyline
 70
0
 90
2
 10
-594356.673746552
 20
-1162364.91867955
 10
-594304.06361853
 20
-1162387.14164955
  0
LWPOLYLINE
  5
20160
100
AcDbEntity
  8
0
100
AcDbPolyline
 70
0
 90
3
 10
-599182.489999998
 20
-1160061.4699
 10
-599179.674699999
 20
-1160088.6607
 10
-599175.287900001
 20
-1160131.0282
  0
LWPOLYLINE
  5
20161
100
AcDbEntity
  8
0
100
AcDbPolyline
 70
0
 90
5
 10
-599951.920747783
 20
-1163026.20967994
 10
-599930.596368857
 20
-1163030.29440871
 10
-599880.351683628
 20
-1163039.95355142
 10
-599710.841364056
 20
-1163073.86946569
 10
-599659.282828059
 20
-1163084.31020186
  0
LWPOLYLINE
  5
20162
100
AcDbEntity
  8
0
100
AcDbPolyline
 70
0
 90
3
 10
-599951.920747783
 20
-1163026.20967994
 10
-599963.729853936
 20
-1163023.94762129
 10
-600148.388192959
 20
-1162989.77251327
  0
LWPOLYLINE
  5
20163
100
AcDbEntity
  8
0
100
AcDbPolyline
 70
0
 90
4
 10
-600162.134245403
 20
-1162987.15415486
 10
-600076.984176859
 20
-1163003.1182958
 10
-600029.243851282
 20
-1163011.72644597
 10
-599972.830037687
 20
-1163022.20446233
  0
LWPOLYLINE
  5
20164
100
AcDbEntity
  8
0
100
AcDbPolyline
 70
0
 90
2
 10
-598328.0306
 20
-1159885.9161
 10
-598292.331300002
 20
-1159943.5218
  0
LWPOLYLINE
  5
20165
100
AcDbEntity
  8
0
100
AcDbPolyline
 70
0
 90
2
 10
-594313.083687153
 20
-1162383.33112016
 10
-594350.272941556
 20
-1162367.62235518
  0
LWPOLYLINE
  5
20166
100
AcDbEntity
  8
0
100
AcDbPolyline
 70
0
 90
2
 10
-594551.4364409
 20
-1162282.51956571
 10
-594356.673746552
 20
-1162364.91867955
  0
LWPOLYLINE
  5
20167
100
AcDbEntity
  8
0
100
AcDbPolyline
 70
0
 90
4
 10
-598252.632320721
 20
-1160362.50494817
 10
-598227.929576516
 20
-1160399.88611941
 10
-598215.947999995
 20
-1160418.017
 10
-598211.660706107
 20
-1160422.4355791
  0
LWPOLYLINE
  5
20168
100
AcDbEntity
  8
0
100
AcDbPolyline
 70
0
 90
5
 10
-598375.13
 20
-1160567.23
 10
-598375.88
 20
-1160564.02
 10
-598376.83
 20
-1160557.25
 10
-598380.69
 20
-1160525.85
 10
-598384.84
 20
-1160491.7
  0
LWPOLYLINE
  5
20169
100
AcDbEntity
  8
0
100
AcDbPolyline
 70
0
 90
6
 10
-594304.06361853
 20
-1162387.14164955
 10
-594257.751999997
 20
-1162406.706
 10
-594243.139999997
 20
-1162412.93
 10
-594079.969999999
 20
-1162481.89
 10
-594021.934867501
 20
-1162504.33549835
 10
-593980.344290018
 20
-1162520.42094863
  0
LWPOLYLINE
  5
2016A
100
AcDbEntity
  8
0
100
AcDbPolyline
 70
0
 90
2
 10
-595697.255595349
 20
-1161787.33202472
 10
-595351
 20
-1161938
  0
LWPOLYLINE
  5
2016B
100
AcDbEntity
  8
0
100
AcDbPolyline
 70
0
 90
2
 10
-595701.659446608
 20
-1161785.41575431
 10
-595748.899012487
 20
-1161764.48455514
  0
LWPOLYLINE
  5
2016C
100
AcDbEntity
  8
0
100
AcDbPolyline
 70
0
 90
2
 10
-595841.598425746
 20
-1161723.01011879
 10
-595781.837495778
 20
-1161749.70841311
  0
LWPOLYLINE
  5
2016D
100
AcDbEntity
  8
0
100
AcDbPolyline
 70
0
 90
2
 10
-595846.241266925
 20
-1161720.96502418
 10
-595874.698480979
 20
-1161708.43009294
  0
LWPOLYLINE
  5
2016E
100
AcDbEntity
  8
0
100
AcDbPolyline
 70
0
 90
5
 10
-595695.80399869
 20
-1160351.40767291
 10
-595679.481854066
 20
-1160347.75328522
 10
-595616.395571239
 20
-1160320.51363087
 10
-595601.980112448
 20
-1160318.03591726
 10
-595549.275007036
 20
-1160295.89024797
  0
LWPOLYLINE
  5
2016F
100
AcDbEntity
  8
0
100
AcDbPolyline
 70
0
 90
5
 10
-595787.995796978
 20
-1160351.94233924
 10
-595772.279515546
 20
-1160354.07223934
 10
-595740.176358044
 20
-1160357.35039961
 10
-595713.632178787
 20
-1160354.97330892
 10
-595695.80399869
 20
-1160351.40767291
  0
LWPOLYLINE
  5
20170
100
AcDbEntity
  8
0
100
AcDbPolyline
 70
0
 90
15
 10
-597363.760999996
 20
-1163697.425
 10
-597376.613787919
 20
-1163697.79195526
 10
-597381.623999998
 20
-1163697.93499999
 10
-597392.417603023
 20
-1163699.6482277
 10
-597399.197860558
 20
-1163700.68087569
 10
-597408.906999998
 20
-1163701.805
 10
-597403.661999997
 20
-1163728.333
 10
-597400.901999999
 20
-1163743.359
 10
-597399.8059
 20
-1163751.132
 10
-597398.924999997
 20
-1163762.2719
 10
-597398.640999999
 20
-1163774.265
 10
-597398.295999996
 20
-1163776.784
 10
-597397.873999998
 20
-1163778.499
 10
-597396.916000001
 20
-1163780.3109
 10
-597394.859000001
 20
-1163781.97899999
  0
LWPOLYLINE
  5
20171
100
AcDbEntity
  8
0
100
AcDbPolyline
 70
0
 90
28
 10
-598356.75
 20
-1161030.4
 10
-598354.289999999
 20
-1161029.25
 10
-598351.309999999
 20
-1161028.75
 10
-598348.239999998
 20
-1161028.6
 10
-598342.5
 20
-1161029.29
 10
-598320.640000001
 20
-1161032.89
 10
-598293.969900001
 20
-1161036.84
 10
-598283.09
 20
-1161038.11
 10
-598281.120299999
 20
-1161038.11
 10
-598277.780000001
 20
-1161038.11
 10
-598272.219900001
 20
-1161037.6
 10
-598266.159899998
 20
-1161036.7199
 10
-598256.350000001
 20
-1161034.88
 10
-598243.449999999
 20
-1161033.11
 10
-598242.3695
 20
-1161033.0719
 10
-598232.649999999
 20
-1161032.73
 10
-598223.289999999
 20
-1161032.67
 10
-598216.84
 20
-1161032.67
 10
-598204.73
 20
-1161033.82
 10
-598204.6204
 20
-1161033.8389
 10
-598199.280000001
 20
-1161034.76
 10
-598196.797899999
 20
-1161035.2244
 10
-598192.920000002
 20
-1161035.95
 10
-598185.34
 20
-1161037.48
 10
-598181.896000002
 20
-1161038.172
 10
-598178.662
 20
-1161039.894
 10
-598176.642000001
 20
-1161041.669
 10
-598175.976
 20
-1161042.438
  0
LWPOLYLINE
  5
20172
100
AcDbEntity
  8
0
100
AcDbPolyline
 70
0
 90
5
 10
-598207.56
 20
-1161346.71
 10
-598212.75
 20
-1161351.83
 10
-598222.95
 20
-1161361.64
 10
-598235.65
 20
-1161373.53
 10
-598248
 20
-1161385
  0
LWPOLYLINE
  5
20173
100
AcDbEntity
  8
0
100
AcDbPolyline
 70
0
 90
3
 10
-598231.952999998
 20
-1160915.885
 10
-598221.956899997
 20
-1160929.401
 10
-598212.586999997
 20
-1160946.056
  0
LWPOLYLINE
  5
20174
100
AcDbEntity
  8
0
100
AcDbPolyline
 70
0
 90
3
 10
-599332.5933
 20
-1158050.5106
 10
-599272.858899999
 20
-1158032.5169
 10
-599191.037300002
 20
-1158008.2212
  0
LWPOLYLINE
  5
20175
100
AcDbEntity
  8
0
100
AcDbPolyline
 70
0
 90
2
 10
-599379.885000002
 20
-1158052.639
 10
-599393.331
 20
-1158056.887
  0
LWPOLYLINE
  5
20176
100
AcDbEntity
  8
0
100
AcDbPolyline
 70
0
 90
4
 10
-599413.927000001
 20
-1158075.589
 10
-599410.107700001
 20
-1158071.7094
 10
-599394.205600001
 20
-1158066.8983
 10
-599383.307
 20
-1158063.763
  0
LWPOLYLINE
  5
20177
100
AcDbEntity
  8
0
100
AcDbPolyline
 70
0
 90
15
 10
-596252.723000001
 20
-1159442.238
 10
-596242.809999999
 20
-1159441.13
 10
-596209.121399999
 20
-1159438.5068
 10
-596187.350000001
 20
-1159435.86
 10
-596168.199999999
 20
-1159424.74
 10
-596150.574200001
 20
-1159425.7664
 10
-596118.879999999
 20
-1159424.29
 10
-596100.530000001
 20
-1159427.65
 10
-596076.920000002
 20
-1159427.83
 10
-596054.780000001
 20
-1159424.29
 10
-596031.074499998
 20
-1159421.7174
 10
-596001.559999999
 20
-1159418.15
 10
-595995.350000001
 20
-1159415.46
 10
-595991.239999998
 20
-1159410.8
 10
-595988.162500001
 20
-1159405.2035
  0
LWPOLYLINE
  5
20178
100
AcDbEntity
  8
0
100
AcDbPolyline
 70
0
 90
16
 10
-598671.28
 20
-1159741.18
 10
-598650.71
 20
-1159775.31
 10
-598621.74
 20
-1159823.37
 10
-598605.19
 20
-1159850.91
 10
-598584.34
 20
-1159885.71
 10
-598570.87
 20
-1159908.19
 10
-598562
 20
-1159923
 10
-598542.46
 20
-1159954.95
 10
-598524.04
 20
-1159985.25
 10
-598520.93
 20
-1159990.38
 10
-598517.71
 20
-1159995.67
 10
-598512.14
 20
-1160005.03
 10
-598494.03
 20
-1160035.44
 10
-598486.96
 20
-1160047.32
 10
-598477.75
 20
-1160062.01
 10
-598468.34
 20
-1160076.67
  0
LWPOLYLINE
  5
20179
100
AcDbEntity
  8
0
100
AcDbPolyline
 70
0
 90
22
 10
-600077.21
 20
-1157052.42
 10
-600076.18
 20
-1157056.63
 10
-600073.39
 20
-1157061.33
 10
-600071.53
 20
-1157063.75
 10
-600069.93
 20
-1157066.65
 10
-600069.16
 20
-1157070.2
 10
-600055.41
 20
-1157070.67
 10
-600032.47
 20
-1157068.33
 10
-600019.88
 20
-1157067.46
 10
-600009.2
 20
-1157068.5
 10
-600000.99
 20
-1157070.78
 10
-599995.69
 20
-1157073.43
 10
-599987.55
 20
-1157079.04
 10
-599985.15
 20
-1157082.16
 10
-599981.6
 20
-1157086.33
 10
-599978.39
 20
-1157091.46
 10
-599949.56
 20
-1157168.76
 10
-599896.85
 20
-1157319.98
 10
-599890.46
 20
-1157342.87
 10
-599890.12
 20
-1157349.51
 10
-599891.05
 20
-1157354.71
 10
-599893.13
 20
-1157360.03
  0
LWPOLYLINE
  5
2017A
100
AcDbEntity
  8
0
100
AcDbPolyline
 70
0
 90
9
 10
-599893.13
 20
-1157360.03
 10
-599882
 20
-1157372
 10
-599878.78
 20
-1157379.56
 10
-599877.76
 20
-1157386.08
 10
-599878.8
 20
-1157395.32
 10
-599879.96
 20
-1157399.02
 10
-599881.69
 20
-1157403.07
 10
-599884.35
 20
-1157406.99
 10
-599890.37
 20
-1157413.39
  0
LWPOLYLINE
  5
2017B
100
AcDbEntity
  8
0
100
AcDbPolyline
 70
0
 90
5
 10
-598176.6041
 20
-1161321.3977
 10
-598186.932999998
 20
-1161328.678
 10
-598192.7357
 20
-1161333.5225
 10
-598202.186999999
 20
-1161341.413
 10
-598207.5614
 20
-1161346.7106
  0
LWPOLYLINE
  5
2017C
100
AcDbEntity
  8
0
100
AcDbPolyline
 70
0
 90
3
 10
-598219
 20
-1161395
 10
-598205
 20
-1161381
 10
-598192
 20
-1161368
  0
LWPOLYLINE
  5
2017D
100
AcDbEntity
  8
0
100
AcDbPolyline
 70
0
 90
13
 10
-598305.771200001
 20
-1160276.8073
 10
-598310
 20
-1160269
 10
-598319.522100002
 20
-1160254.8172
 10
-598329.279899999
 20
-1160240.2835
 10
-598344.894000001
 20
-1160217.027
 10
-598352.684999999
 20
-1160205.925
 10
-598374.210000001
 20
-1160179.45
 10
-598388.620000001
 20
-1160163.99
 10
-598406.578400001
 20
-1160145.5922
 10
-598419.27
 20
-1160132.59
 10
-598435.507300001
 20
-1160115.0224
 10
-598445.998100001
 20
-1160103.672
 10
-598460.280000001
 20
-1160088.22
  0
LWPOLYLINE
  5
2017E
100
AcDbEntity
  8
0
100
AcDbPolyline
 70
0
 90
2
 10
-598761.6994
 20
-1159591.7263
 10
-598777.901999999
 20
-1159564.9981
  0
LWPOLYLINE
  5
2017F
100
AcDbEntity
  8
0
100
AcDbPolyline
 70
0
 90
5
 10
-599404.842399999
 20
-1158056.4879
 10
-599425.617689129
 20
-1158062.27540597
 10
-599439.673034787
 20
-1158066.07128838
 10
-599455.162833512
 20
-1158070.25456896
 10
-599494.079859298
 20
-1158080.7647661
  0
LWPOLYLINE
  5
20180
100
AcDbEntity
  8
0
100
AcDbPolyline
 70
0
 90
2
 10
-599418.850537937
 20
-1158079.58777521
 10
-599486.8012091
 20
-1158101.493096
  0
LWPOLYLINE
  5
20181
100
AcDbEntity
  8
0
100
AcDbPolyline
 70
0
 90
3
 10
-599191.037300002
 20
-1158008.2212
 10
-599085.087200001
 20
-1157977.0667
 10
-599013.357000001
 20
-1157956.5024
  0
LWPOLYLINE
  5
20182
100
AcDbEntity
  8
0
100
AcDbPolyline
 70
0
 90
7
 10
-600781.182074334
 20
-1160699.18165185
 10
-600739.822074335
 20
-1160726.94165185
 10
-600713.992074333
 20
-1160743.76165185
 10
-600608.44207434
 20
-1160812.13165185
 10
-600592.182074338
 20
-1160824.06165185
 10
-600562.662074335
 20
-1160850.22165185
 10
-600553.053074334
 20
-1160858.66445185
  0
LWPOLYLINE
  5
20183
100
AcDbEntity
  8
0
100
AcDbPolyline
 70
0
 90
11
 10
-600557.147474915
 20
-1160821.75376446
 10
-600566.578860853
 20
-1160814.94510118
 10
-600593.11749047
 20
-1160798.61747777
 10
-600670.547490474
 20
-1160748.29737777
 10
-600706.788290471
 20
-1160724.53187777
 10
-600763.827490475
 20
-1160687.12747777
 10
-600776.292890474
 20
-1160679.47867778
 10
-600782.79749047
 20
-1160675.48747778
 10
-600802.367490474
 20
-1160662.57747777
 10
-600818.027390473
 20
-1160652.00207777
 10
-600848.241109777
 20
-1160631.59836885
  0
LWPOLYLINE
  5
20184
100
AcDbEntity
  8
0
100
AcDbPolyline
 70
0
 90
5
 10
-601223.169799998
 20
-1162072.4578
 10
-601166.548900001
 20
-1162084.0995
 10
-601129.507100001
 20
-1162096.6672
 10
-601123.421700001
 20
-1162103.4141
 10
-601112.706
 20
-1162107.1183
  0
LWPOLYLINE
  5
20185
100
AcDbEntity
  8
0
100
AcDbPolyline
 70
0
 90
4
 10
-601272.779300001
 20
-1162072.1932
 10
-601271.919399999
 20
-1162069.7458
 10
-601263.4527
 20
-1162065.2479
 10
-601233.422400001
 20
-1162070.6057
  0
LWPOLYLINE
  5
20186
100
AcDbEntity
  8
0
100
AcDbPolyline
 70
0
 90
8
 10
-598795.781122748
 20
-1162045.07287725
 10
-598788.708322745
 20
-1162036.29167724
 10
-598770.756182976
 20
-1162013.62271045
 10
-598743.592813648
 20
-1161978.98132865
 10
-598724.22671755
 20
-1161954.50638505
 10
-598721.578398723
 20
-1161947.44447057
 10
-598719.9314465
 20
-1161943.0527653
 10
-598699.993731264
 20
-1161917.96983328
  0
LWPOLYLINE
  5
20187
100
AcDbEntity
  8
0
100
AcDbPolyline
 70
0
 90
28
 10
-598688.701660737
 20
-1164253.94834561
 10
-598686.800660737
 20
-1164253.24234561
 10
-598683.251660738
 20
-1164251.51734561
 10
-598679.016660735
 20
-1164248.67434561
 10
-598674.992777545
 20
-1164246.85732925
 10
-598664.882675692
 20
-1164236.74722739
 10
-598661.194748901
 20
-1164233.0593006
 10
-598660.109265704
 20
-1164229.48013979
 10
-598657.233023267
 20
-1164219.99631341
 10
-598652.091047026
 20
-1164203.0416891
 10
-598650.558768451
 20
-1164197.9893111
 10
-598645.674391162
 20
-1164187.13513937
 10
-598643.953158963
 20
-1164185.41744234
 10
-598637.338562414
 20
-1164180.4564949
 10
-598633.886150498
 20
-1164177.86718595
 10
-598625.549841546
 20
-1164174.4176788
 10
-598615.919742506
 20
-1164173.21391642
 10
-598612.01115685
 20
-1164173.14694149
 10
-598602.66302124
 20
-1164173.91005462
 10
-598562.240804069
 20
-1164180.22710899
 10
-598553.142829023
 20
-1164180.86556337
 10
-598538.320966452
 20
-1164180.20574715
 10
-598532.900174394
 20
-1164179.84833229
 10
-598524.651756994
 20
-1164179.3044806
 10
-598515.609660737
 20
-1164176.12934561
 10
-598510.982660733
 20
-1164174.82234561
 10
-598477.765660733
 20
-1164163.81634561
 10
-598470.266860735
 20
-1164161.56284561
  0
LWPOLYLINE
  5
20188
100
AcDbEntity
  8
0
100
AcDbPolyline
 70
0
 90
4
 10
-596617.9276
 20
-1160564.2112
 10
-596587.129999999
 20
-1160570.9699
 10
-596582.010000002
 20
-1160548.65
 10
-596542.629999999
 20
-1160556.07
  0
LWPOLYLINE
  5
20189
100
AcDbEntity
  8
0
100
AcDbPolyline
 70
0
 90
3
 10
-597346.6460118
 20
-1163102.0051673
 10
-597337.947039098
 20
-1163095.9489205
 10
-597326.121199999
 20
-1163092.6908
  0
LWPOLYLINE
  5
2018A
100
AcDbEntity
  8
0
100
AcDbPolyline
 70
0
 90
6
 10
-597708.824999996
 20
-1160851.007
 10
-597699.475000001
 20
-1160849.039
 10
-597691.802000001
 20
-1160842.74
 10
-597670.550999995
 20
-1160796.09
 10
-597675.870795548
 20
-1160779.38857618
 10
-597683.218999997
 20
-1160762.292
  0
LWPOLYLINE
  5
2018B
100
AcDbEntity
  8
0
100
AcDbPolyline
 70
0
 90
3
 10
-600547.476674795
 20
-1160864.35793995
 10
-600525.693462707
 20
-1160882.84147174
 10
-600490.36207433
 20
-1160907.40540344
  0
LWPOLYLINE
  5
2018C
100
AcDbEntity
  8
0
100
AcDbPolyline
 70
0
 90
41
 10
-596253.193399999
 20
-1159450.2852
 10
-596252.261999998
 20
-1159458.215
 10
-596253.715
 20
-1159472.188
 10
-596255.252999999
 20
-1159485.563
 10
-596257.475000001
 20
-1159501.631
 10
-596259.612
 20
-1159507.912
 10
-596263.414999999
 20
-1159514.45
 10
-596276.32
 20
-1159534.235
 10
-596287.557999998
 20
-1159551.498
 10
-596298.197999999
 20
-1159566.967
 10
-596306.787
 20
-1159581.325
 10
-596315.870900001
 20
-1159595.291
 10
-596324.136
 20
-1159608.118
 10
-596333.863000002
 20
-1159623.617
 10
-596344.989
 20
-1159640.4229
 10
-596352.909000002
 20
-1159652.825
 10
-596361.997000001
 20
-1159667.942
 10
-596368.534899998
 20
-1159678.198
 10
-596380.660999998
 20
-1159696.39
 10
-596390.157000002
 20
-1159710.118
 10
-596399.002
 20
-1159724.7329
 10
-596410.313999999
 20
-1159742.601
 10
-596413.181499999
 20
-1159747.1892
 10
-596414.034899998
 20
-1159748.555
 10
-596417.013
 20
-1159753.553
 10
-596432.118999999
 20
-1159776.994
 10
-596443.486000001
 20
-1159794.514
 10
-596447.118000001
 20
-1159798.146
 10
-596450.109000001
 20
-1159801.222
 10
-596512.868000001
 20
-1159898.024
 10
-596513.800000001
 20
-1159901.59
 10
-596514.420000002
 20
-1159903.42
 10
-596533.629999999
 20
-1159940.4
 10
-596540.842999998
 20
-1159952.163
 10
-596551.892000001
 20
-1159968.382
 10
-596560.352600001
 20
-1159978.9512
 10
-596574
 20
-1159996
 10
-596596.214000002
 20
-1160022.96
 10
-596600.883900002
 20
-1160027.964
 10
-596602.443799999
 20
-1160029.1117
 10
-596603.008499999
 20
-1160029.5273
  0
LWPOLYLINE
  5
2018D
100
AcDbEntity
  8
0
100
AcDbPolyline
 70
0
 90
2
 10
-599173.135600001
 20
-1160151.8152
 10
-599179.674699999
 20
-1160088.6607
  0
LWPOLYLINE
  5
2018E
100
AcDbEntity
  8
0
100
AcDbPolyline
 70
0
 90
12
 10
-591710.151999999
 20
-1159905.4598
 10
-591709.34
 20
-1159905.88
 10
-591702.350000001
 20
-1159909.18
 10
-591690.149999999
 20
-1159913.7
 10
-591678.949999999
 20
-1159917.46
 10
-591673.23
 20
-1159919.46
 10
-591670.66
 20
-1159920.54
 10
-591668.350000001
 20
-1159921.96
 10
-591666.129999999
 20
-1159923.73
 10
-591663.579999998
 20
-1159926.24
 10
-591659.800000001
 20
-1159931.41
 10
-591657.720600002
 20
-1159934.7971
  0
LWPOLYLINE
  5
2018F
100
AcDbEntity
  8
0
100
AcDbPolyline
 70
0
 90
6
 10
-597695.890000001
 20
-1159079.31
 10
-597677.449999999
 20
-1159105.69
 10
-597638
 20
-1159164.14
 10
-597636.57
 20
-1159166.6
 10
-597635.789999999
 20
-1159169.4
 10
-597631.780000001
 20
-1159187.52
  0
LWPOLYLINE
  5
20190
100
AcDbEntity
  8
0
100
AcDbPolyline
 70
0
 90
8
 10
-598481.407600001
 20
-1159637.3495
 10
-598477.470600002
 20
-1159639.6585
 10
-598473.673599999
 20
-1159642.8595
 10
-598471.737599999
 20
-1159645.4665
 10
-598469.801600002
 20
-1159648.3705
 10
-598347.840599999
 20
-1159854.3485
 10
-598338.5856
 20
-1159867.0395
 10
-598335.445500001
 20
-1159871.8765
  0
LWPOLYLINE
  5
20191
100
AcDbEntity
  8
0
100
AcDbPolyline
 70
0
 90
6
 10
-598562.4782
 20
-1159499.4916
 10
-598547.614599999
 20
-1159535.175
 10
-598536.614599999
 20
-1159560.175
 10
-598527.614599999
 20
-1159584.175
 10
-598507.674600001
 20
-1159620.455
 10
-598504.805300001
 20
-1159624.6585
  0
LWPOLYLINE
  5
20192
100
AcDbEntity
  8
0
100
AcDbPolyline
 70
0
 90
2
 10
-598642.5108
 20
-1159285.9972
 10
-598604.128400002
 20
-1159398.7588
  0
LWPOLYLINE
  5
20193
100
AcDbEntity
  8
0
100
AcDbPolyline
 70
0
 90
3
 10
-598689.6294
 20
-1159117.226
 10
-598665.003800001
 20
-1159206.6258
 10
-598653.342
 20
-1159247.6945
  0
LWPOLYLINE
  5
20194
100
AcDbEntity
  8
0
100
AcDbPolyline
 70
0
 90
2
 10
-598716.5207
 20
-1159020.976
 10
-598696.3728
 20
-1159096.1235
  0
LWPOLYLINE
  5
20195
100
AcDbEntity
  8
0
100
AcDbPolyline
 70
0
 90
3
 10
-598748.354400001
 20
-1158907.4908
 10
-598746.054200001
 20
-1158916.1167
 10
-598721.712099999
 20
-1159007.9685
  0
LWPOLYLINE
  5
20196
100
AcDbEntity
  8
0
100
AcDbPolyline
 70
0
 90
2
 10
-598769.957899999
 20
-1158828.6744
 10
-598752.269200001
 20
-1158891.9783
  0
LWPOLYLINE
  5
20197
100
AcDbEntity
  8
0
100
AcDbPolyline
 70
0
 90
4
 10
-599496.224899996
 20
-1158074.3658
 10
-599486.8012091
 20
-1158101.493096
 10
-599468.747410506
 20
-1158156.12132306
 10
-599453.364635494
 20
-1158200.49471259
  0
LWPOLYLINE
  5
20198
100
AcDbEntity
  8
0
100
AcDbPolyline
 70
0
 90
46
 10
-596739.009399999
 20
-1161629.6878
 10
-596738.239999998
 20
-1161632.76
 10
-596736.579999998
 20
-1161640.79
 10
-596735.669799998
 20
-1161646.3496
 10
-596735.010000002
 20
-1161650.38
 10
-596734.09
 20
-1161659.61
 10
-596733.613000002
 20
-1161671.998
 10
-596733.440000001
 20
-1161676.49
 10
-596732.059999999
 20
-1161706.75
 10
-596731.184900001
 20
-1161729.2179
 10
-596730.77
 20
-1161739.87
 10
-596730.620299999
 20
-1161744.8496
 10
-596730.329100002
 20
-1161754.5422
 10
-596730.296300001
 20
-1161755.6357
 10
-596729.75
 20
-1161773.82
 10
-596728.370000001
 20
-1161810.63
 10
-596727.1578
 20
-1161843.3499
 10
-596726.890000001
 20
-1161850.58
 10
-596725.050000001
 20
-1161907.87
 10
-596723.893199999
 20
-1161941.85
 10
-596723.48
 20
-1161953.99
 10
-596721.170000002
 20
-1162021.99
 10
-596720.542100001
 20
-1162040.3502
 10
-596719.050000001
 20
-1162083.98
 10
-596717.0163
 20
-1162138.8503
 10
-596716.93
 20
-1162141.18
 10
-596716.370000001
 20
-1162171.53
 10
-596716.370000001
 20
-1162191.92
 10
-596714.828299999
 20
-1162237.3505
 10
-596714.620000001
 20
-1162243.49
 10
-596714.07
 20
-1162271.35
 10
-596713.420000002
 20
-1162296.08
 10
-596712.309999999
 20
-1162322
 10
-596710.93
 20
-1162346.26
 10
-596707.93
 20
-1162418.13
 10
-596702.739999998
 20
-1162541.81
 10
-596702.717300002
 20
-1162542.5435
 10
-596702.669500001
 20
-1162544.0935
 10
-596702.669300001
 20
-1162544.0989
 10
-596698.210000001
 20
-1162688.57
 10
-596694.460000001
 20
-1162809.08
 10
-596692.539999999
 20
-1162877.46
 10
-596692.920000002
 20
-1162880.93
 10
-596693.421399999
 20
-1162883.9414
 10
-596700.181899998
 20
-1162924.5424
 10
-596704.883000001
 20
-1162952.7756
  0
LWPOLYLINE
  5
20199
100
AcDbEntity
  8
0
100
AcDbPolyline
 70
0
 90
24
 10
-596756.4956
 20
-1161387.0074
 10
-596755.210000001
 20
-1161402.9
 10
-596754.283500001
 20
-1161413.0017
 10
-596753.239999998
 20
-1161424.38
 10
-596751.75
 20
-1161438.73
 10
-596750.559999999
 20
-1161450.79
 10
-596749.370000001
 20
-1161462.79
 10
-596749.274500001
 20
-1161463.9526
 10
-596748.32
 20
-1161475.58
 10
-596747.785799999
 20
-1161492.2828
 10
-596747.669500001
 20
-1161495.9213
 10
-596747.399999999
 20
-1161504.35
 10
-596747.48
 20
-1161518.62
 10
-596747.989999998
 20
-1161531.21
 10
-596748.870000001
 20
-1161541.78
 10
-596749.879999999
 20
-1161550.05
 10
-596751.390000001
 20
-1161557.9
 10
-596753.532299999
 20
-1161566.4308
 10
-596754.159899998
 20
-1161568.93
 10
-596757.350000001
 20
-1161580.4699
 10
-596759.399999999
 20
-1161589.62
 10
-596759.989999998
 20
-1161594.69
 10
-596760.241799999
 20
-1161597.4967
 10
-596760.421799999
 20
-1161599.5033
  0
LWPOLYLINE
  5
2019A
100
AcDbEntity
  8
0
100
AcDbPolyline
 70
0
 90
4
 10
-602666.102250215
 20
-1161959.68790814
 10
-602721.674398761
 20
-1161970.19658631
 10
-602756.526327871
 20
-1161977.43919473
 10
-602789.772812467
 20
-1161984.60602188
  0
LWPOLYLINE
  5
2019B
100
AcDbEntity
  8
0
100
AcDbPolyline
 70
0
 90
16
 10
-596706.673999999
 20
-1161102.718
 10
-596708.192000002
 20
-1161109.802
 10
-596708.666000001
 20
-1161113.174
 10
-596708.809999999
 20
-1161119.978
 10
-596708.866999999
 20
-1161122.6209
 10
-596709.373
 20
-1161126.219
 10
-596709.975000001
 20
-1161129.7
 10
-596712.4683
 20
-1161141.3964
 10
-596729.331900001
 20
-1161220.505
 10
-596739.206500001
 20
-1161267.8855
 10
-596742.432
 20
-1161283.362
 10
-596743.219000001
 20
-1161285.78
 10
-596748.098999999
 20
-1161298.887
 10
-596749.066
 20
-1161301.073
 10
-596749.899
 20
-1161304.123
 10
-596753.826000001
 20
-1161323.921
  0
LWPOLYLINE
  5
2019C
100
AcDbEntity
  8
0
100
AcDbPolyline
 70
0
 90
2
 10
-595937.10980818
 20
-1161680.93893749
 10
-595882.533285983
 20
-1161704.97899116
  0
LWPOLYLINE
  5
2019D
100
AcDbEntity
  8
0
100
AcDbPolyline
 70
0
 90
3
 10
-594772.26516863
 20
-1162188.59587036
 10
-594682.559999995
 20
-1162226.30999999
 10
-594572.159217332
 20
-1162273.73496533
  0
LWPOLYLINE
  5
2019E
100
AcDbEntity
  8
0
100
AcDbPolyline
 70
0
 90
21
 10
-597950.590399999
 20
-1160289.7685
 10
-597952.289999999
 20
-1160292.26
 10
-597952.699999999
 20
-1160293.1
 10
-597952.940000001
 20
-1160293.69
 10
-597971.919
 20
-1160320.336
 10
-597967.302000001
 20
-1160323.9229
 10
-597954.4564
 20
-1160333.9025
 10
-597941.6109
 20
-1160343.8821
 10
-597928.765299998
 20
-1160353.8616
 10
-597926.780000001
 20
-1160355.404
 10
-597915.919799998
 20
-1160364.0678
 10
-597903.074200001
 20
-1160374.3155
 10
-597890.228700001
 20
-1160384.5631
 10
-597874.908300001
 20
-1160396.785
 10
-597874.222899999
 20
-1160397.3318
 10
-597860.598900001
 20
-1160408.2005
 10
-597831.5383
 20
-1160431.3838
 10
-597817.3101
 20
-1160442.7344
 10
-597813.986299999
 20
-1160445.386
 10
-597788.853700001
 20
-1160465.4357
 10
-597768.93
 20
-1160481.33
  0
LWPOLYLINE
  5
2019F
100
AcDbEntity
  8
0
100
AcDbPolyline
 70
0
 90
39
 10
-593949.643599998
 20
-1157780.1622
 10
-593946.009999998
 20
-1157782.09
 10
-593940.684399996
 20
-1157785.5326
 10
-593938.599999998
 20
-1157786.88
 10
-593933.924299996
 20
-1157796.8832
 10
-593931.999999996
 20
-1157801
 10
-593929.594899997
 20
-1157808.2339
 10
-593925.820999999
 20
-1157819.5845
 10
-593925.52
 20
-1157820.48999999
 10
-593920.166899998
 20
-1157830.9352
 10
-593916.699999996
 20
-1157837.7
 10
-593914.770399999
 20
-1157842.2858
 10
-593909.9945
 20
-1157853.6365
 10
-593908.999999996
 20
-1157856
 10
-593907.411899999
 20
-1157860.3517
 10
-593899.379999995
 20
-1157882.36
 10
-593885.870000001
 20
-1157910.48
 10
-593878.889999997
 20
-1157920.11
 10
-593866.039999995
 20
-1157936.67
 10
-593855.287
 20
-1157953.193
 10
-593845
 20
-1157969
 10
-593833
 20
-1157979
 10
-593829.539999995
 20
-1157980.73999999
 10
-593817.549999997
 20
-1157984.23
 10
-593797.579999998
 20
-1157985.2
 10
-593790.999999996
 20
-1157985
 10
-593778.999999996
 20
-1157982
 10
-593769
 20
-1157979
 10
-593762.049999997
 20
-1157976.45
 10
-593755.16
 20
-1157973.76
 10
-593746.029999997
 20
-1157968.32
 10
-593742.329999994
 20
-1157965.64
 10
-593731.449999996
 20
-1157956.86
 10
-593724
 20
-1157949
 10
-593706.43
 20
-1157929.37
 10
-593699.030000001
 20
-1157920.73999999
 10
-593692.789999999
 20
-1157913.27
 10
-593687.159899998
 20
-1157905.2915
 10
-593687.059999995
 20
-1157905.15
  0
LWPOLYLINE
  5
201A0
100
AcDbEntity
  8
0
100
AcDbPolyline
 70
0
 90
9
 10
-595256.245000001
 20
-1167931.83
 10
-595211.662999999
 20
-1167891.245
 10
-595032.32130136
 20
-1167754.11613734
 10
-594767.284999996
 20
-1167550.29699999
 10
-594750.885999996
 20
-1167514.166
 10
-594741.240999997
 20
-1167456.848
 10
-594739.41
 20
-1167405.7
 10
-594710.220999997
 20
-1167370.54
 10
-594692.939999998
 20
-1167357.864
  0
LWPOLYLINE
  5
201A1
100
AcDbEntity
  8
0
100
AcDbPolyline
 70
0
 90
54
 10
-597454.439999998
 20
-1166818.25
 10
-597456.679999996
 20
-1166826.30999999
 10
-597458.508699995
 20
-1166833.4623
 10
-597459.719999995
 20
-1166838.2
 10
-597466.989999995
 20
-1166866.66
 10
-597468.41
 20
-1166872.52
 10
-597469.599999998
 20
-1166875.95
 10
-597470.719999995
 20
-1166878.62
 10
-597470.835899998
 20
-1166878.8649
 10
-597472.050000001
 20
-1166881.43
 10
-597474.120000001
 20
-1166884.68
 10
-597476.099999998
 20
-1166887.46
 10
-597478.68
 20
-1166890.46
 10
-597481.649999995
 20
-1166893.13
 10
-597485.289999995
 20
-1166896
 10
-597494.419999998
 20
-1166902.73
 10
-597500.300000001
 20
-1166907.14
 10
-597504.759999998
 20
-1166909.84
 10
-597507.779999997
 20
-1166911.59
 10
-597510.579999998
 20
-1166913.01
 10
-597516.949999996
 20
-1166916.01
 10
-597528.780000001
 20
-1166920.05999999
 10
-597532.649999999
 20
-1166921.19
 10
-597534.75
 20
-1166922
 10
-597537
 20
-1166923.1
 10
-597539.09
 20
-1166924.19
 10
-597539.214999996
 20
-1166924.2675
 10
-597541.089999996
 20
-1166925.43
 10
-597544.619999997
 20
-1166927.89
 10
-597547.199999999
 20
-1166930.18
 10
-597548.389999997
 20
-1166931.45
 10
-597549.280000001
 20
-1166932.53
 10
-597550.599999998
 20
-1166934.28
 10
-597552.039999999
 20
-1166936.49
 10
-597553.399999999
 20
-1166939.26
 10
-597554.459999997
 20
-1166941.72
 10
-597555.370000001
 20
-1166944.39999999
 10
-597555.889999997
 20
-1166946.46
 10
-597557.329999994
 20
-1166953.1
 10
-597560.516399998
 20
-1166969.6701
 10
-597563.519999996
 20
-1166985.29
 10
-597565.27
 20
-1166995.11
 10
-597568.990699999
 20
-1167015.0727
 10
-597571.73
 20
-1167029.77
 10
-597580.059999999
 20
-1167072.76
 10
-597588.77
 20
-1167109.14
 10
-597590.712399997
 20
-1167116.5993
 10
-597600.789999999
 20
-1167155.3
 10
-597602.321799997
 20
-1167161.2288
 10
-597611.760000002
 20
-1167197.76
 10
-597621.800000001
 20
-1167234.68
 10
-597630.538899995
 20
-1167268.9457
 10
-597630.539999995
 20
-1167268.95
 10
-597630.585999995
 20
-1167269.164
  0
LWPOLYLINE
  5
201A2
100
AcDbEntity
  8
0
100
AcDbPolyline
 70
0
 90
8
 10
-599184.9571
 20
-1160008.1164
 10
-599185.329999998
 20
-1159993.74
 10
-599185.329999998
 20
-1159932.89
 10
-599182.77
 20
-1159875.98
 10
-599182.18
 20
-1159856.75
 10
-599178.079999998
 20
-1159817.34
 10
-599173.039999999
 20
-1159791.49
 10
-599172.060889585
 20
-1159787.55550259
  0
LWPOLYLINE
  5
201A3
100
AcDbEntity
  8
0
100
AcDbPolyline
 70
0
 90
4
 10
-599081.991799999
 20
-1160901.8832
 10
-599096
 20
-1160795
 10
-599123.736000001
 20
-1160583.5689
 10
-599130.784899998
 20
-1160530.2271
  0
LWPOLYLINE
  5
201A4
100
AcDbEntity
  8
0
100
AcDbPolyline
 70
0
 90
2
 10
-598796.54
 20
-1158728.44
 10
-598776.04
 20
-1158804.73
  0
LWPOLYLINE
  5
201A5
100
AcDbEntity
  8
0
100
AcDbPolyline
 70
0
 90
4
 10
-595581.728900757
 20
-1160254.04567877
 10
-595572.142031301
 20
-1160258.13310375
 10
-595566.982646
 20
-1160250.19558785
 10
-595526.82
 20
-1160234.325
  0
LWPOLYLINE
  5
201A6
100
AcDbEntity
  8
0
100
AcDbPolyline
 70
0
 90
18
 10
-601364.124503441
 20
-1158072.20049828
 10
-601377.376303434
 20
-1158112.64129828
 10
-601385.794103436
 20
-1158136.18479828
 10
-601394.211903438
 20
-1158159.72839828
 10
-601397.974503435
 20
-1158170.25209828
 10
-601402.629803434
 20
-1158183.27199828
 10
-601411.047503434
 20
-1158206.81549828
 10
-601435.922103435
 20
-1158277.44629828
 10
-601444.385403439
 20
-1158302.30729828
 10
-601464.343203437
 20
-1158357.19149828
 10
-601469.721103437
 20
-1158371.98059828
 10
-601472.385403439
 20
-1158379.30729828
 10
-601472.912103437
 20
-1158381.34819828
 10
-601480.385403439
 20
-1158410.30729828
 10
-601480.942677159
 20
-1158431.48369975
 10
-601478.00726055
 20
-1158472.27633303
 10
-601476.447105963
 20
-1158494.99029791
 10
-601472.632446319
 20
-1158504.28853079
  0
LWPOLYLINE
  5
201A7
100
AcDbEntity
  8
0
100
AcDbPolyline
 70
0
 90
8
 10
-601361.199412812
 20
-1158044.22490982
 10
-601361.949568342
 20
-1158032.59749918
 10
-601361.684984483
 20
-1158019.89747378
 10
-601359.303729717
 20
-1158004.28702589
 10
-601354.541220192
 20
-1157986.29532325
 10
-601347.926623631
 20
-1157968.03903673
 10
-601335.755765956
 20
-1157942.90356979
 10
-601328.876585528
 20
-1157927.55770577
  0
LWPOLYLINE
  5
201A8
100
AcDbEntity
  8
0
100
AcDbPolyline
 70
0
 90
7
 10
-595254.292067576
 20
-1161979.81964645
 10
-595170.138799995
 20
-1162016.2102
 10
-595129
 20
-1162034
 10
-595102.804199997
 20
-1162044.3195
 10
-595096
 20
-1162047
 10
-595066.999999996
 20
-1162061
 10
-594979.749299999
 20
-1162099.3446
  0
LWPOLYLINE
  5
201A9
100
AcDbEntity
  8
0
100
AcDbPolyline
 70
0
 90
47
 10
-599318.213500001
 20
-1161139.621
 10
-599325.369999997
 20
-1161140.88
 10
-599330.349999998
 20
-1161142.23
 10
-599338.287999995
 20
-1161145.363
 10
-599342.252
 20
-1161137.79
 10
-599343.967999995
 20
-1161134.714
 10
-599346.157000002
 20
-1161131.342
 10
-599349.173999999
 20
-1161127.437
 10
-599352.723000001
 20
-1161123.651
 10
-599356.5689
 20
-1161119.865
 10
-599360.502999995
 20
-1161116.3449
 10
-599364.436999999
 20
-1161113.12
 10
-599369.613999996
 20
-1161109.127
 10
-599373.931999996
 20
-1161106.228
 10
-599378.074000001
 20
-1161103.862
 10
-599383.752999999
 20
-1161101.02189999
 10
-599388.002999999
 20
-1161099.3579
 10
-599394.484999999
 20
-1161097.77
 10
-599400.040999997
 20
-1161097.241
 10
-599406.116
 20
-1161097.236
 10
-599412.326999996
 20
-1161097.768
 10
-599419.355999995
 20
-1161098.961
 10
-599430.996999998
 20
-1161101.607
 10
-599441.713
 20
-1161104.914
 10
-599450.577
 20
-1161108.618
 10
-599458.646000002
 20
-1161112.455
 10
-599465.921999995
 20
-1161116.952
 10
-599482.723000001
 20
-1161128.065
 10
-599525.122999992
 20
-1161158.029
 10
-599536.019000001
 20
-1161165.109
 10
-599543.775999997
 20
-1161169.8969
 10
-599551.532000002
 20
-1161174.206
 10
-599560.151000001
 20
-1161178.42
 10
-599570.684999999
 20
-1161183.017
 10
-599579.879000001
 20
-1161186.55999999
 10
-599585.528999999
 20
-1161188.57099999
 10
-599592.231999993
 20
-1161190.774
 10
-599598.935899999
 20
-1161192.689
 10
-599606.692999996
 20
-1161194.508
 10
-599628.112
 20
-1161199.039
 10
-599649.09
 20
-1161203.21
 10
-599672.318
 20
-1161207.295
 10
-599683.704
 20
-1161208.75299999
 10
-599693.661999997
 20
-1161209.59
 10
-599705.782000002
 20
-1161210.142
 10
-599729.733999997
 20
-1161210.419
 10
-599732.0955
 20
-1161210.3741
  0
LWPOLYLINE
  5
201AA
100
AcDbEntity
  8
0
100
AcDbPolyline
 70
0
 90
113
 10
-596836.771000002
 20
-1165543.717
 10
-596838.662
 20
-1165543.389
 10
-596838.840999998
 20
-1165543.359
 10
-596838.982900001
 20
-1165543.341
 10
-596839.089000002
 20
-1165543.349
 10
-596839.177000001
 20
-1165543.366
 10
-596839.291000001
 20
-1165543.421
 10
-596839.357000001
 20
-1165543.476
 10
-596839.605
 20
-1165543.747
 10
-596840.585000001
 20
-1165544.926
 10
-596841.978999998
 20
-1165546.596
 10
-596843.749000002
 20
-1165549.051
 10
-596852.534899998
 20
-1165559.266
 10
-596856.763
 20
-1165564.321
 10
-596857.947000001
 20
-1165565.8839
 10
-596859.368000001
 20
-1165568.063
 10
-596860.456900001
 20
-1165569.981
 10
-596861.783
 20
-1165572.539
 10
-596862.422899999
 20
-1165574.055
 10
-596863.418000001
 20
-1165577.039
 10
-596863.82
 20
-1165578.625
 10
-596865.761999998
 20
-1165588.857
 10
-596866.164999999
 20
-1165592.172
 10
-596866.164999999
 20
-1165594.02
 10
-596865.952
 20
-1165596.104
 10
-596865.715
 20
-1165597.88
 10
-596865.217999998
 20
-1165599.94
 10
-596864.625
 20
-1165601.646
 10
-596863.796999998
 20
-1165603.493
 10
-596862.541000001
 20
-1165605.624
 10
-596861.357000001
 20
-1165607.164
 10
-596860.362
 20
-1165608.324
 10
-596859.344000001
 20
-1165609.343
 10
-596857.473000001
 20
-1165611.001
 10
-596856.265000001
 20
-1165611.877
 10
-596854.938999999
 20
-1165612.682
 10
-596853.399999999
 20
-1165613.44
 10
-596851.978999998
 20
-1165613.985
 10
-596850.534000002
 20
-1165614.482
 10
-596848.653000001
 20
-1165615.043
 10
-596822.146000002
 20
-1165620.356
 10
-596820.892000001
 20
-1165620.807
 10
-596820.377
 20
-1165621.289
 10
-596819.991
 20
-1165621.964
 10
-596819.817000002
 20
-1165622.629
 10
-596819.793000001
 20
-1165623.434
 10
-596819.991
 20
-1165625.1469
 10
-596827.998
 20
-1165672.991
 10
-596828.581
 20
-1165676.741
 10
-596830.947999999
 20
-1165691.382
 10
-596832.581900001
 20
-1165703.129
 10
-596836.631999999
 20
-1165724.988
 10
-596836.987
 20
-1165726.528
 10
-596837.484000001
 20
-1165728.375
 10
-596843.309999999
 20
-1165748.293
 10
-596843.879000001
 20
-1165749.856
 10
-596852.916999999
 20
-1165772.281
 10
-596868.083000001
 20
-1165803.2849
 10
-596871.02
 20
-1165809.206
 10
-596878.831900001
 20
-1165825.591
 10
-596884.732900001
 20
-1165838.123
 10
-596900.600000001
 20
-1165871.281
 10
-596909.316
 20
-1165889.848
 10
-596921.210000001
 20
-1165915.46
 10
-596931.980999999
 20
-1165939.014
 10
-596937.499000002
 20
-1165951.188
 10
-596944.32
 20
-1165966.013
 10
-596958.221999999
 20
-1165996.754
 10
-596965.131999999
 20
-1166012.145
 10
-596971.787
 20
-1166027.193
 10
-596994.291999999
 20
-1166080.19
 10
-596997.607000001
 20
-1166087.769
 10
-597003.973000001
 20
-1166102.11
 10
-597014.004999999
 20
-1166122.849
 10
-597023.682999998
 20
-1166141.755
 10
-597042.427999999
 20
-1166175.902
 10
-597043.295000002
 20
-1166177.562
 10
-597044.261
 20
-1166179.632
 10
-597051.045299999
 20
-1166196.0431
 10
-597061.169
 20
-1166220.532
 10
-597064.002799999
 20
-1166227.4272
 10
-597073.418000001
 20
-1166250.336
 10
-597075.655000001
 20
-1166256.318
 10
-597076.695
 20
-1166259.309
 10
-597077.943
 20
-1166263.158
 10
-597079.140000001
 20
-1166267.293
 10
-597080.153999999
 20
-1166270.674
 10
-597082.364999998
 20
-1166277.956
 10
-597087.513999999
 20
-1166293.69
 10
-597090.368999999
 20
-1166301.653
 10
-597091.596999999
 20
-1166304.821
 10
-597094.848000001
 20
-1166312.623
 10
-597097.657000002
 20
-1166318.865
 10
-597107.045000002
 20
-1166339.255
 10
-597126.395
 20
-1166380.424
 10
-597129.236200001
 20
-1166386.2784
 10
-597129.436999999
 20
-1166386.692
 10
-597137.447999999
 20
-1166403.362
 10
-597139.761999998
 20
-1166408.408
 10
-597141.765000001
 20
-1166412.881
 10
-597142.414999999
 20
-1166414.519
 10
-597143.116999999
 20
-1166416.626
 10
-597145.157299999
 20
-1166422.9301
 10
-597146.004000001
 20
-1166425.546
 10
-597149.434999999
 20
-1166436.762
 10
-597153.088
 20
-1166449.579
 10
-597153.214000002
 20
-1166450.0923
 10
-597153.462000001
 20
-1166451.102
 10
-597153.526000001
 20
-1166452.0349
 10
-597153.478
 20
-1166452.404
 10
-597153.300999999
 20
-1166452.646
 10
-597153.028000001
 20
-1166452.887
 10
-597151.307999998
 20
-1166453.883
  0
LWPOLYLINE
  5
201AB
100
AcDbEntity
  8
0
100
AcDbPolyline
 70
0
 90
10
 10
-597361.300847154
 20
-1163174.34990851
 10
-597340.883003801
 20
-1163233.2567445
 10
-597315.75227451
 20
-1163300.21390945
 10
-597300.990684099
 20
-1163339.54401535
 10
-597294.990854546
 20
-1163349.27707217
 10
-597293.231317848
 20
-1163352.1314317
 10
-597288.187202014
 20
-1163372.88613262
 10
-597283.01838075
 20
-1163393.08901365
 10
-597283.735499632
 20
-1163398.22019597
 10
-597284.320583746
 20
-1163402.4066333
  0
LWPOLYLINE
  5
201AC
100
AcDbEntity
  8
0
100
AcDbPolyline
 70
0
 90
4
 10
-597380.010425948
 20
-1163118.85254475
 10
-597372.487412199
 20
-1163141.8431211
 10
-597370.14398532
 20
-1163148.65971478
 10
-597364.053999998
 20
-1163166.244
  0
LWPOLYLINE
  5
201AD
100
AcDbEntity
  8
0
100
AcDbPolyline
 70
0
 90
27
 10
-597566.995000001
 20
-1163354.382
 10
-597558.795000002
 20
-1163352.689
 10
-597530.938000001
 20
-1163349.352
 10
-597516.897999998
 20
-1163347.964
 10
-597498.491999999
 20
-1163346.685
 10
-597490.743000001
 20
-1163346.434
 10
-597483.421
 20
-1163347.262
 10
-597468.352000002
 20
-1163350.143
 10
-597462.864
 20
-1163351.438
 10
-597459.901000001
 20
-1163352.228
 10
-597392.925000001
 20
-1163371.875
 10
-597387.217
 20
-1163373.148
 10
-597375.742199998
 20
-1163375.6578
 10
-597369.853
 20
-1163376.946
 10
-597366.429000001
 20
-1163378.109
 10
-597356.704
 20
-1163382.171
 10
-597347.0559
 20
-1163387.2329
 10
-597342.317000002
 20
-1163388.662
 10
-597330.456
 20
-1163391.245
 10
-597327.682999998
 20
-1163391.83
 10
-597324.741999999
 20
-1163392.532
 10
-597316.435899999
 20
-1163395.33
 10
-597313.379000001
 20
-1163396.328
 10
-597292.787999999
 20
-1163400.821
 10
-597288.366999999
 20
-1163401.576
 10
-597284.085999999
 20
-1163402.235
 10
-597275.174600001
 20
-1163403.3998
  0
LWPOLYLINE
  5
201AE
100
AcDbEntity
  8
0
100
AcDbPolyline
 70
0
 90
42
 10
-597386.658999998
 20
-1163995.655
 10
-597380.892000001
 20
-1163994.835
 10
-597376.873
 20
-1163991.802
 10
-597374.851
 20
-1163987.891
 10
-597368.950514946
 20
-1163858.66231196
 10
-597366.157999996
 20
-1163791.628
 10
-597367.069999997
 20
-1163787.264
 10
-597369.055999998
 20
-1163783.154
 10
-597373.074000001
 20
-1163779.3
 10
-597377.911999997
 20
-1163776.922
 10
-597382.625999995
 20
-1163776.306
 10
-597390.840999998
 20
-1163778.616
 10
-597394.859000001
 20
-1163781.97899999
 10
-597396.254000001
 20
-1163783.67289999
 10
-597396.854999997
 20
-1163784.82099999
 10
-597397.483999997
 20
-1163786.215
 10
-597398.221999999
 20
-1163789.031
 10
-597398.631999996
 20
-1163791.9829
 10
-597398.768999998
 20
-1163795.39999999
 10
-597395.332999997
 20
-1163900.016
 10
-597396.007999998
 20
-1163932.293
 10
-597397.483999997
 20
-1163984.256
 10
-597397.155999996
 20
-1163986.989
 10
-597396.663999997
 20
-1163988.657
 10
-597396.116999999
 20
-1163989.914
 10
-597395.664999999
 20
-1163990.5723
 10
-597395.159899998
 20
-1163991.308
 10
-597393.302000001
 20
-1163993.331
 10
-597390.923999995
 20
-1163994.862
 10
-597388.490999997
 20
-1163995.655
 10
-597386.658999998
 20
-1163995.655
 10
-597386.326999996
 20
-1164000.999
 10
-597385.749999996
 20
-1164004.525
 10
-597384.820999995
 20
-1164008.146
 10
-597382.641999997
 20
-1164012.248
 10
-597380.078000002
 20
-1164015.325
 10
-597376.873
 20
-1164018.401
 10
-597372.899
 20
-1164020.837
 10
-597368.155999999
 20
-1164022.632
 10
-597363.284899995
 20
-1164024.042
 10
-597359.310899995
 20
-1164024.68299999
 10
-597355.336999997
 20
-1164025.452
  0
LWPOLYLINE
  5
201AF
100
AcDbEntity
  8
0
100
AcDbPolyline
 70
0
 90
18
 10
-597636.765999999
 20
-1163381.055
 10
-597640.153999999
 20
-1163382.23
 10
-597641.043000001
 20
-1163383.119
 10
-597641.153999999
 20
-1163384.787
 10
-597641.043000001
 20
-1163387.344
 10
-597639.9309
 20
-1163392.348
 10
-597632.370000001
 20
-1163422.0349
 10
-597629.256999999
 20
-1163436.044
 10
-597626.988299999
 20
-1163445.8411
 10
-597626.810899999
 20
-1163446.607
 10
-597626.144000001
 20
-1163450.054
 10
-597625.944899999
 20
-1163451.4221
 10
-597625.254000001
 20
-1163456.169
 10
-597622.919
 20
-1163469.29
 10
-597621.140000001
 20
-1163484.3
 10
-597620.938999999
 20
-1163487.1184
 10
-597620.672600001
 20
-1163490.8561
 10
-597620.655999999
 20
-1163491.089
  0
LWPOLYLINE
  5
201B0
100
AcDbEntity
  8
0
100
AcDbPolyline
 70
0
 90
6
 10
-597639.1906
 20
-1163280.035
 10
-597637.6164
 20
-1163292.2353
 10
-597635.973999999
 20
-1163304.9644
 10
-597634.927999999
 20
-1163313.071
 10
-597632.482000001
 20
-1163333.196
 10
-597632.4135
 20
-1163333.9716
  0
LWPOLYLINE
  5
201B1
100
AcDbEntity
  8
0
100
AcDbPolyline
 70
0
 90
11
 10
-597662.837000001
 20
-1163097.2783
 10
-597662.546999998
 20
-1163099.544
 10
-597661.630800001
 20
-1163106.7026
 10
-597660.714699998
 20
-1163113.861
 10
-597656.721000001
 20
-1163145.066
 10
-597655.104800001
 20
-1163157.4793
 10
-597654.421
 20
-1163162.7317
 10
-597654.229499999
 20
-1163164.2024
 10
-597646.655900002
 20
-1163222.3743
 10
-597643.822999999
 20
-1163244.1339
 10
-597642.882100001
 20
-1163251.4256
  0
LWPOLYLINE
  5
201B2
100
AcDbEntity
  8
0
100
AcDbPolyline
 70
0
 90
11
 10
-597861.715
 20
-1163523.6079
 10
-597851.010000002
 20
-1163522.598
 10
-597837.780999999
 20
-1163520.982
 10
-597818.491999999
 20
-1163517.649
 10
-597809.302000001
 20
-1163515.731
 10
-597802.333999999
 20
-1163514.115
 10
-597763.453000002
 20
-1163508.964
 10
-597721.442000002
 20
-1163503.511
 10
-597662.666999999
 20
-1163496.341
 10
-597627.826000001
 20
-1163492.099
 10
-597620.655999999
 20
-1163491.089
  0
LWPOLYLINE
  5
201B3
100
AcDbEntity
  8
0
100
AcDbPolyline
 70
0
 90
6
 10
-597614.080299996
 20
-1163743.6134
 10
-597603.415899999
 20
-1163743.7665
 10
-597595.831799999
 20
-1163741.4582
 10
-597588.577300001
 20
-1163737.6661
 10
-597507.831999999
 20
-1163722.075
 10
-597474.707999997
 20
-1163714.611
  0
LWPOLYLINE
  5
201B4
100
AcDbEntity
  8
0
100
AcDbPolyline
 70
0
 90
4
 10
-597474.707999997
 20
-1163714.611
 10
-597464.938022166
 20
-1163712.87955547
 10
-597439.239529606
 20
-1163708.32524479
 10
-597412.932
 20
-1163703.663
  0
LWPOLYLINE
  5
201B5
100
AcDbEntity
  8
0
100
AcDbPolyline
 70
0
 90
9
 10
-598456
 20
-1160591
 10
-598535.057
 20
-1160601.494
 10
-598546.482999999
 20
-1160601.696
 10
-598555.672999997
 20
-1160598.195
 10
-598578.434998628
 20
-1160576.09753413
 10
-598633.330582991
 20
-1160523.83210624
 10
-598640.719999995
 20
-1160515.48999999
 10
-598642.559999995
 20
-1160509.80999999
 10
-598643.409999996
 20
-1160499.78
  0
LWPOLYLINE
  5
201B6
100
AcDbEntity
  8
0
100
AcDbPolyline
 70
0
 90
39
 10
-592279.438099999
 20
-1160021.9663
 10
-592272.949999999
 20
-1160026.51
 10
-592261.263
 20
-1160034.2596
 10
-592241.170000002
 20
-1160047.5831
 10
-592227.210000001
 20
-1160056.84
 10
-592221.077100001
 20
-1160060.5877
 10
-592209.879999999
 20
-1160067.43
 10
-592200.984000001
 20
-1160072.0793
 10
-592193.75
 20
-1160075.86
 10
-592183.539999999
 20
-1160080.42
 10
-592180.891100001
 20
-1160081.3254
 10
-592171.370000001
 20
-1160084.58
 10
-592160.798099998
 20
-1160087.2927
 10
-592158.859999999
 20
-1160087.79
 10
-592147.579999998
 20
-1160090.29
 10
-592145.575399999
 20
-1160090.6017
 10
-592140.705200002
 20
-1160091.359
 10
-592140.675999999
 20
-1160091.3636
 10
-592140.673099998
 20
-1160091.3641
 10
-592127.710000001
 20
-1160093.38
 10
-592114.780000001
 20
-1160094.45
 10
-592101.909899998
 20
-1160094.75
 10
-592073.010000002
 20
-1160092.46
 10
-592006.09
 20
-1160084.29
 10
-591993.079999998
 20
-1160082.77
 10
-591982.699999999
 20
-1160082.04
 10
-591960.710000001
 20
-1160080.4
 10
-591948.079999998
 20
-1160080.06
 10
-591937.079999998
 20
-1160080.75
 10
-591922.739999998
 20
-1160082.39
 10
-591911.530900002
 20
-1160084.953
 10
-591909.27
 20
-1160085.4699
 10
-591893.52
 20
-1160089.4099
 10
-591878.640000001
 20
-1160094.75
 10
-591863.140000001
 20
-1160100.57
 10
-591844.030000001
 20
-1160108.85
 10
-591802.530000001
 20
-1160126.53
 10
-591797.2412
 20
-1160128.6639
 10
-591786.619399998
 20
-1160132.9496
  0
LWPOLYLINE
  5
201B7
100
AcDbEntity
  8
0
100
AcDbPolyline
 70
0
 90
71
 10
-597620.403099999
 20
-1163496.1617
 10
-597620.105999999
 20
-1163500.125
 10
-597619.970699996
 20
-1163502.26289999
 10
-597618.507599995
 20
-1163525.3893
 10
-597618.454299998
 20
-1163526.232
 10
-597617.866599996
 20
-1163535.5205
 10
-597617.680300001
 20
-1163538.4651
 10
-597617.044499997
 20
-1163548.5157
 10
-597615.581300002
 20
-1163571.6421
 10
-597615.306599997
 20
-1163575.9838
 10
-597614.135999996
 20
-1163594.487
 10
-597613.995099995
 20
-1163594.7683
 10
-597613.690999996
 20
-1163595.376
 10
-597612.912999999
 20
-1163596.044
 10
-597609.166999999
 20
-1163596.9247
 10
-597609.131999996
 20
-1163596.933
 10
-597606.018999998
 20
-1163597.044
 10
-597596.011999995
 20
-1163595.265
 10
-597593.712999996
 20
-1163594.7683
 10
-597526.519999996
 20
-1163580.255
 10
-597524.407000002
 20
-1163580.255
 10
-597523.072999999
 20
-1163580.477
 10
-597519.515000001
 20
-1163582.145
 10
-597515.956900001
 20
-1163585.814
 10
-597510.952999998
 20
-1163594.153
 10
-597510.636099998
 20
-1163594.7683
 10
-597503.169999998
 20
-1163609.275
 10
-597499.051999997
 20
-1163617.8948
 10
-597492.398299996
 20
-1163631.8224
 10
-597490.049999997
 20
-1163636.738
 10
-597488.364100002
 20
-1163641.0212
 10
-597485.935899995
 20
-1163647.19
 10
-597484.403999995
 20
-1163651.902
 10
-597483.149999999
 20
-1163664.1476
 10
-597482.032000002
 20
-1163675.066
 10
-597481.48
 20
-1163677.822
 10
-597479.7401
 20
-1163687.274
 10
-597475.483099997
 20
-1163710.4004
 10
-597474.707999997
 20
-1163714.611
 10
-597470.456
 20
-1163727.248
 10
-597468.022899996
 20
-1163733.5266
 10
-597467.1873
 20
-1163735.683
 10
-597464.760000002
 20
-1163741.947
 10
-597458.902199998
 20
-1163756.6531
 10
-597458.043200001
 20
-1163758.8094
 10
-597456.124000002
 20
-1163763.628
 10
-597453.461999997
 20
-1163769.342
 10
-597453.357900001
 20
-1163772.943
 10
-597453.357900001
 20
-1163779.7795
 10
-597453.357900001
 20
-1163802.9059
 10
-597453.357900001
 20
-1163826.0323
 10
-597453.357900001
 20
-1163837.098
 10
-597452.912999995
 20
-1163841.212
 10
-597452.691
 20
-1163845.771
 10
-597452.691
 20
-1163854.333
 10
-597453.357900001
 20
-1163891.58
 10
-597453.357900001
 20
-1163895.4114
 10
-597453.357900001
 20
-1163921.712
 10
-597453.247000001
 20
-1163924.937
 10
-597452.579999998
 20
-1163930.718
 10
-597448.131999996
 20
-1163956.848
 10
-597446.686999999
 20
-1163971.191
 10
-597447.353999998
 20
-1163977.862
 10
-597449.124200001
 20
-1163988.1977
 10
-597450.800999995
 20
-1163997.987
 10
-597455.915999997
 20
-1164021.781
 10
-597456.805
 20
-1164023.338
 10
-597458.028000001
 20
-1164023.783
 10
-597462.363999996
 20
-1164024.894
 10
-597463.142999995
 20
-1164026.006
 10
-597463.586999997
 20
-1164028.564
  0
LWPOLYLINE
  5
201B8
100
AcDbEntity
  8
0
100
AcDbPolyline
 70
0
 90
25
 10
-597474.100000001
 20
-1165404.81
 10
-597472.3189
 20
-1165405.721
 10
-597471.967
 20
-1165405.856
 10
-597471.684
 20
-1165405.952
 10
-597471.368000001
 20
-1165406.03
 10
-597470.969000001
 20
-1165406.0819
 10
-597469.936999999
 20
-1165406.154
 10
-597458.101
 20
-1165406.409
 10
-597456.506000001
 20
-1165406.395
 10
-597454.995900001
 20
-1165406.325
 10
-597453.607000001
 20
-1165406.202
 10
-597452.684
 20
-1165406.091
 10
-597451.796
 20
-1165405.9229
 10
-597450.886999998
 20
-1165405.7199
 10
-597449.824000001
 20
-1165405.447
 10
-597447.1809
 20
-1165404.636
 10
-597442.289000001
 20
-1165402.863
 10
-597428.050000001
 20
-1165398.281
 10
-597372.693300001
 20
-1165378.9963
 10
-597363.260000002
 20
-1165375.71
 10
-597359.600000001
 20
-1165374.05
 10
-597357.059999999
 20
-1165372.35
 10
-597354.4309
 20
-1165370.131
 10
-597353.129799999
 20
-1165368.7208
 10
-597352.221999999
 20
-1165367.737
  0
LWPOLYLINE
  5
201B9
100
AcDbEntity
  8
0
100
AcDbPolyline
 70
0
 90
3
 10
-600782.368099999
 20
-1162433.4177
 10
-600756.350000001
 20
-1162442.1599
 10
-600747.642000001
 20
-1162445.2085
  0
LWPOLYLINE
  5
201BA
100
AcDbEntity
  8
0
100
AcDbPolyline
 70
0
 90
7
 10
-599905.417599995
 20
-1157827.7297
 10
-599764.079999994
 20
-1157799.8
 10
-599745.999999996
 20
-1157793
 10
-599709
 20
-1157773
 10
-599704.929999996
 20
-1157768.96
 10
-599699.795140248
 20
-1157760.8983541
 10
-599699.18028478
 20
-1157758.96416533
  0
LWPOLYLINE
  5
201BB
100
AcDbEntity
  8
0
100
AcDbPolyline
 70
0
 90
2
 10
-599497.923514556
 20
-1158731.18532319
 10
-599438.403299995
 20
-1158774.79899999
  0
LWPOLYLINE
  5
201BC
100
AcDbEntity
  8
0
100
AcDbPolyline
 70
0
 90
5
 10
-599705.672299996
 20
-1158589.1822
 10
-599666.32
 20
-1158615.26
 10
-599629.190000001
 20
-1158639.86
 10
-599565.640000001
 20
-1158681.98
 10
-599511.654840264
 20
-1158721.16910275
  0
LWPOLYLINE
  5
201BD
100
AcDbEntity
  8
0
100
AcDbPolyline
 70
0
 90
2
 10
-599777.540399998
 20
-1158541.5572
 10
-599744.767200001
 20
-1158563.2751
  0
LWPOLYLINE
  5
201BE
100
AcDbEntity
  8
0
100
AcDbPolyline
 70
0
 90
5
 10
-596019.632972535
 20
-1161642.25020305
 10
-595998.979999997
 20
-1161650.87
 10
-595987.75
 20
-1161657.55
 10
-595959.559999999
 20
-1161671.05
 10
-595946.573565759
 20
-1161676.77030909
  0
LWPOLYLINE
  5
201BF
100
AcDbEntity
  8
0
100
AcDbPolyline
 70
0
 90
3
 10
-593181.719999999
 20
-1162796.54
 10
-593144.493092693
 20
-1162830.72077246
 10
-593080.73
 20
-1162888.21
  0
LWPOLYLINE
  5
201C0
100
AcDbEntity
  8
0
100
AcDbPolyline
 70
0
 90
3
 10
-594597.229066145
 20
-1162263.04310615
 10
-594682.559999995
 20
-1162226.30999999
 10
-594779.173720818
 20
-1162185.66094697
  0
LWPOLYLINE
  5
201C1
100
AcDbEntity
  8
0
100
AcDbPolyline
 70
0
 90
3
 10
-594958.701605525
 20
-1162108.59458852
 10
-594904.203999996
 20
-1162132.545
 10
-594784.207900189
 20
-1162183.52230338
  0
LWPOLYLINE
  5
201C2
100
AcDbEntity
  8
0
100
AcDbPolyline
 70
0
 90
2
 10
-595314.367095426
 20
-1161953.84125603
 10
-595262.135798652
 20
-1161976.42776274
  0
LWPOLYLINE
  5
201C3
100
AcDbEntity
  8
0
100
AcDbPolyline
 70
0
 90
5
 10
-600744.606800001
 20
-1162446.2711
 10
-600734.07
 20
-1162449.96
 10
-600725.34
 20
-1162453.09
 10
-600717.940000001
 20
-1162456.2
 10
-600710.577300001
 20
-1162459.6542
  0
LWPOLYLINE
  5
201C4
100
AcDbEntity
  8
0
100
AcDbPolyline
 70
0
 90
4
 10
-601273.899999999
 20
-1162080.96
 10
-601286.670000002
 20
-1162147.89
 10
-601296.170000002
 20
-1162198.92
 10
-601312.475000001
 20
-1162284.3406
  0
LWPOLYLINE
  5
201C5
100
AcDbEntity
  8
0
100
AcDbPolyline
 70
0
 90
6
 10
-601333.07
 20
-1162348.02
 10
-601339.659899998
 20
-1162383.96
 10
-601339.329999998
 20
-1162390.79
 10
-601353.84
 20
-1162467.27
 10
-601354.09
 20
-1162468.24
 10
-601354.170299999
 20
-1162468.4408
  0
LWPOLYLINE
  5
201C6
100
AcDbEntity
  8
0
100
AcDbPolyline
 70
0
 90
2
 10
-598044.469999999
 20
-1161003.346
 10
-598101.379999995
 20
-1161025.847
  0
LWPOLYLINE
  5
201C7
100
AcDbEntity
  8
0
100
AcDbPolyline
 70
0
 90
6
 10
-598020
 20
-1161081
 10
-597938.140000001
 20
-1161074.66
 10
-597930.218520518
 20
-1161057.06173692
 10
-597920.120000001
 20
-1161039.68
 10
-597909.02
 20
-1161032.55999999
 10
-597888.350000001
 20
-1161027.52
  0
LWPOLYLINE
  5
201C8
100
AcDbEntity
  8
0
100
AcDbPolyline
 70
0
 90
8
 10
-600352.83
 20
-1157911.61
 10
-600344.95
 20
-1157906.42
 10
-600319.71
 20
-1157898.71
 10
-600292.36
 20
-1157898.14
 10
-600283.5
 20
-1157900.45
 10
-600275.8
 20
-1157900.06
 10
-600170.48
 20
-1157878.93
 10
-599924.61
 20
-1157831.55
  0
LWPOLYLINE
  5
201C9
100
AcDbEntity
  8
0
100
AcDbPolyline
 70
0
 90
67
 10
-601158.006700002
 20
-1160601.2832
 10
-601171.27
 20
-1160563.11
 10
-601174.699999999
 20
-1160549.32
 10
-601177.100000001
 20
-1160535.57
 10
-601177.783100002
 20
-1160530.4974
 10
-601179.239999998
 20
-1160519.68
 10
-601180.010000002
 20
-1160505.46
 10
-601180.48
 20
-1160496.73
 10
-601179.84
 20
-1160485.29
 10
-601178.289999999
 20
-1160459.55
 10
-601177.749400001
 20
-1160455.0248
 10
-601176.129999999
 20
-1160441.4699
 10
-601171.940000001
 20
-1160417.26
 10
-601167.280000001
 20
-1160395.37
 10
-601163.309999999
 20
-1160380.02
 10
-601163.192600001
 20
-1160379.5522
 10
-601156.879999999
 20
-1160354.39
 10
-601157.309999999
 20
-1160351.71
 10
-601158.59
 20
-1160350
 10
-601161.850000001
 20
-1160348.03
 10
-601176.84
 20
-1160341.57
 10
-601178.559999999
 20
-1160340.63
 10
-601179.23
 20
-1160339.34
 10
-601179.190000001
 20
-1160337.74
 10
-601175.039999999
 20
-1160325.05
 10
-601170.07
 20
-1160307.6599
 10
-601169.185899999
 20
-1160304.0797
 10
-601163.710000001
 20
-1160281.9
 10
-601161.859999999
 20
-1160273.25
 10
-601159.690000001
 20
-1160260.46
 10
-601158.809999999
 20
-1160252.19
 10
-601157.800000001
 20
-1160239.4699
 10
-601158.309999999
 20
-1160211.85
 10
-601159.75
 20
-1160176.55
 10
-601159.300000001
 20
-1160173
 10
-601158.059999999
 20
-1160166.21
 10
-601157.879999999
 20
-1160164.1599
 10
-601157.934099998
 20
-1160160.5014
 10
-601158.309999999
 20
-1160135.09
 10
-601157.969900001
 20
-1160109.93
 10
-601155.039999999
 20
-1160077.45
 10
-601153.667599998
 20
-1160066.6408
 10
-601151.912599999
 20
-1160052.8176
 10
-601151.399999999
 20
-1160048.78
 10
-601150.780000001
 20
-1160044.03
 10
-601144.039999999
 20
-1160019.8
 10
-601140.93
 20
-1160004.85
 10
-601136.670000002
 20
-1159992.6
 10
-601127.620000001
 20
-1159975.78
 10
-601121.23
 20
-1159956.39
 10
-601120.329999998
 20
-1159944.01
 10
-601116.390000001
 20
-1159932.79
 10
-601111.550000001
 20
-1159914.98
 10
-601103.800000001
 20
-1159883.79
 10
-601093.27
 20
-1159790.8
 10
-601093.100000001
 20
-1159789.94
 10
-601092.640000001
 20
-1159789.61
 10
-601089.800000001
 20
-1159789.86
 10
-601088.940000001
 20
-1159789.33
 10
-601088.75
 20
-1159788.6
 10
-601085.68
 20
-1159763
 10
-601086.350000001
 20
-1159761.99
 10
-601088.960000001
 20
-1159761.44
 10
-601089.59
 20
-1159760.18
 10
-601088.713300001
 20
-1159752.9071
 10
-601085.909899998
 20
-1159729.65
 10
-601085.7654
 20
-1159728.5421
  0
LWPOLYLINE
  5
201CA
100
AcDbEntity
  8
0
100
AcDbPolyline
 70
0
 90
3
 10
-601643.049799997
 20
-1160490.8812
 10
-601616.279999997
 20
-1160503.29
 10
-601607.0363
 20
-1160508.0631
  0
LWPOLYLINE
  5
201CB
100
AcDbEntity
  8
0
100
AcDbPolyline
 70
0
 90
6
 10
-601271.633237753
 20
-1160657.16685396
 10
-601216.283037752
 20
-1160639.45665396
 10
-601179.761337753
 20
-1160628.33205396
 10
-601157.170237754
 20
-1160621.45085396
 10
-601150.551037755
 20
-1160619.43465396
 10
-601114.289537754
 20
-1160607.51555396
  0
LWPOLYLINE
  5
201CC
100
AcDbEntity
  8
0
100
AcDbPolyline
 70
0
 90
3
 10
-598242.219999999
 20
-1160844.15
 10
-598201.609999999
 20
-1160826
 10
-598158.612
 20
-1160795.812
  0
LWPOLYLINE
  5
201CD
100
AcDbEntity
  8
0
100
AcDbPolyline
 70
0
 90
188
 10
-597366.106999997
 20
-1165235.092
 10
-597363.812999997
 20
-1165258.949
 10
-597359.796999995
 20
-1165278.996
 10
-597359.585000001
 20
-1165297.289
 10
-597358.801999997
 20
-1165307.014
 10
-597354.722999997
 20
-1165322.546
 10
-597348.342999998
 20
-1165338.141
 10
-597346.800999995
 20
-1165347.717
 10
-597349.146999996
 20
-1165362.11299999
 10
-597352.184499998
 20
-1165367.77409999
 10
-597350.521899994
 20
-1165369.421
 10
-597350.135999996
 20
-1165369.915
 10
-597349.719900001
 20
-1165370.63
 10
-597348.606400002
 20
-1165375.35729999
 10
-597346.385600001
 20
-1165384.8014
 10
-597345.079899997
 20
-1165390.5238
 10
-597343.349599995
 20
-1165398.1071
 10
-597341.619399995
 20
-1165405.6903
 10
-597340.909899995
 20
-1165408.8
 10
-597340.372400001
 20
-1165411.4117
 10
-597338.509999998
 20
-1165420.46
 10
-597338.411699999
 20
-1165420.8568
 10
-597336.682500001
 20
-1165427.8406
 10
-597336.5341
 20
-1165428.44
 10
-597334.18
 20
-1165437.84
 10
-597332.278499998
 20
-1165444.3135
 10
-597331.459999997
 20
-1165447.1
 10
-597330.145399999
 20
-1165451.1897
 10
-597327.707899999
 20
-1165458.77279999
 10
-597327.480700001
 20
-1165459.48
 10
-597327.378999997
 20
-1165459.7963
 10
-597327.140000001
 20
-1165460.54
 10
-597324.850000001
 20
-1165470.12
 10
-597322.530000001
 20
-1165484.23
 10
-597321.557599995
 20
-1165489.1059
 10
-597320.045400001
 20
-1165496.6891
 10
-597319.780000001
 20
-1165498.02
 10
-597318.032099999
 20
-1165504.2724
 10
-597316.019999996
 20
-1165511.4699
 10
-597313.738699995
 20
-1165519.4387
 10
-597313.732199997
 20
-1165519.4624
 10
-597311.568100002
 20
-1165527.02189999
 10
-597311.409299999
 20
-1165527.5769
 10
-597309.397499997
 20
-1165534.6053
 10
-597309.149999999
 20
-1165535.4699
 10
-597307.540399998
 20
-1165542.18849999
 10
-597306.050000001
 20
-1165548.40989999
 10
-597305.832699995
 20
-1165549.7718
 10
-597305.719900001
 20
-1165550.4789
 10
-597305.032900002
 20
-1165554.7846
 10
-597304.892699998
 20
-1165555.6634
 10
-597304.629999995
 20
-1165557.31
 10
-597304.624899998
 20
-1165557.355
 10
-597303.765099995
 20
-1165564.9381
 10
-597303.519999996
 20
-1165567.1
 10
-597302.714299999
 20
-1165572.5215
 10
-597302.229999997
 20
-1165575.78
 10
-597301.276299998
 20
-1165580.1047
 10
-597299.619199995
 20
-1165587.6191
 10
-597299.603999995
 20
-1165587.688
 10
-597297.931699999
 20
-1165595.2712
 10
-597296.259499997
 20
-1165602.8543
 10
-597296.103599999
 20
-1165603.5615
 10
-597295.139400002
 20
-1165607.9338
 10
-597294.599999998
 20
-1165610.38
 10
-597294.586599994
 20
-1165610.4377
 10
-597292.833900001
 20
-1165618.02079999
 10
-597292.474800002
 20
-1165619.5747
 10
-597291.081300002
 20
-1165625.6041
 10
-597289.328599997
 20
-1165633.1873
 10
-597287.576099999
 20
-1165640.77059999
 10
-597285.8235
 20
-1165648.3538
 10
-597285.089299999
 20
-1165651.5304
 10
-597284.490099996
 20
-1165654.1234
 10
-597284.070900001
 20
-1165655.937
 10
-597283.889999997
 20
-1165656.7199
 10
-597281.961599998
 20
-1165664.2273
 10
-597281.0658
 20
-1165667.7146
 10
-597278.84
 20
-1165676.38
 10
-597276.714499999
 20
-1165683.4861
 10
-597274.469899997
 20
-1165690.98999999
 10
-597271.145199995
 20
-1165702.1435
 10
-597271.030000001
 20
-1165702.53
 10
-597270.4529
 20
-1165705.1778
 10
-597265.238699995
 20
-1165729.1003
 10
-597263.699999999
 20
-1165736.1599
 10
-597260.265299994
 20
-1165750.3771
 10
-597255.886500001
 20
-1165768.5025
 10
-597250.986699995
 20
-1165788.7845
 10
-597250.780000001
 20
-1165789.64
 10
-597231.329999998
 20
-1165874.7
 10
-597227.269999996
 20
-1165893.81
 10
-597224.509999998
 20
-1165905.4
 10
-597220.739999998
 20
-1165920.53
 10
-597218.079999998
 20
-1165931.6599
 10
-597215.210000001
 20
-1165946.51
 10
-597213.920000002
 20
-1165954.32999999
 10
-597212.289999999
 20
-1165966.42
 10
-597211.460000001
 20
-1165974.63
 10
-597210.719899997
 20
-1165985.39999999
 10
-597210.683699999
 20
-1165986.488
 10
-597210.289999995
 20
-1165998.32
 10
-597210.309999999
 20
-1166007.1
 10
-597210.659899995
 20
-1166020.1599
 10
-597210.754500002
 20
-1166021.73009999
 10
-597211.18
 20
-1166028.79
 10
-597212.869999997
 20
-1166044.8
 10
-597214.199999999
 20
-1166053.78
 10
-597215.960000001
 20
-1166063.75
 10
-597217.909899998
 20
-1166073.03
 10
-597219.48
 20
-1166080.1
 10
-597221.050000001
 20
-1166084.53
 10
-597222.039999995
 20
-1166086.96
 10
-597223.859999996
 20
-1166090.76
 10
-597225.679999996
 20
-1166094.03
 10
-597229.859999999
 20
-1166100.74
 10
-597234.170000002
 20
-1166106.53
 10
-597236.839999996
 20
-1166109.5
 10
-597239.329999998
 20
-1166112.07999999
 10
-597242.439999998
 20
-1166115.08
 10
-597245.800000001
 20
-1166117.94
 10
-597248.600000001
 20
-1166120.04
 10
-597251.949999999
 20
-1166122.39
 10
-597255.579999998
 20
-1166125.19
 10
-597257.729999997
 20
-1166127.25
 10
-597258.959999997
 20
-1166128.9699
 10
-597260.690000001
 20
-1166131.71
 10
-597262.719899997
 20
-1166135.39
 10
-597264.100000001
 20
-1166138.43
 10
-597267.82
 20
-1166148.23
 10
-597276.949999996
 20
-1166172.73
 10
-597283.120000001
 20
-1166188.32
 10
-597285.959999997
 20
-1166196.38
 10
-597289.210000001
 20
-1166206.75
 10
-597304.43
 20
-1166258.51
 10
-597306.469900001
 20
-1166267.57
 10
-597307.120000001
 20
-1166271.80999999
 10
-597307.549999997
 20
-1166276.1
 10
-597307.667999998
 20
-1166280.861
 10
-597307.829999998
 20
-1166287.44
 10
-597307.549999997
 20
-1166298.37
 10
-597307.459999997
 20
-1166307.99
 10
-597307.769999996
 20
-1166316.71
 10
-597308.84
 20
-1166330.57999999
 10
-597309.729999997
 20
-1166338.65
 10
-597311.699999999
 20
-1166352.02
 10
-597313.449999996
 20
-1166362.63
 10
-597314.559999995
 20
-1166370.18
 10
-597315.120000001
 20
-1166376.2199
 10
-597316.100000001
 20
-1166393.63
 10
-597317.339999996
 20
-1166409.21
 10
-597318.929999996
 20
-1166427.33
 10
-597320.260000002
 20
-1166439.82
 10
-597321.859999996
 20
-1166452.34
 10
-597322.929999996
 20
-1166459.36
 10
-597325.029999997
 20
-1166468.42
 10
-597328.649999995
 20
-1166483.31
 10
-597329.359999996
 20
-1166486.07999999
 10
-597331.02
 20
-1166491.38
 10
-597332.689999998
 20
-1166495.65989999
 10
-597335.359999999
 20
-1166501.89
 10
-597336.960000001
 20
-1166505.31
 10
-597338.969900001
 20
-1166509.01
 10
-597343.579999998
 20
-1166517.43
 10
-597346.589999996
 20
-1166523.19
 10
-597348.350000001
 20
-1166527.1599
 10
-597349.729999997
 20
-1166531.33999999
 10
-597350.780000001
 20
-1166535.57
 10
-597353.359999996
 20
-1166549.34
 10
-597356.399999995
 20
-1166566.57999999
 10
-597357.859999996
 20
-1166576.21
 10
-597358.32
 20
-1166582.18
 10
-597359.050000001
 20
-1166592.37
 10
-597360.600000001
 20
-1166609.25
 10
-597361.940000001
 20
-1166628.05
 10
-597363.84
 20
-1166656.49
 10
-597364.439999998
 20
-1166669.03
 10
-597365.839999996
 20
-1166692.04
 10
-597366.759999998
 20
-1166711.27
 10
-597369.374899998
 20
-1166747.9767
 10
-597369.669999998
 20
-1166752.12
 10
-597372.319999997
 20
-1166775.76
 10
-597375.920000002
 20
-1166801
 10
-597377.069899995
 20
-1166808.293
 10
-597380.159899998
 20
-1166827.89
 10
-597382.52
 20
-1166843.18
 10
-597384.286699995
 20
-1166846.8806
 10
-597384.739999995
 20
-1166847.83
  0
LWPOLYLINE
  5
201CE
100
AcDbEntity
  8
0
100
AcDbPolyline
 70
0
 90
12
 10
-597660.039999999
 20
-1162846.59
 10
-597657.59
 20
-1162851.01
 10
-597656.859999999
 20
-1162855.18
 10
-597658.82
 20
-1162860.08
 10
-597659.059999999
 20
-1162865.23
 10
-597658.43
 20
-1162869.59
 10
-597646.246800002
 20
-1162918.4409
 10
-597636.309099998
 20
-1162956.1078
 10
-597625.600000001
 20
-1162994.5
 10
-597617.234700002
 20
-1163025.2899
 10
-597612.433600001
 20
-1163042.961
 10
-597606.440000001
 20
-1163066.34
  0
LWPOLYLINE
  5
201CF
100
AcDbEntity
  8
0
100
AcDbPolyline
 70
0
 90
15
 10
-597919.98
 20
-1162641.38
 10
-597908.182999998
 20
-1162654.149
 10
-597866.329700001
 20
-1162699.0897
 10
-597802.41
 20
-1162767.7
 10
-597766.239999998
 20
-1162809.28
 10
-597747.936099999
 20
-1162836.4989
 10
-597727.129999999
 20
-1162868.82
 10
-597710.931000002
 20
-1162894.491
 10
-597692.817000002
 20
-1162923.051
 10
-597689.32
 20
-1162931.44
 10
-597683.229899999
 20
-1162970.6929
 10
-597682.960000001
 20
-1162993.232
 10
-597676.809999999
 20
-1163008.733
 10
-597666.272300001
 20
-1163052.5372
 10
-597664.579999998
 20
-1163063.088
  0
LWPOLYLINE
  5
201D0
100
AcDbEntity
  8
0
100
AcDbPolyline
 70
0
 90
10
 10
-598337.681000002
 20
-1162110.594
 10
-598271.800000001
 20
-1162141.628
 10
-598247.934
 20
-1162156.763
 10
-598218.471000001
 20
-1162184.59
 10
-598189.006999999
 20
-1162229.513
 10
-598139.640000001
 20
-1162319.8
 10
-598100.789999999
 20
-1162391.53
 10
-598061.93
 20
-1162458.97
 10
-598023.004999999
 20
-1162513.463
 10
-597999.609999999
 20
-1162543.176
  0
LWPOLYLINE
  5
201D1
100
AcDbEntity
  8
0
100
AcDbPolyline
 70
0
 90
27
 10
-598337.649999999
 20
-1162051.86
 10
-598325.019000001
 20
-1162055.397
 10
-598290.364999998
 20
-1162068.467
 10
-598264.189199999
 20
-1162080.8092
 10
-598237.600000001
 20
-1162098.07
 10
-598219.333999999
 20
-1162113.309
 10
-598194.980999999
 20
-1162139.523
 10
-598177.837000001
 20
-1162162.228
 10
-598160.699999999
 20
-1162190.48
 10
-598139.057
 20
-1162228.592
 10
-598078.427999999
 20
-1162338.442
 10
-598006.616999999
 20
-1162456.744
 10
-597995.57
 20
-1162475.84
 10
-597982.800000001
 20
-1162493.04
 10
-597963.75
 20
-1162524.3
 10
-597948.5383
 20
-1162543.7519
 10
-597938.579599999
 20
-1162556.1404
 10
-597924.219999999
 20
-1162575.49
 10
-597896.634500001
 20
-1162599.7131
 10
-597864.256999999
 20
-1162634.1646
 10
-597764.346999999
 20
-1162737.583
 10
-597746.8783
 20
-1162757.011
 10
-597719.011
 20
-1162783.779
 10
-597706.009
 20
-1162801.494
 10
-597695.896000002
 20
-1162818.692
 10
-597684.377799999
 20
-1162836.8289
 10
-597681.059999999
 20
-1162839.53
  0
LWPOLYLINE
  5
201D2
100
AcDbEntity
  8
0
100
AcDbPolyline
 70
0
 90
6
 10
-596481.933499999
 20
-1156626.3985
 10
-596432.760000002
 20
-1156615.65
 10
-596393.460000001
 20
-1156606.86
 10
-596326.965700001
 20
-1156592.2629
 10
-596242.77
 20
-1156573.78
 10
-596226.010000002
 20
-1156570.41
  0
LWPOLYLINE
  5
201D3
100
AcDbEntity
  8
0
100
AcDbPolyline
 70
0
 90
8
 10
-598540.039999999
 20
-1162014.22
 10
-598524.129999999
 20
-1162022.5
 10
-598517.16
 20
-1162024.58
 10
-598496.817699999
 20
-1162028.0199
 10
-598478.27
 20
-1162030.59
 10
-598454.849399999
 20
-1162033.7833
 10
-598405.598200001
 20
-1162040.104
 10
-598370.59
 20
-1162044.63
  0
LWPOLYLINE
  5
201D4
100
AcDbEntity
  8
0
100
AcDbPolyline
 70
0
 90
8
 10
-598690.8508
 20
-1161918.7853
 10
-598662.352499999
 20
-1161948.1875
 10
-598642.9683
 20
-1161965.9703
 10
-598628.802000001
 20
-1161976.659
 10
-598605.304099999
 20
-1161991.403
 10
-598589.350000001
 20
-1161999.43
 10
-598581.456
 20
-1162002.841
 10
-598571.260000002
 20
-1162004.49
  0
LWPOLYLINE
  5
201D5
100
AcDbEntity
  8
0
100
AcDbPolyline
 70
0
 90
17
 10
-598723.52
 20
-1161954.63
 10
-598698.73
 20
-1161975.33
 10
-598675.02
 20
-1161994.41
 10
-598653.699999999
 20
-1162009.72
 10
-598641.739999998
 20
-1162017.63
 10
-598643.440000001
 20
-1162020.58
 10
-598643.170000002
 20
-1162023.59
 10
-598597.539999999
 20
-1162068.97
 10
-598594.579999998
 20
-1162070.51
 10
-598533.390000001
 20
-1162092.63
 10
-598521.370000001
 20
-1162093.08
 10
-598501.776999999
 20
-1162103.08
 10
-598497.530000001
 20
-1162104.07
 10
-598487.927999999
 20
-1162081.33
 10
-598469.581
 20
-1162082.902
 10
-598448.7665
 20
-1162087.8365
 10
-598372.624000002
 20
-1162105.133
  0
LWPOLYLINE
  5
201D6
100
AcDbEntity
  8
0
100
AcDbPolyline
 70
0
 90
15
 10
-599180.333099999
 20
-1161632.9934
 10
-599158.063999999
 20
-1161634.494
 10
-599155.921599999
 20
-1161634.7832
 10
-599137.829
 20
-1161638.513
 10
-599132
 20
-1161640
 10
-599121.800999999
 20
-1161643.524
 10
-599069.1237
 20
-1161667.9087
 10
-599005.730999999
 20
-1161697.683
 10
-598992.59
 20
-1161704.46
 10
-598971.073199999
 20
-1161717.6187
 10
-598941.649999999
 20
-1161737.26
 10
-598882.715999998
 20
-1161784.824
 10
-598871.713
 20
-1161794.772
 10
-598801.320700001
 20
-1161867.7999
 10
-598746.52
 20
-1161927.54
  0
LWPOLYLINE
  5
201D7
100
AcDbEntity
  8
0
100
AcDbPolyline
 70
0
 90
14
 10
-599471.369999997
 20
-1161668.63
 10
-599472.339999996
 20
-1161665.91
 10
-599471.699999996
 20
-1161652.845
 10
-599471.395999998
 20
-1161651.146
 10
-599468.864
 20
-1161648.71
 10
-599463.285999998
 20
-1161645.745
 10
-599457.960000001
 20
-1161639.87
 10
-599453.099999998
 20
-1161638.21
 10
-599443.148199998
 20
-1161636.2891
 10
-599425.189999998
 20
-1161633.02
 10
-599413
 20
-1161632
 10
-599399.483899996
 20
-1161630.8264
 10
-599371.366791375
 20
-1161629.8830879
 10
-599352.104999997
 20
-1161629.835
  0
LWPOLYLINE
  5
201D8
100
AcDbEntity
  8
0
100
AcDbPolyline
 70
0
 90
3
 10
-598346.709999997
 20
-1160382.33
 10
-598340.409999996
 20
-1160392.43
 10
-598331.359999999
 20
-1160462.61
  0
LWPOLYLINE
  5
201D9
100
AcDbEntity
  8
0
100
AcDbPolyline
 70
0
 90
6
 10
-599535.910925798
 20
-1161383.97384451
 10
-599578.518542081
 20
-1161411.09550104
 10
-599587.8983
 20
-1161412.3533
 10
-599609.113000002
 20
-1161426.437
 10
-599642.319999997
 20
-1161454.40239999
 10
-599659.771222942
 20
-1161468.78908235
  0
LWPOLYLINE
  5
201DA
100
AcDbEntity
  8
0
100
AcDbPolyline
 70
0
 90
5
 10
-599670.699883733
 20
-1161478.15564814
 10
-599752.687070094
 20
-1161548.26308756
 10
-599779.89276943
 20
-1161571.9889621
 10
-599792.526475143
 20
-1161583.36825276
 10
-599829.220107917
 20
-1161615.87308157
  0
LWPOLYLINE
  5
201DB
100
AcDbEntity
  8
0
100
AcDbPolyline
 70
0
 90
2
 10
-593880.522371519
 20
-1162659.06471674
 10
-593914.436999999
 20
-1162624.021
  0
LWPOLYLINE
  5
201DC
100
AcDbEntity
  8
0
100
AcDbPolyline
 70
0
 90
77
 10
-597268.642499998
 20
-1164651.7051
 10
-597268.760899998
 20
-1164651.9498
 10
-597277.73
 20
-1164670.5
 10
-597279.460000001
 20
-1164674.46
 10
-597280.631999999
 20
-1164677.7556
 10
-597281.32
 20
-1164679.69
 10
-597281.539900001
 20
-1164680.4005
 10
-597282.27
 20
-1164682.76
 10
-597283.109299999
 20
-1164686.0018
 10
-597283.870000001
 20
-1164688.94
 10
-597285.239999998
 20
-1164695.62
 10
-597286.039999999
 20
-1164700.83
 10
-597286.359999999
 20
-1164706.33
 10
-597286.390000001
 20
-1164709.18
 10
-597285.960000001
 20
-1164712.85
 10
-597284.996199999
 20
-1164720.0537
 10
-597284.800000001
 20
-1164721.52
 10
-597284
 20
-1164727.11
 10
-597283.969999999
 20
-1164731.33
 10
-597283.870000001
 20
-1164733.55
 10
-597284.07
 20
-1164736.91
 10
-597284.629999999
 20
-1164740.22
 10
-597287.493099999
 20
-1164754.1057
 10
-597289.890000001
 20
-1164765.73
 10
-597290.34
 20
-1164768.84
 10
-597290.530000001
 20
-1164772.13
 10
-597290.57
 20
-1164776.62
 10
-597290.379999999
 20
-1164780
 10
-597289.989999998
 20
-1164782.85
 10
-597289.27
 20
-1164786.07
 10
-597288.589299999
 20
-1164788.1576
 10
-597288.554699998
 20
-1164788.2634
 10
-597288.370000001
 20
-1164788.83
 10
-597287.469999999
 20
-1164791.04
 10
-597286
 20
-1164793.85
 10
-597281.710000001
 20
-1164801.38
 10
-597281.16
 20
-1164802.62
 10
-597281.059999999
 20
-1164803.51
 10
-597281.350000001
 20
-1164804.78
 10
-597281.98
 20
-1164805.93
 10
-597288.120000001
 20
-1164815.93
 10
-597291.964000002
 20
-1164822.2095
 10
-597293.359999999
 20
-1164824.49
 10
-597295.710000001
 20
-1164829.07
 10
-597297.84
 20
-1164833.79
 10
-597298.710000001
 20
-1164837.53
 10
-597300.5
 20
-1164845.18
 10
-597300.587699998
 20
-1164845.9557
 10
-597301.752799999
 20
-1164856.2615
 10
-597302.144000001
 20
-1164859.7217
 10
-597302.829999998
 20
-1164865.79
 10
-597302.984000001
 20
-1164867.677
 10
-597304.8259
 20
-1164890.3134
 10
-597304.850000001
 20
-1164890.61
 10
-597305.68
 20
-1164912.05
 10
-597306.91
 20
-1164922.76
 10
-597307.239500001
 20
-1164924.3654
 10
-597309.489999998
 20
-1164935.33
 10
-597313.300000001
 20
-1164949.03
 10
-597315.600000001
 20
-1164958.4173
 10
-597319.07
 20
-1164972.58
 10
-597323.544399999
 20
-1164992.4693
 10
-597323.809999999
 20
-1164993.65
 10
-597327.420000002
 20
-1165016.88
 10
-597328.1961
 20
-1165026.5212
 10
-597330
 20
-1165048.93
 10
-597330.609999999
 20
-1165073.71
 10
-597330.199999999
 20
-1165096.53
 10
-597328.449999999
 20
-1165115.64
 10
-597325.581799999
 20
-1165131.852
 10
-597324.02
 20
-1165140.68
 10
-597318.6316
 20
-1165165.904
 10
-597318.064399999
 20
-1165168.5593
 10
-597317.120000001
 20
-1165172.98
 10
-597316.6963
 20
-1165175.0189
 10
-597311.530000001
 20
-1165199.88
 10
-597310.863000002
 20
-1165202.4433
  0
LWPOLYLINE
  5
201DD
100
AcDbEntity
  8
0
100
AcDbPolyline
 70
0
 90
15
 10
-601270.781399999
 20
-1162316.5774
 10
-601170.809999999
 20
-1162336.11
 10
-601071.960000001
 20
-1162354.88
 10
-600960.469900001
 20
-1162376.03
 10
-600956.390000001
 20
-1162376.5
 10
-600952.27
 20
-1162376.4699
 10
-600936.449999999
 20
-1162379.4
 10
-600928.98
 20
-1162381.58
 10
-600851.059999999
 20
-1162396.9699
 10
-600820.5
 20
-1162404.19
 10
-600808.1598
 20
-1162407.321
 10
-600797.010000002
 20
-1162410.15
 10
-600782.98
 20
-1162414.04
 10
-600752.670000002
 20
-1162424.33
 10
-600745.5046
 20
-1162427.0084
  0
LWPOLYLINE
  5
201DE
100
AcDbEntity
  8
0
100
AcDbPolyline
 70
0
 90
10
 10
-601359.959899999
 20
-1162487.2347
 10
-601359.890000001
 20
-1162487.25
 10
-601357.940000001
 20
-1162487.7
 10
-601356.629999999
 20
-1162488.57
 10
-601356
 20
-1162489.36
 10
-601355.550000001
 20
-1162490.45
 10
-601355.43
 20
-1162491.31
 10
-601355.460000001
 20
-1162492.03
 10
-601355.710000001
 20
-1162493.63
 10
-601373.190900002
 20
-1162584.9782
  0
LWPOLYLINE
  5
201DF
100
AcDbEntity
  8
0
100
AcDbPolyline
 70
0
 90
5
 10
-601647.081599999
 20
-1162263.4643
 10
-601657.379999995
 20
-1162263.94
 10
-601662.009999998
 20
-1162262.69
 10
-601666.02
 20
-1162258.82
 10
-601675.501423016
 20
-1162261.1220597
  0
LWPOLYLINE
  5
201E0
100
AcDbEntity
  8
0
100
AcDbPolyline
 70
0
 90
3
 10
-601549.782400001
 20
-1162274.2922
 10
-601544.760000002
 20
-1162275.49
 10
-601522.904300001
 20
-1162281.6858
  0
LWPOLYLINE
  5
201E1
100
AcDbEntity
  8
0
100
AcDbPolyline
 70
0
 90
13
 10
-601673.442705505
 20
-1162271.09711887
 10
-601662.940000001
 20
-1162268.57
 10
-601662.009999998
 20
-1162262.69
 10
-601657.379999995
 20
-1162263.94
 10
-601640.710000001
 20
-1162263.17
 10
-601606.949999996
 20
-1162263.57
 10
-601592.398699995
 20
-1162265.1639
 10
-601591.429999996
 20
-1162265.27
 10
-601580.210000001
 20
-1162267.58
 10
-601579.659899995
 20
-1162267.6926
 10
-601564.3627
 20
-1162270.8241
 10
-601564.09
 20
-1162270.88
 10
-601552.026500002
 20
-1162273.757
  0
LWPOLYLINE
  5
201E2
100
AcDbEntity
  8
0
100
AcDbPolyline
 70
0
 90
4
 10
-598162.899999999
 20
-1160626.32
 10
-598148.818
 20
-1160712.029
 10
-598135.759999998
 20
-1160782.79
 10
-598117.430999998
 20
-1160850.461
  0
LWPOLYLINE
  5
201E3
100
AcDbEntity
  8
0
100
AcDbPolyline
 70
0
 90
7
 10
-596334.089000002
 20
-1167909.25299999
 10
-596326.706999999
 20
-1167844.802
 10
-596322.598450374
 20
-1167798.24975295
 10
-596304.809999999
 20
-1167683.585
 10
-596294.798999995
 20
-1167597.23999999
 10
-596304.513999999
 20
-1167547.624
 10
-596313.424999997
 20
-1167518.561
  0
LWPOLYLINE
  5
201E4
100
AcDbEntity
  8
0
100
AcDbPolyline
 70
0
 90
9
 10
-599910.437661245
 20
-1156631.97298118
 10
-599904.299315635
 20
-1156630.70297864
 10
-599898.7959713
 20
-1156631.7613141
 10
-599810.530794766
 20
-1156691.66310057
 10
-599776.029059101
 20
-1156716.63981719
 10
-599750.629008297
 20
-1156739.71153
 10
-599710.412261195
 20
-1156768.92158842
 10
-599706.390586488
 20
-1156775.05993402
 10
-599705.967252307
 20
-1156782.67994927
  0
LWPOLYLINE
  5
201E5
100
AcDbEntity
  8
0
100
AcDbPolyline
 70
0
 90
4
 10
-598062.901000001
 20
-1160556.324
 10
-598062.147
 20
-1160575.313
 10
-598069.375999995
 20
-1160608.167
 10
-598098.487999998
 20
-1160728.421
  0
LWPOLYLINE
  5
201E6
100
AcDbEntity
  8
0
100
AcDbPolyline
 70
0
 90
3
 10
-594481.493898582
 20
-1167645.33781618
 10
-594631.199999999
 20
-1167444.99
 10
-594692.939999998
 20
-1167357.864
  0
LWPOLYLINE
  5
201E7
100
AcDbEntity
  8
0
100
AcDbPolyline
 70
0
 90
3
 10
-598260
 20
-1160649
 10
-598255.69
 20
-1160642.61
 10
-598219.25
 20
-1160620.11
  0
LWPOLYLINE
  5
201E8
100
AcDbEntity
  8
0
100
AcDbPolyline
 70
0
 90
10
 10
-598117.430999998
 20
-1160850.461
 10
-598096
 20
-1160897
 10
-598046.592999995
 20
-1160998.82999999
 10
-598044.469999999
 20
-1161003.346
 10
-598028
 20
-1161035
 10
-598024
 20
-1161049
 10
-598021.389999997
 20
-1161068.12
 10
-598012.999999996
 20
-1161153
 10
-598009.999999996
 20
-1161162
 10
-597965.999999996
 20
-1161214
  0
LWPOLYLINE
  5
201E9
100
AcDbEntity
  8
0
100
AcDbPolyline
 70
0
 90
2
 10
-597816.721000001
 20
-1160766.375
 10
-597817.429999996
 20
-1160791.615
  0
LWPOLYLINE
  5
201EA
100
AcDbEntity
  8
0
100
AcDbPolyline
 70
0
 90
6
 10
-598096
 20
-1160897
 10
-597983.179999996
 20
-1160842.23
 10
-597871.412
 20
-1160799.122
 10
-597817.429999996
 20
-1160791.615
 10
-597760.355999999
 20
-1160782.988
 10
-597754.999999996
 20
-1160770
  0
LWPOLYLINE
  5
201EB
100
AcDbEntity
  8
0
100
AcDbPolyline
 70
0
 90
3
 10
-598096
 20
-1160897
 10
-598098.66
 20
-1160896.6
 10
-598142.829999994
 20
-1160915.47
  0
LWPOLYLINE
  5
201EC
100
AcDbEntity
  8
0
100
AcDbPolyline
 70
0
 90
64
 10
-602596.139999997
 20
-1161961.23
 10
-602579.859999996
 20
-1161964.37
 10
-602565.619999997
 20
-1161968.81
 10
-602555.295899995
 20
-1161973.08309999
 10
-602552.669999998
 20
-1161974.17
 10
-602539.350000001
 20
-1161982.13
 10
-602526.960000001
 20
-1161991.74
 10
-602517
 20
-1162002
 10
-602509.02
 20
-1162012.09
 10
-602499.999999996
 20
-1162026
 10
-602491.999999996
 20
-1162044.83
 10
-602487.999999996
 20
-1162059
 10
-602484.8598
 20
-1162078.2896
 10
-602481
 20
-1162102
 10
-602476.119999997
 20
-1162140.39
 10
-602473
 20
-1162165
 10
-602468.920000002
 20
-1162187.40989999
 10
-602462.999999996
 20
-1162205
 10
-602457.719899997
 20
-1162216.93
 10
-602451.82
 20
-1162225.86
 10
-602442.129999995
 20
-1162237.21
 10
-602430.619999997
 20
-1162248.40989999
 10
-602414.579999994
 20
-1162261.43
 10
-602414.423700001
 20
-1162261.5001
 10
-602407.159899998
 20
-1162264.76
 10
-602398.690000001
 20
-1162267.33
 10
-602385.069999997
 20
-1162270.06
 10
-602384.290399998
 20
-1162270.1568
 10
-602343.987599999
 20
-1162275.1632
 10
-602296.999999996
 20
-1162281
 10
-602272.659899995
 20
-1162286.44
 10
-602254.890000001
 20
-1162292.46
 10
-602234
 20
-1162302
 10
-602124.399999999
 20
-1162354.78
 10
-602015.199999996
 20
-1162407.45
 10
-601987.379999999
 20
-1162418.52
 10
-601971
 20
-1162423
 10
-601958.920000002
 20
-1162425.86
 10
-601947.129999999
 20
-1162428.29
 10
-601918.02
 20
-1162431.34
 10
-601900.997200001
 20
-1162431.6459
 10
-601900.219899993
 20
-1162431.65989999
 10
-601880.100000001
 20
-1162430.78
 10
-601866.390000001
 20
-1162428.05
 10
-601850.429999996
 20
-1162423.88
 10
-601838.649999995
 20
-1162418.83
 10
-601827.579999994
 20
-1162412.98
 10
-601818.600000001
 20
-1162407.21
 10
-601808.979999997
 20
-1162399.35
 10
-601799.600000001
 20
-1162389.89
 10
-601788.936999995
 20
-1162375.531
 10
-601770.716999996
 20
-1162350.166
 10
-601757.929000001
 20
-1162332.1
 10
-601750.999999996
 20
-1162323
 10
-601748.221999995
 20
-1162319.042
 10
-601742.4439
 20
-1162311.8969
 10
-601737.166999996
 20
-1162306.273
 10
-601729.425000001
 20
-1162298.87799999
 10
-601716.789999995
 20
-1162290.153
 10
-601704.819999997
 20
-1162282.65
 10
-601700.574000001
 20
-1162280.44599999
 10
-601694.18
 20
-1162277.846
 10
-601684.241999999
 20
-1162274.07099999
 10
-601681.377899997
 20
-1162273.243
  0
LWPOLYLINE
  5
201ED
100
AcDbEntity
  8
0
100
AcDbPolyline
 70
0
 90
4
 10
-602733.6873
 20
-1161972.693
 10
-602689.449999999
 20
-1161963.5
 10
-602672.042499997
 20
-1161960.6578
 10
-602645.23
 20
-1161956.28
  0
LWPOLYLINE
  5
201EE
100
AcDbEntity
  8
0
100
AcDbPolyline
 70
0
 90
3
 10
-602816.936999995
 20
-1161990.9382
 10
-602779.579999994
 20
-1161982.23
 10
-602746.399302553
 20
-1161975.33468808
  0
LWPOLYLINE
  5
201EF
100
AcDbEntity
  8
0
100
AcDbPolyline
 70
0
 90
3
 10
-599225.24
 20
-1161847.28
 10
-599223.26
 20
-1161837.99
 10
-599215.31
 20
-1161801.79
  0
LWPOLYLINE
  5
201F0
100
AcDbEntity
  8
0
100
AcDbPolyline
 70
0
 90
4
 10
-598747.0374
 20
-1157635.9034
 10
-598802.359999999
 20
-1157647.05
 10
-598856.120000001
 20
-1157657.71
 10
-598888.563299999
 20
-1157664.0699
  0
LWPOLYLINE
  5
201F1
100
AcDbEntity
  8
0
100
AcDbPolyline
 70
0
 90
3
 10
-598913.285399999
 20
-1157669.0512
 10
-598927.329999998
 20
-1157671.98
 10
-599000.256099999
 20
-1157686.5107
  0
LWPOLYLINE
  5
201F2
100
AcDbEntity
  8
0
100
AcDbPolyline
 70
0
 90
5
 10
-599263.978799999
 20
-1157737.1428
 10
-599089.489999998
 20
-1157684.44
 10
-599059.530000001
 20
-1157689.5
 10
-599040.812100001
 20
-1157692.6912
 10
-599035.627500001
 20
-1157693.5751
  0
LWPOLYLINE
  5
201F3
100
AcDbEntity
  8
0
100
AcDbPolyline
 70
0
 90
4
 10
-599177.465099998
 20
-1159246.7291
 10
-599143.647199996
 20
-1159227.3542
 10
-599133.37943184
 20
-1159224.95617187
 10
-599054.47387908
 20
-1159203.92732107
  0
LWPOLYLINE
  5
201F4
100
AcDbEntity
  8
0
100
AcDbPolyline
 70
0
 90
9
 10
-594958.701605525
 20
-1162108.59458852
 10
-594975.697700001
 20
-1162101.1252
 10
-594979.749299999
 20
-1162099.3446
 10
-595066.999999996
 20
-1162061
 10
-595096
 20
-1162047
 10
-595102.804199997
 20
-1162044.3195
 10
-595111.941999994
 20
-1162040.7198
 10
-595129
 20
-1162034
 10
-595254.292067576
 20
-1161979.81964645
  0
LWPOLYLINE
  5
201F5
100
AcDbEntity
  8
0
100
AcDbPolyline
 70
0
 90
3
 10
-598216.602999996
 20
-1160727.89
 10
-598158.612
 20
-1160795.812
 10
-598117.430999998
 20
-1160850.461
  0
LWPOLYLINE
  5
201F6
100
AcDbEntity
  8
0
100
AcDbPolyline
 70
0
 90
6
 10
-593443.276700001
 20
-1164318.5107
 10
-593413.545000002
 20
-1164275.95
 10
-593393.473000001
 20
-1164246.0689
 10
-593385.489
 20
-1164241.278
 10
-593372.030999999
 20
-1164220.977
 10
-593369.258299999
 20
-1164213.6384
  0
LWPOLYLINE
  5
201F7
100
AcDbEntity
  8
0
100
AcDbPolyline
 70
0
 90
2
 10
-593498.7491
 20
-1164395.2607
 10
-593464.336100001
 20
-1164346.5669
  0
LWPOLYLINE
  5
201F8
100
AcDbEntity
  8
0
100
AcDbPolyline
 70
0
 90
13
 10
-593665.563499998
 20
-1164694.2318
 10
-593663.912599999
 20
-1164688.0689
 10
-593656.223200001
 20
-1164659.3626
 10
-593651.732000001
 20
-1164642.596
 10
-593648.131999999
 20
-1164630.6563
 10
-593641.304000001
 20
-1164608.011
 10
-593621.504000001
 20
-1164556.398
 10
-593603.815000001
 20
-1164521.417
 10
-593585.863000002
 20
-1164488.416
 10
-593583.796399999
 20
-1164485.4351
 10
-593551.169799998
 20
-1164438.3732
 10
-593537.618299998
 20
-1164418.826
 10
-593537.429099999
 20
-1164418.5531
  0
LWPOLYLINE
  5
201F9
100
AcDbEntity
  8
0
100
AcDbPolyline
 70
0
 90
14
 10
-594917.1325
 20
-1167245.5439
 10
-594916.623
 20
-1167244.547
 10
-594916.094000001
 20
-1167243.876
 10
-594903.206900001
 20
-1167230.125
 10
-594895.842
 20
-1167222.107
 10
-594883.611000001
 20
-1167209.062
 10
-594873.399
 20
-1167198.139
 10
-594868.938999999
 20
-1167193.418
 10
-594867.385000002
 20
-1167191.645
 10
-594865.831
 20
-1167189.713
 10
-594863.883900002
 20
-1167187.07
 10
-594862.300999999
 20
-1167184.702
 10
-594860.877
 20
-1167182.32
 10
-594859.9582
 20
-1167180.6084
  0
LWPOLYLINE
  5
201FA
100
AcDbEntity
  8
0
100
AcDbPolyline
 70
0
 90
7
 10
-598297.210000001
 20
-1161439.8844
 10
-598308
 20
-1161450
 10
-598335
 20
-1161478
 10
-598359.229699999
 20
-1161501.2605
 10
-598360
 20
-1161502
 10
-598370
 20
-1161511
 10
-598370.854800001
 20
-1161511.9584
  0
LWPOLYLINE
  5
201FB
100
AcDbEntity
  8
0
100
AcDbPolyline
 70
0
 90
4
 10
-598148.818
 20
-1160712.029
 10
-598098.487999998
 20
-1160728.421
 10
-598107.249120623
 20
-1160768.30823491
 10
-598117.430999998
 20
-1160850.461
  0
LWPOLYLINE
  5
201FC
100
AcDbEntity
  8
0
100
AcDbPolyline
 70
0
 90
15
 10
-598374.648999996
 20
-1161516.21249999
 10
-598402.999999996
 20
-1161548
 10
-598413.999999996
 20
-1161559
 10
-598433
 20
-1161579
 10
-598454.999999996
 20
-1161603
 10
-598471.999999996
 20
-1161623
 10
-598502.999999996
 20
-1161656
 10
-598526.999999996
 20
-1161683
 10
-598539.43
 20
-1161696.88
 10
-598545.2597
 20
-1161703.1847
 10
-598583
 20
-1161744
 10
-598587.854800001
 20
-1161748.8548
 10
-598595
 20
-1161756
 10
-598606.439999998
 20
-1161769.67
 10
-598616.999999996
 20
-1161781
  0
LWPOLYLINE
  5
201FD
100
AcDbEntity
  8
0
100
AcDbPolyline
 70
0
 90
2
 10
-599437.3653
 20
-1157789.9883
 10
-599372.047699999
 20
-1157770.2784
  0
LWPOLYLINE
  5
201FE
100
AcDbEntity
  8
0
100
AcDbPolyline
 70
0
 90
9
 10
-600369.255175173
 20
-1157924.30032321
 10
-600380.162041344
 20
-1157927.62338959
 10
-600403.0361
 20
-1157946.45389999
 10
-600413.043299995
 20
-1157955.3061
 10
-600448.696099997
 20
-1157986.8439
 10
-600450.959599998
 20
-1157988.8547
 10
-600464.477400001
 20
-1158000.86369999
 10
-600504.470196877
 20
-1158036.39256256
 10
-600517.479334425
 20
-1158047.87690247
  0
LWPOLYLINE
  5
201FF
100
AcDbEntity
  8
0
100
AcDbPolyline
 70
0
 90
6
 10
-600530.965799995
 20
-1158061.85729999
 10
-600539.782099996
 20
-1158072.83
 10
-600624.312199999
 20
-1158190.73
 10
-600641.937099997
 20
-1158216.1141
 10
-600677.942200001
 20
-1158267.97
 10
-600680.842599995
 20
-1158273.18189999
  0
LWPOLYLINE
  5
20200
100
AcDbEntity
  8
0
100
AcDbPolyline
 70
0
 90
2
 10
-598212.586999997
 20
-1160946.056
 10
-598142.829999994
 20
-1160915.47
  0
LWPOLYLINE
  5
20201
100
AcDbEntity
  8
0
100
AcDbPolyline
 70
0
 90
6
 10
-598046.592999995
 20
-1160998.82999999
 10
-598001.990452752
 20
-1160982.66866178
 10
-597971.057999998
 20
-1160971.944
 10
-597936.995521978
 20
-1160952.24992684
 10
-597922.670000002
 20
-1160945.62
 10
-597887.999999996
 20
-1160921
  0
LWPOLYLINE
  5
20202
100
AcDbEntity
  8
0
100
AcDbPolyline
 70
0
 90
10
 10
-597983.179999996
 20
-1160842.23
 10
-597962
 20
-1160884
 10
-597952.051471911
 20
-1160900.61280381
 10
-597922.670000002
 20
-1160945.62
 10
-597915.965744533
 20
-1160963.52142852
 10
-597895.629999995
 20
-1161005.45
 10
-597886.269999996
 20
-1161035.85
 10
-597880.379999999
 20
-1161085.99
 10
-597877.91
 20
-1161099.05
 10
-597869.739999998
 20
-1161107.1
  0
LWPOLYLINE
  5
20203
100
AcDbEntity
  8
0
100
AcDbPolyline
 70
0
 90
5
 10
-598012.999999996
 20
-1161153
 10
-597938
 20
-1161141
 10
-597885.649999995
 20
-1161119.72
 10
-597874.960000001
 20
-1161114.84
 10
-597869.739999998
 20
-1161107.1
  0
LWPOLYLINE
  5
20204
100
AcDbEntity
  8
0
100
AcDbPolyline
 70
0
 90
4
 10
-598090.409999996
 20
-1161148.48
 10
-598077.499999996
 20
-1161147.77
 10
-598053.759999998
 20
-1161155.06
 10
-598012.999999996
 20
-1161153
  0
LWPOLYLINE
  5
20205
100
AcDbEntity
  8
0
100
AcDbPolyline
 70
0
 90
5
 10
-598111.329999994
 20
-1161087.454
 10
-598091.649999999
 20
-1161138.13
 10
-598090.409999996
 20
-1161148.48
 10
-598093.219999999
 20
-1161164.69
 10
-598120.479999997
 20
-1161168.89
  0
LWPOLYLINE
  5
20206
100
AcDbEntity
  8
0
100
AcDbPolyline
 70
0
 90
2
 10
-598021.389999997
 20
-1161068.12
 10
-598085.477999996
 20
-1161080.74199999
  0
LWPOLYLINE
  5
20207
100
AcDbEntity
  8
0
100
AcDbPolyline
 70
0
 90
3
 10
-598026.18
 20
-1160744.82999999
 10
-598018.139999997
 20
-1160782.84
 10
-597983.179999996
 20
-1160842.23
  0
LWPOLYLINE
  5
20208
100
AcDbEntity
  8
0
100
AcDbPolyline
 70
0
 90
8
 10
-598098.487999998
 20
-1160728.421
 10
-598094.855
 20
-1160734.27
 10
-598026.18
 20
-1160744.82999999
 10
-597887.979999997
 20
-1160757.976
 10
-597826.782000002
 20
-1160766.28
 10
-597816.721000001
 20
-1160766.375
 10
-597768.476999998
 20
-1160764.732
 10
-597754.999999996
 20
-1160770
  0
LWPOLYLINE
  5
20209
100
AcDbEntity
  8
0
100
AcDbPolyline
 70
0
 90
2
 10
-595681.760000002
 20
-1159807.93
 10
-595784.260000002
 20
-1159758.4099
  0
LWPOLYLINE
  5
2020A
100
AcDbEntity
  8
0
100
AcDbPolyline
 70
0
 90
3
 10
-598148.818
 20
-1160712.029
 10
-598179.918999996
 20
-1160708.662
 10
-598216.602999996
 20
-1160727.89
  0
LWPOLYLINE
  5
2020B
100
AcDbEntity
  8
0
100
AcDbPolyline
 70
0
 90
4
 10
-598181.329999998
 20
-1160502.82
 10
-598187.869966812
 20
-1160506.14214962
 10
-598202.299999997
 20
-1160509.63
 10
-598245.371681109
 20
-1160524.75920881
  0
LWPOLYLINE
  5
2020C
100
AcDbEntity
  8
0
100
AcDbPolyline
 70
0
 90
2
 10
-598201.896000002
 20
-1160967.953
 10
-598212.586999997
 20
-1160946.056
  0
LWPOLYLINE
  5
2020D
100
AcDbEntity
  8
0
100
AcDbPolyline
 70
0
 90
7
 10
-598199.279999997
 20
-1161034.76
 10
-598198.049999997
 20
-1161026.59
 10
-598198.248522241
 20
-1161010.81405522
 10
-598198.751099605
 20
-1160996.87748905
 10
-598199.999999996
 20
-1160979
 10
-598200.767000001
 20
-1160972.816
 10
-598201.896000002
 20
-1160967.953
  0
LWPOLYLINE
  5
2020E
100
AcDbEntity
  8
0
100
AcDbPolyline
 70
0
 90
2
 10
-598324.820999995
 20
-1160480.60199999
 10
-598331.359999999
 20
-1160462.61
  0
LWPOLYLINE
  5
2020F
100
AcDbEntity
  8
0
100
AcDbPolyline
 70
0
 90
6
 10
-598201.420000002
 20
-1160432.99
 10
-598196.139999997
 20
-1160441.39
 10
-598189.190000001
 20
-1160460.93
 10
-598181.329999998
 20
-1160502.82
 10
-598170.179999996
 20
-1160579.37
 10
-598162.899999999
 20
-1160626.32
  0
LWPOLYLINE
  5
20210
100
AcDbEntity
  8
0
100
AcDbPolyline
 70
0
 90
4
 10
-598162.899999999
 20
-1160626.32
 10
-598152.27
 20
-1160624.68
 10
-598076.615999997
 20
-1160606.98
 10
-598069.375999995
 20
-1160608.167
  0
LWPOLYLINE
  5
20211
100
AcDbEntity
  8
0
100
AcDbPolyline
 70
0
 90
3
 10
-598062.901000001
 20
-1160556.324
 10
-598070.355999995
 20
-1160556.857
 10
-598170.179999996
 20
-1160579.37
  0
LWPOLYLINE
  5
20212
100
AcDbEntity
  8
0
100
AcDbPolyline
 70
0
 90
7
 10
-598181.329999998
 20
-1160502.82
 10
-598125.079999998
 20
-1160492.87
 10
-598078.521000002
 20
-1160485.787
 10
-598070.320999995
 20
-1160486.39
 10
-598065.581999999
 20
-1160491.644
 10
-598064.462999996
 20
-1160503.412
 10
-598062.901000001
 20
-1160556.324
  0
LWPOLYLINE
  5
20213
100
AcDbEntity
  8
0
100
AcDbPolyline
 70
0
 90
2
 10
-598487.927999996
 20
-1162081.33
 10
-598478.269999996
 20
-1162030.59
  0
LWPOLYLINE
  5
20214
100
AcDbEntity
  8
0
100
AcDbPolyline
 70
0
 90
2
 10
-599447.18
 20
-1157792.95
 10
-599363.469900001
 20
-1157767.69
  0
LWPOLYLINE
  5
20215
100
AcDbEntity
  8
0
100
AcDbPolyline
 70
0
 90
52
 10
-601682.891099997
 20
-1162262.9759
 10
-601688.5601
 20
-1162264.57889999
 10
-601690.074000001
 20
-1162265.007
 10
-601695.559999995
 20
-1162266.9
 10
-601700.293000001
 20
-1162268.777
 10
-601704.153999995
 20
-1162270.412
 10
-601707.332999997
 20
-1162272.04699999
 10
-601712.328999996
 20
-1162274.613
 10
-601720.390000001
 20
-1162279.5
 10
-601729.088999998
 20
-1162285.514
 10
-601736.174999997
 20
-1162290.851
 10
-601739.763
 20
-1162293.894
 10
-601742.987999998
 20
-1162297.028
 10
-601747.165999997
 20
-1162301.525
 10
-601754.296999998
 20
-1162309.382
 10
-601760.791999999
 20
-1162318.26199999
 10
-601776
 20
-1162340
 10
-601782.474899996
 20
-1162349.8003
 10
-601795.879999999
 20
-1162370.09
 10
-601807.656999998
 20
-1162383.177
 10
-601811.317000002
 20
-1162386.7979
 10
-601821.601
 20
-1162396.197
 10
-601831.999999996
 20
-1162404
 10
-601840.809999995
 20
-1162408.6599
 10
-601851.559999999
 20
-1162413.38
 10
-601859.169999998
 20
-1162415.87
 10
-601867.669999998
 20
-1162418.03
 10
-601876.389600001
 20
-1162419.6021
 10
-601877.929999996
 20
-1162419.88
 10
-601888.359999996
 20
-1162420.76
 10
-601898.699999999
 20
-1162420.2
 10
-601899.712299991
 20
-1162420.1336
 10
-601916.999999996
 20
-1162419
 10
-601957.190000001
 20
-1162414.29
 10
-601970.304399997
 20
-1162412.3045
 10
-601970.995000001
 20
-1162412.2
 10
-601974.882299997
 20
-1162411.3623
 10
-601984.077
 20
-1162409.381
 10
-601997.906999998
 20
-1162404.74199999
 10
-602009.999999996
 20
-1162400
 10
-602032.679999996
 20
-1162390.2199
 10
-602051.759999998
 20
-1162380.92
 10
-602064.2192
 20
-1162374.7473
 10
-602120.709999997
 20
-1162346.76
 10
-602229.920000002
 20
-1162292.77
 10
-602252.769999996
 20
-1162283.07999999
 10
-602267.999999996
 20
-1162278
 10
-602295
 20
-1162272
 10
-602307.549999997
 20
-1162270.3772
 10
-602327.789999995
 20
-1162267.76
 10
-602383.091699999
 20
-1162261.5878
 10
-602384.290399998
 20
-1162270.1568
  0
LWPOLYLINE
  5
20216
100
AcDbEntity
  8
0
100
AcDbPolyline
 70
0
 90
32
 10
-602383.091699999
 20
-1162261.5878
 10
-602388
 20
-1162261.04
 10
-602392.899999995
 20
-1162260.14
 10
-602397.429999996
 20
-1162258.85
 10
-602405.799999997
 20
-1162255.30999999
 10
-602410.699999999
 20
-1162252.73999999
 10
-602415.460000001
 20
-1162249.88
 10
-602424.959999997
 20
-1162242.1
 10
-602435.07
 20
-1162232.37
 10
-602444.5
 20
-1162221.35
 10
-602451.369999997
 20
-1162208.52
 10
-602454.460000001
 20
-1162201.88
 10
-602457.179999996
 20
-1162194.79
 10
-602458.989999995
 20
-1162189.51
 10
-602462.609999996
 20
-1162173.80999999
 10
-602464.569999997
 20
-1162161.51
 10
-602466.989999995
 20
-1162139.78
 10
-602471.999999996
 20
-1162101
 10
-602474.98
 20
-1162077.38
 10
-602479.999999996
 20
-1162053
 10
-602484.409899998
 20
-1162038.17
 10
-602492.369999997
 20
-1162021.52
 10
-602498.289999995
 20
-1162010.98
 10
-602511.049999997
 20
-1161994.32999999
 10
-602523.629999995
 20
-1161982.13
 10
-602535.999999996
 20
-1161973
 10
-602549.52
 20
-1161965.11
 10
-602562
 20
-1161960
 10
-602579.299999997
 20
-1161954.75
 10
-602595
 20
-1161952
 10
-602615
 20
-1161950.5
 10
-602638.679999996
 20
-1161952.1599
  0
LWPOLYLINE
  5
20217
100
AcDbEntity
  8
0
100
AcDbPolyline
 70
0
 90
9
 10
-601530.653999999
 20
-1162279.4888
 10
-601544.760000002
 20
-1162275.49
 10
-601549.782400001
 20
-1162274.2922
 10
-601552.026500002
 20
-1162273.757
 10
-601564.09
 20
-1162270.88
 10
-601564.3627
 20
-1162270.8241
 10
-601579.659899998
 20
-1162267.6926
 10
-601580.210000001
 20
-1162267.58
 10
-601585.2995
 20
-1162266.5322
  0
LWPOLYLINE
  5
20218
100
AcDbEntity
  8
0
100
AcDbPolyline
 70
0
 90
6
 10
-601519.812199999
 20
-1162282.5623
 10
-601517.210000001
 20
-1162283.3
 10
-601499.09
 20
-1162286.55
 10
-601492.859999999
 20
-1162292.23
 10
-601488.125
 20
-1162293.131
 10
-601482.4912
 20
-1162294.2035
  0
LWPOLYLINE
  5
20219
100
AcDbEntity
  8
0
100
AcDbPolyline
 70
0
 90
7
 10
-599976.83
 20
-1156527.42
 10
-599971.01
 20
-1156539.46
 10
-599960.69
 20
-1156559.7
 10
-599954.07
 20
-1156569.89
 10
-599946.8
 20
-1156579.81
 10
-599937.54
 20
-1156592.51
 10
-599926.69
 20
-1156604.81
  0
LWPOLYLINE
  5
2021A
100
AcDbEntity
  8
0
100
AcDbPolyline
 70
0
 90
4
 10
-599260.5436
 20
-1162010.2331
 10
-599257
 20
-1161994
 10
-599242
 20
-1161926
 10
-599235.384799998
 20
-1161894.9327
  0
LWPOLYLINE
  5
2021B
100
AcDbEntity
  8
0
100
AcDbPolyline
 70
0
 90
6
 10
-599277.354400001
 20
-1162274.359
 10
-599277.719900001
 20
-1162267.9099
 10
-599278.609999999
 20
-1162246.98
 10
-599281.57
 20
-1162192.92
 10
-599282.719900001
 20
-1162163.25
 10
-599281.846000001
 20
-1162139.2503
  0
LWPOLYLINE
  5
2021C
100
AcDbEntity
  8
0
100
AcDbPolyline
 70
0
 90
2
 10
-599274.480900001
 20
-1162325.063
 10
-599277.1712
 20
-1162277.5919
  0
LWPOLYLINE
  5
2021D
100
AcDbEntity
  8
0
100
AcDbPolyline
 70
0
 90
67
 10
-595259.255100001
 20
-1167440.8883
 10
-595259.055
 20
-1167440.828
 10
-595257.660999998
 20
-1167440.639
 10
-595250.876400001
 20
-1167439.9872
 10
-595244.515000001
 20
-1167439.376
 10
-595235.806699999
 20
-1167438.5139
 10
-595220.737
 20
-1167437.0221
 10
-595218.978
 20
-1167436.848
 10
-595216.973000001
 20
-1167436.775
 10
-595216.261
 20
-1167436.8189
 10
-595213.006999999
 20
-1167437.342
 10
-595211.526000001
 20
-1167437.531
 10
-595210.465
 20
-1167437.545
 10
-595209.346999999
 20
-1167437.458
 10
-595206.031800002
 20
-1167437.0477
 10
-595205.667199999
 20
-1167437.0026
 10
-595201.953000002
 20
-1167436.543
 10
-595198.916999999
 20
-1167435.773
 10
-595194.340999998
 20
-1167434.437
 10
-595190.597399998
 20
-1167433.5803
 10
-595190.215999998
 20
-1167433.493
 10
-595183.752
 20
-1167432.432
 10
-595176.953000002
 20
-1167431.125
 10
-595175.5277
 20
-1167430.7663
 10
-595161.728599999
 20
-1167427.2939
 10
-595160.458000001
 20
-1167426.9741
 10
-595158.999000002
 20
-1167426.607
 10
-595157.169
 20
-1167426.113
 10
-595153.668000001
 20
-1167424.937
 10
-595152.491
 20
-1167424.472
 10
-595151.721900001
 20
-1167424.115
 10
-595151.716499999
 20
-1167424.1125
 10
-595148.046
 20
-1167422.409
 10
-595145.388300002
 20
-1167420.9921
 10
-595141.635600001
 20
-1167418.9914
 10
-595130.318599999
 20
-1167412.958
 10
-595123.278999999
 20
-1167409.205
 10
-595115.2489
 20
-1167404.8463
 10
-595111.396000002
 20
-1167402.755
 10
-595104.671
 20
-1167399.167
 10
-595100.749000002
 20
-1167397.308
 10
-595099.310899999
 20
-1167396.567
 10
-595093.326000001
 20
-1167393.153
 10
-595092.047899999
 20
-1167392.412
 10
-595088.386999998
 20
-1167390.5819
 10
-595076.199000001
 20
-1167385.077
 10
-595061.993000001
 20
-1167379.658
 10
-595054.438999999
 20
-1167376.84
 10
-595048.324000001
 20
-1167374.313
 10
-595034.829
 20
-1167367.34
 10
-595027.914000001
 20
-1167363.665
 10
-595026.078299999
 20
-1167362.6091
 10
-595025.008900002
 20
-1167361.994
 10
-595018.980999999
 20
-1167358.29
 10
-595012.807
 20
-1167354.223
 10
-595008.172899999
 20
-1167350.867
 10
-595000.067000002
 20
-1167345.1
 10
-594997.524999999
 20
-1167343.43
 10
-594995.855
 20
-1167342.486
 10
-594991.758000001
 20
-1167340.045
 10
-594990.684
 20
-1167339.29
 10
-594986.659899998
 20
-1167336.283
 10
-594980.355
 20
-1167331.083
 10
-594977.754999999
 20
-1167328.991
 10
-594970.302999999
 20
-1167323.3839
 10
-594968.008000001
 20
-1167321.684
 10
-594960.602699999
 20
-1167316.1461
  0
LWPOLYLINE
  5
2021E
100
AcDbEntity
  8
0
100
AcDbPolyline
 70
0
 90
5
 10
-598439.539999999
 20
-1160475.08
 10
-598331.359999999
 20
-1160462.61
 10
-598220.839999996
 20
-1160447.47
 10
-598213.429999996
 20
-1160444.1
 10
-598201.420000002
 20
-1160432.99
  0
LWPOLYLINE
  5
2021F
100
AcDbEntity
  8
0
100
AcDbPolyline
 70
0
 90
4
 10
-596308.800983693
 20
-1167987.15648198
 10
-596308.534736648
 20
-1167944.68263305
 10
-596199.769642044
 20
-1167914.67846902
 10
-596103.506282445
 20
-1167863.42135547
  0
LWPOLYLINE
  5
20220
100
AcDbEntity
  8
0
100
AcDbPolyline
 70
0
 90
11
 10
-604276.619999999
 20
-1157281.36
 10
-604245.038341379
 20
-1157281.37944797
 10
-604167.48479797
 20
-1157279.92678516
 10
-604153.949999999
 20
-1157279.9276234
 10
-604128.97
 20
-1157281.45
 10
-604120.88
 20
-1157283.99
 10
-604114.790000001
 20
-1157292.9
 10
-604111.189999999
 20
-1157307.4
 10
-604107.28
 20
-1157314.41
 10
-604091.770000001
 20
-1157318.93
 10
-604070.6
 20
-1157317.9
  0
LWPOLYLINE
  5
20221
100
AcDbEntity
  8
0
100
AcDbPolyline
 70
0
 90
9
 10
-604310.422278015
 20
-1157271.56806006
 10
-604331.918298038
 20
-1157257.83449171
 10
-604364.759439738
 20
-1157247.0864817
 10
-604387.449683096
 20
-1157231.56157836
 10
-604403.571698111
 20
-1157217.82801
 10
-604422.082159798
 20
-1157204.09444167
 10
-604445.369514822
 20
-1157192.74931998
 10
-604481.793326524
 20
-1157185.58397997
 10
-604505.677793217
 20
-1157166.47640662
  0
LWPOLYLINE
  5
20222
100
AcDbEntity
  8
0
100
AcDbPolyline
 70
0
 90
5
 10
-597183.280000001
 20
-1168839.81
 10
-597204.783999999
 20
-1168954.13
 10
-597226.349000001
 20
-1168999.009
 10
-597239.441999999
 20
-1169055.69599999
 10
-597221.261505516
 20
-1169491.14247671
  0
LWPOLYLINE
  5
20223
100
AcDbEntity
  8
0
100
AcDbPolyline
 70
0
 90
2
 10
-597879.11
 20
-1160668.19
 10
-597891.72
 20
-1160670.17
  0
LWPOLYLINE
  5
20224
100
AcDbEntity
  8
0
100
AcDbPolyline
 70
0
 90
9
 10
-598231.952999998
 20
-1160915.885
 10
-598236.989304639
 20
-1160907.34285926
 10
-598237.940000001
 20
-1160905.54
 10
-598240.049999997
 20
-1160899.68
 10
-598241.750552461
 20
-1160891.77009086
 10
-598243.973999996
 20
-1160881.428
 10
-598246.658181567
 20
-1160865.93148759
 10
-598250.140000001
 20
-1160845.82999999
 10
-598242.219999999
 20
-1160844.15
  0
LWPOLYLINE
  5
20225
100
AcDbEntity
  8
0
100
AcDbPolyline
 70
0
 90
9
 10
-593709.668499999
 20
-1162839.1912
 10
-593711.830400001
 20
-1162836.9241
 10
-593794.09
 20
-1162750.65989999
 10
-593832.059700001
 20
-1162710.1156
 10
-593832.201799996
 20
-1162709.964
 10
-593839.440499999
 20
-1162702.2345
 10
-593853.592899997
 20
-1162687.1225
 10
-593860.309999995
 20
-1162679.95
 10
-593869.974778313
 20
-1162669.96346118
  0
LWPOLYLINE
  5
20226
100
AcDbEntity
  8
0
100
AcDbPolyline
 70
0
 90
16
 10
-606292.94
 20
-1158125.32
 10
-606291.92
 20
-1158095.65
 10
-606295.44
 20
-1158066.86
 10
-606301.45
 20
-1158039.44
 10
-606313.59
 20
-1158001.49
 10
-606325.88
 20
-1157961.7
 10
-606332.96
 20
-1157928.39
 10
-606333.11
 20
-1157895.72
 10
-606326.71
 20
-1157873.27
 10
-606314.43
 20
-1157850.76
 10
-606295.53
 20
-1157831.58
 10
-606234.78
 20
-1157776.32
 10
-606218.93
 20
-1157759.45
 10
-606199.8
 20
-1157724.18
 10
-606195.06
 20
-1157708.41
 10
-606192.57
 20
-1157673.36
  0
LWPOLYLINE
  5
20227
100
AcDbEntity
  8
0
100
AcDbPolyline
 70
0
 90
181
 10
-601149.539000001
 20
-1160617.9401
 10
-601146.52
 20
-1160626.59
 10
-601143.559999999
 20
-1160635.75
 10
-601138.810899999
 20
-1160652.043
 10
-601135.688999999
 20
-1160664.074
 10
-601134.412
 20
-1160670.937
 10
-601128.320999999
 20
-1160703.45
 10
-601125.9571
 20
-1160717.5057
 10
-601124.712000001
 20
-1160724.909
 10
-601123.48
 20
-1160739.82
 10
-601121.48
 20
-1160753.33
 10
-601120.82
 20
-1160759.68
 10
-601120.82
 20
-1160765.15
 10
-601121.409899998
 20
-1160772.49
 10
-601122.960000001
 20
-1160778.99
 10
-601125.989999998
 20
-1160787
 10
-601132.260000002
 20
-1160797.78
 10
-601146.125399999
 20
-1160818.1358
 10
-601149.030000001
 20
-1160822.4
 10
-601161.649999999
 20
-1160849.27
 10
-601165.719900001
 20
-1160855.4
 10
-601169.039999999
 20
-1160859.69
 10
-601171.25
 20
-1160861.9
 10
-601173.25
 20
-1160863.45
 10
-601175.32
 20
-1160864.56
 10
-601179.079999998
 20
-1160865.89
 10
-601175.829999998
 20
-1160875.2
 10
-601170.651999999
 20
-1160892.597
 10
-601169.890999999
 20
-1160898.047
 10
-601170.524999999
 20
-1160902.99
 10
-601171.666000001
 20
-1160908.566
 10
-601174.327
 20
-1160916.55
 10
-601175.047600001
 20
-1160918.7658
 10
-601182.818
 20
-1160942.658
 10
-601203.350000001
 20
-1160993.225
 10
-601214.3464
 20
-1161019.396
 10
-601226.563499998
 20
-1161048.472
 10
-601232.372000001
 20
-1161062.296
 10
-601240.222399998
 20
-1161077.8053
 10
-601255
 20
-1161107
 10
-601259.219900001
 20
-1161112.26
 10
-601262.409899998
 20
-1161118.74
 10
-601263.280000001
 20
-1161126.7
 10
-601262.079999998
 20
-1161134.39
 10
-601259.550000001
 20
-1161141.62
 10
-601252.98
 20
-1161154.38
 10
-601250.559999999
 20
-1161160.64
 10
-601242.809999999
 20
-1161156.36
 10
-601240.222399998
 20
-1161154.9518
 10
-601239.190000001
 20
-1161154.39
 10
-601236.460000001
 20
-1161153.34
 10
-601233.010000002
 20
-1161152.96
 10
-601230.359999999
 20
-1161153.38
 10
-601227.710000001
 20
-1161154.35
 10
-601225.640000001
 20
-1161155.55
 10
-601223.460000001
 20
-1161157.46
 10
-601220.809999999
 20
-1161160.28
 10
-601214.567499999
 20
-1161169.9502
 10
-601212.559999999
 20
-1161173.06
 10
-601205.5854
 20
-1161185.2701
 10
-601204.859999999
 20
-1161186.54
 10
-601197.420000002
 20
-1161199.38
 10
-601196.489999998
 20
-1161201.7
 10
-601195.859999999
 20
-1161203.68
 10
-601195.190000001
 20
-1161207.25
 10
-601194.719900001
 20
-1161211.84
 10
-601191.859999999
 20
-1161228.7199
 10
-601186.829999998
 20
-1161253.29
 10
-601184.853999998
 20
-1161259.5819
 10
-601182.414999999
 20
-1161266.389
 10
-601181.195999999
 20
-1161269.166
 10
-601164.771000002
 20
-1161302.643
 10
-601158.370000001
 20
-1161314.192
 10
-601127.57
 20
-1161365.78
 10
-601113.293000001
 20
-1161392.83
 10
-601106.120000001
 20
-1161405.36
 10
-601095.513
 20
-1161423.208
 10
-601087.589000002
 20
-1161438.1939
 10
-601084.912999999
 20
-1161443.749
 10
-601081.704
 20
-1161452.401
 10
-601074.210000001
 20
-1161469.75
 10
-601070.109999999
 20
-1161479.09
 10
-601066.18
 20
-1161491.37
 10
-601064.52
 20
-1161495.31
 10
-601059.010000002
 20
-1161506.99
 10
-601056.27
 20
-1161511.56
 10
-601047.620000001
 20
-1161521.8
 10
-601029.850000001
 20
-1161539.92
 10
-601023.719900001
 20
-1161547.17
 10
-601018.140000001
 20
-1161554.13
 10
-601013
 20
-1161561
 10
-600977.510000002
 20
-1161613.59
 10
-600946.2205
 20
-1161658.6704
 10
-600946.199999999
 20
-1161658.7
 10
-600941.739999998
 20
-1161665.23
 10
-600937
 20
-1161672
 10
-600903.659899998
 20
-1161707.28
 10
-600878.879999999
 20
-1161732.69
 10
-600869.719900001
 20
-1161742.64
 10
-600866.699999999
 20
-1161745.83
 10
-600864.390000001
 20
-1161748.61
 10
-600850
 20
-1161773
 10
-600838.73
 20
-1161801.14
 10
-600836.5
 20
-1161804.89
 10
-600830
 20
-1161813
 10
-600820
 20
-1161822
 10
-600812.440000001
 20
-1161827.5
 10
-600807.27
 20
-1161831.4
 10
-600782.649999999
 20
-1161862.27
 10
-600752.460000001
 20
-1161901.77
 10
-600734.370000001
 20
-1161924.39
 10
-600723.620000001
 20
-1161935.1
 10
-600709.920000002
 20
-1161947.32
 10
-600700
 20
-1161954
 10
-600693.510000002
 20
-1161957.99
 10
-600689.600000001
 20
-1161959.75
 10
-600682.27
 20
-1161962.73
 10
-600634.390000001
 20
-1161976.9099
 10
-600584.760000002
 20
-1161992.92
 10
-600574.800000001
 20
-1161996.34
 10
-600569.629999999
 20
-1161998.77
 10
-600565.640000001
 20
-1162001.64
 10
-600562.379999999
 20
-1162004.82
 10
-600559.43
 20
-1162008.57
 10
-600557.440000001
 20
-1162012.71
 10
-600555.920000002
 20
-1162018.05
 10
-600555.289999999
 20
-1162023.78
 10
-600556.640000001
 20
-1162044.24
 10
-600556
 20
-1162050
 10
-600554.170000002
 20
-1162054.04
 10
-600551
 20
-1162058
 10
-600548.280000001
 20
-1162060.17
 10
-600543.969900001
 20
-1162062.7199
 10
-600539.670000002
 20
-1162064.32
 10
-600534.969900001
 20
-1162064.1599
 10
-600529.870000001
 20
-1162063.28
 10
-600524.699999999
 20
-1162061.85
 10
-600521.350000001
 20
-1162060.73
 10
-600518.48
 20
-1162059.2199
 10
-600501.75
 20
-1162046.2
 10
-600476.02
 20
-1162019.56
 10
-600470.600000001
 20
-1162015.1
 10
-600465.899999999
 20
-1162011.83
 10
-600460.25
 20
-1162009.6
 10
-600454.909899998
 20
-1162008.4099
 10
-600446.539999999
 20
-1162007.69
 10
-600439.140000001
 20
-1162008.8
 10
-600431.57
 20
-1162010.32
 10
-600423.920000002
 20
-1162012.31
 10
-600400.5
 20
-1162020.12
 10
-600397.309999999
 20
-1162020.67
 10
-600394.440000001
 20
-1162020.83
 10
-600390.059999999
 20
-1162020.2
 10
-600385.039999999
 20
-1162018.84
 10
-600379.469900001
 20
-1162016.61
 10
-600363.140000001
 20
-1162008.4099
 10
-600359.710000001
 20
-1162007.61
 10
-600354.690000001
 20
-1162006.9699
 10
-600341.309999999
 20
-1162009.52
 10
-600335.969900001
 20
-1162009.76
 10
-600326.170000002
 20
-1162009.6
 10
-600323.300000001
 20
-1162009.28
 10
-600320.039999999
 20
-1162008.01
 10
-600299.399999999
 20
-1161998.73
 10
-600295.260000002
 20
-1161997.3
 10
-600290.399999999
 20
-1161996.1
 10
-600259.57
 20
-1161990.21
 10
-600251.129999999
 20
-1161988.46
 10
-600245.870000001
 20
-1161986.94
 10
-600229.140000001
 20
-1161979.62
 10
-600209.940000001
 20
-1161971.46
 10
-600197.829999998
 20
-1161967.63
 10
-600072.534000002
 20
-1161938.908
 10
-600054.818
 20
-1161931.477
 10
-600048.265000001
 20
-1161928.185
 10
-600033.780000001
 20
-1161920.346
 10
-600004.162999999
 20
-1161904.776
 10
-600002.396899998
 20
-1161903.873
 10
-599999.967999998
 20
-1161902.247
 10
-599993.526000001
 20
-1161897.531
 10
-599981.094799999
 20
-1161888.7231
  0
LWPOLYLINE
  5
20228
100
AcDbEntity
  8
0
100
AcDbPolyline
 70
0
 90
6
 10
-601586.838599999
 20
-1162266.2153
 10
-601591.43
 20
-1162265.27
 10
-601592.398699999
 20
-1162265.1639
 10
-601606.949999999
 20
-1162263.57
 10
-601640.710000001
 20
-1162263.17
 10
-601646.4298
 20
-1162263.4342
  0
LWPOLYLINE
  5
20229
100
AcDbEntity
  8
0
100
AcDbPolyline
 70
0
 90
13
 10
-599270.292800002
 20
-1162056.2422
 10
-599273.989999998
 20
-1162074.25
 10
-599279.77
 20
-1162107.39
 10
-599281.309999999
 20
-1162124.53
 10
-599281.846000001
 20
-1162139.2503
 10
-599282.719900001
 20
-1162163.25
 10
-599281.57
 20
-1162192.92
 10
-599278.609999999
 20
-1162246.98
 10
-599277.719900001
 20
-1162267.9099
 10
-599277.3543
 20
-1162274.359
 10
-599277.1712
 20
-1162277.5919
 10
-599274.480900001
 20
-1162325.063
 10
-599274.296100002
 20
-1162328.3232
  0
LWPOLYLINE
  5
2022A
100
AcDbEntity
  8
0
100
AcDbPolyline
 70
0
 90
4
 10
-599227.595100001
 20
-1161858.349
 10
-599235.384799998
 20
-1161894.9327
 10
-599242
 20
-1161926
 10
-599242.695300002
 20
-1161929.1519
  0
LWPOLYLINE
  5
2022B
100
AcDbEntity
  8
0
100
AcDbPolyline
 70
0
 90
11
 10
-599208.526700001
 20
-1161587.592
 10
-599204.109999999
 20
-1161634.4699
 10
-599202
 20
-1161665
 10
-599201.370000001
 20
-1161680.02
 10
-599201.370000001
 20
-1161696.53
 10
-599202.399999999
 20
-1161719.08
 10
-599204.390000001
 20
-1161739.4099
 10
-599206.670000002
 20
-1161756.03
 10
-599211.851500001
 20
-1161784.6988
 10
-599213.199999999
 20
-1161792.1599
 10
-599213.729200002
 20
-1161794.5707
  0
LWPOLYLINE
  5
2022C
100
AcDbEntity
  8
0
100
AcDbPolyline
 70
0
 90
3
 10
-599215.095199998
 20
-1161800.7935
 10
-599213.199999999
 20
-1161792.1599
 10
-599211.851500001
 20
-1161784.6988
  0
LWPOLYLINE
  5
2022D
100
AcDbEntity
  8
0
100
AcDbPolyline
 70
0
 90
2
 10
-599269.846700002
 20
-1162410.3959
 10
-599272.764699999
 20
-1162355.5693
  0
LWPOLYLINE
  5
2022E
100
AcDbEntity
  8
0
100
AcDbPolyline
 70
0
 90
6
 10
-599019.343800001
 20
-1162604.2932
 10
-599006.808090184
 20
-1162603.62135215
 10
-598969.400411602
 20
-1162602.18951239
 10
-598943.13003495
 20
-1162601.18397098
 10
-598907.889999997
 20
-1162599.69
 10
-598848.779078975
 20
-1162597.57253464
  0
LWPOLYLINE
  5
2022F
100
AcDbEntity
  8
0
100
AcDbPolyline
 70
0
 90
4
 10
-599250.263999995
 20
-1162613.79899999
 10
-599244.779999997
 20
-1162616.907
 10
-599242.75
 20
-1162614.23
 10
-599227.976599999
 20
-1162595.3815
  0
LWPOLYLINE
  5
20230
100
AcDbEntity
  8
0
100
AcDbPolyline
 70
0
 90
4
 10
-599233.542900003
 20
-1162580.3794
 10
-599245.729999997
 20
-1162596.35
 10
-599248.4091
 20
-1162598.6116
 10
-599252.032569852
 20
-1162608.85433304
  0
LWPOLYLINE
  5
20231
100
AcDbEntity
  8
0
100
AcDbPolyline
 70
0
 90
5
 10
-599164.1512
 20
-1162477.8404
 10
-599172.997705046
 20
-1162488.0335834
 10
-599212.744278353
 20
-1162543.8615289
 10
-599224.200512245
 20
-1162559.9529287
 10
-599234.300999999
 20
-1162571.956
  0
LWPOLYLINE
  5
20232
100
AcDbEntity
  8
0
100
AcDbPolyline
 70
0
 90
17
 10
-599378.874499995
 20
-1162801.4262
 10
-599388.420000002
 20
-1162815.34
 10
-599402.149999999
 20
-1162835.14999999
 10
-599419.940000001
 20
-1162860.37
 10
-599429.209999997
 20
-1162873.52
 10
-599451.190000001
 20
-1162903.89999999
 10
-599469.789999995
 20
-1162928.4699
 10
-599479.619999997
 20
-1162940.84
 10
-599512.829999994
 20
-1162982.57
 10
-599549.209999997
 20
-1163025.9699
 10
-599563.689999998
 20
-1163041.19
 10
-599572.489999995
 20
-1163048.8
 10
-599580.139999997
 20
-1163054.94
 10
-599587.399999995
 20
-1163060.37
 10
-599596.109999996
 20
-1163066.03
 10
-599602.190000001
 20
-1163069.18
 10
-599629.419999998
 20
-1163080.19
  0
LWPOLYLINE
  5
20233
100
AcDbEntity
  8
0
100
AcDbPolyline
 70
0
 90
7
 10
-599738.245999999
 20
-1160431.286
 10
-599739.190000001
 20
-1160430.79
 10
-599742
 20
-1160430
 10
-599748.359999999
 20
-1160428.38
 10
-599754.98
 20
-1160427.31
 10
-599766
 20
-1160427.23
 10
-599771.850099999
 20
-1160427.6804
  0
LWPOLYLINE
  5
20234
100
AcDbEntity
  8
0
100
AcDbPolyline
 70
0
 90
4
 10
-599220.58
 20
-1161825.79
 10
-599223.26
 20
-1161837.99
 10
-599225.24
 20
-1161847.28
 10
-599227.3
 20
-1161856.98
  0
LWPOLYLINE
  5
20235
100
AcDbEntity
  8
0
100
AcDbPolyline
 70
0
 90
4
 10
-595959.67
 20
-1158413.24
 10
-595962.45
 20
-1158379.5
 10
-595962.22
 20
-1158368.29
 10
-595960.72
 20
-1158360.41
  0
LWPOLYLINE
  5
20236
100
AcDbEntity
  8
0
100
AcDbPolyline
 70
0
 90
5
 10
-597670.65
 20
-1161281.38
 10
-597682.11
 20
-1161280.76
 10
-597691.23
 20
-1161280.27
 10
-597704.39
 20
-1161279.56
 10
-597726.07
 20
-1161278.41
  0
LWPOLYLINE
  5
20237
100
AcDbEntity
  8
0
100
AcDbPolyline
 70
0
 90
35
 10
-594811.630093146
 20
-1162569.1624619
 10
-594769.049778368
 20
-1162587.76898599
 10
-594746.753136557
 20
-1162597.51205636
 10
-594724.227570489
 20
-1162607.29779067
 10
-594683.309106391
 20
-1162624.68813792
 10
-594665.267918728
 20
-1162632.35564268
 10
-594637.980684318
 20
-1162643.9527173
 10
-594630.999076676
 20
-1162646.91990056
 10
-594607.071338348
 20
-1162657.08918935
 10
-594595.174576029
 20
-1162663.30532182
 10
-594592.179511789
 20
-1162664.44924905
 10
-594575.249816451
 20
-1162675.377388
 10
-594563.320511792
 20
-1162690.61324905
 10
-594558.025779981
 20
-1162698.02575115
 10
-594542.05102456
 20
-1162719.1220725
 10
-594534.250495192
 20
-1162729.65463061
 10
-594519.262875587
 20
-1162749.89145901
 10
-594488.01110452
 20
-1162792.08873554
 10
-594467.121332739
 20
-1162820.2948642
 10
-594443.810295839
 20
-1162851.82105226
 10
-594436.334935147
 20
-1162862.00924545
 10
-594423.695440713
 20
-1162879.22122432
 10
-594394.588613708
 20
-1162918.85778522
 10
-594354.663011789
 20
-1162973.89664906
 10
-594333.179011792
 20
-1163002.42054905
 10
-594328.954511788
 20
-1163008.02934905
 10
-594326.009311792
 20
-1163012.01884905
 10
-594241.607411791
 20
-1163126.35734905
 10
-594223.19251179
 20
-1163151.11734905
 10
-594193.790611997
 20
-1163187.94043338
 10
-594175.266532619
 20
-1163210.79726353
 10
-594154.719546281
 20
-1163236.15015516
 10
-594117.301511791
 20
-1163282.04824905
 10
-594084.951211788
 20
-1163317.46614905
 10
-593998.291231945
 20
-1163410.07370484
  0
LWPOLYLINE
  5
20238
100
AcDbEntity
  8
0
100
AcDbPolyline
 70
0
 90
3
 10
-593705.311473522
 20
-1162843.760429
 10
-593647.380591353
 20
-1162904.53919144
 10
-593544.838756126
 20
-1163012.2882925
  0
LWPOLYLINE
  5
20239
100
AcDbEntity
  8
0
100
AcDbPolyline
 70
0
 90
22
 10
-595055.340247805
 20
-1169064.1352396
 10
-594874.753
 20
-1169129.286
 10
-594831.132
 20
-1169131.534
 10
-594779.867
 20
-1169122.69
 10
-594724.704
 20
-1169121.941
 10
-594664.295
 20
-1169143.976
 10
-594544
 20
-1169212
 10
-594421.424664862
 20
-1169301.90223122
 10
-594338.176
 20
-1169381.4
 10
-594329.848
 20
-1169411.155
 10
-594319
 20
-1169423
 10
-594288.904
 20
-1169433.188
 10
-594244
 20
-1169465
 10
-594222.89
 20
-1169496.947
 10
-594215.603
 20
-1169532.427
 10
-594182.552
 20
-1169562.181
 10
-594118.186
 20
-1169598.614
 10
-594091.385176365
 20
-1169614.72423553
 10
-594022.381483942
 20
-1169654.03771596
 10
-593971.699871181
 20
-1169672.6582558
 10
-593937.343
 20
-1169683.004
 10
-593918.356
 20
-1169664.642
  0
LWPOLYLINE
  5
2023A
100
AcDbEntity
  8
0
100
AcDbPolyline
 70
0
 90
4
 10
-593853.592899997
 20
-1162687.1225
 10
-593832.201799996
 20
-1162709.964
 10
-593794.09
 20
-1162750.65989999
 10
-593748.541579537
 20
-1162798.42570755
  0
LWPOLYLINE
  5
2023B
100
AcDbEntity
  8
0
100
AcDbPolyline
 70
0
 90
24
 10
-593342.664000001
 20
-1164176.5813
 10
-593330.0678
 20
-1164158.3171
 10
-593315.219500002
 20
-1164136.7874
 10
-593300.371100001
 20
-1164115.2577
 10
-593292.422899999
 20
-1164103.7329
 10
-593285.1358
 20
-1164093.7279
 10
-593269.454700001
 20
-1164072.1982
 10
-593267.772300001
 20
-1164069.8883
 10
-593253.773499999
 20
-1164050.6685
 10
-593238.092399999
 20
-1164029.1388
 10
-593236.767000001
 20
-1164027.3189
 10
-593220.649599999
 20
-1164007.609
 10
-593207.020100001
 20
-1163990.9416
 10
-593203.044100001
 20
-1163986.0793
 10
-593198.901999999
 20
-1163981.014
 10
-593184.6175
 20
-1163964.5496
 10
-593165.9384
 20
-1163943.0199
 10
-593158.5427
 20
-1163934.4956
 10
-593155.561999999
 20
-1163931.06
 10
-593146.4998
 20
-1163921.4901
 10
-593127.050000001
 20
-1163900.951
 10
-593083.493000001
 20
-1163856.8069
 10
-593059.304000001
 20
-1163832.292
 10
-593010.212900002
 20
-1163784.1715
  0
LWPOLYLINE
  5
2023C
100
AcDbEntity
  8
0
100
AcDbPolyline
 70
0
 90
2
 10
-599354.7676
 20
-1157765.0112
 10
-599298.3858
 20
-1157747.6553
  0
LWPOLYLINE
  5
2023D
100
AcDbEntity
  8
0
100
AcDbPolyline
 70
0
 90
6
 10
-594169.02
 20
-1168988.614
 10
-594211.638
 20
-1169345.137
 10
-594210.621
 20
-1169369.384
 10
-594190.184
 20
-1169388.756
 10
-594160.69622413
 20
-1169396.89706481
 10
-593968.378
 20
-1169441.072
  0
LWPOLYLINE
  5
2023E
100
AcDbEntity
  8
0
100
AcDbPolyline
 70
0
 90
4
 10
-593814
 20
-1167816
 10
-593333.12
 20
-1167415.91
 10
-593259.114
 20
-1167380.032
 10
-593430.297
 20
-1166723.487
  0
LWPOLYLINE
  5
2023F
100
AcDbEntity
  8
0
100
AcDbPolyline
 70
0
 90
5
 10
-597486.3
 20
-1166725.589
 10
-597402.883
 20
-1166714.381
 10
-597395.349
 20
-1166709.42
 10
-597391.675
 20
-1166702.438
 10
-597391.491
 20
-1166637.027
  0
LWPOLYLINE
  5
20240
100
AcDbEntity
  8
0
100
AcDbPolyline
 70
0
 90
13
 10
-597220.791
 20
-1169500.527
 10
-597207.44622833
 20
-1169498.18932256
 10
-597172.633767464
 20
-1169506.03406839
 10
-597112.922600737
 20
-1169618.29106183
 10
-597010.219393965
 20
-1169814.1436887
 10
-596964.838907252
 20
-1169849.97038874
 10
-596972.00424726
 20
-1169888.18553544
 10
-596979.169587267
 20
-1169904.90466213
 10
-596630.456373578
 20
-1170029.10388892
 10
-596479.984233425
 20
-1170064.93058896
 10
-596420.273066697
 20
-1170069.7074823
 10
-596315.181413256
 20
-1170136.58398903
 10
-596305.62762658
 20
-1170162.85690239
  0
LWPOLYLINE
  5
20241
100
AcDbEntity
  8
0
100
AcDbPolyline
 70
0
 90
5
 10
-600179.87
 20
-1159046.89
 10
-600203.775049723
 20
-1159112.86131695
 10
-600228.853739748
 20
-1159164.81003201
 10
-600282.91
 20
-1159281.86
 10
-600295.2
 20
-1159275.02
  0
LWPOLYLINE
  5
20242
100
AcDbEntity
  8
0
100
AcDbPolyline
 70
0
 90
5
 10
-600282.18
 20
-1159283.33
 10
-600258.709323112
 20
-1159273.48435545
 10
-600236.019079756
 20
-1159244.22588375
 10
-600213.328836399
 20
-1159186.30605203
 10
-600211.537501397
 20
-1159129.58044364
  0
LWPOLYLINE
  5
20243
100
AcDbEntity
  8
0
100
AcDbPolyline
 70
0
 90
2
 10
-602065.850120939
 20
-1158469.40309897
 10
-602078.479999997
 20
-1158471.32
  0
LWPOLYLINE
  5
20244
100
AcDbEntity
  8
0
100
AcDbPolyline
 70
0
 90
7
 10
-600599.938999996
 20
-1152730.621
 10
-600594
 20
-1152710
 10
-600565.109999996
 20
-1152638.93
 10
-600494.609999999
 20
-1152592.85
 10
-600467.589999996
 20
-1152582.14
 10
-600467.59
 20
-1152582.14000001
 10
-600468.66
 20
-1152579.94
  0
LWPOLYLINE
  5
20245
100
AcDbEntity
  8
0
100
AcDbPolyline
 70
0
 90
3
 10
-598219.248310242
 20
-1160620.10639308
 10
-598178.609999999
 20
-1160594.32
 10
-598167.839999996
 20
-1160592.47
  0
LWPOLYLINE
  5
20246
100
AcDbEntity
  8
0
100
AcDbPolyline
 70
0
 90
14
 10
-595587.383999996
 20
-1167521.291
 10
-595570.517898031
 20
-1167460.40934342
 10
-595562.286999997
 20
-1167426.287
 10
-595563.549999997
 20
-1167397.51
 10
-595587
 20
-1167339
 10
-595618.27
 20
-1167279.66
 10
-595648.999999996
 20
-1167184
 10
-595684.309999999
 20
-1167061.89
 10
-595686.829999994
 20
-1167008.64999999
 10
-595715.849999998
 20
-1166944.73
 10
-595739.030000001
 20
-1166889.32
 10
-595741
 20
-1166868
 10
-595720.919999998
 20
-1166837.05
 10
-595676.140000001
 20
-1166813.476
  0
LWPOLYLINE
  5
20247
100
AcDbEntity
  8
0
100
AcDbPolyline
 70
0
 90
3
 10
-595509.600451633
 20
-1160286.37890652
 10
-595515.51045756
 20
-1160277.57295489
 10
-595532.519211553
 20
-1160236.57708861
  0
LWPOLYLINE
  5
20248
100
AcDbEntity
  8
0
100
AcDbPolyline
 70
0
 90
5
 10
-595615.208002515
 20
-1160320.30951283
 10
-595602.910933029
 20
-1160313.89218732
 10
-595566.357382968
 20
-1160298.66154146
 10
-595578.541899655
 20
-1160269.60615551
 10
-595572.142031301
 20
-1160258.13310375
  0
LWPOLYLINE
  5
20249
100
AcDbEntity
  8
0
100
AcDbPolyline
 70
0
 90
3
 10
-598732.599999998
 20
-1157632.54
 10
-598747.037399996
 20
-1157635.9034
 10
-598902.489999998
 20
-1157666.8
  0
LWPOLYLINE
  5
2024A
100
AcDbEntity
  8
0
100
AcDbPolyline
 70
0
 90
4
 10
-598902.489999998
 20
-1157666.8
 10
-599009.889999997
 20
-1157687.91
 10
-599017.100000001
 20
-1157687.72
 10
-599023.339999996
 20
-1157695.67
  0
LWPOLYLINE
  5
2024B
100
AcDbEntity
  8
0
100
AcDbPolyline
 70
0
 90
2
 10
-599277.609999996
 20
-1157741.26
 10
-599089.489999995
 20
-1157684.44
  0
LWPOLYLINE
  5
2024C
100
AcDbEntity
  8
0
100
AcDbPolyline
 70
0
 90
2
 10
-605724.300000001
 20
-1157583.36
 10
-605664.710000001
 20
-1157628.38
  0
LWPOLYLINE
  5
2024D
100
AcDbEntity
  8
0
100
AcDbPolyline
 70
0
 90
4
 10
-597857.109999999
 20
-1160540.31
 10
-597871.969999995
 20
-1160548.42
 10
-597899.072127476
 20
-1160553.23034566
 10
-597932.419999998
 20
-1160557.82
  0
LWPOLYLINE
  5
2024E
100
AcDbEntity
  8
0
100
AcDbPolyline
 70
0
 90
2
 10
-598065.71249073
 20
-1160591.51726513
 10
-598048.579999998
 20
-1160592.18
  0
LWPOLYLINE
  5
2024F
100
AcDbEntity
  8
0
100
AcDbPolyline
 70
0
 90
10
 10
-597563.75
 20
-1161324.4
 10
-597595.2
 20
-1161302.2
 10
-597620.29
 20
-1161287.06
 10
-597622.32
 20
-1161286.21
 10
-597624.14
 20
-1161285.78
 10
-597632.34
 20
-1161284.78
 10
-597645.26
 20
-1161283.19
 10
-597651.36
 20
-1161282.45
 10
-597657.61
 20
-1161282.06
 10
-597662.96
 20
-1161281.79
  0
LWPOLYLINE
  5
20250
100
AcDbEntity
  8
0
100
AcDbPolyline
 70
0
 90
69
 10
-597220.97
 20
-1169501.88
 10
-597216.64
 20
-1169499.45
 10
-596932.81
 20
-1169453.24
 10
-596918.21
 20
-1169452.06
 10
-596898.21
 20
-1169452.53
 10
-596809.47
 20
-1169466.41
 10
-596799.82
 20
-1169465.47
 10
-596792.06
 20
-1169461.47
 10
-596785.94
 20
-1169453.71
 10
-596782.37
 20
-1169444.27
 10
-596766.7
 20
-1169369.35
 10
-596748.72
 20
-1169274.66
 10
-596673.08
 20
-1169290.22
 10
-596640.22
 20
-1169295.86
 10
-596612.02
 20
-1169298.97
 10
-596562.82
 20
-1169301.5
 10
-596541.63
 20
-1169302.47
 10
-596516
 20
-1169304
 10
-596486
 20
-1169306
 10
-596469.1
 20
-1169303.25
 10
-596457.43
 20
-1169300.33
 10
-596435
 20
-1169294
 10
-596334.14
 20
-1169269.22
 10
-596297
 20
-1169260
 10
-596272.5
 20
-1169254.24
 10
-596250.92
 20
-1169248.22
 10
-596233.41
 20
-1169241.99
 10
-596172.16
 20
-1169217.2
 10
-596121.99
 20
-1169197.56
 10
-596118.39
 20
-1169196.93
 10
-596113.82
 20
-1169197.37
 10
-596108.57
 20
-1169198.92
 10
-596103.7
 20
-1169200.82
 10
-596100.4
 20
-1169201.3
 10
-596094.95
 20
-1169200.33
 10
-595974.97
 20
-1169141.84
 10
-595882.61
 20
-1169097.31
 10
-595853.24
 20
-1169083.79
 10
-595842.16
 20
-1169078.93
 10
-595829.33
 20
-1169074.84
 10
-595806.96
 20
-1169069.59
 10
-595747.34
 20
-1169058.52
 10
-595741.24
 20
-1169057.92
 10
-595737.17
 20
-1169058.37
 10
-595741.24
 20
-1169057.92
 10
-595747.34
 20
-1169058.52
 10
-595806.96
 20
-1169069.59
 10
-595829.33
 20
-1169074.84
 10
-595842.16
 20
-1169078.93
 10
-595853.24
 20
-1169083.79
 10
-595882.61
 20
-1169097.31
 10
-595974.97
 20
-1169141.84
 10
-596094.95
 20
-1169200.33
 10
-596100.4
 20
-1169201.3
 10
-596103.7
 20
-1169200.82
 10
-596108.57
 20
-1169198.92
 10
-596113.82
 20
-1169197.37
 10
-596118.39
 20
-1169196.93
 10
-596121.99
 20
-1169197.56
 10
-596172.16
 20
-1169217.2
 10
-596233.41
 20
-1169241.99
 10
-596250.92
 20
-1169248.22
 10
-596272.5
 20
-1169254.24
 10
-596284.1
 20
-1169256.97
 10
-596297
 20
-1169260
 10
-596307.03
 20
-1169262.49
 10
-596321.93
 20
-1169266.19
 10
-596334.14
 20
-1169269.22
 10
-596344.69
 20
-1169271.81
  0
LWPOLYLINE
  5
20251
100
AcDbEntity
  8
0
100
AcDbPolyline
 70
0
 90
3
 10
-600750.53
 20
-1158416.72
 10
-600547.51
 20
-1158540.53
 10
-600545
 20
-1158541
  0
LWPOLYLINE
  5
20252
100
AcDbEntity
  8
0
100
AcDbPolyline
 70
0
 90
7
 10
-599131.61
 20
-1160493.71
 10
-599139.11
 20
-1160437.33
 10
-599140.86
 20
-1160417.45
 10
-599146.49
 20
-1160363.57
 10
-599152.24
 20
-1160308.56
 10
-599156.24
 20
-1160269.06
 10
-599160.36
 20
-1160228.67
  0
LWPOLYLINE
  5
20253
100
AcDbEntity
  8
0
100
AcDbPolyline
 70
0
 90
7
 10
-599161.49
 20
-1160420.13
 10
-599296.01
 20
-1160433.88
 10
-599307.62
 20
-1160435.59
 10
-599321.51
 20
-1160437.63
 10
-599336.23
 20
-1160441.8
 10
-599346.52
 20
-1160444.63
 10
-599352.27
 20
-1160447.63
  0
LWPOLYLINE
  5
20254
100
AcDbEntity
  8
0
100
AcDbPolyline
 70
0
 90
16
 10
-598273.97
 20
-1160734.27
 10
-598278.22
 20
-1160726.14
 10
-598285.03
 20
-1160712.39
 10
-598290.28
 20
-1160698.39
 10
-598293.22
 20
-1160686.07
 10
-598296.35
 20
-1160670.32
 10
-598298.78
 20
-1160653.7
 10
-598304.88
 20
-1160607.87
 10
-598311.88
 20
-1160558.36
 10
-598313.41
 20
-1160554.88
 10
-598315.72
 20
-1160552.38
 10
-598318.95
 20
-1160550.66
 10
-598321.1
 20
-1160549.7
 10
-598325.1
 20
-1160550.57
 10
-598354.6
 20
-1160562.14
 10
-598373.54
 20
-1160569.56
  0
LWPOLYLINE
  5
20255
100
AcDbEntity
  8
0
100
AcDbPolyline
 70
0
 90
4
 10
-596915.1
 20
-1159812.62
 10
-596969.86
 20
-1159705.36
 10
-596992.36
 20
-1159659.6
 10
-597021.61
 20
-1159596.34
  0
LWPOLYLINE
  5
20256
100
AcDbEntity
  8
0
100
AcDbPolyline
 70
0
 90
3
 10
-597014.66
 20
-1159601.65
 10
-597001.41
 20
-1159599.02
 10
-596992.02
 20
-1159597.73
  0
LWPOLYLINE
  5
20257
100
AcDbEntity
  8
0
100
AcDbPolyline
 70
0
 90
2
 10
-601382.82
 20
-1158425.47
 10
-601247.03
 20
-1158475.18
  0
LWPOLYLINE
  5
20258
100
AcDbEntity
  8
0
100
AcDbPolyline
 70
0
 90
19
 10
-601235.37
 20
-1158516.09
 10
-601209.06
 20
-1158515.5
 10
-601172.86
 20
-1158501.46
 10
-601124.84
 20
-1158517.95
 10
-600955.13
 20
-1158578.64
 10
-600906.55
 20
-1158596.64
 10
-600822.7
 20
-1158630.52
 10
-600726.67
 20
-1158671.97
 10
-600679.92
 20
-1158715.34
 10
-600666.73
 20
-1158736.98
 10
-600673.28
 20
-1158748.34
 10
-600664.28
 20
-1158783.34
 10
-600658.78
 20
-1158820.35
 10
-600663.78
 20
-1158860.35
 10
-600680.78
 20
-1158922.36
 10
-600709.29
 20
-1158993.37
 10
-600748.51
 20
-1159071.15
 10
-600764.79
 20
-1159100.88
 10
-600786.79
 20
-1159127.39
  0
LWPOLYLINE
  5
20259
100
AcDbEntity
  8
0
100
AcDbPolyline
 70
0
 90
8
 10
-598105.59
 20
-1160169.71
 10
-598121.97
 20
-1159953.16
 10
-598130.73
 20
-1159880.26
 10
-598144.75
 20
-1159819.02
 10
-598166.03
 20
-1159734.75
 10
-598201.52
 20
-1159596.97
 10
-598229.88
 20
-1159485.66
 10
-598245.7
 20
-1159420.7
  0
LWPOLYLINE
  5
2025A
100
AcDbEntity
  8
0
100
AcDbPolyline
 70
0
 90
2
 10
-597850.24
 20
-1160663.65
 10
-597878.9
 20
-1160668.16
  0
LWPOLYLINE
  5
2025B
100
AcDbEntity
  8
0
100
AcDbPolyline
 70
0
 90
5
 10
-598544.4
 20
-1153729.84
 10
-598547.83
 20
-1153750.57
 10
-598550.53
 20
-1153766.87
 10
-598551.56
 20
-1153780.64
 10
-598551.13
 20
-1153788.84
  0
LWPOLYLINE
  5
2025C
100
AcDbEntity
  8
0
100
AcDbPolyline
 70
0
 90
6
 10
-597131.41
 20
-1159388.79
 10
-597142.35
 20
-1159367.45
 10
-597149.84
 20
-1159352.82
 10
-597155.6
 20
-1159336.73
 10
-597164.09
 20
-1159306.92
 10
-597185.15
 20
-1159223.51
  0
LWPOLYLINE
  5
2025D
100
AcDbEntity
  8
0
100
AcDbPolyline
 70
0
 90
4
 10
-597021.52
 20
-1159595.8
 10
-597048.38
 20
-1159543.84
 10
-597083.72
 20
-1159475.48
 10
-597102.26
 20
-1159442.95
  0
LWPOLYLINE
  5
2025E
100
AcDbEntity
  8
0
100
AcDbPolyline
 70
0
 90
14
 10
-597986.2
 20
-1157497.5
 10
-597951.53
 20
-1157514.66
 10
-597894.55
 20
-1157538.96
 10
-597851.13
 20
-1157554.48
 10
-597797.08
 20
-1157571.06
 10
-597746.53
 20
-1157584.1
 10
-597639.13
 20
-1157605.91
 10
-597563.24
 20
-1157621.31
 10
-597423.82
 20
-1157650.08
 10
-597375.22
 20
-1157663.22
 10
-597290.02
 20
-1157694.79
 10
-597246.82
 20
-1157714.19
 10
-597202.98
 20
-1157735.74
 10
-597193.46
 20
-1157740.41
  0
LWPOLYLINE
  5
2025F
100
AcDbEntity
  8
0
100
AcDbPolyline
 70
0
 90
10
 10
-600872.69
 20
-1159967.62
 10
-600885.45
 20
-1159984.73
 10
-600892.22
 20
-1159997.85
 10
-600897.71
 20
-1160016.3
 10
-600898.96
 20
-1160031.64
 10
-600897.96
 20
-1160044.94
 10
-600894.24
 20
-1160069.79
 10
-600890.01
 20
-1160099.45
 10
-600887.05
 20
-1160121.22
 10
-600883.39
 20
-1160144.8
  0
LWPOLYLINE
  5
20260
100
AcDbEntity
  8
0
100
AcDbPolyline
 70
0
 90
2
 10
-597029
 20
-1159606.23
 10
-597218.02
 20
-1159653.24
  0
LWPOLYLINE
  5
20261
100
AcDbEntity
  8
0
100
AcDbPolyline
 70
0
 90
3
 10
-596890.73
 20
-1159038.91
 10
-596857.02
 20
-1159030.41
 10
-596850.23
 20
-1159034.79
  0
LWPOLYLINE
  5
20262
100
AcDbEntity
  8
0
100
AcDbPolyline
 70
0
 90
2
 10
-597603.64
 20
-1159393.58
 10
-597521.04
 20
-1159336.9
  0
LWPOLYLINE
  5
20263
100
AcDbEntity
  8
0
100
AcDbPolyline
 70
0
 90
3
 10
-598107.1
 20
-1161290.18
 10
-598154.79
 20
-1161309.62
 10
-598166.73
 20
-1161314.49
  0
LWPOLYLINE
  5
20264
100
AcDbEntity
  8
0
100
AcDbPolyline
 70
0
 90
6
 10
-594482.1349
 20
-1157388.6664
 10
-594482.690000001
 20
-1157390.56
 10
-594482.77
 20
-1157390.78
 10
-594485.390000001
 20
-1157400.61
 10
-594489.890000001
 20
-1157418.45
 10
-594492.789700001
 20
-1157430.3678
  0
LWPOLYLINE
  5
20265
100
AcDbEntity
  8
0
100
AcDbPolyline
 70
0
 90
5
 10
-599762.19
 20
-1155411.74
 10
-599633.75
 20
-1155524.27
 10
-599532.46
 20
-1155613.02
 10
-599474.13
 20
-1155664.13
 10
-599454.23
 20
-1155681.56
  0
LWPOLYLINE
  5
20266
100
AcDbEntity
  8
0
100
AcDbPolyline
 70
0
 90
5
 10
-599763.82
 20
-1155409.7
 10
-599774.4
 20
-1155396.96
 10
-599788.29
 20
-1155384.22
 10
-599834.8
 20
-1155343.15
 10
-599845.88
 20
-1155336.19
  0
LWPOLYLINE
  5
20267
100
AcDbEntity
  8
0
100
AcDbPolyline
 70
0
 90
4
 10
-598156.35
 20
-1161340.38
 10
-598135.48
 20
-1161332
 10
-598113.51
 20
-1161323.19
 10
-598096.57
 20
-1161316.39
  0
LWPOLYLINE
  5
20268
100
AcDbEntity
  8
0
100
AcDbPolyline
 70
0
 90
6
 10
-597100.89
 20
-1160310.28
 10
-597003.02
 20
-1160291.55
 10
-596943.18
 20
-1160282.83
 10
-596884.82
 20
-1160274.57
 10
-596865.09
 20
-1160275.73
 10
-596794.37
 20
-1160284.57
  0
LWPOLYLINE
  5
20269
100
AcDbEntity
  8
0
100
AcDbPolyline
 70
0
 90
18
 10
-598363.44
 20
-1157494.61
 10
-598359.35
 20
-1157510.49
 10
-598365.72
 20
-1157511.9
 10
-598370.06
 20
-1157492.44
 10
-598369.96
 20
-1157465.86
 10
-598369.2
 20
-1157463.18
 10
-598367.14
 20
-1157461.71
 10
-598282.06
 20
-1157412.27
 10
-598284.62
 20
-1157407.91
 10
-598300.12
 20
-1157409.66
 10
-598301.43
 20
-1157409.66
 10
-598304.87
 20
-1157414.1
 10
-598298.93
 20
-1157423.91
 10
-598292.49
 20
-1157420.28
 10
-598288.74
 20
-1157419.78
 10
-598282.37
 20
-1157418.28
 10
-598274.93
 20
-1157414.28
 10
-598268.74
 20
-1157410.16
  0
LWPOLYLINE
  5
2026A
100
AcDbEntity
  8
0
100
AcDbPolyline
 70
0
 90
9
 10
-604951.39
 20
-1156313.77
 10
-604938.32
 20
-1156279.64
 10
-604919.38
 20
-1156228.42
 10
-604912.92
 20
-1156209.11
 10
-604907.29
 20
-1156188.26
 10
-604898.41
 20
-1156147.31
 10
-604890.15
 20
-1156108.58
 10
-604882.8
 20
-1156073.7
 10
-604880.89
 20
-1156063.03
  0
LWPOLYLINE
  5
2026B
100
AcDbEntity
  8
0
100
AcDbPolyline
 70
0
 90
2
 10
-598125.87
 20
-1160105.06
 10
-598121.87
 20
-1160170.82
  0
LWPOLYLINE
  5
2026C
100
AcDbEntity
  8
0
100
AcDbPolyline
 70
0
 90
2
 10
-598117.5
 20
-1160215.96
 10
-598114.88
 20
-1160278.7
  0
LWPOLYLINE
  5
2026D
100
AcDbEntity
  8
0
100
AcDbPolyline
 70
0
 90
2
 10
-598099.42
 20
-1160307.16
 10
-598102.6
 20
-1160216.52
  0
LWPOLYLINE
  5
2026E
100
AcDbEntity
  8
0
100
AcDbPolyline
 70
0
 90
9
 10
-597606.44
 20
-1163066.34
 10
-597607.84
 20
-1163067.69
 10
-597610.21
 20
-1163068.46
 10
-597620.46
 20
-1163069.25
 10
-597631.09
 20
-1163069.81
 10
-597642.9
 20
-1163069.69
 10
-597653.66
 20
-1163069.37
 10
-597663.02
 20
-1163067.88
 10
-597664.58
 20
-1163063.09
  0
LWPOLYLINE
  5
2026F
100
AcDbEntity
  8
0
100
AcDbPolyline
 70
0
 90
7
 10
-597662.91
 20
-1163096.68
 10
-597662.84
 20
-1163086.58
 10
-597659.94
 20
-1163085.47
 10
-597644.99
 20
-1163085.03
 10
-597613.47
 20
-1163084.1
 10
-597609.23
 20
-1163085.66
 10
-597606.87
 20
-1163086.06
  0
LWPOLYLINE
  5
20270
100
AcDbEntity
  8
0
100
AcDbPolyline
 70
0
 90
2
 10
-597606.35
 20
-1163070.87
 10
-597606.9
 20
-1163081.19
  0
LWPOLYLINE
  5
20271
100
AcDbEntity
  8
0
100
AcDbPolyline
 70
0
 90
5
 10
-599755.09
 20
-1156730.72
 10
-599745.89
 20
-1156737.31
 10
-599741
 20
-1156741.06
 10
-599725.89
 20
-1156752.65
 10
-599697.81
 20
-1156773.22
  0
LWPOLYLINE
  5
20272
100
AcDbEntity
  8
0
100
AcDbPolyline
 70
0
 90
5
 10
-599635.18
 20
-1156818.51
 10
-599640.07
 20
-1156809.53
 10
-599645.41
 20
-1156799.87
 10
-599650.86
 20
-1156791.69
 10
-599656.84
 20
-1156783.23
  0
LWPOLYLINE
  5
20273
100
AcDbEntity
  8
0
100
AcDbPolyline
 70
0
 90
8
 10
-599386.81
 20
-1160694.75
 10
-599398.47
 20
-1160686.73
 10
-599409.38
 20
-1160679.54
 10
-599418.76
 20
-1160672.96
 10
-599430.51
 20
-1160664.02
 10
-599436.68
 20
-1160658.24
 10
-599444.78
 20
-1160647.83
 10
-599451.55
 20
-1160634.81
  0
LWPOLYLINE
  5
20274
100
AcDbEntity
  8
0
100
AcDbPolyline
 70
0
 90
2
 10
-599200.43
 20
-1160433.57
 10
-599157.76
 20
-1160429.13
  0
LWPOLYLINE
  5
20275
100
AcDbEntity
  8
0
100
AcDbPolyline
 70
0
 90
2
 10
-599155.36
 20
-1160367.03
 10
-599150.92
 20
-1160407.41
  0
LWPOLYLINE
  5
20276
100
AcDbEntity
  8
0
100
AcDbPolyline
 70
0
 90
3
 10
-598768.04
 20
-1158501.14
 10
-598795.85
 20
-1158508.81
 10
-598831.43
 20
-1158518.63
  0
LWPOLYLINE
  5
20277
100
AcDbEntity
  8
0
100
AcDbPolyline
 70
0
 90
3
 10
-598227.93
 20
-1160710.2
 10
-598260
 20
-1160649
 10
-598307.35
 20
-1160549.53
  0
LWPOLYLINE
  5
20278
100
AcDbEntity
  8
0
100
AcDbPolyline
 70
0
 90
41
 10
-597107.66
 20
-1162366.44
 10
-597113.22
 20
-1162351.44
 10
-597120.08
 20
-1162332.96
 10
-597127.31
 20
-1162315.44
 10
-597131.19
 20
-1162306.06
 10
-597133.44
 20
-1162301.12
 10
-597136
 20
-1162296.12
 10
-597139.31
 20
-1162291.62
 10
-597141.94
 20
-1162288.74
 10
-597160.01
 20
-1162248.81
 10
-597177
 20
-1162211.48
 10
-597190.56
 20
-1162181.48
 10
-597202.81
 20
-1162154.79
 10
-597203.5
 20
-1162153.35
 10
-597203.63
 20
-1162151.54
 10
-597203.13
 20
-1162149.29
 10
-597201.69
 20
-1162146.1
 10
-597197.63
 20
-1162138.97
 10
-597188.31
 20
-1162123.16
 10
-597185.25
 20
-1162120.91
 10
-597171.94
 20
-1162109.1
 10
-597161.88
 20
-1162101.03
 10
-597156.31
 20
-1162093.84
 10
-597153.64
 20
-1162090
 10
-597153.87
 20
-1162087.03
 10
-597156.43
 20
-1162081.78
 10
-597164.31
 20
-1162066.21
 10
-597164.68
 20
-1162063.71
 10
-597164.25
 20
-1162060.96
 10
-597159.12
 20
-1162036.02
 10
-597158.56
 20
-1162031.27
 10
-597159.81
 20
-1162026.9
 10
-597171.19
 20
-1161990.46
 10
-597176.66
 20
-1161974.45
 10
-597182.03
 20
-1161959.36
 10
-597181.84
 20
-1161953.79
 10
-597191.15
 20
-1161926.43
 10
-597200.59
 20
-1161898.43
 10
-597202.4
 20
-1161893.93
 10
-597204.97
 20
-1161890.62
 10
-597218.34
 20
-1161879.87
  0
LWPOLYLINE
  5
20279
100
AcDbEntity
  8
0
100
AcDbPolyline
 70
0
 90
25
 10
-597475.16
 20
-1161376.87
 10
-597478.66
 20
-1161384.87
 10
-597481.41
 20
-1161394.87
 10
-597481.41
 20
-1161402.12
 10
-597480.66
 20
-1161411.12
 10
-597479.16
 20
-1161423.87
 10
-597476.66
 20
-1161432.87
 10
-597472.66
 20
-1161441.62
 10
-597463.91
 20
-1161451.87
 10
-597456.16
 20
-1161459.88
 10
-597447.66
 20
-1161467.38
 10
-597434.66
 20
-1161481.88
 10
-597427.41
 20
-1161493.13
 10
-597424.16
 20
-1161502.13
 10
-597423.66
 20
-1161516.88
 10
-597421.48
 20
-1161547.86
 10
-597444.91
 20
-1161615.89
 10
-597457.16
 20
-1161653.9
 10
-597454.97
 20
-1161656.4
 10
-597446.47
 20
-1161661.59
 10
-597434.97
 20
-1161667.59
 10
-597431.09
 20
-1161670.28
 10
-597426.22
 20
-1161673.96
 10
-597422.97
 20
-1161677.59
 10
-597420.72
 20
-1161681.22
  0
LWPOLYLINE
  5
2027A
100
AcDbEntity
  8
0
100
AcDbPolyline
 70
0
 90
21
 10
-594323.99
 20
-1159623.83
 10
-594345.17
 20
-1159621.63
 10
-594373.55
 20
-1159621.76
 10
-594382.71
 20
-1159623.16
 10
-594395.55
 20
-1159625.85
 10
-594408
 20
-1159630
 10
-594427
 20
-1159639.78
 10
-594442.22
 20
-1159649.11
 10
-594458.62
 20
-1159658.96
 10
-594489.3
 20
-1159677.46
 10
-594517.13
 20
-1159694.43
 10
-594563.03
 20
-1159722.43
 10
-594581.63
 20
-1159738.7
 10
-594586.13
 20
-1159753.64
 10
-594586.36
 20
-1159762.53
 10
-594585.9
 20
-1159773.52
 10
-594582.86
 20
-1159792.99
 10
-594574.56
 20
-1159817.48
 10
-594564.42
 20
-1159844.25
 10
-594550.23
 20
-1159881.79
 10
-594535.92
 20
-1159911.32
  0
LWPOLYLINE
  5
2027B
100
AcDbEntity
  8
0
100
AcDbPolyline
 70
0
 90
9
 10
-596260.85
 20
-1160076.08
 10
-596263.65
 20
-1160076.38
 10
-596317.23
 20
-1160078.16
 10
-596337.91
 20
-1160078.67
 10
-596343.21
 20
-1160078.8
 10
-596347.36
 20
-1160077.49
 10
-596377.35
 20
-1160048.93
 10
-596425.26
 20
-1160000.56
 10
-596444.86
 20
-1159980.98
  0
LWPOLYLINE
  5
2027C
100
AcDbEntity
  8
0
100
AcDbPolyline
 70
0
 90
27
 10
-604345.57
 20
-1154886.7
 10
-604355.96
 20
-1154909.31
 10
-604366.73
 20
-1154929.35
 10
-604375.18
 20
-1154937.41
 10
-604388.28
 20
-1154943.83
 10
-604412.6
 20
-1154950.69
 10
-604426.22
 20
-1154954.58
 10
-604434.61
 20
-1154958.94
 10
-604441.59
 20
-1154966.11
 10
-604447.13
 20
-1154974.22
 10
-604449.32
 20
-1154979.81
 10
-604451.06
 20
-1154988.74
 10
-604450.95
 20
-1154996.09
 10
-604448.95
 20
-1155006.07
 10
-604442.71
 20
-1155017.97
 10
-604428.53
 20
-1155036.97
 10
-604409.25
 20
-1155061.82
 10
-604361.54
 20
-1155122.93
 10
-604356.08
 20
-1155132.73
 10
-604350.91
 20
-1155147.24
 10
-604344.79
 20
-1155168.14
 10
-604329.11
 20
-1155218.29
 10
-604311.22
 20
-1155275.84
 10
-604295.41
 20
-1155312.3
 10
-604293
 20
-1155317.86
 10
-604271.51
 20
-1155341.94
 10
-604229.67
 20
-1155385.75
  0
LWPOLYLINE
  5
2027D
100
AcDbEntity
  8
0
100
AcDbPolyline
 70
0
 90
26
 10
-596003.88
 20
-1168366.79
 10
-596005.99
 20
-1168371.27
 10
-596006.42
 20
-1168378.81
 10
-596000.51
 20
-1168392.91
 10
-595990.02
 20
-1168410.01
 10
-595981.63
 20
-1168429.1
 10
-595975.24
 20
-1168450.83
 10
-595975.22
 20
-1168483.89
 10
-595980.25
 20
-1168523.34
 10
-595985.59
 20
-1168581.98
 10
-595991.27
 20
-1168606.28
 10
-596015.14
 20
-1168660.72
 10
-596059.21
 20
-1168749.95
 10
-596076.95
 20
-1168786.08
 10
-596108.26
 20
-1168830.7
 10
-596143.59
 20
-1168885.66
 10
-596190.77
 20
-1168934.71
 10
-596193.29
 20
-1168945.45
 10
-596182.77
 20
-1168979.72
 10
-596130.27
 20
-1169123.74
 10
-596121.76
 20
-1169135.24
 10
-596099.76
 20
-1169139.24
 10
-596073.76
 20
-1169137.24
 10
-596042.25
 20
-1169137.24
 10
-596026.25
 20
-1169143.24
 10
-596015.56
 20
-1169155.11
  0
LWPOLYLINE
  5
2027E
100
AcDbEntity
  8
0
100
AcDbPolyline
 70
0
 90
32
 10
-601939.41
 20
-1160341.57
 10
-601960.92
 20
-1160299.29
 10
-601979
 20
-1160256.45
 10
-601999.5
 20
-1160227.21
 10
-602034.85
 20
-1160192.07
 10
-602087.14
 20
-1160162.36
 10
-602120.2
 20
-1160151.01
 10
-602173.71
 20
-1160135.97
 10
-602218.03
 20
-1160123.41
 10
-602267.57
 20
-1160095.38
 10
-602331.98
 20
-1160050.96
 10
-602378.82
 20
-1160018.65
 10
-602422.05
 20
-1159988.22
 10
-602466.25
 20
-1159970.06
 10
-602494.57
 20
-1159964.22
 10
-602534.28
 20
-1159965.07
 10
-602578.83
 20
-1159978.11
 10
-602614.71
 20
-1160001.12
 10
-602637.01
 20
-1160024.28
 10
-602657.08
 20
-1160056.7
 10
-602673.25
 20
-1160110.4
 10
-602694.07
 20
-1160222.96
 10
-602714.85
 20
-1160299.44
 10
-602728.25
 20
-1160324.27
 10
-602744.2
 20
-1160344.27
 10
-602769.12
 20
-1160367.74
 10
-602786.7
 20
-1160379.61
 10
-602805
 20
-1160390
 10
-602808.51
 20
-1160391.39
 10
-602835.51
 20
-1160400.34
 10
-602863.03
 20
-1160403.83
 10
-602899.02
 20
-1160403.17
  0
LWPOLYLINE
  5
2027F
100
AcDbEntity
  8
0
100
AcDbPolyline
 70
0
 90
19
 10
-602902.73
 20
-1160402.79
 10
-602912.26
 20
-1160398.59
 10
-602933.29
 20
-1160389.64
 10
-602980.04
 20
-1160362.48
 10
-603022.06
 20
-1160327.46
 10
-603083.3
 20
-1160268.34
 10
-603133.35
 20
-1160222.16
 10
-603179.6
 20
-1160178.91
 10
-603260.05
 20
-1160104.05
 10
-603328.74
 20
-1160039.26
 10
-603355.93
 20
-1160015.8
 10
-603376.7
 20
-1160004.98
 10
-603396.1
 20
-1160000.43
 10
-603411.84
 20
-1159999.67
 10
-603450.02
 20
-1160004.51
 10
-603465.7
 20
-1160009.5
 10
-603474.95
 20
-1160013.94
 10
-603485.21
 20
-1160020
 10
-603491.39
 20
-1160024.19
  0
LWPOLYLINE
  5
20280
100
AcDbEntity
  8
0
100
AcDbPolyline
 70
0
 90
19
 10
-603485.39
 20
-1160031.75
 10
-603470.77
 20
-1160022.56
 10
-603462.27
 20
-1160018.94
 10
-603441.39
 20
-1160013.39
 10
-603427.33
 20
-1160011.39
 10
-603414.64
 20
-1160011.01
 10
-603401.89
 20
-1160013.2
 10
-603394.89
 20
-1160016.95
 10
-603366.13
 20
-1160028.64
 10
-603356.51
 20
-1160034.33
 10
-603245.18
 20
-1160138.58
 10
-603099.62
 20
-1160274.68
 10
-603054.85
 20
-1160316.69
 10
-603036.56
 20
-1160333.93
 10
-602985.26
 20
-1160376.55
 10
-602966.58
 20
-1160391.69
 10
-602945.47
 20
-1160400.07
 10
-602917.83
 20
-1160408.44
 10
-602907.32
 20
-1160410.69
  0
LWPOLYLINE
  5
20281
100
AcDbEntity
  8
0
100
AcDbPolyline
 70
0
 90
6
 10
-603492.36
 20
-1160026
 10
-603515.61
 20
-1160048
 10
-603571.49
 20
-1160102.63
 10
-603652.88
 20
-1160180.17
 10
-603703.63
 20
-1160228.55
 10
-603714.39
 20
-1160238.3
  0
LWPOLYLINE
  5
20282
100
AcDbEntity
  8
0
100
AcDbPolyline
 70
0
 90
15
 10
-599666.272
 20
-1157746.792
 10
-599658.186000001
 20
-1157747.474
 10
-599650.002
 20
-1157746.694
 10
-599643.375999998
 20
-1157745.525
 10
-599635.874000002
 20
-1157742.797
 10
-599630.807999998
 20
-1157740.556
 10
-599624.377
 20
-1157736.951
 10
-599618.824000001
 20
-1157732.859
 10
-599612.101
 20
-1157728.67
 10
-599609.373
 20
-1157726.916
 10
-599605.476
 20
-1157723.993
 10
-599601.969000001
 20
-1157722.142
 10
-599597.487
 20
-1157719.609
 10
-599592.322999999
 20
-1157717.173
 10
-599583.067000002
 20
-1157713.373
  0
LWPOLYLINE
  5
20283
100
AcDbEntity
  8
0
100
AcDbPolyline
 70
0
 90
11
 10
-595901.84
 20
-1160304.61
 10
-595807.48
 20
-1160321.43
 10
-595787.04
 20
-1160325.08
 10
-595764.4
 20
-1160320.87
 10
-595751.94
 20
-1160318.56
 10
-595748.33
 20
-1160330.41
 10
-595726.72
 20
-1160328
 10
-595700.81
 20
-1160321.15
 10
-595678.68
 20
-1160314.09
 10
-595652.65
 20
-1160301.58
 10
-595642.75
 20
-1160296.63
  0
LWPOLYLINE
  5
20284
100
AcDbEntity
  8
0
100
AcDbPolyline
 70
0
 90
5
 10
-595353.84
 20
-1160706.8
 10
-595361.78
 20
-1160709.17
 10
-595364.93
 20
-1160712.83
 10
-595365.28
 20
-1160717.05
 10
-595357.77
 20
-1160744.17
  0
LWPOLYLINE
  5
20285
100
AcDbEntity
  8
0
100
AcDbPolyline
 70
0
 90
2
 10
-595792.34
 20
-1158853.35
 10
-595801.9
 20
-1158852.66
  0
LWPOLYLINE
  5
20286
100
AcDbEntity
  8
0
100
AcDbPolyline
 70
0
 90
2
 10
-595773.27
 20
-1158864.16
 10
-595769.15
 20
-1158876.92
  0
LWPOLYLINE
  5
20287
100
AcDbEntity
  8
0
100
AcDbPolyline
 70
0
 90
9
 10
-595791.65
 20
-1158853.35
 10
-595789.27
 20
-1158853.41
 10
-595786.34
 20
-1158853.85
 10
-595784.52
 20
-1158854.48
 10
-595782.52
 20
-1158855.35
 10
-595779.21
 20
-1158857.29
 10
-595776.84
 20
-1158859.23
 10
-595774.77
 20
-1158861.54
 10
-595773.59
 20
-1158863.23
  0
LWPOLYLINE
  5
20288
100
AcDbEntity
  8
0
100
AcDbPolyline
 70
0
 90
21
 10
-594212.2
 20
-1161816
 10
-594145.8
 20
-1161759.13
 10
-594097.85
 20
-1161718.42
 10
-594030.2
 20
-1161660.47
 10
-593969.48
 20
-1161606.36
 10
-593897.55
 20
-1161532.65
 10
-593865.29
 20
-1161484.47
 10
-593839.86
 20
-1161428.68
 10
-593828.19
 20
-1161391.39
 10
-593820.53
 20
-1161335.72
 10
-593825.67
 20
-1161263.54
 10
-593838.6
 20
-1161192.28
 10
-593852.52
 20
-1161137.69
 10
-593888.58
 20
-1161010.04
 10
-593905.55
 20
-1160945.04
 10
-593917.69
 20
-1160878.21
 10
-593919.61
 20
-1160826.15
 10
-593918.36
 20
-1160805.84
 10
-593895.8
 20
-1160693.14
 10
-593871.25
 20
-1160593.92
 10
-593865.6
 20
-1160588.06
  0
LWPOLYLINE
  5
20289
100
AcDbEntity
  8
0
100
AcDbPolyline
 70
0
 90
5
 10
-600777.46
 20
-1159138.54
 10
-600772.03
 20
-1159143.36
 10
-600807.28
 20
-1159203.65
 10
-600848.47
 20
-1159273.89
 10
-600855.04
 20
-1159271.01
  0
LWPOLYLINE
  5
2028A
100
AcDbEntity
  8
0
100
AcDbPolyline
 70
0
 90
11
 10
-600809.81
 20
-1159207.98
 10
-600761.68
 20
-1159236.83
 10
-600759.39
 20
-1159232.63
 10
-600753.92
 20
-1159220.71
 10
-600747.21
 20
-1159206.1
 10
-600739.1
 20
-1159189.46
 10
-600732.13
 20
-1159174.8
 10
-600727.8
 20
-1159161.91
 10
-600724.45
 20
-1159150.22
 10
-600709.42
 20
-1159158.85
 10
-600701.14
 20
-1159163.62
  0
LWPOLYLINE
  5
2028B
100
AcDbEntity
  8
0
100
AcDbPolyline
 70
0
 90
9
 10
-601685.62
 20
-1158026.84
 10
-601705.15
 20
-1157991.98
 10
-601719.09
 20
-1157967.44
 10
-601732.65
 20
-1157943.48
 10
-601744.79
 20
-1157921.58
 10
-601759.37
 20
-1157896.27
 10
-601769.85
 20
-1157878.79
 10
-601779.53
 20
-1157863.08
 10
-601784.75
 20
-1157854.89
  0
LWPOLYLINE
  5
2028C
100
AcDbEntity
  8
0
100
AcDbPolyline
 70
0
 90
10
 10
-601540.27
 20
-1158276.74
 10
-601554.37
 20
-1158257.05
 10
-601573.09
 20
-1158226.05
 10
-601588.05
 20
-1158199.53
 10
-601605.5
 20
-1158168.61
 10
-601620.8
 20
-1158141.49
 10
-601632.16
 20
-1158121.35
 10
-601644.39
 20
-1158099.69
 10
-601662.11
 20
-1158068.55
 10
-601678.09
 20
-1158040.55
  0
LWPOLYLINE
  5
2028D
100
AcDbEntity
  8
0
100
AcDbPolyline
 70
0
 90
6
 10
-601452.6
 20
-1158360.53
 10
-601463
 20
-1158353.38
 10
-601478.31
 20
-1158342.26
 10
-601494.27
 20
-1158327.74
 10
-601512.54
 20
-1158310.19
 10
-601519.98
 20
-1158302.11
  0
LWPOLYLINE
  5
2028E
100
AcDbEntity
  8
0
100
AcDbPolyline
 70
0
 90
4
 10
-601301.58
 20
-1158425.43
 10
-601365.05
 20
-1158402.83
 10
-601391.94
 20
-1158392.64
 10
-601401.94
 20
-1158388.5
  0
LWPOLYLINE
  5
2028F
100
AcDbEntity
  8
0
100
AcDbPolyline
 70
0
 90
3
 10
-601214.14
 20
-1158456.18
 10
-601241.23
 20
-1158446.58
 10
-601267.31
 20
-1158437.34
  0
LWPOLYLINE
  5
20290
100
AcDbEntity
  8
0
100
AcDbPolyline
 70
0
 90
7
 10
-600979.28
 20
-1158538.47
 10
-601007.01
 20
-1158528.94
 10
-601041.75
 20
-1158516.87
 10
-601070.05
 20
-1158506.94
 10
-601109.63
 20
-1158493.01
 10
-601170.8
 20
-1158471.47
 10
-601191.42
 20
-1158464.22
  0
LWPOLYLINE
  5
20291
100
AcDbEntity
  8
0
100
AcDbPolyline
 70
0
 90
15
 10
-596735.8
 20
-1161645.58
 10
-596731.85
 20
-1161637.81
 10
-596727.48
 20
-1161627.37
 10
-596726.66
 20
-1161622.87
 10
-596726.66
 20
-1161616.56
 10
-596727.79
 20
-1161586.49
 10
-596729.35
 20
-1161572.18
 10
-596731.23
 20
-1161556.49
 10
-596733.41
 20
-1161539.36
 10
-596734.91
 20
-1161528.61
 10
-596736.35
 20
-1161525.61
 10
-596738.66
 20
-1161524.3
 10
-596742.48
 20
-1161523.73
 10
-596746.35
 20
-1161523.67
 10
-596747.69
 20
-1161523.69
  0
LWPOLYLINE
  5
20292
100
AcDbEntity
  8
0
100
AcDbPolyline
 70
0
 90
2
 10
-596626.54
 20
-1160028.75
 10
-596627.35
 20
-1160047.6
  0
LWPOLYLINE
  5
20293
100
AcDbEntity
  8
0
100
AcDbPolyline
 70
0
 90
2
 10
-596697.33
 20
-1162966.71
 10
-596703.95
 20
-1162989.72
  0
LWPOLYLINE
  5
20294
100
AcDbEntity
  8
0
100
AcDbPolyline
 70
0
 90
6
 10
-595916.33
 20
-1158889.33
 10
-596015.28
 20
-1158850.16
 10
-596050.85
 20
-1158833.21
 10
-596078.92
 20
-1158819.43
 10
-596112.55
 20
-1158803.76
 10
-596140.63
 20
-1158794.04
  0
LWPOLYLINE
  5
20295
100
AcDbEntity
  8
0
100
AcDbPolyline
 70
0
 90
2
 10
-597375.91
 20
-1163113.41
 10
-597359.51
 20
-1163108.69
  0
ENDSEC
  0
SECTION
  2
OBJECTS
  0
DICTIONARY
  5
C
330
0
100
AcDbDictionary
281
     1
  3
ACAD_GROUP
350
D
  3
ACAD_LAYOUT
350
1A
  3
ACAD_MLEADERSTYLE
350
43
  3
ACAD_PLOTSETTINGS
350
19
  3
ACAD_PLOTSTYLENAME
350
E
  3
ACAD_TABLESTYLE
350
42
  0
DICTIONARY
  5
D
102
{ACAD_REACTORS
330
C
102
}
330
C
100
AcDbDictionary
281
     1
  0
DICTIONARY
  5
1A
102
{ACAD_REACTORS
330
C
102
}
330
C
100
AcDbDictionary
281
     1
  3
Layout1
350
1E
  3
Model
350
22
  0
DICTIONARY
  5
43
102
{ACAD_REACTORS
330
C
102
}
330
C
100
AcDbDictionary
281
     1
  0
DICTIONARY
  5
19
102
{ACAD_REACTORS
330
C
102
}
330
C
100
AcDbDictionary
281
     1
  0
ACDBDICTIONARYWDFLT
  5
E
102
{ACAD_REACTORS
330
C
102
}
330
C
100
AcDbDictionary
281
     1
  3
Normal
350
F
100
AcDbDictionaryWithDefault
340
F
  0
DICTIONARY
  5
42
102
{ACAD_REACTORS
330
C
102
}
330
C
100
AcDbDictionary
281
     1
  0
LAYOUT
  5
1E
102
{ACAD_REACTORS
330
1A
102
}
330
1A
100
AcDbPlotSettings
  1

  2
none_device
  4

  6

 40
0.0
 41
0.0
 42
0.0
 43
0.0
 44
0.0
 45
0.0
 46
0.0
 47
0.0
 48
0.0
 49
0.0
140
0.0
141
0.0
142
1.0
143
1.0
 70
   688
 72
     0
 73
     0
 74
     5
  7

 75
    16
 76
     0
 77
     2
 78
   300
147
1.0
148
0.0
149
0.0
100
AcDbLayout
  1
Layout1
 70
     1
 71
     1
 10
0.0
 20
0.0
 11
12.0
 21
9.0
 12
0.0
 22
0.0
 32
0.0
 14
1.000000000000000E+20
 24
1.000000000000000E+20
 34
1.000000000000000E+20
 15
-1.000000000000000E+20
 25
-1.000000000000000E+20
 35
-1.000000000000000E+20
146
0.0
 13
0.0
 23
0.0
 33
0.0
 16
1.0
 26
0.0
 36
0.0
 17
0.0
 27
1.0
 37
0.0
 76
     0
330
1B
  0
LAYOUT
  5
22
102
{ACAD_REACTORS
330
1A
102
}
330
1A
100
AcDbPlotSettings
  1

  2
none_device
  4

  6

 40
0.0
 41
0.0
 42
0.0
 43
0.0
 44
0.0
 45
0.0
 46
0.0
 47
0.0
 48
0.0
 49
0.0
140
0.0
141
0.0
142
1.0
143
1.0
 70
  1712
 72
     0
 73
     0
 74
     0
  7

 75
     0
 76
     0
 77
     2
 78
   300
147
1.0
148
0.0
149
0.0
100
AcDbLayout
  1
Model
 70
     1
 71
     0
 10
0.0
 20
0.0
 11
12.0
 21
9.0
 12
0.0
 22
0.0
 32
0.0
 14
30.0
 24
49.75
 34
0.0
 15
130.5
 25
163.1318914119703
 35
0.0
146
0.0
 13
0.0
 23
0.0
 33
0.0
 16
1.0
 26
0.0
 36
0.0
 17
0.0
 27
1.0
 37
0.0
 76
     0
330
1F
331
29
  0
ENDSEC
  0
EOF
