  0
SECTION
  2
HEADER
  9
$ACADVER
  1
AC1018
  9
$ACADMAINTVER
 70
     0
  9
$DWGCODEPAGE
  3
ANSI_1252
  9
$EXTMIN
 10
16.4610471869211
 20
49.1127681549065
 30
0.0
  9
$EXTMAX
 10
16.718723964891
 20
49.2909088281172
 30
0.0
  9
$LIMMIN
 10
0.0
 20
0.0
  9
$LIMMAX
 10
12.0
 20
9.0
  9
$ORTHOMODE
 70
     0
  9
$REGENMODE
 70
     1
  9
$FILLMODE
 70
     1
  9
$QTEXTMODE
 70
     0
  9
$MIRRTEXT
 70
     1
  9
$LTSCALE
 40
1.0
  9
$ATTMODE
 70
     1
  9
$TEXTSIZE
 40
0.2
  9
$TRACEWID
 40
0.05
  9
$TEXTSTYLE
  7
Standard
  9
$CLAYER
  8
0
  9
$CELTYPE
  6
ByLayer
  9
$CECOLOR
 62
   256
  9
$CELTSCALE
 40
1.0
  9
$DISPSILH
 70
     0
  9
$LUNITS
 70
     2
  9
$LUPREC
 70
     4
  9
$SKETCHINC
 40
0.1
  9
$FILLETRAD
 40
0.5
  9
$AUNITS
 70
     0
  9
$AUPREC
 70
     0
  9
$MENU
  1
.
  9
$ELEVATION
 40
0.0
  9
$PELEVATION
 40
0.0
  9
$THICKNESS
 40
0.0
  9
$LIMCHECK
 70
     0
  9
$CHAMFERA
 40
0.5
  9
$CHAMFERB
 40
0.5
  9
$CHAMFERC
 40
1.0
  9
$CHAMFERD
 40
0.0
  9
$SKPOLY
 70
     0
  9
$ANGBASE
 50
0.0
  9
$ANGDIR
 70
     0
  9
$PDMODE
 70
     0
  9
$PDSIZE
 40
0.0
  9
$PLINEWID
 40
0.0
  9
$SPLFRAME
 70
     0
  9
$SPLINETYPE
 70
     6
  9
$SPLINESEGS
 70
     8
  9
$HANDSEED
  5
00020296
  9
$SURFTAB1
 70
     6
  9
$SURFTAB2
 70
     6
  9
$SURFTYPE
 70
     6
  9
$SURFU
 70
     6
  9
$SURFV
 70
     6
  9
$UCSBASE
  2

  9
$UCSNAME
  2

  9
$UCSORG
 10
0.0
 20
0.0
 30
0.0
  9
$UCSXDIR
 10
1.0
 20
0.0
 30
0.0
  9
$UCSYDIR
 10
0.0
 20
1.0
 30
0.0
  9
$UCSORTHOREF
  2

  9
$UCSORTHOVIEW
 70
     0
  9
$UCSORGTOP
 10
0.0
 20
0.0
 30
0.0
  9
$UCSORGBOTTOM
 10
0.0
 20
0.0
 30
0.0
  9
$UCSORGLEFT
 10
0.0
 20
0.0
 30
0.0
  9
$UCSORGRIGHT
 10
0.0
 20
0.0
 30
0.0
  9
$UCSORGFRONT
 10
0.0
 20
0.0
 30
0.0
  9
$UCSORGBACK
 10
0.0
 20
0.0
 30
0.0
  9
$PUCSBASE
  2

  9
$PUCSNAME
  2

  9
$PUCSORG
 10
0.0
 20
0.0
 30
0.0
  9
$PUCSXDIR
 10
1.0
 20
0.0
 30
0.0
  9
$PUCSYDIR
 10
0.0
 20
1.0
 30
0.0
  9
$PUCSORTHOREF
  2

  9
$PUCSORTHOVIEW
 70
     0
  9
$PUCSORGTOP
 10
0.0
 20
0.0
 30
0.0
  9
$PUCSORGBOTTOM
 10
0.0
 20
0.0
 30
0.0
  9
$PUCSORGLEFT
 10
0.0
 20
0.0
 30
0.0
  9
$PUCSORGRIGHT
 10
0.0
 20
0.0
 30
0.0
  9
$PUCSORGFRONT
 10
0.0
 20
0.0
 30
0.0
  9
$PUCSORGBACK
 10
0.0
 20
0.0
 30
0.0
  9
$WORLDVIEW
 70
     1
  9
$SHADEDGE
 70
     3
  9
$SHADEDIF
 70
    70
  9
$TILEMODE
 70
     1
  9
$MAXACTVP
 70
    64
  9
$PINSBASE
 10
0.0
 20
0.0
 30
0.0
  9
$PLIMCHECK
 70
     0
  9
$PEXTMIN
 10
1.000000000000000E+20
 20
1.000000000000000E+20
 30
1.000000000000000E+20
  9
$PEXTMAX
 10
-1.000000000000000E+20
 20
-1.000000000000000E+20
 30
-1.000000000000000E+20
  9
$PLIMMIN
 10
0.0
 20
0.0
  9
$PLIMMAX
 10
12.0
 20
9.0
  9
$UNITMODE
 70
     0
  9
$VISRETAIN
 70
     1
  9
$PLINEGEN
 70
     0
  9
$PSLTSCALE
 70
     1
  9
$TREEDEPTH
 70
  3020
  9
$CMLSTYLE
  2
Standard
  9
$CMLJUST
 70
     0
  9
$CMLSCALE
 40
1.0
  9
$PROXYGRAPHICS
 70
     1
  9
$MEASUREMENT
 70
     0
  9
$CELWEIGHT
370
    -1
  9
$ENDCAPS
280
     0
  9
$JOINSTYLE
280
     0
  9
$LWDISPLAY
290
     0
  9
$INSUNITS
 70
     1
  9
$HYPERLINKBASE
  1

  9
$STYLESHEET
  1

  9
$XEDIT
290
     1
  9
$CEPSNTYPE
380
     0
  9
$PSTYLEMODE
290
     1
  9
$EXTNAMES
290
     1
  9
$PSVPSCALE
 40
0.0
  9
$OLESTARTUP
290
     0
  9
$SORTENTS
280
   127
  9
$INDEXCTL
280
     0
  9
$HIDETEXT
280
     1
  9
$XCLIPFRAME
290
     0
  9
$HALOGAP
280
     0
  9
$OBSCOLOR
 70
   257
  9
$OBSLTYPE
280
     0
  9
$INTERSECTIONDISPLAY
280
     0
  9
$INTERSECTIONCOLOR
 70
   257
  9
$DIMASSOC
280
     2
  9
$PROJECTNAME
  1

  0
ENDSEC
  0
SECTION
  2
CLASSES
  0
CLASS
  1
ACDBDICTIONARYWDFLT
  2
AcDbDictionaryWithDefault
  3
ObjectDBX Classes
 90
        0
 91
        4
280
     0
281
     0
  0
ENDSEC
  0
SECTION
  2
TABLES
  0
TABLE
  2
VPORT
  5
8
330
0
100
AcDbSymbolTable
 70
     1
  0
VPORT
  5
29
330
8
100
AcDbSymbolTableRecord
100
AcDbViewportTableRecord
  2
*Active
 70
     0
 10
0.0
 20
0.0
 11
1.0
 21
1.0
 12
80.25
 22
106.4409457059851
 13
0.0
 23
0.0
 14
0.5
 24
0.5
 15
0.5
 25
0.5
 16
0.0
 26
0.0
 36
1.0
 17
0.0
 27
0.0
 37
0.0
 40
113.3818914119703
 41
0.8863849310366128
 42
50.0
 43
0.0
 44
0.0
 50
0.0
 51
0.0
 71
     0
 72
  1000
 73
     1
 74
     3
 75
     0
 76
     0
 77
     0
 78
     0
281
     0
 65
     1
110
0.0
120
0.0
130
0.0
111
1.0
121
0.0
131
0.0
112
0.0
122
1.0
132
0.0
 79
     0
146
0.0
  0
ENDTAB
  0
TABLE
  2
LTYPE
  5
5
330
0
100
AcDbSymbolTable
 70
     1
  0
LTYPE
  5
14
330
5
100
AcDbSymbolTableRecord
100
AcDbLinetypeTableRecord
  2
ByBlock
 70
     0
  3

 72
    65
 73
     0
 40
0.0
  0
LTYPE
  5
15
330
5
100
AcDbSymbolTableRecord
100
AcDbLinetypeTableRecord
  2
ByLayer
 70
     0
  3

 72
    65
 73
     0
 40
0.0
  0
LTYPE
  5
16
330
5
100
AcDbSymbolTableRecord
100
AcDbLinetypeTableRecord
  2
Continuous
 70
     0
  3
Solid line
 72
    65
 73
     0
 40
0.0
  0
ENDTAB
  0
TABLE
  2
LAYER
  5
2
330
0
100
AcDbSymbolTable
 70
     1
  0
LAYER
  5
10
330
2
100
AcDbSymbolTableRecord
100
AcDbLayerTableRecord
  2
0
 70
     0
 62
     7
  6
Continuous
370
    -3
390
F
  0
ENDTAB
  0
TABLE
  2
STYLE
  5
3
330
0
100
AcDbSymbolTable
 70
     1
  0
STYLE
  5
11
330
3
100
AcDbSymbolTableRecord
100
AcDbTextStyleTableRecord
  2
Standard
 70
     0
 40
0.0
 41
1.0
 50
0.0
 71
     0
 42
0.2
  3
txt
  4

  0
ENDTAB
  0
TABLE
  2
VIEW
  5
6
330
0
100
AcDbSymbolTable
 70
     0
  0
ENDTAB
  0
TABLE
  2
UCS
  5
7
330
0
100
AcDbSymbolTable
 70
     0
  0
ENDTAB
  0
TABLE
  2
APPID
  5
9
330
0
100
AcDbSymbolTable
 70
     1
  0
APPID
  5
12
330
9
100
AcDbSymbolTableRecord
100
AcDbRegAppTableRecord
  2
ACAD
 70
     0
  0
ENDTAB
  0
TABLE
  2
DIMSTYLE
  5
A
330
0
100
AcDbSymbolTable
 70
     1
100
AcDbDimStyleTable
  0
DIMSTYLE
105
27
330
A
100
AcDbSymbolTableRecord
100
AcDbDimStyleTableRecord
  2
Standard
 70
     0
340
11
  0
ENDTAB
  0
TABLE
  2
BLOCK_RECORD
  5
1
330
0
100
AcDbSymbolTable
 70
     1
  0
BLOCK_RECORD
  5
1F
330
1
100
AcDbSymbolTableRecord
100
AcDbBlockTableRecord
  2
*Model_Space
340
22
  0
BLOCK_RECORD
  5
1B
330
1
100
AcDbSymbolTableRecord
100
AcDbBlockTableRecord
  2
*Paper_Space
340
1E
  0
ENDTAB
  0
ENDSEC
  0
SECTION
  2
BLOCKS
  0
BLOCK
  5
20
330
1F
100
AcDbEntity
  8
0
100
AcDbBlockBegin
  2
*Model_Space
 70
     0
 10
0.0
 20
0.0
 30
0.0
  3
*Model_Space
  1

  0
ENDBLK
  5
21
330
1F
100
AcDbEntity
  8
0
100
AcDbBlockEnd
  0
BLOCK
  5
1C
330
1B
100
AcDbEntity
 67
     1
  8
0
100
AcDbBlockBegin
  2
*Paper_Space
 70
     0
 10
0.0
 20
0.0
 30
0.0
  3
*Paper_Space
  1

  0
ENDBLK
  5
1D
330
1B
100
AcDbEntity
 67
     1
  8
0
100
AcDbBlockEnd
  0
ENDSEC
  0
SECTION
  2
ENTITIES
  0
LWPOLYLINE
  5
20000
100
AcDbEntity
  8
0
100
AcDbPolyline
 70
0
 90
5
 10
16.5989705330014
 20
49.199888573865
 10
16.6001970792833
 20
49.2000589594834
 10
16.6005523619558
 20
49.200108304908
 10
16.6007902486791
 20
49.2001413648259
 10
16.6009802149603
 20
49.2001703930398
  0
LWPOLYLINE
  5
20001
100
AcDbEntity
  8
0
100
AcDbPolyline
 70
0
 90
2
 10
16.6133494831645
 20
49.1965975420908
 10
16.6127356157762
 20
49.1963629553144
  0
LWPOLYLINE
  5
20002
100
AcDbEntity
  8
0
100
AcDbPolyline
 70
0
 90
5
 10
16.6464723694672
 20
49.1961280652992
 10
16.6464539683611
 20
49.1961586042864
 10
16.6464265642627
 20
49.1962918868541
 10
16.646399428058
 20
49.1964672451641
 10
16.646388009381
 20
49.1966031925456
  0
LWPOLYLINE
  5
20003
100
AcDbEntity
  8
0
100
AcDbPolyline
 70
0
 90
14
 10
16.5967924524751
 20
49.199582650234
 10
16.5963139579824
 20
49.1995155055141
 10
16.5960467197555
 20
49.1994780015927
 10
16.5959632154961
 20
49.1994662876831
 10
16.5958353283586
 20
49.1994483491292
 10
16.5956547032504
 20
49.1994229597576
 10
16.5954725923828
 20
49.1993973742098
 10
16.5952261290807
 20
49.1993627896988
 10
16.5949405450502
 20
49.1993227149243
 10
16.5948274111681
 20
49.1993065457667
 10
16.5943827153419
 20
49.1992428766106
 10
16.5938488760853
 20
49.1991665472076
 10
16.5936394554168
 20
49.199140015306
 10
16.5934626978903
 20
49.1991112787838
  0
LWPOLYLINE
  5
20004
100
AcDbEntity
  8
0
100
AcDbPolyline
 70
0
 90
6
 10
16.6072815945845
 20
49.1935856576966
 10
16.6071846301554
 20
49.1936723115482
 10
16.6071447843623
 20
49.1937172454249
 10
16.6070577488716
 20
49.1939026505473
 10
16.6069301269155
 20
49.194194352506
 10
16.6070356909363
 20
49.1942170290068
  0
LWPOLYLINE
  5
20005
100
AcDbEntity
  8
0
100
AcDbPolyline
 70
0
 90
31
 10
16.6175295282453
 20
49.1866149504443
 10
16.6174596659162
 20
49.186729940218
 10
16.6174093630352
 20
49.1868225264849
 10
16.6173858704033
 20
49.186868801361
 10
16.6173758385096
 20
49.186945605785
 10
16.6172965031351
 20
49.1870502469482
 10
16.6171812408665
 20
49.1872054383342
 10
16.6171070260744
 20
49.1872940706697
 10
16.6170130681358
 20
49.1874145905363
 10
16.6168717096654
 20
49.1875815921961
 10
16.6167955033999
 20
49.1876722542012
 10
16.6166530931935
 20
49.1878188302629
 10
16.6165258713435
 20
49.1879477585101
 10
16.6163121693629
 20
49.1881610133179
 10
16.6161777977051
 20
49.1882906109787
 10
16.616147474466
 20
49.1883280808638
 10
16.6160683326331
 20
49.1884524530496
 10
16.615959406362
 20
49.1885482150915
 10
16.6157546344408
 20
49.1887281830753
 10
16.6155958425254
 20
49.188875316994
 10
16.6152895792495
 20
49.1891837723093
 10
16.615067312755
 20
49.1894179460058
 10
16.6149863118666
 20
49.1895117048145
 10
16.6148824522182
 20
49.189681359889
 10
16.6148625554759
 20
49.1897392856659
 10
16.6148164689713
 20
49.1899452310865
 10
16.6147967749322
 20
49.1900337429731
 10
16.6147586156121
 20
49.1901915881129
 10
16.6147225098208
 20
49.1903219012588
 10
16.6147002986222
 20
49.1904198225157
 10
16.6146980950164
 20
49.1904281686975
  0
LWPOLYLINE
  5
20006
100
AcDbEntity
  8
0
100
AcDbPolyline
 70
0
 90
14
 10
16.6155399915232
 20
49.1885074868546
 10
16.6158197458585
 20
49.1882434643185
 10
16.6159494559919
 20
49.1881212251522
 10
16.6160411225785
 20
49.1880347333383
 10
16.6161839574161
 20
49.1879492408938
 10
16.6162987386734
 20
49.1878941429775
 10
16.6163629813965
 20
49.1878367334849
 10
16.6165452853571
 20
49.1877001273223
 10
16.6167015903855
 20
49.1875119336392
 10
16.6168013479013
 20
49.1873905582299
 10
16.6170051618035
 20
49.1871376195049
 10
16.6171324350318
 20
49.186962294386
 10
16.6172081734404
 20
49.1869046129344
 10
16.6174466305283
 20
49.186541879158
  0
LWPOLYLINE
  5
20007
100
AcDbEntity
  8
0
100
AcDbPolyline
 70
0
 90
9
 10
16.5912499083976
 20
49.1966253330371
 10
16.5907592211974
 20
49.1964417898055
 10
16.5894648963406
 20
49.1959824619262
 10
16.5893164585707
 20
49.1959244327982
 10
16.5890187351764
 20
49.1957826252439
 10
16.5887337251509
 20
49.1956257097012
 10
16.5882160102015
 20
49.1953945562
 10
16.5879751727598
 20
49.195288534826
 10
16.5878433750761
 20
49.1952559267335
  0
LWPOLYLINE
  5
20008
100
AcDbEntity
  8
0
100
AcDbPolyline
 70
0
 90
37
 10
16.5309003332926
 20
49.1938067760068
 10
16.530875956287
 20
49.1937873925608
 10
16.5307480073411
 20
49.1936688738514
 10
16.5305720488925
 20
49.1934913781587
 10
16.530426976553
 20
49.193325680408
 10
16.5303442249872
 20
49.1932366278092
 10
16.5302697691374
 20
49.1931242871992
 10
16.5301165778892
 20
49.1928764132333
 10
16.5299836022765
 20
49.1925825842473
 10
16.5299048959577
 20
49.1923689858753
 10
16.5298741261965
 20
49.192215625888
 10
16.5298315897912
 20
49.1919199446529
 10
16.5298304948364
 20
49.1917483542354
 10
16.5298434442677
 20
49.1915711650628
 10
16.529876886195
 20
49.1914068400117
 10
16.5299054262634
 20
49.1913017773625
 10
16.5299387482141
 20
49.1911895486628
 10
16.5299925321043
 20
49.191048932149
 10
16.5301030708903
 20
49.1908302385596
 10
16.5301680696232
 20
49.1907217235229
 10
16.5302687620235
 20
49.190576231162
 10
16.530326367019
 20
49.1904988480701
 10
16.5304050222075
 20
49.1904077736979
 10
16.5305226262839
 20
49.1902842064355
 10
16.5306272261664
 20
49.1901798813047
 10
16.5307274895454
 20
49.1900899908292
 10
16.5309141137603
 20
49.1899331869693
 10
16.5310469198302
 20
49.1898326886154
 10
16.5311966561761
 20
49.1897191991022
 10
16.5314360979114
 20
49.1895584839326
 10
16.531886528439
 20
49.1892744575722
 10
16.5327805466344
 20
49.1887689615585
 10
16.5332072987456
 20
49.1885259343762
 10
16.5334067034268
 20
49.188406677616
 10
16.533679863344
 20
49.1882580494047
 10
16.5341329542997
 20
49.1879951928345
 10
16.5345733663596
 20
49.187749610481
  0
LWPOLYLINE
  5
20009
100
AcDbEntity
  8
0
100
AcDbPolyline
 70
0
 90
4
 10
16.6116505842545
 20
49.1972188294152
 10
16.6108397496845
 20
49.1970763800638
 10
16.6101270388328
 20
49.1969406943817
 10
16.6098853292829
 20
49.1968681271601
  0
LWPOLYLINE
  5
2000A
100
AcDbEntity
  8
0
100
AcDbPolyline
 70
0
 90
2
 10
16.6094219992715
 20
49.1994595187191
 10
16.6097604113388
 20
49.1995734876263
  0
LWPOLYLINE
  5
2000B
100
AcDbEntity
  8
0
100
AcDbPolyline
 70
0
 90
18
 10
16.517468815621
 20
49.2177176139821
 10
16.5177049492648
 20
49.217787173346
 10
16.5180811728462
 20
49.2179176034721
 10
16.5185106219188
 20
49.2180750016173
 10
16.5187350293517
 20
49.2181685052865
 10
16.5189292367384
 20
49.2182667210701
 10
16.519111570729
 20
49.2183690616698
 10
16.5192465897207
 20
49.2184653003337
 10
16.5193495824318
 20
49.2185416058571
 10
16.5195119739208
 20
49.2186906430336
 10
16.5195855851737
 20
49.2187717196647
 10
16.5196517483902
 20
49.2188510869872
 10
16.5197253011197
 20
49.2189383106453
 10
16.5197727521979
 20
49.2190214039701
 10
16.5198069884786
 20
49.2190951382932
 10
16.5198421636816
 20
49.219174005629
 10
16.5198767862735
 20
49.2192669452788
 10
16.5198783335556
 20
49.2192783636643
  0
LWPOLYLINE
  5
2000C
100
AcDbEntity
  8
0
100
AcDbPolyline
 70
0
 90
41
 10
16.4964065091167
 20
49.2205171084623
 10
16.4959478188211
 20
49.2205949025287
 10
16.4954462697079
 20
49.2206869864626
 10
16.495195511609
 20
49.2207271486782
 10
16.4950076423499
 20
49.2207414304796
 10
16.4948719866202
 20
49.2207490581175
 10
16.494743166004
 20
49.2207488537412
 10
16.4945772284174
 20
49.2207401940238
 10
16.4944508280212
 20
49.2207238795717
 10
16.4943154852918
 20
49.2206949815009
 10
16.4941839403217
 20
49.2206557716908
 10
16.494068325093
 20
49.2206146299762
 10
16.493943072803
 20
49.2205551554777
 10
16.4938084428389
 20
49.2204848753144
 10
16.4937221033396
 20
49.2204231292648
 10
16.4936610451099
 20
49.2203720643893
 10
16.4935568216648
 20
49.2202645252877
 10
16.4935121983893
 20
49.2202068607848
 10
16.4934668503962
 20
49.2201436258813
 10
16.4934290937175
 20
49.2200853689452
 10
16.493385321365
 20
49.2199871470038
 10
16.4933428678412
 20
49.2198612472067
 10
16.4933239246637
 20
49.2197681557626
 10
16.4933246634806
 20
49.2197043410057
 10
16.4933567757087
 20
49.2195265329985
 10
16.4936075843182
 20
49.2186527501027
 10
16.4936758017128
 20
49.2183838143302
 10
16.4936961457103
 20
49.2182119459136
 10
16.4936949309007
 20
49.2181012208065
 10
16.4936809382655
 20
49.2179158495086
 10
16.493629581003
 20
49.2177185670845
 10
16.4932396910722
 20
49.2167345345031
 10
16.4932027430722
 20
49.2166359882249
 10
16.4931769755181
 20
49.216554800021
 10
16.4931684486535
 20
49.2164894150078
 10
16.4931574135628
 20
49.216420864495
 10
16.4931486118419
 20
49.2162993717988
 10
16.4931584951798
 20
49.2161405025258
 10
16.4932056050413
 20
49.2159382609462
 10
16.4932592022515
 20
49.2158185365823
 10
16.4933011053269
 20
49.2157373242104
  0
LWPOLYLINE
  5
2000D
100
AcDbEntity
  8
0
100
AcDbPolyline
 70
0
 90
54
 10
16.6293484059926
 20
49.2230862803992
 10
16.6296049714519
 20
49.2236256447784
 10
16.6297230965307
 20
49.223882805934
 10
16.6297710448405
 20
49.2240218621027
 10
16.6298310710158
 20
49.2241504653823
 10
16.6300130062034
 20
49.2245342352876
 10
16.6301986203272
 20
49.2249132899267
 10
16.6303377576994
 20
49.2252114589286
 10
16.6304061004905
 20
49.2253105302941
 10
16.6305124784656
 20
49.2254813885588
 10
16.6306471277742
 20
49.2257758030272
 10
16.6307285016953
 20
49.2259886714037
 10
16.6308149752018
 20
49.2262267725175
 10
16.6308604935909
 20
49.2263487427479
 10
16.6309297727664
 20
49.2265470089648
 10
16.6310104511773
 20
49.2268236829735
 10
16.631045830989
 20
49.2270164802545
 10
16.6310562852503
 20
49.2271518026038
 10
16.6310925054166
 20
49.2273092946401
 10
16.6311570032578
 20
49.2276733728723
 10
16.6311824836587
 20
49.2278541652518
 10
16.6312008294468
 20
49.228036353239
 10
16.6312246045037
 20
49.2282065333941
 10
16.6312459573582
 20
49.2283075319646
 10
16.6312546609749
 20
49.2283805035371
 10
16.6312605876563
 20
49.2284804129391
 10
16.6312655206211
 20
49.2285452494521
 10
16.6312560559676
 20
49.2286237217385
 10
16.6312350854431
 20
49.2288031337741
 10
16.6312247580774
 20
49.2290126923114
 10
16.6312040370022
 20
49.2292543490271
 10
16.6311762131958
 20
49.2295282458331
 10
16.631162827178
 20
49.2297874243366
 10
16.6311275014157
 20
49.2299709782952
 10
16.6311041177648
 20
49.2300710794401
 10
16.6310720798203
 20
49.2302237519989
 10
16.6310444718372
 20
49.2303495129866
 10
16.630945630026
 20
49.2306772762498
 10
16.6308389988223
 20
49.2309575478904
 10
16.6307559269442
 20
49.2312004100831
 10
16.6306652526487
 20
49.2314332386275
 10
16.6305397256285
 20
49.2317443749538
 10
16.6304267551867
 20
49.232001044632
 10
16.6303685569019
 20
49.2321112596729
 10
16.6303060534845
 20
49.2322492995542
 10
16.6302553470804
 20
49.2323475619495
 10
16.6302365027905
 20
49.2324309796727
 10
16.6301899349
 20
49.232535141945
 10
16.6300614681376
 20
49.2326829052104
 10
16.6299650687498
 20
49.2328389021044
 10
16.6298184740189
 20
49.2330682341324
 10
16.6296914298622
 20
49.2332526379651
 10
16.6296088222445
 20
49.2333768669364
 10
16.6295115662124
 20
49.2335380490361
  0
LWPOLYLINE
  5
2000E
100
AcDbEntity
  8
0
100
AcDbPolyline
 70
0
 90
5
 10
16.5882060296583
 20
49.2081938364031
 10
16.5877795814227
 20
49.2080586286635
 10
16.5873033428146
 20
49.2077896318382
 10
16.5862342742435
 20
49.2072238120942
 10
16.5875017370736
 20
49.2061547764919
  0
LWPOLYLINE
  5
2000F
100
AcDbEntity
  8
0
100
AcDbPolyline
 70
0
 90
9
 10
16.506329677419
 20
49.2086729088786
 10
16.5120286446611
 20
49.2077877515211
 10
16.5116931493568
 20
49.2069856383798
 10
16.5112498296841
 20
49.2067457958811
 10
16.5098155189084
 20
49.2059915450016
 10
16.5165183308853
 20
49.204300597941
 10
16.5171809930985
 20
49.2043842569299
 10
16.5176586250347
 20
49.2044184729724
 10
16.5197935998245
 20
49.2042005005806
  0
LWPOLYLINE
  5
20010
100
AcDbEntity
  8
0
100
AcDbPolyline
 70
0
 90
2
 10
16.6125045970523
 20
49.1922260911288
 10
16.6126198665198
 20
49.1924284490286
  0
LWPOLYLINE
  5
20011
100
AcDbEntity
  8
0
100
AcDbPolyline
 70
0
 90
4
 10
16.5756941135221
 20
49.1919506558911
 10
16.5756877529963
 20
49.1919907267752
 10
16.5756736514545
 20
49.1920233724299
 10
16.5756561704458
 20
49.1920872556514
  0
LWPOLYLINE
  5
20012
100
AcDbEntity
  8
0
100
AcDbPolyline
 70
0
 90
7
 10
16.5989443607412
 20
49.1998849084928
 10
16.6001023673598
 20
49.2000457302859
 10
16.6008662183703
 20
49.2001519076405
 10
16.6009794111311
 20
49.2001702455895
 10
16.6010128176426
 20
49.2001785841875
 10
16.6010242148123
 20
49.2001822867787
 10
16.601120263079
 20
49.2002375790253
  0
LWPOLYLINE
  5
20013
100
AcDbEntity
  8
0
100
AcDbPolyline
 70
0
 90
7
 10
16.5968497900883
 20
49.1996165670791
 10
16.5972438228645
 20
49.1996711145341
 10
16.5973716189669
 20
49.199688773638
 10
16.5975057535297
 20
49.1997073345081
 10
16.5976828003921
 20
49.1997318338435
 10
16.5978173297101
 20
49.1997505127896
 10
16.5978640620017
 20
49.1997567223321
  0
LWPOLYLINE
  5
20014
100
AcDbEntity
  8
0
100
AcDbPolyline
 70
0
 90
2
 10
16.6122549655452
 20
49.1962336751714
 10
16.612116915076
 20
49.1962096077894
  0
LWPOLYLINE
  5
20015
100
AcDbEntity
  8
0
100
AcDbPolyline
 70
0
 90
6
 10
16.6489331858928
 20
49.221437224776
 10
16.6486608441259
 20
49.2212601198601
 10
16.6483116022894
 20
49.2210619485427
 10
16.6480615947677
 20
49.2209044141059
 10
16.6479330855467
 20
49.2207864633479
 10
16.6478406128122
 20
49.2206483503802
  0
LWPOLYLINE
  5
20016
100
AcDbEntity
  8
0
100
AcDbPolyline
 70
0
 90
2
 10
16.6531378488637
 20
49.1239983074475
 10
16.6533071095842
 20
49.1242109478776
  0
LWPOLYLINE
  5
20017
100
AcDbEntity
  8
0
100
AcDbPolyline
 70
0
 90
4
 10
16.5536968366103
 20
49.2423205980718
 10
16.5524838824901
 20
49.242223839788
 10
16.549532821841
 20
49.2417206572216
 10
16.5455531487578
 20
49.2410345683524
  0
LWPOLYLINE
  5
20018
100
AcDbEntity
  8
0
100
AcDbPolyline
 70
0
 90
22
 10
16.5478986859108
 20
49.2326702366593
 10
16.5479022376589
 20
49.2328639776094
 10
16.547891988237
 20
49.2329654629895
 10
16.5478386758083
 20
49.2331921448429
 10
16.5477866304617
 20
49.2332791609401
 10
16.5477314902518
 20
49.2333382764135
 10
16.5475528276358
 20
49.233487269679
 10
16.547349817456
 20
49.2336755030484
 10
16.5472111389719
 20
49.2339204284474
 10
16.5471433123376
 20
49.2341986304905
 10
16.5470695668746
 20
49.2344941399226
 10
16.546966156438
 20
49.2346507620611
 10
16.546863971147
 20
49.2347742737724
 10
16.5467586022162
 20
49.234967572161
 10
16.546697892064
 20
49.2351465075827
 10
16.5466356550231
 20
49.23536866306
 10
16.5466014469064
 20
49.2355643239953
 10
16.5463956608555
 20
49.2366592822195
 10
16.5462890196424
 20
49.2371607678762
 10
16.5461765035156
 20
49.2377863940069
 10
16.5455680244291
 20
49.2409451723136
 10
16.5455531487578
 20
49.2410345683524
  0
LWPOLYLINE
  5
20019
100
AcDbEntity
  8
0
100
AcDbPolyline
 70
0
 90
5
 10
16.5480266831746
 20
49.2320634445389
 10
16.5479827189364
 20
49.2321633392005
 10
16.54794366209
 20
49.232266116692
 10
16.547901536599
 20
49.2324820179744
 10
16.5478986859108
 20
49.2326702366593
  0
LWPOLYLINE
  5
2001A
100
AcDbEntity
  8
0
100
AcDbPolyline
 70
0
 90
21
 10
16.5532301737382
 20
49.2341041241084
 10
16.5529083217541
 20
49.2340700559684
 10
16.5523671797618
 20
49.2340380839406
 10
16.5522192097459
 20
49.2340224698742
 10
16.5521005174584
 20
49.2340052341046
 10
16.5515629228846
 20
49.2339186944465
 10
16.5513775164346
 20
49.233886479919
 10
16.551259947267
 20
49.2338558452834
 10
16.551164055551
 20
49.2338227759951
 10
16.551093790813
 20
49.233789272383
 10
16.5508802617424
 20
49.2336645047842
 10
16.5507153409635
 20
49.2335772143276
 10
16.5498428321739
 20
49.233237839226
 10
16.549609455346
 20
49.2331394237495
 10
16.549397529632
 20
49.2330523973163
 10
16.5490042174289
 20
49.2329090150615
 10
16.5485005263654
 20
49.2327657189933
 10
16.5483806166066
 20
49.2327367233048
 10
16.548236649861
 20
49.2327103535411
 10
16.5479971916457
 20
49.2326742778117
 10
16.5478986859108
 20
49.2326702366593
  0
LWPOLYLINE
  5
2001B
100
AcDbEntity
  8
0
100
AcDbPolyline
 70
0
 90
8
 10
16.5555626271052
 20
49.234491069503
 10
16.5553895433336
 20
49.2344320603097
 10
16.5551935648153
 20
49.234396113806
 10
16.5546740125087
 20
49.2343156692355
 10
16.5540112799713
 20
49.2342232083184
 10
16.5536973659916
 20
49.2341737879333
 10
16.5532687214513
 20
49.2341082286202
 10
16.5532301737382
 20
49.2341041241084
  0
LWPOLYLINE
  5
2001C
100
AcDbEntity
  8
0
100
AcDbPolyline
 70
0
 90
39
 10
16.5525028297669
 20
49.2268877621549
 10
16.551757473163
 20
49.2274317224284
 10
16.5517168310701
 20
49.2274568660959
 10
16.5513049426005
 20
49.227683850797
 10
16.5510054856037
 20
49.2278800457103
 10
16.5507848703089
 20
49.228057258004
 10
16.5505891566295
 20
49.2282225867864
 10
16.5504920031442
 20
49.2283342474097
 10
16.5503946778521
 20
49.2284535845545
 10
16.550299450557
 20
49.2286018365227
 10
16.5502165183278
 20
49.2287857911269
 10
16.550134359218
 20
49.2289925055024
 10
16.5501023197487
 20
49.229101301584
 10
16.5500687481051
 20
49.2291827608987
 10
16.5499995497645
 20
49.229329793477
 10
16.5499184551896
 20
49.2294835760273
 10
16.5498184738807
 20
49.2296304937575
 10
16.5497087224986
 20
49.2298079222812
 10
16.5496906186902
 20
49.2298628048762
 10
16.5496796861074
 20
49.229921907632
 10
16.5496801860007
 20
49.2300443313997
 10
16.5496763539418
 20
49.2300864823714
 10
16.5496624069414
 20
49.2301238414197
 10
16.5495834029476
 20
49.2302459321615
 10
16.5494914946482
 20
49.2303999384091
 10
16.5494357194669
 20
49.2304853320162
 10
16.5493797032608
 20
49.2305530693277
 10
16.5493012475624
 20
49.2306444437278
 10
16.5492182868717
 20
49.2307354967985
 10
16.5491174462519
 20
49.2308260887364
 10
16.5490353484175
 20
49.2308986595895
 10
16.548845671239
 20
49.2310558236752
 10
16.5487738146853
 20
49.2311166417698
 10
16.5486372561892
 20
49.2312650206783
 10
16.5482939518915
 20
49.2316515709056
 10
16.5482119376654
 20
49.231759335089
 10
16.5481666336889
 20
49.2318207804439
 10
16.5480711676299
 20
49.2319604209817
 10
16.5480263182515
 20
49.2320631471384
  0
LWPOLYLINE
  5
2001D
100
AcDbEntity
  8
0
100
AcDbPolyline
 70
0
 90
6
 10
16.5209959223207
 20
49.2222139437266
 10
16.5211473263469
 20
49.2222377169445
 10
16.5213019811917
 20
49.2222527670324
 10
16.5214349263468
 20
49.2222572169586
 10
16.5215668475024
 20
49.2222586986979
 10
16.5216006839547
 20
49.2222520744605
  0
LWPOLYLINE
  5
2001E
100
AcDbEntity
  8
0
100
AcDbPolyline
 70
0
 90
11
 10
16.5899244537826
 20
49.2067368299269
 10
16.5897587941836
 20
49.2068720528377
 10
16.5897083935357
 20
49.2068963336481
 10
16.5896408290939
 20
49.2069117073942
 10
16.5895319622079
 20
49.2069122089378
 10
16.5894719342425
 20
49.2069028815724
 10
16.5893985421588
 20
49.2068725249445
 10
16.5885172361153
 20
49.2064526609618
 10
16.5875017370736
 20
49.2061547764919
 10
16.5869793557821
 20
49.2059495249734
 10
16.5844245741788
 20
49.2046301487357
  0
LWPOLYLINE
  5
2001F
100
AcDbEntity
  8
0
100
AcDbPolyline
 70
0
 90
3
 10
16.6586324850312
 20
49.1778662576379
 10
16.6600819115709
 20
49.1787390087058
 10
16.6618845920596
 20
49.1798322378693
  0
LWPOLYLINE
  5
20020
100
AcDbEntity
  8
0
100
AcDbPolyline
 70
0
 90
17
 10
16.5537820909144
 20
49.2174995806619
 10
16.5540241187131
 20
49.2173103246342
 10
16.5542760592714
 20
49.217094638027
 10
16.5545265427474
 20
49.2168702537797
 10
16.5549187608321
 20
49.2165083487485
 10
16.555305173371
 20
49.2161614064816
 10
16.5556118655332
 20
49.215877889014
 10
16.5558273453652
 20
49.2156829385649
 10
16.5561651294667
 20
49.2153751327137
 10
16.5567484944989
 20
49.2148481972947
 10
16.5572575010262
 20
49.2143798220246
 10
16.5576337474754
 20
49.2140481603363
 10
16.5579861636542
 20
49.2137651834311
 10
16.5582919327293
 20
49.2135726842497
 10
16.5586513642045
 20
49.2133812948599
 10
16.5590684009225
 20
49.2131830642814
 10
16.5591199649313
 20
49.2131602350959
  0
LWPOLYLINE
  5
20021
100
AcDbEntity
  8
0
100
AcDbPolyline
 70
0
 90
3
 10
16.5591356644808
 20
49.213154660087
 10
16.5596139956715
 20
49.2130329792722
 10
16.5605240581678
 20
49.2128332386107
  0
LWPOLYLINE
  5
20022
100
AcDbEntity
  8
0
100
AcDbPolyline
 70
0
 90
75
 10
16.4672574236161
 20
49.2339564214008
 10
16.4677470436976
 20
49.2338378947678
 10
16.4687277780477
 20
49.2335918966453
 10
16.4697236534423
 20
49.233337934508
 10
16.4703101691331
 20
49.2331359084021
 10
16.4710406806501
 20
49.2328990142018
 10
16.4711846810606
 20
49.2328641489157
 10
16.4713559805643
 20
49.2328312489873
 10
16.4717228768585
 20
49.2327852911313
 10
16.4722232677534
 20
49.232767036159
 10
16.4726766962105
 20
49.232741327313
 10
16.4732937495498
 20
49.2326831567271
 10
16.4737557641766
 20
49.2325675950688
 10
16.4741774344273
 20
49.2324825101246
 10
16.4747216217165
 20
49.2323678835904
 10
16.4752506569192
 20
49.2322612108859
 10
16.4760525000742
 20
49.2320929284439
 10
16.4768920747505
 20
49.2319212039805
 10
16.4774057001366
 20
49.2318017431475
 10
16.4778556750366
 20
49.2316878331572
 10
16.4781241057297
 20
49.2315584184745
 10
16.4783342400374
 20
49.231450411338
 10
16.478705292727
 20
49.231223075573
 10
16.479017671454
 20
49.2310185675089
 10
16.4797879479564
 20
49.2305943241421
 10
16.4799445230401
 20
49.2305132205619
 10
16.4802897045448
 20
49.2303469841082
 10
16.4806306185107
 20
49.2301707600078
 10
16.4810843126858
 20
49.2299307257728
 10
16.481346075631
 20
49.2297816465715
 10
16.4815150863523
 20
49.2297194382265
 10
16.4817428933082
 20
49.2296459882546
 10
16.4821557894025
 20
49.2296368703301
 10
16.4823625430009
 20
49.2296296640531
 10
16.4830814067523
 20
49.2296287930481
 10
16.4837206038405
 20
49.2296136861515
 10
16.4842284497632
 20
49.2295506850214
 10
16.4847482800046
 20
49.2294161710035
 10
16.4856997118085
 20
49.2291616922455
 10
16.4861599699944
 20
49.2290331129963
 10
16.486659292858
 20
49.2288931366854
 10
16.4870502789978
 20
49.2287855390205
 10
16.4872088186289
 20
49.2287461819188
 10
16.487368694909
 20
49.2287153339199
 10
16.4876929329317
 20
49.2286598398575
 10
16.4879748950753
 20
49.228625822996
 10
16.4884114863792
 20
49.2285757771629
 10
16.4892151748922
 20
49.2284831717927
 10
16.4894883053194
 20
49.2284540351755
 10
16.4897015115194
 20
49.2284321721746
 10
16.4900533179738
 20
49.2284223468742
 10
16.4905461724272
 20
49.2284487069485
 10
16.491527288147
 20
49.2285222594281
 10
16.4918568545676
 20
49.2285421318177
 10
16.4921855782573
 20
49.228543940311
 10
16.4930497237981
 20
49.2285109246326
 10
16.4932028548998
 20
49.228503828871
 10
16.4936485990494
 20
49.2284815602367
 10
16.4940928463162
 20
49.2284682288352
 10
16.4947038729654
 20
49.2284487779955
 10
16.4955529155836
 20
49.2284102266732
 10
16.495733343842
 20
49.2284050873625
 10
16.4959683677283
 20
49.2284038672101
 10
16.4961063530471
 20
49.2284047267171
 10
16.4965036680125
 20
49.2284242024279
 10
16.4974196436643
 20
49.2284809059748
 10
16.4980054896295
 20
49.2285103804179
 10
16.498352261852
 20
49.2285207038084
 10
16.498559988224
 20
49.2285175192255
 10
16.4988267974767
 20
49.2284914353108
 10
16.4992420608669
 20
49.2284036333985
 10
16.4998012897152
 20
49.2282809289709
 10
16.5001756027843
 20
49.228190185478
 10
16.5007966017092
 20
49.2280615054975
 10
16.5011992145054
 20
49.2279939577731
  0
LWPOLYLINE
  5
20023
100
AcDbEntity
  8
0
100
AcDbPolyline
 70
0
 90
3
 10
16.6096498898447
 20
49.1957818830219
 10
16.6097060848432
 20
49.1956302906335
 10
16.6098363998447
 20
49.1953138132577
  0
LWPOLYLINE
  5
20024
100
AcDbEntity
  8
0
100
AcDbPolyline
 70
0
 90
4
 10
16.5990089875801
 20
49.1998939244481
 10
16.5995929790539
 20
49.1999750521019
 10
16.6005991870678
 20
49.2001147912285
 10
16.6008242604493
 20
49.2001460379255
  0
LWPOLYLINE
  5
20025
100
AcDbEntity
  8
0
100
AcDbPolyline
 70
0
 90
5
 10
16.6193438272911
 20
49.1835117266887
 10
16.6198792585469
 20
49.1837333202696
 10
16.6204149379261
 20
49.1839551094752
 10
16.6215760839705
 20
49.1844358749061
 10
16.6218677629429
 20
49.184556637553
  0
LWPOLYLINE
  5
20026
100
AcDbEntity
  8
0
100
AcDbPolyline
 70
0
 90
5
 10
16.5883241487241
 20
49.2209557836514
 10
16.5884056456925
 20
49.220836293226
 10
16.5885883342032
 20
49.2205684089872
 10
16.5888377772471
 20
49.2202025099812
 10
16.5890476305912
 20
49.2198947649242
  0
LWPOLYLINE
  5
20027
100
AcDbEntity
  8
0
100
AcDbPolyline
 70
0
 90
2
 10
16.6136073819712
 20
49.1966966642502
 10
16.6133540591981
 20
49.196600760476
  0
LWPOLYLINE
  5
20028
100
AcDbEntity
  8
0
100
AcDbPolyline
 70
0
 90
2
 10
16.5882060296583
 20
49.2081938364031
 10
16.5890775756857
 20
49.2075402462863
  0
LWPOLYLINE
  5
20029
100
AcDbEntity
  8
0
100
AcDbPolyline
 70
0
 90
2
 10
16.5871903663737
 20
49.2206340535742
 10
16.5878935102874
 20
49.2196142899459
  0
LWPOLYLINE
  5
2002A
100
AcDbEntity
  8
0
100
AcDbPolyline
 70
0
 90
3
 10
16.6119308592734
 20
49.197356352868
 10
16.612234721992
 20
49.1974822498661
 10
16.612580182912
 20
49.1976245685444
  0
LWPOLYLINE
  5
2002B
100
AcDbEntity
  8
0
100
AcDbPolyline
 70
0
 90
2
 10
16.6090665885267
 20
49.1966439712029
 10
16.6093023545342
 20
49.196622865708
  0
LWPOLYLINE
  5
2002C
100
AcDbEntity
  8
0
100
AcDbPolyline
 70
0
 90
3
 10
16.6071806531263
 20
49.2113685323636
 10
16.6082764834308
 20
49.2095167761581
 10
16.6084517241201
 20
49.2092269969075
  0
LWPOLYLINE
  5
2002D
100
AcDbEntity
  8
0
100
AcDbPolyline
 70
0
 90
9
 10
16.6057480857441
 20
49.1924411414067
 10
16.6058615167609
 20
49.1924654622989
 10
16.6067642689602
 20
49.19244342641
 10
16.6069931642084
 20
49.1924722206553
 10
16.6073930242642
 20
49.1925354710955
 10
16.6076599759081
 20
49.1925561068309
 10
16.6079025987132
 20
49.1925543954207
 10
16.6081447128364
 20
49.192540708082
 10
16.6082317664526
 20
49.1925082544558
  0
LWPOLYLINE
  5
2002E
100
AcDbEntity
  8
0
100
AcDbPolyline
 70
0
 90
3
 10
16.6079087829912
 20
49.1921990039548
 10
16.6077475580002
 20
49.1922644616833
 10
16.6068367037203
 20
49.1924485598784
  0
LWPOLYLINE
  5
2002F
100
AcDbEntity
  8
0
100
AcDbPolyline
 70
0
 90
2
 10
16.6013136770109
 20
49.2021432482271
 10
16.599559280388
 20
49.2012421391658
  0
LWPOLYLINE
  5
20030
100
AcDbEntity
  8
0
100
AcDbPolyline
 70
0
 90
11
 10
16.5540506180457
 20
49.2108576899106
 10
16.5541217172582
 20
49.2113954582637
 10
16.5542850939439
 20
49.2117592548931
 10
16.5539322536619
 20
49.2130445397925
 10
16.5535892163652
 20
49.213437988692
 10
16.5530065856578
 20
49.2144880725806
 10
16.5527096594842
 20
49.2150152466843
 10
16.5525665698386
 20
49.2158215045883
 10
16.5524937060023
 20
49.2162608126267
 10
16.552409366879
 20
49.216825670339
 10
16.5522560791073
 20
49.2171489764803
  0
LWPOLYLINE
  5
20031
100
AcDbEntity
  8
0
100
AcDbPolyline
 70
0
 90
4
 10
16.5522582356648
 20
49.2171501252943
 10
16.5520735149886
 20
49.2173019452398
 10
16.5531514323752
 20
49.217704092811
 10
16.5533644091251
 20
49.2178276456924
  0
LWPOLYLINE
  5
20032
100
AcDbEntity
  8
0
100
AcDbPolyline
 70
0
 90
2
 10
16.5736459702713
 20
49.2182699636823
 10
16.5738000733278
 20
49.2183711961964
  0
LWPOLYLINE
  5
20033
100
AcDbEntity
  8
0
100
AcDbPolyline
 70
0
 90
4
 10
16.617362074424
 20
49.1904648035625
 10
16.618331921647
 20
49.1902470855868
 10
16.6194716956356
 20
49.1899938087838
 10
16.6200232849245
 20
49.1898739216572
  0
LWPOLYLINE
  5
20034
100
AcDbEntity
  8
0
100
AcDbPolyline
 70
0
 90
4
 10
16.6000897903801
 20
49.2097386490969
 10
16.5984431153729
 20
49.2093085284933
 10
16.5969382387172
 20
49.2089112649937
 10
16.595245972546
 20
49.2084739003394
  0
LWPOLYLINE
  5
20035
100
AcDbEntity
  8
0
100
AcDbPolyline
 70
0
 90
4
 10
16.5854590397784
 20
49.2143432552673
 10
16.5846950438187
 20
49.2146104575151
 10
16.5841380276846
 20
49.2148008205896
 10
16.5838075460998
 20
49.2149055151533
  0
LWPOLYLINE
  5
20036
100
AcDbEntity
  8
0
100
AcDbPolyline
 70
0
 90
9
 10
16.641457319664
 20
49.1853481772932
 10
16.6414423391138
 20
49.1854000578439
 10
16.6414380850552
 20
49.185427569638
 10
16.6414429759982
 20
49.1854691037631
 10
16.6414530436522
 20
49.1855086154759
 10
16.6419664704039
 20
49.1865856070583
 10
16.642255883438
 20
49.1871758373247
 10
16.6426050649344
 20
49.187895369837
 10
16.6427437510061
 20
49.1881877109589
  0
LWPOLYLINE
  5
20037
100
AcDbEntity
  8
0
100
AcDbPolyline
 70
0
 90
6
 10
16.6196790147409
 20
49.1817177961263
 10
16.6200924606172
 20
49.181763427207
 10
16.6203047023841
 20
49.1817807988017
 10
16.6205773775899
 20
49.1817864372054
 10
16.6210679689566
 20
49.1817699589577
 10
16.6213996328972
 20
49.1817374396841
  0
LWPOLYLINE
  5
20038
100
AcDbEntity
  8
0
100
AcDbPolyline
 70
0
 90
22
 10
16.5294196219717
 20
49.2218713819338
 10
16.5293296306004
 20
49.2218056054457
 10
16.5292282063662
 20
49.2217288798496
 10
16.5291343410847
 20
49.2216706056836
 10
16.5289923671216
 20
49.2215852811937
 10
16.5287171603221
 20
49.2214326249491
 10
16.528584282596
 20
49.2213623334496
 10
16.5283568579533
 20
49.2212436686675
 10
16.5282245971835
 20
49.2211870802263
 10
16.5281380013704
 20
49.2211514876294
 10
16.5280527453613
 20
49.2211177999762
 10
16.5279508229422
 20
49.2210772212988
 10
16.527886015015
 20
49.22105259458
 10
16.5277784370347
 20
49.221016948369
 10
16.5276830000134
 20
49.2209855174163
 10
16.5273905749823
 20
49.2208947669622
 10
16.5269059766807
 20
49.2207522765482
 10
16.5266969302084
 20
49.2206957116892
 10
16.526534540747
 20
49.2206575003174
 10
16.5264261360996
 20
49.2206342770597
 10
16.5263166020572
 20
49.2206136867019
 10
16.5262964290867
 20
49.2206104344202
  0
LWPOLYLINE
  5
20039
100
AcDbEntity
  8
0
100
AcDbPolyline
 70
0
 90
4
 10
16.5937963855982
 20
49.216827536933
 10
16.5940377404593
 20
49.2164266851824
 10
16.5942815016721
 20
49.2160329686471
 10
16.5945231817525
 20
49.2156284309549
  0
LWPOLYLINE
  5
2003A
100
AcDbEntity
  8
0
100
AcDbPolyline
 70
0
 90
4
 10
16.5946041512692
 20
49.2154902673565
 10
16.5947801832964
 20
49.215198839558
 10
16.5952302514715
 20
49.214464917798
 10
16.5953577625893
 20
49.2142681869905
  0
LWPOLYLINE
  5
2003B
100
AcDbEntity
  8
0
100
AcDbPolyline
 70
0
 90
2
 10
16.5954725960842
 20
49.2140278638373
 10
16.59584926328
 20
49.2134079485082
  0
LWPOLYLINE
  5
2003C
100
AcDbEntity
  8
0
100
AcDbPolyline
 70
0
 90
3
 10
16.5959136739274
 20
49.2133056043341
 10
16.5960321621697
 20
49.2131199917431
 10
16.5962673068682
 20
49.212718063975
  0
LWPOLYLINE
  5
2003D
100
AcDbEntity
  8
0
100
AcDbPolyline
 70
0
 90
9
 10
16.6564396288817
 20
49.1822982735505
 10
16.6564002768444
 20
49.1823598971646
 10
16.6564860363918
 20
49.1825310891456
 10
16.6565353210859
 20
49.1826091772618
 10
16.6566073730433
 20
49.1828109682689
 10
16.6566622359572
 20
49.1829391933064
 10
16.6566513065992
 20
49.1829848209942
 10
16.656918407014
 20
49.183583290528
 10
16.6570659987799
 20
49.1839092452034
  0
LWPOLYLINE
  5
2003E
100
AcDbEntity
  8
0
100
AcDbPolyline
 70
0
 90
4
 10
16.5955499819696
 20
49.1911839090534
 10
16.5954840537376
 20
49.1911226978972
 10
16.5954085198546
 20
49.1910686742364
 10
16.5953274012093
 20
49.1910267364524
  0
LWPOLYLINE
  5
2003F
100
AcDbEntity
  8
0
100
AcDbPolyline
 70
0
 90
29
 10
16.5198195518612
 20
49.2192929711151
 10
16.5198373377151
 20
49.2193494256164
 10
16.5198570115531
 20
49.2194309824821
 10
16.5198770720897
 20
49.2195540885658
 10
16.5198853453556
 20
49.2196245166703
 10
16.5198799786057
 20
49.2198238700542
 10
16.5198692393567
 20
49.2199602398811
 10
16.5198516996427
 20
49.2200934994795
 10
16.5198241047798
 20
49.2203805463725
 10
16.5197883603659
 20
49.2206369768134
 10
16.5197716173252
 20
49.2208399483251
 10
16.5197640891949
 20
49.2209421729181
 10
16.5197590473908
 20
49.221044394591
 10
16.5197624057303
 20
49.221152554838
 10
16.5197730803182
 20
49.2212971518286
 10
16.5197953939474
 20
49.2213902052269
 10
16.5198222382505
 20
49.221476798405
 10
16.5198306815072
 20
49.2215039983569
 10
16.5198618554083
 20
49.2215605066292
 10
16.5199386811059
 20
49.221662076005
 10
16.5200129022178
 20
49.2217535986161
 10
16.5201220076702
 20
49.2218611875794
 10
16.5202274713373
 20
49.2219343215198
 10
16.5203832578251
 20
49.2220361153603
 10
16.5205031611403
 20
49.2220947234055
 10
16.5206455043585
 20
49.2221537616287
 10
16.5208362711242
 20
49.2222122855976
 10
16.5208930196099
 20
49.2222289217364
 10
16.520968989756
 20
49.2222445817509
  0
LWPOLYLINE
  5
20040
100
AcDbEntity
  8
0
100
AcDbPolyline
 70
0
 90
5
 10
16.5215073468091
 20
49.2223049169752
 10
16.5213552797721
 20
49.2222991889297
 10
16.5211760520994
 20
49.222279937617
 10
16.5210433796322
 20
49.2222589526086
 10
16.5209662117919
 20
49.2222488154787
  0
LWPOLYLINE
  5
20041
100
AcDbEntity
  8
0
100
AcDbPolyline
 70
0
 90
4
 10
16.6089822115192
 20
49.209654860409
 10
16.6089722021192
 20
49.2096703419331
 10
16.6089532456255
 20
49.20972498753
 10
16.6089316047799
 20
49.2098862638238
  0
LWPOLYLINE
  5
20042
100
AcDbEntity
  8
0
100
AcDbPolyline
 70
0
 90
2
 10
16.6531182772611
 20
49.123223531727
 10
16.6529587843425
 20
49.1238917903715
  0
LWPOLYLINE
  5
20043
100
AcDbEntity
  8
0
100
AcDbPolyline
 70
0
 90
2
 10
16.6279437121833
 20
49.2027974864163
 10
16.6279517132637
 20
49.2028989908357
  0
LWPOLYLINE
  5
20044
100
AcDbEntity
  8
0
100
AcDbPolyline
 70
0
 90
22
 10
16.6538841737912
 20
49.2272513682384
 10
16.6541353262866
 20
49.2272507814598
 10
16.6545457725786
 20
49.2272379840041
 10
16.6547395215348
 20
49.227229555965
 10
16.6549487123736
 20
49.2272111806084
 10
16.6551856039777
 20
49.227189780541
 10
16.6554558075705
 20
49.2271572489309
 10
16.6556052167555
 20
49.2271371061023
 10
16.6557756781598
 20
49.2271098528811
 10
16.6558876214594
 20
49.2270899666077
 10
16.6562129810781
 20
49.2270234200633
 10
16.6564959960159
 20
49.2269523546977
 10
16.6567608962216
 20
49.2268822748032
 10
16.6570818573803
 20
49.2267911776782
 10
16.6578026828254
 20
49.2265926465837
 10
16.6583629248266
 20
49.2264394285301
 10
16.6601158513127
 20
49.2259612336475
 10
16.6604897121589
 20
49.2258910337309
 10
16.6606942685443
 20
49.2258478125278
 10
16.6610121669448
 20
49.2257727696328
 10
16.6611609335877
 20
49.2257337628179
 10
16.6612691138586
 20
49.2256980508676
  0
LWPOLYLINE
  5
20045
100
AcDbEntity
  8
0
100
AcDbPolyline
 70
0
 90
2
 10
16.5888115659628
 20
49.2328094529277
 10
16.5873703515741
 20
49.2324533528546
  0
LWPOLYLINE
  5
20046
100
AcDbEntity
  8
0
100
AcDbPolyline
 70
0
 90
2
 10
16.6177150645902
 20
49.1863363864557
 10
16.6181466394179
 20
49.1856121402341
  0
LWPOLYLINE
  5
20047
100
AcDbEntity
  8
0
100
AcDbPolyline
 70
0
 90
4
 10
16.6141648961208
 20
49.1946894575654
 10
16.6133821951883
 20
49.1944042065246
 10
16.6131790014621
 20
49.1943492065892
 10
16.6129552238084
 20
49.1943353502008
  0
LWPOLYLINE
  5
20048
100
AcDbEntity
  8
0
100
AcDbPolyline
 70
0
 90
2
 10
16.6093023545342
 20
49.196622865708
 10
16.6096498898447
 20
49.1957818830219
  0
LWPOLYLINE
  5
20049
100
AcDbEntity
  8
0
100
AcDbPolyline
 70
0
 90
7
 10
16.6027446185619
 20
49.2104373269351
 10
16.6028031274912
 20
49.2104374942187
 10
16.6028525067512
 20
49.2104503105568
 10
16.6034861045028
 20
49.2106138881495
 10
16.6041395705345
 20
49.2107825784284
 10
16.6041729404512
 20
49.2107911843114
 10
16.6041919625925
 20
49.2108080897615
  0
LWPOLYLINE
  5
2004A
100
AcDbEntity
  8
0
100
AcDbPolyline
 70
0
 90
2
 10
16.6080446668612
 20
49.191934117486
 10
16.6077790882483
 20
49.1917939145346
  0
LWPOLYLINE
  5
2004B
100
AcDbEntity
  8
0
100
AcDbPolyline
 70
0
 90
2
 10
16.6084392513575
 20
49.1921180124969
 10
16.6080451830081
 20
49.1919343349599
  0
LWPOLYLINE
  5
2004C
100
AcDbEntity
  8
0
100
AcDbPolyline
 70
0
 90
5
 10
16.6080455369251
 20
49.1919355358863
 10
16.6078889601237
 20
49.192127591104
 10
16.6078913633857
 20
49.1921632177428
 10
16.6079189808742
 20
49.1921857068592
 10
16.6083418270111
 20
49.1922526632455
  0
LWPOLYLINE
  5
2004D
100
AcDbEntity
  8
0
100
AcDbPolyline
 70
0
 90
14
 10
16.6082317664526
 20
49.1925082544558
 10
16.6083007137939
 20
49.1925027381513
 10
16.6083776983205
 20
49.192512082358
 10
16.6090917346655
 20
49.1926845098062
 10
16.6092249406411
 20
49.1927286800175
 10
16.6093695916759
 20
49.1925838070905
 10
16.609426636645
 20
49.1924998410643
 10
16.6094648452361
 20
49.192402058474
 10
16.6095227771855
 20
49.1922533028741
 10
16.6091800471073
 20
49.1921683293419
 10
16.6085324795413
 20
49.192020510583
 10
16.608430414072
 20
49.192127245345
 10
16.6083418270111
 20
49.1922526632455
 10
16.6082317664526
 20
49.1925082544558
  0
LWPOLYLINE
  5
2004E
100
AcDbEntity
  8
0
100
AcDbPolyline
 70
0
 90
2
 10
16.5804797030179
 20
49.2105413207865
 10
16.5824547138432
 20
49.2100849596989
  0
LWPOLYLINE
  5
2004F
100
AcDbEntity
  8
0
100
AcDbPolyline
 70
0
 90
5
 10
16.5890476305912
 20
49.2198947649242
 10
16.5892894219326
 20
49.2195425231555
 10
16.5894931899923
 20
49.2192456521678
 10
16.5896903858606
 20
49.2189584450754
 10
16.5898081051454
 20
49.2187868923324
  0
LWPOLYLINE
  5
20050
100
AcDbEntity
  8
0
100
AcDbPolyline
 70
0
 90
10
 10
16.525166911893
 20
49.2206674895113
 10
16.5252875234922
 20
49.220633240526
 10
16.5253506322402
 20
49.2206208395314
 10
16.5254456767426
 20
49.2206057479793
 10
16.5255437477999
 20
49.2205940389834
 10
16.5256298459263
 20
49.220583734851
 10
16.5257300571303
 20
49.2205782396386
 10
16.5258056527684
 20
49.2205746017533
 10
16.5258890469472
 20
49.2205730595415
 10
16.525957865005
 20
49.2205744547599
  0
LWPOLYLINE
  5
20051
100
AcDbEntity
  8
0
100
AcDbPolyline
 70
0
 90
11
 10
16.5969303192263
 20
49.2118507228104
 10
16.5964394729515
 20
49.2126788095359
 10
16.5961701093401
 20
49.2131390933911
 10
16.5960210400946
 20
49.21337273719
 10
16.5955468773741
 20
49.214153161873
 10
16.5954295294642
 20
49.2143619201745
 10
16.5951479780073
 20
49.2148122931364
 10
16.5946767436164
 20
49.2155748335033
 10
16.5939086097195
 20
49.2168486145269
 10
16.5931134577053
 20
49.2181669679701
 10
16.5923772356098
 20
49.2193875614043
  0
LWPOLYLINE
  5
20052
100
AcDbEntity
  8
0
100
AcDbPolyline
 70
0
 90
11
 10
16.5198195518612
 20
49.2192929711151
 10
16.5197912746163
 20
49.2192141453293
 10
16.5196935450946
 20
49.2190508319425
 10
16.5195627436932
 20
49.2188622639652
 10
16.5194285040191
 20
49.2187133428651
 10
16.5193228043844
 20
49.2186118764089
 10
16.5190459445801
 20
49.2183973809697
 10
16.5187765481255
 20
49.2182507221128
 10
16.5184809468996
 20
49.2181171121285
 10
16.5181281922188
 20
49.2179825746128
 10
16.5179065942338
 20
49.2179070011984
  0
LWPOLYLINE
  5
20053
100
AcDbEntity
  8
0
100
AcDbPolyline
 70
0
 90
12
 10
16.4987784091464
 20
49.2202394046871
 10
16.4990460528524
 20
49.2202394368381
 10
16.499293548035
 20
49.2202393792074
 10
16.4996429672941
 20
49.2202393086114
 10
16.4997864465319
 20
49.2202393836137
 10
16.5000950720937
 20
49.2202536624595
 10
16.5006187750578
 20
49.2202916070348
 10
16.5010367510315
 20
49.2203110164695
 10
16.5016677265149
 20
49.2203789076815
 10
16.5018558289505
 20
49.2204003649723
 10
16.5020422668243
 20
49.220410304153
 10
16.502071334583
 20
49.2204123897159
  0
LWPOLYLINE
  5
20054
100
AcDbEntity
  8
0
100
AcDbPolyline
 70
0
 90
4
 10
16.5027973307256
 20
49.2204893536386
 10
16.5031349026222
 20
49.2205361868811
 10
16.5033318047187
 20
49.2205661432352
 10
16.5039270670482
 20
49.2206461146782
  0
LWPOLYLINE
  5
20055
100
AcDbEntity
  8
0
100
AcDbPolyline
 70
0
 90
11
 10
16.6279517132637
 20
49.2028989908357
 10
16.6279809753384
 20
49.2029015110127
 10
16.6280217121949
 20
49.2029014051059
 10
16.6280745084322
 20
49.2028942825088
 10
16.6281725322539
 20
49.2028664780039
 10
16.6284035495644
 20
49.2027938033732
 10
16.6284674043336
 20
49.2027765179765
 10
16.6284996266626
 20
49.2027677604378
 10
16.6285704440303
 20
49.2027425554274
 10
16.6286686116668
 20
49.2026979375568
 10
16.6287492581086
 20
49.2026591363804
  0
LWPOLYLINE
  5
20056
100
AcDbEntity
  8
0
100
AcDbPolyline
 70
0
 90
2
 10
16.6125077152529
 20
49.2039042046133
 10
16.6119412977153
 20
49.2038726913771
  0
LWPOLYLINE
  5
20057
100
AcDbEntity
  8
0
100
AcDbPolyline
 70
0
 90
2
 10
16.594956898936
 20
49.1993340060247
 10
16.594569970739
 20
49.2005093708309
  0
LWPOLYLINE
  5
20058
100
AcDbEntity
  8
0
100
AcDbPolyline
 70
0
 90
5
 10
16.599092735733
 20
49.1997763085952
 10
16.5991733222186
 20
49.1997229599303
 10
16.6005298128367
 20
49.1988272807485
 10
16.601434366871
 20
49.1982316778941
 10
16.602066438767
 20
49.1978158312015
  0
LWPOLYLINE
  5
20059
100
AcDbEntity
  8
0
100
AcDbPolyline
 70
0
 90
2
 10
16.4996021972386
 20
49.215530016681
 10
16.5003945417024
 20
49.2152203116826
  0
LWPOLYLINE
  5
2005A
100
AcDbEntity
  8
0
100
AcDbPolyline
 70
0
 90
27
 10
16.5039353987558
 20
49.2206433651957
 10
16.5040932289719
 20
49.2206592096309
 10
16.5043677117053
 20
49.2206902058316
 10
16.5045380615992
 20
49.2207046860721
 10
16.5048299276183
 20
49.2207143122631
 10
16.5050320036229
 20
49.22071415072
 10
16.5052406381871
 20
49.2207053224632
 10
16.50548973946
 20
49.2206915257671
 10
16.5057198572498
 20
49.2206582745874
 10
16.5059605405372
 20
49.2206122112617
 10
16.506195851138
 20
49.2205578014679
 10
16.5064069840401
 20
49.2204927016502
 10
16.506630607488
 20
49.2204148373091
 10
16.5068438513558
 20
49.2203271820452
 10
16.5070348855819
 20
49.2202278020971
 10
16.5072113382564
 20
49.2201115453972
 10
16.5073905407648
 20
49.2199796547166
 10
16.5075685713043
 20
49.2198341104206
 10
16.5076959581045
 20
49.2197222053149
 10
16.5078066947327
 20
49.2195967129517
 10
16.5080432130094
 20
49.219318491971
 10
16.508195123972
 20
49.2191631135948
 10
16.5083246903657
 20
49.2190389709298
 10
16.5085158003972
 20
49.2188762708565
 10
16.5086961652561
 20
49.2187274551038
 10
16.5089560566111
 20
49.2185357622014
 10
16.5091750742992
 20
49.218391978476
  0
LWPOLYLINE
  5
2005B
100
AcDbEntity
  8
0
100
AcDbPolyline
 70
0
 90
10
 10
16.5952312880541
 20
49.2232934715629
 10
16.5953358220383
 20
49.2233102022839
 10
16.595564581989
 20
49.2233465072846
 10
16.5959844015285
 20
49.2234132763481
 10
16.5962667042825
 20
49.2234581710548
 10
16.5964090143186
 20
49.2234802932748
 10
16.5966374480415
 20
49.2235144020817
 10
16.5967524270312
 20
49.223530605844
 10
16.5970889833775
 20
49.2235764513178
 10
16.5973596951994
 20
49.2236121093732
  0
LWPOLYLINE
  5
2005C
100
AcDbEntity
  8
0
100
AcDbPolyline
 70
0
 90
6
 10
16.6276063222755
 20
49.1752419199279
 10
16.6281925197335
 20
49.1752820131407
 10
16.6282306789565
 20
49.1752890527457
 10
16.6282638018802
 20
49.1753007108481
 10
16.6282972777568
 20
49.1753194487972
 10
16.6286895900716
 20
49.1755393877817
  0
LWPOLYLINE
  5
2005D
100
AcDbEntity
  8
0
100
AcDbPolyline
 70
0
 90
5
 10
16.6068226475472
 20
49.1916939344166
 10
16.6072708133929
 20
49.1915906537858
 10
16.6073540087519
 20
49.191589946744
 10
16.6074369823085
 20
49.1916140072009
 10
16.6077790882483
 20
49.1917939145346
  0
LWPOLYLINE
  5
2005E
100
AcDbEntity
  8
0
100
AcDbPolyline
 70
0
 90
15
 10
16.5551198787299
 20
49.2091857689456
 10
16.5550971641273
 20
49.2092094772113
 10
16.5550812755229
 20
49.2092303252766
 10
16.5548621775101
 20
49.2095777052741
 10
16.5537680411178
 20
49.2113028487339
 10
16.5535455365963
 20
49.2116390392672
 10
16.5534560750276
 20
49.2117279105866
 10
16.5533385090048
 20
49.2118164059214
 10
16.5532518597516
 20
49.2118634153399
 10
16.5531452563897
 20
49.2119042075232
 10
16.5529652417975
 20
49.2119447394985
 10
16.5527950531601
 20
49.2119552166805
 10
16.5525385038613
 20
49.2119328498516
 10
16.5522107910927
 20
49.2118800791209
 10
16.5513523116621
 20
49.211738522611
  0
LWPOLYLINE
  5
2005F
100
AcDbEntity
  8
0
100
AcDbPolyline
 70
0
 90
7
 10
16.586077341039
 20
49.1964445627897
 10
16.5860038038674
 20
49.1964635795295
 10
16.5859643017824
 20
49.196467918782
 10
16.5858751434296
 20
49.1964762376253
 10
16.585783251587
 20
49.1964793872955
 10
16.5856327996069
 20
49.1964694213944
 10
16.5854975195774
 20
49.1964528448023
  0
LWPOLYLINE
  5
20060
100
AcDbEntity
  8
0
100
AcDbPolyline
 70
0
 90
3
 10
16.6053725199286
 20
49.1973874693479
 10
16.6056298297563
 20
49.1967875702637
 10
16.6065215680006
 20
49.1970694760304
  0
LWPOLYLINE
  5
20061
100
AcDbEntity
  8
0
100
AcDbPolyline
 70
0
 90
4
 10
16.6278214851098
 20
49.203068782437
 10
16.6279184295787
 20
49.2030710207264
 10
16.6280653628136
 20
49.2030437783871
 10
16.6281850563579
 20
49.2030092745339
  0
LWPOLYLINE
  5
20062
100
AcDbEntity
  8
0
100
AcDbPolyline
 70
0
 90
10
 10
16.6169843260012
 20
49.1918151470644
 10
16.617018366593
 20
49.1916010223748
 10
16.6170379408375
 20
49.1914780409394
 10
16.6170559534191
 20
49.1913645365279
 10
16.6170738224267
 20
49.1912527404799
 10
16.6170995760177
 20
49.1910905799125
 10
16.6171590447209
 20
49.1907162615059
 10
16.6171647970303
 20
49.1906796751568
 10
16.6171689916367
 20
49.1906533801484
 10
16.617170424192
 20
49.1906229098951
  0
LWPOLYLINE
  5
20063
100
AcDbEntity
  8
0
100
AcDbPolyline
 70
0
 90
6
 10
16.6022173954397
 20
49.1978010274953
 10
16.6022646320232
 20
49.1978325972429
 10
16.6023179268692
 20
49.1978634206519
 10
16.6024900918306
 20
49.1979433747176
 10
16.6025155325042
 20
49.1979531381025
 10
16.6027142909044
 20
49.1980291884256
  0
LWPOLYLINE
  5
20064
100
AcDbEntity
  8
0
100
AcDbPolyline
 70
0
 90
5
 10
16.5767337028259
 20
49.1716349207983
 10
16.5768490989167
 20
49.1716403576367
 10
16.5769110578796
 20
49.1716385869692
 10
16.5788110475822
 20
49.1714980751507
 10
16.5789486640116
 20
49.1714834433583
  0
LWPOLYLINE
  5
20065
100
AcDbEntity
  8
0
100
AcDbPolyline
 70
0
 90
5
 10
16.5927942661173
 20
49.1905343226268
 10
16.5928900697121
 20
49.1905525211664
 10
16.5929175006396
 20
49.1905577248848
 10
16.5936912580712
 20
49.190701568916
 10
16.595290681339
 20
49.1910000702353
  0
LWPOLYLINE
  5
20066
100
AcDbEntity
  8
0
100
AcDbPolyline
 70
0
 90
2
 10
16.6329871228784
 20
49.2016720069769
 10
16.6334990664732
 20
49.2029425757019
  0
LWPOLYLINE
  5
20067
100
AcDbEntity
  8
0
100
AcDbPolyline
 70
0
 90
5
 10
16.6174423808397
 20
49.1864629784242
 10
16.6175213402664
 20
49.1863656369717
 10
16.6175861136837
 20
49.1862446791661
 10
16.6177836776889
 20
49.1859307870838
 10
16.6179778627046
 20
49.1855787576724
  0
LWPOLYLINE
  5
20068
100
AcDbEntity
  8
0
100
AcDbPolyline
 70
0
 90
2
 10
16.5769763700031
 20
49.2104303896671
 10
16.5780550230522
 20
49.2100188153303
  0
LWPOLYLINE
  5
20069
100
AcDbEntity
  8
0
100
AcDbPolyline
 70
0
 90
3
 10
16.5943224394769
 20
49.2199563009584
 10
16.5942279357092
 20
49.2201545592772
 10
16.5940956851375
 20
49.2204324503782
  0
LWPOLYLINE
  5
2006A
100
AcDbEntity
  8
0
100
AcDbPolyline
 70
0
 90
34
 10
16.5219696962706
 20
49.2222976632824
 10
16.522051410058
 20
49.2222904852678
 10
16.5221884643564
 20
49.2222678188637
 10
16.52236263745
 20
49.2222304403961
 10
16.522573990755
 20
49.2221895712094
 10
16.5227847325741
 20
49.2221416019839
 10
16.5229280690094
 20
49.2220994830322
 10
16.5230907380808
 20
49.2220474398407
 10
16.5232226558551
 20
49.2219992567195
 10
16.523343463877
 20
49.2219307390142
 10
16.5234649698961
 20
49.2218787349414
 10
16.5236251594247
 20
49.2217918673383
 10
16.5237053250863
 20
49.2217467650247
 10
16.5237425166282
 20
49.2217258161679
 10
16.5237930346388
 20
49.2216887238853
 10
16.5239012726829
 20
49.2216094460706
 10
16.5239703327642
 20
49.2215564025846
 10
16.5240570059629
 20
49.2214805569137
 10
16.5241389710864
 20
49.2214072690473
 10
16.5242264843331
 20
49.2213230705863
 10
16.5242964220392
 20
49.2212589631386
 10
16.5243705936788
 20
49.221190997433
 10
16.5244762330084
 20
49.2210941649053
 10
16.5245221164467
 20
49.2210484184349
 10
16.5245488489871
 20
49.2210231026216
 10
16.5246122066917
 20
49.2209752593825
 10
16.5246781056379
 20
49.2209254268953
 10
16.5247242012035
 20
49.2208957974654
 10
16.5248214496835
 20
49.2208343675194
 10
16.5249042355235
 20
49.220789271103
 10
16.5250136505612
 20
49.2207360387864
 10
16.5250818578252
 20
49.2207038300856
 10
16.5251261469479
 20
49.2206842028219
 10
16.5251525089359
 20
49.2206727007983
  0
LWPOLYLINE
  5
2006B
100
AcDbEntity
  8
0
100
AcDbPolyline
 70
0
 90
13
 10
16.5825274195689
 20
49.220241643954
 10
16.5840702096155
 20
49.2181801054953
 10
16.5841674045702
 20
49.2178431993144
 10
16.5841387947179
 20
49.2175155378849
 10
16.5833558882126
 20
49.2170558710328
 10
16.5836322396152
 20
49.2166660237247
 10
16.5841986946249
 20
49.2168216798947
 10
16.5845488446382
 20
49.2168918683813
 10
16.5848558788933
 20
49.2167703999307
 10
16.5850661944619
 20
49.2166676593138
 10
16.5852795901603
 20
49.2165471371047
 10
16.5863284335379
 20
49.2153823385983
 10
16.5865250930702
 20
49.2152786261244
  0
LWPOLYLINE
  5
2006C
100
AcDbEntity
  8
0
100
AcDbPolyline
 70
0
 90
2
 10
16.5756410506534
 20
49.1920987168962
 10
16.5755388096025
 20
49.1921323915522
  0
LWPOLYLINE
  5
2006D
100
AcDbEntity
  8
0
100
AcDbPolyline
 70
0
 90
9
 10
16.6428110626252
 20
49.1963425785438
 10
16.6428235451655
 20
49.196280871026
 10
16.6429007323139
 20
49.1959521211147
 10
16.6429506455709
 20
49.195783525034
 10
16.6429843518102
 20
49.195659822224
 10
16.6431492533848
 20
49.1950373438495
 10
16.6431885272359
 20
49.1948889804793
 10
16.6432033530277
 20
49.1948524916165
 10
16.6432339782178
 20
49.1948063543741
  0
LWPOLYLINE
  5
2006E
100
AcDbEntity
  8
0
100
AcDbPolyline
 70
0
 90
10
 10
16.6183811315687
 20
49.1848554019951
 10
16.6184573065784
 20
49.18471797528
 10
16.6184805428343
 20
49.1846531402062
 10
16.6186341070912
 20
49.184302214938
 10
16.6187593115671
 20
49.1840606245476
 10
16.6189987544539
 20
49.1836490262865
 10
16.6190742821958
 20
49.1835356128877
 10
16.6191244670402
 20
49.1834034919446
 10
16.6193034215185
 20
49.1830927134853
 10
16.6193098646312
 20
49.1830745370982
  0
LWPOLYLINE
  5
2006F
100
AcDbEntity
  8
0
100
AcDbPolyline
 70
0
 90
17
 10
16.5081961343017
 20
49.2193124489967
 10
16.5081079578021
 20
49.2193955039168
 10
16.5079595083646
 20
49.2195714844737
 10
16.5078456482443
 20
49.2197148454908
 10
16.5077491105131
 20
49.2198074325319
 10
16.5075769629213
 20
49.2199590980089
 10
16.5073778512257
 20
49.220107653909
 10
16.5072021531802
 20
49.22022848807
 10
16.5069855567116
 20
49.2203576972189
 10
16.5066843621233
 20
49.2204865388825
 10
16.506282968395
 20
49.2206149792335
 10
16.5059776050912
 20
49.2206960274448
 10
16.505529845742
 20
49.2207622491425
 10
16.5052002187542
 20
49.2207918007953
 10
16.5048075076261
 20
49.2207963823317
 10
16.5044955802983
 20
49.2207729237824
 10
16.5043756591486
 20
49.2207665837772
  0
LWPOLYLINE
  5
20070
100
AcDbEntity
  8
0
100
AcDbPolyline
 70
0
 90
3
 10
16.6065052636611
 20
49.1959445702069
 10
16.6060593196045
 20
49.1957848890028
 10
16.6059730909574
 20
49.1957696423237
  0
LWPOLYLINE
  5
20071
100
AcDbEntity
  8
0
100
AcDbPolyline
 70
0
 90
3
 10
16.505166226843
 20
49.2345133657952
 10
16.5054116964512
 20
49.2345735981821
 10
16.5060735977704
 20
49.2345616356237
  0
LWPOLYLINE
  5
20072
100
AcDbEntity
  8
0
100
AcDbPolyline
 70
0
 90
19
 10
16.605736008067
 20
49.1924984447756
 10
16.6057369693788
 20
49.1925779281196
 10
16.6057497548938
 20
49.1926484809397
 10
16.6057818294053
 20
49.1927292650481
 10
16.6058357038267
 20
49.1928192825379
 10
16.6058967822896
 20
49.1929141521968
 10
16.6059623413089
 20
49.1929944151087
 10
16.606010743351
 20
49.1930465078227
 10
16.6060664278279
 20
49.1930837401448
 10
16.606153048128
 20
49.1931367325218
 10
16.6063333642602
 20
49.1932458415567
 10
16.6064273811502
 20
49.1932958303542
 10
16.6065365440223
 20
49.193344359877
 10
16.6065865227046
 20
49.1933626452681
 10
16.6066536010136
 20
49.1933860318394
 10
16.6067414069685
 20
49.1934126058739
 10
16.606859257416
 20
49.1934419421903
 10
16.6069589871256
 20
49.1934648385614
 10
16.6070878247715
 20
49.1934945010094
  0
LWPOLYLINE
  5
20073
100
AcDbEntity
  8
0
100
AcDbPolyline
 70
0
 90
2
 10
16.5756053682184
 20
49.1918638260517
 10
16.5756902829162
 20
49.1919396193404
  0
LWPOLYLINE
  5
20074
100
AcDbEntity
  8
0
100
AcDbPolyline
 70
0
 90
15
 10
16.5875883097704
 20
49.1989645378826
 10
16.5871375794084
 20
49.1991042910767
 10
16.5866749669976
 20
49.1992666258178
 10
16.5862981874951
 20
49.1994407550234
 10
16.5862306218667
 20
49.199487060831
 10
16.5860932457306
 20
49.1996015832981
 10
16.585907537452
 20
49.199767124449
 10
16.5858082594389
 20
49.1998299008085
 10
16.5856531020303
 20
49.1999100539803
 10
16.5849326757057
 20
49.2002606599432
 10
16.5844810896604
 20
49.2004671878866
 10
16.5838911525201
 20
49.2007373309724
 10
16.5833931405036
 20
49.2010083054814
 10
16.5831838983821
 20
49.2011324620092
 10
16.5830955025539
 20
49.201189497188
  0
LWPOLYLINE
  5
20075
100
AcDbEntity
  8
0
100
AcDbPolyline
 70
0
 90
14
 10
16.5732712515685
 20
49.1731213951484
 10
16.5737104787929
 20
49.1731899310563
 10
16.5739389581234
 20
49.1732214826505
 10
16.5742542554993
 20
49.1732569524358
 10
16.5745379932813
 20
49.1732738931031
 10
16.5748094834179
 20
49.1732764835905
 10
16.5751012884383
 20
49.1732721975681
 10
16.5753487051208
 20
49.1732535352058
 10
16.5755543321126
 20
49.1732306317219
 10
16.5759381694617
 20
49.1731687616348
 10
16.5764195656386
 20
49.1730609174155
 10
16.5767310283855
 20
49.1729628685583
 10
16.5771179129719
 20
49.1728208884182
 10
16.5772230522169
 20
49.1727691225355
  0
LWPOLYLINE
  5
20076
100
AcDbEntity
  8
0
100
AcDbPolyline
 70
0
 90
23
 10
16.6203723290296
 20
49.1818703346596
 10
16.6202067730193
 20
49.1820847397465
 10
16.620123994477
 20
49.1821919421981
 10
16.6200086229252
 20
49.1823613277715
 10
16.6199062554176
 20
49.182532176262
 10
16.6197613321924
 20
49.1827729144745
 10
16.6196995281112
 20
49.1828918218019
 10
16.6196047621496
 20
49.1830592283967
 10
16.6194828629177
 20
49.1832648738002
 10
16.6193925616009
 20
49.1834252699572
 10
16.6192782354827
 20
49.183595814517
 10
16.6191960590129
 20
49.183712737199
 10
16.6190788684317
 20
49.1839056910498
 10
16.6189944838128
 20
49.1840619833792
 10
16.6188303366809
 20
49.1843624131904
 10
16.6187562619606
 20
49.1845239575668
 10
16.6186980477583
 20
49.1846629269643
 10
16.6186268085856
 20
49.1847963616015
 10
16.6185855662046
 20
49.1848850669658
 10
16.618469099003
 20
49.1850526556725
 10
16.6184327196107
 20
49.185147855712
 10
16.618372988494
 20
49.1852482770303
 10
16.6183662860355
 20
49.1852629980003
  0
LWPOLYLINE
  5
20077
100
AcDbEntity
  8
0
100
AcDbPolyline
 70
0
 90
12
 10
16.5043654239145
 20
49.2207658496293
 10
16.5039763420725
 20
49.2207288947728
 10
16.5034592613515
 20
49.220661226361
 10
16.5026003949682
 20
49.2205529327743
 10
16.5021518146757
 20
49.220498495288
 10
16.5018714527188
 20
49.2204613726247
 10
16.5013565167658
 20
49.2204007234788
 10
16.5007431150735
 20
49.2203532698829
 10
16.5001352651655
 20
49.2203130865892
 10
16.4997531902274
 20
49.220306925133
 10
16.4991731744307
 20
49.220305100644
 10
16.4990141882333
 20
49.2203060830052
  0
LWPOLYLINE
  5
20078
100
AcDbEntity
  8
0
100
AcDbPolyline
 70
0
 90
17
 10
16.5504918461916
 20
49.2100504550259
 10
16.5504987303116
 20
49.2100738317564
 10
16.5505004356743
 20
49.2100851700853
 10
16.5504999320583
 20
49.2100931848332
 10
16.5504978383527
 20
49.2101016288887
 10
16.5504922270135
 20
49.2101187772467
 10
16.5504832208231
 20
49.2101405681004
 10
16.5502778749974
 20
49.2105769376823
 10
16.5500869162976
 20
49.2109607829341
 10
16.5500810072845
 20
49.2109705830283
 10
16.5500724814177
 20
49.210982005575
 10
16.5500605227082
 20
49.2109958064737
 10
16.5500513063973
 20
49.2110047374215
 10
16.5500375629013
 20
49.2110151545355
 10
16.5499844692244
 20
49.2110480018725
 10
16.5498495009127
 20
49.2111057634687
 10
16.5496932457284
 20
49.2111620062401
  0
LWPOLYLINE
  5
20079
100
AcDbEntity
  8
0
100
AcDbPolyline
 70
0
 90
12
 10
16.5294266985649
 20
49.221875325419
 10
16.5296767718365
 20
49.2221050632297
 10
16.5300986148493
 20
49.222543017211
 10
16.5302207905494
 20
49.2227098758055
 10
16.5304988573389
 20
49.2231288637565
 10
16.530678540825
 20
49.2234744198105
 10
16.53087576537
 20
49.2239724774971
 10
16.5310234827717
 20
49.2244576780343
 10
16.531169984702
 20
49.2250330696589
 10
16.5312610956494
 20
49.2254477352273
 10
16.5313479099133
 20
49.2259263195434
 10
16.5313647476588
 20
49.2260565181079
  0
LWPOLYLINE
  5
2007A
100
AcDbEntity
  8
0
100
AcDbPolyline
 70
0
 90
5
 10
16.5511868185409
 20
49.2100699090893
 10
16.5505757849203
 20
49.2100405226329
 10
16.5505583545822
 20
49.2100407265002
 10
16.5505442936394
 20
49.2100422562156
 10
16.5504918461916
 20
49.2100504550259
  0
LWPOLYLINE
  5
2007B
100
AcDbEntity
  8
0
100
AcDbPolyline
 70
0
 90
5
 10
16.6205231822774
 20
49.2078426236905
 10
16.620513290264
 20
49.207885067747
 10
16.6203638123699
 20
49.2080373922828
 10
16.6201078358845
 20
49.2082872846204
 10
16.6200563104934
 20
49.2083017297859
  0
LWPOLYLINE
  5
2007C
100
AcDbEntity
  8
0
100
AcDbPolyline
 70
0
 90
2
 10
16.4984052969032
 20
49.2159967433941
 10
16.4989251931638
 20
49.2165583007423
  0
LWPOLYLINE
  5
2007D
100
AcDbEntity
  8
0
100
AcDbPolyline
 70
0
 90
2
 10
16.6223411766454
 20
49.1664762288774
 10
16.6223463675366
 20
49.1663591219419
  0
LWPOLYLINE
  5
2007E
100
AcDbEntity
  8
0
100
AcDbPolyline
 70
0
 90
3
 10
16.4989251931638
 20
49.2165583007423
 10
16.4993892844937
 20
49.2170679941526
 10
16.4994337246026
 20
49.2171168680091
  0
LWPOLYLINE
  5
2007F
100
AcDbEntity
  8
0
100
AcDbPolyline
 70
0
 90
3
 10
16.4979023252332
 20
49.2154331411668
 10
16.4983665563303
 20
49.2159534345751
 10
16.4984052969032
 20
49.2159967433941
  0
LWPOLYLINE
  5
20080
100
AcDbEntity
  8
0
100
AcDbPolyline
 70
0
 90
2
 10
16.5006197705656
 20
49.2166490790955
 10
16.5001103892421
 20
49.2160872904092
  0
LWPOLYLINE
  5
20081
100
AcDbEntity
  8
0
100
AcDbPolyline
 70
0
 90
2
 10
16.5277942667581
 20
49.1774018286794
 10
16.52839164754
 20
49.1777602066547
  0
LWPOLYLINE
  5
20082
100
AcDbEntity
  8
0
100
AcDbPolyline
 70
0
 90
2
 10
16.5001103892421
 20
49.2160872904092
 10
16.4996021972386
 20
49.215530016681
  0
LWPOLYLINE
  5
20083
100
AcDbEntity
  8
0
100
AcDbPolyline
 70
0
 90
3
 10
16.4996021972386
 20
49.215530016681
 10
16.4991145523959
 20
49.2149969211441
 10
16.4990872425151
 20
49.2149670075148
  0
LWPOLYLINE
  5
20084
100
AcDbEntity
  8
0
100
AcDbPolyline
 70
0
 90
3
 10
16.5151407008226
 20
49.2252738239503
 10
16.5141460286682
 20
49.2261138841814
 10
16.5139879539667
 20
49.2265625575175
  0
LWPOLYLINE
  5
20085
100
AcDbEntity
  8
0
100
AcDbPolyline
 70
0
 90
2
 10
16.5139900247503
 20
49.2266295569389
 10
16.5139879539667
 20
49.2265625575175
  0
LWPOLYLINE
  5
20086
100
AcDbEntity
  8
0
100
AcDbPolyline
 70
0
 90
9
 10
16.5115387058381
 20
49.2275197525548
 10
16.51154179612
 20
49.2275186170606
 10
16.5117555840235
 20
49.2274394031848
 10
16.511932288987
 20
49.2274035769712
 10
16.5122178099299
 20
49.2273769945123
 10
16.5124131261008
 20
49.2273380684519
 10
16.5126819518775
 20
49.2272352959687
 10
16.513176348158
 20
49.2270207704999
 10
16.5139900247503
 20
49.2266295569389
  0
LWPOLYLINE
  5
20087
100
AcDbEntity
  8
0
100
AcDbPolyline
 70
0
 90
8
 10
16.5139900247503
 20
49.2266295569389
 10
16.5140211675252
 20
49.226739165683
 10
16.5140152495509
 20
49.2268415965226
 10
16.5139253117439
 20
49.227232099139
 10
16.5138987984537
 20
49.2273503328079
 10
16.5137645677556
 20
49.2276826618939
 10
16.5136601423613
 20
49.2282285347373
 10
16.5136599034904
 20
49.2282299650108
  0
LWPOLYLINE
  5
20088
100
AcDbEntity
  8
0
100
AcDbPolyline
 70
0
 90
3
 10
16.5136599034904
 20
49.2282299650108
 10
16.5136567320689
 20
49.2282464732148
 10
16.5136551324915
 20
49.2282552238621
  0
LWPOLYLINE
  5
20089
100
AcDbEntity
  8
0
100
AcDbPolyline
 70
0
 90
8
 10
16.5187084358144
 20
49.2353274006589
 10
16.5186290116751
 20
49.235465548096
 10
16.5186290116751
 20
49.235465548096
 10
16.518522562209
 20
49.2357937188557
 10
16.5185725462212
 20
49.2358046241055
 10
16.5185658445216
 20
49.2359225575983
 10
16.5185298321156
 20
49.2359860161861
 10
16.5183520090233
 20
49.2361169390644
  0
LWPOLYLINE
  5
2008A
100
AcDbEntity
  8
0
100
AcDbPolyline
 70
0
 90
5
 10
16.4642180634782
 20
49.2588563660257
 10
16.4641210109848
 20
49.2588688264153
 10
16.4630461454237
 20
49.2588996037505
 10
16.4625889171771
 20
49.2589127148812
 10
16.4621466831838
 20
49.2589188527953
  0
LWPOLYLINE
  5
2008B
100
AcDbEntity
  8
0
100
AcDbPolyline
 70
0
 90
2
 10
16.5987589372053
 20
49.2043459097435
 10
16.5994692725402
 20
49.2037359964584
  0
LWPOLYLINE
  5
2008C
100
AcDbEntity
  8
0
100
AcDbPolyline
 70
0
 90
2
 10
16.5968317277033
 20
49.2117756201775
 10
16.5967777797279
 20
49.2118673099066
  0
LWPOLYLINE
  5
2008D
100
AcDbEntity
  8
0
100
AcDbPolyline
 70
0
 90
7
 10
16.4644865416173
 20
49.2593550901758
 10
16.4643032451291
 20
49.2594212685334
 10
16.4641401519371
 20
49.2594095220536
 10
16.464091145622
 20
49.2593573750813
 10
16.4641435845259
 20
49.2592909269065
 10
16.4640790880696
 20
49.2591836449881
 10
16.4639312511382
 20
49.2590811642037
  0
LWPOLYLINE
  5
2008E
100
AcDbEntity
  8
0
100
AcDbPolyline
 70
0
 90
4
 10
16.4663866200583
 20
49.2608084900608
 10
16.4664565478429
 20
49.26094841841
 10
16.4666686572289
 20
49.2610123075024
 10
16.4670792589112
 20
49.2611228983243
  0
LWPOLYLINE
  5
2008F
100
AcDbEntity
  8
0
100
AcDbPolyline
 70
0
 90
2
 10
16.4914004597633
 20
49.2478961331691
 10
16.4893483998455
 20
49.2480782791276
  0
LWPOLYLINE
  5
20090
100
AcDbEntity
  8
0
100
AcDbPolyline
 70
0
 90
15
 10
16.4914077186385
 20
49.2479020560911
 10
16.491358589821
 20
49.2478012975382
 10
16.4914588987473
 20
49.2476950637304
 10
16.4918216815677
 20
49.2474996409958
 10
16.49198453054
 20
49.2474141022759
 10
16.492610780616
 20
49.2471727727788
 10
16.493042247931
 20
49.2469120555597
 10
16.4933334305048
 20
49.2467006853589
 10
16.4934162116793
 20
49.2464527476279
 10
16.4934955234635
 20
49.246274783033
 10
16.4934478583078
 20
49.2460174810672
 10
16.493251763144
 20
49.2458089423575
 10
16.4929913418323
 20
49.2455903834492
 10
16.4927662156081
 20
49.2453581525996
 10
16.4927085079737
 20
49.2450623169647
  0
LWPOLYLINE
  5
20091
100
AcDbEntity
  8
0
100
AcDbPolyline
 70
0
 90
2
 10
16.5406550431022
 20
49.1800646004429
 10
16.5406897817726
 20
49.1805601735121
  0
LWPOLYLINE
  5
20092
100
AcDbEntity
  8
0
100
AcDbPolyline
 70
0
 90
2
 10
16.5980997723653
 20
49.2049116912015
 10
16.5987886836104
 20
49.2043204319526
  0
LWPOLYLINE
  5
20093
100
AcDbEntity
  8
0
100
AcDbPolyline
 70
0
 90
2
 10
16.5959082813391
 20
49.2133206889448
 10
16.5958742002452
 20
49.2133656677503
  0
LWPOLYLINE
  5
20094
100
AcDbEntity
  8
0
100
AcDbPolyline
 70
0
 90
8
 10
16.5044981401061
 20
49.2357442508957
 10
16.5052635865208
 20
49.2359960984429
 10
16.5056070550566
 20
49.2361642153886
 10
16.5057211039172
 20
49.2363938712876
 10
16.5056586836199
 20
49.2368526274503
 10
16.5054436730597
 20
49.2371413475024
 10
16.5053207164616
 20
49.2377324266293
 10
16.5053047698306
 20
49.2378771271527
  0
LWPOLYLINE
  5
20095
100
AcDbEntity
  8
0
100
AcDbPolyline
 70
0
 90
10
 10
16.5051377297425
 20
49.2359477311295
 10
16.5053732590203
 20
49.2358888385948
 10
16.505540508696
 20
49.235776592408
 10
16.5057527374604
 20
49.2355433334757
 10
16.5060012581073
 20
49.2353396842293
 10
16.5061338757351
 20
49.2351385286621
 10
16.5065380365177
 20
49.2348920203042
 10
16.5070210272838
 20
49.234667366527
 10
16.5075349544743
 20
49.2345043462457
 10
16.5078534958435
 20
49.2344245482666
  0
LWPOLYLINE
  5
20096
100
AcDbEntity
  8
0
100
AcDbPolyline
 70
0
 90
2
 10
16.5094159674914
 20
49.2314084797289
 10
16.5095329572828
 20
49.2313746147668
  0
LWPOLYLINE
  5
20097
100
AcDbEntity
  8
0
100
AcDbPolyline
 70
0
 90
6
 10
16.5185541907226
 20
49.1803575414105
 10
16.5176340593442
 20
49.1808504303484
 10
16.5173077936009
 20
49.1810217789682
 10
16.5167205863206
 20
49.1817170454105
 10
16.5161430545867
 20
49.1821093230373
 10
16.5144226016792
 20
49.1834270933891
  0
LWPOLYLINE
  5
20098
100
AcDbEntity
  8
0
100
AcDbPolyline
 70
0
 90
9
 10
16.5883694924546
 20
49.2465471771244
 10
16.5884130645969
 20
49.2468139350844
 10
16.5885710359531
 20
49.2468995851684
 10
16.5890003348875
 20
49.2469320839553
 10
16.5896073418278
 20
49.2469274300335
 10
16.5899613072209
 20
49.2468807222801
 10
16.5899954267001
 20
49.2466423659007
 10
16.5900468225645
 20
49.2463169721697
 10
16.5901235159318
 20
49.2456332999374
  0
LWPOLYLINE
  5
20099
100
AcDbEntity
  8
0
100
AcDbPolyline
 70
0
 90
6
 10
16.5882921947849
 20
49.2454617908075
 10
16.5885264712161
 20
49.2456130963233
 10
16.5885722234364
 20
49.2457281407572
 10
16.588552650984
 20
49.2458922784069
 10
16.5884617642691
 20
49.2462118492749
 10
16.5883694924546
 20
49.2465471771244
  0
LWPOLYLINE
  5
2009A
100
AcDbEntity
  8
0
100
AcDbPolyline
 70
0
 90
14
 10
16.4717586530041
 20
49.2585654405411
 10
16.4715998318057
 20
49.258581124777
 10
16.4715254220107
 20
49.258627849953
 10
16.4711089203671
 20
49.258903177527
 10
16.470686848815
 20
49.2590573099275
 10
16.4698866473105
 20
49.2591493149972
 10
16.4693646802683
 20
49.2590967825825
 10
16.4691606221965
 20
49.2589358185934
 10
16.4689533238142
 20
49.2586732255065
 10
16.4688575488915
 20
49.2585782345663
 10
16.4686733669982
 20
49.2584652454774
 10
16.4681041384821
 20
49.2583162229948
 10
16.4678414462459
 20
49.2582624000258
 10
16.4676150841233
 20
49.258264386707
  0
LWPOLYLINE
  5
2009B
100
AcDbEntity
  8
0
100
AcDbPolyline
 70
0
 90
3
 10
16.6366234576405
 20
49.197962895182
 10
16.6365151205579
 20
49.1978881143209
 10
16.6361706830288
 20
49.1977204612176
  0
LWPOLYLINE
  5
2009C
100
AcDbEntity
  8
0
100
AcDbPolyline
 70
0
 90
11
 10
16.4884620925328
 20
49.2483097674625
 10
16.4882733062498
 20
49.2482148593081
 10
16.4879235159637
 20
49.2481357163025
 10
16.4865238728955
 20
49.2480189633917
 10
16.4857263660629
 20
49.2478050130237
 10
16.4839825508296
 20
49.2467884097585
 10
16.4834675419251
 20
49.2465137171684
 10
16.4830984895234
 20
49.2463035307421
 10
16.4829633767192
 20
49.2462235959138
 10
16.482890800618
 20
49.2461643613513
 10
16.4827010151645
 20
49.2459184425692
  0
LWPOLYLINE
  5
2009D
100
AcDbEntity
  8
0
100
AcDbPolyline
 70
0
 90
8
 10
16.4893556585016
 20
49.2480842021784
 10
16.4878170860915
 20
49.247368696302
 10
16.487102902571
 20
49.2471499369973
 10
16.48604024165
 20
49.2470411793325
 10
16.4856967268911
 20
49.246924667236
 10
16.4855143813876
 20
49.2467819225256
 10
16.4854543290311
 20
49.2466479649696
 10
16.4855543499433
 20
49.2463958670601
  0
LWPOLYLINE
  5
2009E
100
AcDbEntity
  8
0
100
AcDbPolyline
 70
0
 90
5
 10
16.6399998435061
 20
49.224389970967
 10
16.6409314110933
 20
49.2245689134255
 10
16.6424018194479
 20
49.2249172556348
 10
16.6437477825936
 20
49.2253915653537
 10
16.6447055346083
 20
49.2257990674589
  0
LWPOLYLINE
  5
2009F
100
AcDbEntity
  8
0
100
AcDbPolyline
 70
0
 90
2
 10
16.5133653518953
 20
49.2437757493942
 10
16.5126999362901
 20
49.2427149974097
  0
LWPOLYLINE
  5
200A0
100
AcDbEntity
  8
0
100
AcDbPolyline
 70
0
 90
5
 10
16.4990872425151
 20
49.2149670075148
 10
16.49939490221
 20
49.2148473351315
 10
16.4994181903517
 20
49.2148360704502
 10
16.4994376746587
 20
49.2148252564368
 10
16.4995095675116
 20
49.2147446573497
  0
LWPOLYLINE
  5
200A1
100
AcDbEntity
  8
0
100
AcDbPolyline
 70
0
 90
28
 10
16.5462985903593
 20
49.1853083785726
 10
16.5461088822721
 20
49.1847418617954
 10
16.5461142514112
 20
49.1846996757202
 10
16.5461504520282
 20
49.1846395374023
 10
16.5463038345737
 20
49.1845677218793
 10
16.5479685074963
 20
49.1840378429607
 10
16.5493901201119
 20
49.1836598918094
 10
16.5503949544532
 20
49.1832982374568
 10
16.5507992934073
 20
49.1831417596239
 10
16.551460738183
 20
49.1829314250953
 10
16.5524001005141
 20
49.1825419601234
 10
16.5526401007423
 20
49.182453581331
 10
16.5531663957862
 20
49.1821926280512
 10
16.5535304023776
 20
49.1820679361054
 10
16.5542983768603
 20
49.1815720828873
 10
16.5546556220086
 20
49.1802428882429
 10
16.5546257100707
 20
49.1800128027959
 10
16.5545915293816
 20
49.1797773471675
 10
16.554835529584
 20
49.1794013584937
 10
16.5550914970614
 20
49.1792375305213
 10
16.5554735711072
 20
49.1792408170452
 10
16.5556460718159
 20
49.1791168046555
 10
16.5559184982097
 20
49.1785279171068
 10
16.5559343103377
 20
49.1779937220514
 10
16.5563869172584
 20
49.1776393064684
 10
16.5566010768437
 20
49.1774209125104
 10
16.5569088924278
 20
49.1771399690295
 10
16.5583441382235
 20
49.1767584661045
  0
LWPOLYLINE
  5
200A2
100
AcDbEntity
  8
0
100
AcDbPolyline
 70
0
 90
6
 10
16.5521147026547
 20
49.1885770337658
 10
16.5528679546144
 20
49.1891329066858
 10
16.5530582319852
 20
49.1891538999071
 10
16.5531845143506
 20
49.1890957000941
 10
16.5533417000323
 20
49.1888763396949
 10
16.5533486388049
 20
49.1888096252271
  0
LWPOLYLINE
  5
200A3
100
AcDbEntity
  8
0
100
AcDbPolyline
 70
0
 90
4
 10
16.5883213828423
 20
49.2303324917471
 10
16.5878969101868
 20
49.2309502154255
 10
16.5878039918392
 20
49.2309954851068
 10
16.5870338234938
 20
49.2307626335512
  0
LWPOLYLINE
  5
200A4
100
AcDbEntity
  8
0
100
AcDbPolyline
 70
0
 90
66
 10
16.5176918739165
 20
49.2298742823978
 10
16.5176513294335
 20
49.2298076949493
 10
16.5175072297211
 20
49.2296606005228
 10
16.5171760821311
 20
49.2293746433749
 10
16.5170845333467
 20
49.2292925531757
 10
16.5166179361978
 20
49.2287506599329
 10
16.5162063396552
 20
49.2282806391808
 10
16.5160456529335
 20
49.2281022308254
 10
16.5159131826655
 20
49.2279227672254
 10
16.5158155878462
 20
49.2277718539321
 10
16.515801179038
 20
49.2277588811254
 10
16.5157912000342
 20
49.227752467396
 10
16.5157597847923
 20
49.2277247074336
 10
16.5157079300877
 20
49.2276969310087
 10
16.5156739070674
 20
49.2276806537616
 10
16.5156143302043
 20
49.227656937766
 10
16.5155902755886
 20
49.2276487922445
 10
16.5155550436483
 20
49.2276397557427
 10
16.5154503716719
 20
49.2276156142582
 10
16.5153199929116
 20
49.2276006677993
 10
16.5152935136979
 20
49.2275987713134
 10
16.5152218027953
 20
49.2275964395289
 10
16.5151405976597
 20
49.2276104344324
 10
16.5151170893727
 20
49.2276139069917
 10
16.5150471489096
 20
49.2276274421867
 10
16.5149347643896
 20
49.2276569341944
 10
16.5145672028561
 20
49.2277835773682
 10
16.5144176201469
 20
49.2278753558204
 10
16.5142597108633
 20
49.2279607481465
 10
16.5138490969022
 20
49.2281565842213
 10
16.5135448292357
 20
49.2282987043876
 10
16.5134894578957
 20
49.2283176245674
 10
16.5132668867023
 20
49.2283840906401
 10
16.5129989973399
 20
49.2284407060096
 10
16.5128075911869
 20
49.2284628161993
 10
16.5127710494646
 20
49.2284632739557
 10
16.5126066227393
 20
49.2284520366376
 10
16.5124082019411
 20
49.2284061591756
 10
16.5123894877318
 20
49.2283991192883
 10
16.5123754655715
 20
49.2283887970961
 10
16.5121549960827
 20
49.2281482940578
 10
16.5119755247781
 20
49.2279707946092
 10
16.5117877526643
 20
49.2277842870645
 10
16.5116632744931
 20
49.2276579483937
 10
16.5114453151228
 20
49.2274239556831
 10
16.5114267170051
 20
49.2274087823529
 10
16.5114081123268
 20
49.227396955638
 10
16.5113161925799
 20
49.2273601547154
 10
16.5111148770433
 20
49.2273126198049
 10
16.5110230910376
 20
49.2272923827371
 10
16.5109648532702
 20
49.227281334315
 10
16.5106016887244
 20
49.2272146013897
 10
16.5103083890026
 20
49.2271695192274
 10
16.5102260146498
 20
49.2271533030745
 10
16.5100892676248
 20
49.2271492018675
 10
16.5100521144873
 20
49.227153323821
 10
16.5099604382647
 20
49.2271820336992
 10
16.5099274086726
 20
49.2271978493663
 10
16.509886630185
 20
49.2272253220436
 10
16.5098508683497
 20
49.2272698897374
 10
16.5098201242337
 20
49.2273439458346
 10
16.5096571029656
 20
49.2280658190793
 10
16.5096409728952
 20
49.2281210209099
 10
16.5096158992562
 20
49.2281652690698
 10
16.5095829559435
 20
49.2281855235171
 10
16.5095544787046
 20
49.2282030223346
  0
LWPOLYLINE
  5
200A5
100
AcDbEntity
  8
0
100
AcDbPolyline
 70
0
 90
6
 10
16.4934760372922
 20
49.2476397697329
 10
16.4933648229789
 20
49.2477940838765
 10
16.4932187092792
 20
49.2480752873105
 10
16.4930977337628
 20
49.2482556627729
 10
16.4929683906963
 20
49.2483382067062
 10
16.4921263558783
 20
49.2484884230766
  0
LWPOLYLINE
  5
200A6
100
AcDbEntity
  8
0
100
AcDbPolyline
 70
0
 90
6
 10
16.4950545630802
 20
49.2469908240797
 10
16.4952596371389
 20
49.2469739868916
 10
16.4954920617068
 20
49.2468178134587
 10
16.4956202841737
 20
49.2466433581022
 10
16.4957512963493
 20
49.246501513007
 10
16.4960117505324
 20
49.2463257435992
  0
LWPOLYLINE
  5
200A7
100
AcDbEntity
  8
0
100
AcDbPolyline
 70
0
 90
8
 10
16.4960726036303
 20
49.2457583145489
 10
16.4962378182195
 20
49.2457639863625
 10
16.496285731326
 20
49.2457242112231
 10
16.4963570989923
 20
49.2456429057197
 10
16.4964401936785
 20
49.2455408349897
 10
16.4965484193509
 20
49.2453379356245
 10
16.4968353308834
 20
49.2452504904761
 10
16.4969493582336
 20
49.2452100576518
  0
LWPOLYLINE
  5
200A8
100
AcDbEntity
  8
0
100
AcDbPolyline
 70
0
 90
2
 10
16.497658127739
 20
49.2437352003797
 10
16.4978672689855
 20
49.2438174682062
  0
LWPOLYLINE
  5
200A9
100
AcDbEntity
  8
0
100
AcDbPolyline
 70
0
 90
5
 10
16.4984485538991
 20
49.2428140633186
 10
16.4982486257461
 20
49.2428060422177
 10
16.4979566576095
 20
49.2428536917901
 10
16.4972876774316
 20
49.2429829888149
 10
16.4967670797667
 20
49.2430898841405
  0
LWPOLYLINE
  5
200AA
100
AcDbEntity
  8
0
100
AcDbPolyline
 70
0
 90
4
 10
16.6399998435061
 20
49.224389970967
 10
16.6394598622214
 20
49.2244374804003
 10
16.6389795347811
 20
49.2243308889501
 10
16.6380497508285
 20
49.2241996414841
  0
LWPOLYLINE
  5
200AB
100
AcDbEntity
  8
0
100
AcDbPolyline
 70
0
 90
12
 10
16.4990531860337
 20
49.2423852241851
 10
16.4992206651243
 20
49.2424546202957
 10
16.4992840331302
 20
49.2424535214618
 10
16.4994734342811
 20
49.2423743390159
 10
16.4996623097252
 20
49.2422468564749
 10
16.4997803400834
 20
49.2421650685055
 10
16.4999111518728
 20
49.2421042439634
 10
16.5001380812074
 20
49.2420241251206
 10
16.5004312244174
 20
49.2419094583351
 10
16.5007227776227
 20
49.2417899999107
 10
16.5011011323453
 20
49.2415504261389
 10
16.5013217063428
 20
49.2413699490835
  0
LWPOLYLINE
  5
200AC
100
AcDbEntity
  8
0
100
AcDbPolyline
 70
0
 90
6
 10
16.4995342749891
 20
49.241765155001
 10
16.4991918290441
 20
49.2417932372498
 10
16.4989799176824
 20
49.2417757724574
 10
16.4984319611777
 20
49.2416449498645
 10
16.4978856511759
 20
49.2414773161258
 10
16.4975039764988
 20
49.2412983209494
  0
LWPOLYLINE
  5
200AD
100
AcDbEntity
  8
0
100
AcDbPolyline
 70
0
 90
2
 10
16.5046858880489
 20
49.2376908076998
 10
16.5053329438239
 20
49.2377333032632
  0
LWPOLYLINE
  5
200AE
100
AcDbEntity
  8
0
100
AcDbPolyline
 70
0
 90
2
 10
16.5093117281139
 20
49.2282513445755
 10
16.5094965776473
 20
49.2283466069882
  0
LWPOLYLINE
  5
200AF
100
AcDbEntity
  8
0
100
AcDbPolyline
 70
0
 90
5
 10
16.517485881841
 20
49.2299505921622
 10
16.5168919552849
 20
49.2301573221366
 10
16.5165766803034
 20
49.2302366240781
 10
16.5163276680648
 20
49.2303370889485
 10
16.5161729386387
 20
49.2304600814141
  0
LWPOLYLINE
  5
200B0
100
AcDbEntity
  8
0
100
AcDbPolyline
 70
0
 90
5
 10
16.5199022658304
 20
49.2296463974942
 10
16.5189522209846
 20
49.2297423411609
 10
16.5187206606538
 20
49.2297592348305
 10
16.5176918739165
 20
49.2298742823978
 10
16.5174835495523
 20
49.2299514561551
  0
LWPOLYLINE
  5
200B1
100
AcDbEntity
  8
0
100
AcDbPolyline
 70
0
 90
2
 10
16.5190914183927
 20
49.2300197984275
 10
16.5189522209846
 20
49.2297423411609
  0
LWPOLYLINE
  5
200B2
100
AcDbEntity
  8
0
100
AcDbPolyline
 70
0
 90
10
 10
16.5144803361401
 20
49.2393479539882
 10
16.5148141262811
 20
49.2391893617765
 10
16.5149576017535
 20
49.2391087841276
 10
16.5150490488607
 20
49.2387109797787
 10
16.5151256517401
 20
49.2384693793234
 10
16.5154745088364
 20
49.2380877455792
 10
16.5158647274979
 20
49.2376510811787
 10
16.5164204450818
 20
49.2371064978162
 10
16.5178816198208
 20
49.2363681639557
 10
16.5183519392735
 20
49.2361169431176
  0
LWPOLYLINE
  5
200B3
100
AcDbEntity
  8
0
100
AcDbPolyline
 70
0
 90
3
 10
16.513613556432
 20
49.2405711545863
 10
16.5134156255212
 20
49.240601424746
 10
16.5127434571885
 20
49.2405262746651
  0
LWPOLYLINE
  5
200B4
100
AcDbEntity
  8
0
100
AcDbPolyline
 70
0
 90
4
 10
16.5142354580415
 20
49.2395379177472
 10
16.5139778692777
 20
49.2398530641636
 10
16.5135214797485
 20
49.2402146922997
 10
16.5132226493158
 20
49.2405713990731
  0
LWPOLYLINE
  5
200B5
100
AcDbEntity
  8
0
100
AcDbPolyline
 70
0
 90
12
 10
16.5069916640563
 20
49.2457472033505
 10
16.5069862793644
 20
49.2454448908407
 10
16.5072246931258
 20
49.2447458788953
 10
16.5072955228873
 20
49.2444752987724
 10
16.5077964248083
 20
49.2442000787278
 10
16.5090747132443
 20
49.2438457076022
 10
16.5099767827584
 20
49.2436110940307
 10
16.5103252210752
 20
49.2435004551891
 10
16.5113102078495
 20
49.2431458477561
 10
16.5122280368983
 20
49.2427898782798
 10
16.5124436614539
 20
49.2427294976818
 10
16.5126999362901
 20
49.2427149974097
  0
LWPOLYLINE
  5
200B6
100
AcDbEntity
  8
0
100
AcDbPolyline
 70
0
 90
5
 10
16.5618224969602
 20
49.1784438028526
 10
16.5617212455778
 20
49.1784581900482
 10
16.5614509464683
 20
49.1784983348403
 10
16.5610223976686
 20
49.1785488021947
 10
16.5602819345873
 20
49.1787322441306
  0
LWPOLYLINE
  5
200B7
100
AcDbEntity
  8
0
100
AcDbPolyline
 70
0
 90
3
 10
16.5551217174392
 20
49.1778950906817
 10
16.5557367796786
 20
49.1778729549205
 10
16.5564792194092
 20
49.1775545294326
  0
LWPOLYLINE
  5
200B8
100
AcDbEntity
  8
0
100
AcDbPolyline
 70
0
 90
7
 10
16.5531027446705
 20
49.17900282991
 10
16.5531689383887
 20
49.1789882590127
 10
16.5532332485118
 20
49.1789259461017
 10
16.5532676214563
 20
49.1786125499223
 10
16.5533654623919
 20
49.1784606348751
 10
16.5537985770325
 20
49.1783316577704
 10
16.5557367796786
 20
49.1778729549205
  0
LWPOLYLINE
  5
200B9
100
AcDbEntity
  8
0
100
AcDbPolyline
 70
0
 90
3
 10
16.5527001630707
 20
49.1756102605415
 10
16.5541159187396
 20
49.1756033774724
 10
16.5579679114878
 20
49.1746795372305
  0
LWPOLYLINE
  5
200BA
100
AcDbEntity
  8
0
100
AcDbPolyline
 70
0
 90
2
 10
16.5872949530709
 20
49.2303816724203
 10
16.5869534301904
 20
49.2303392915227
  0
LWPOLYLINE
  5
200BB
100
AcDbEntity
  8
0
100
AcDbPolyline
 70
0
 90
15
 10
16.5936093629357
 20
49.2354535290502
 10
16.5932383475737
 20
49.2359905637372
 10
16.5929264716964
 20
49.2365807973405
 10
16.5927558221615
 20
49.2373643921977
 10
16.5926963501798
 20
49.2374600319952
 10
16.5924895904343
 20
49.23756005863
 10
16.5921831707679
 20
49.2376880204115
 10
16.5920661426898
 20
49.2378125920382
 10
16.5919953654578
 20
49.2380516994103
 10
16.5920783774923
 20
49.2382813641369
 10
16.5922898085494
 20
49.2385631020408
 10
16.5922669749944
 20
49.238669390713
 10
16.5921594591448
 20
49.2388435804257
 10
16.5919760844745
 20
49.2390653122214
 10
16.5919276552114
 20
49.2392721127836
  0
LWPOLYLINE
  5
200BC
100
AcDbEntity
  8
0
100
AcDbPolyline
 70
0
 90
22
 10
16.5919276552114
 20
49.2392721127836
 10
16.5919639362183
 20
49.2395006063415
 10
16.5918880476622
 20
49.2397240830614
 10
16.5918863044957
 20
49.2400331940849
 10
16.5919779135204
 20
49.2402847244475
 10
16.5919565802094
 20
49.2405855806103
 10
16.592020898105
 20
49.2408183782481
 10
16.5921546770766
 20
49.2409411210604
 10
16.5925065671642
 20
49.2410619035959
 10
16.5926614228201
 20
49.2413270543402
 10
16.5926141885791
 20
49.2415733131919
 10
16.5925386778636
 20
49.24170891668
 10
16.5922275923327
 20
49.2418309414067
 10
16.5918299057485
 20
49.2419245446699
 10
16.5916084812872
 20
49.2420031160827
 10
16.5914281180636
 20
49.2421396031564
 10
16.5914167041698
 20
49.242268527768
 10
16.591495110392
 20
49.2425023430762
 10
16.5915152833181
 20
49.2425694506331
 10
16.5914663333379
 20
49.2426001962047
 10
16.5911395333438
 20
49.2426019886018
 10
16.5908765462867
 20
49.2426399195688
  0
LWPOLYLINE
  5
200BD
100
AcDbEntity
  8
0
100
AcDbPolyline
 70
0
 90
15
 10
16.5903424616974
 20
49.2404891591358
 10
16.5902653910219
 20
49.2412953029079
 10
16.5908765462867
 20
49.2426399195688
 10
16.5908700579167
 20
49.2429543746145
 10
16.5908327988181
 20
49.2433658629182
 10
16.5907167908414
 20
49.2436772614717
 10
16.5907326972321
 20
49.2438747506069
 10
16.5906734772367
 20
49.2441253239528
 10
16.5905033431609
 20
49.2444555239251
 10
16.5903885606996
 20
49.24467829362
 10
16.5903082647348
 20
49.2450739671319
 10
16.5902681993011
 20
49.2452557082389
 10
16.590112221859
 20
49.2454586240553
 10
16.5900991866424
 20
49.2455211057504
 10
16.5901213554736
 20
49.2456309939321
  0
LWPOLYLINE
  5
200BE
100
AcDbEntity
  8
0
100
AcDbPolyline
 70
0
 90
2
 10
16.5884659660808
 20
49.2427670849946
 10
16.5908589895989
 20
49.2428575482475
  0
LWPOLYLINE
  5
200BF
100
AcDbEntity
  8
0
100
AcDbPolyline
 70
0
 90
6
 10
16.4769603826812
 20
49.2048123159751
 10
16.4767563742258
 20
49.2046031615636
 10
16.4764752947099
 20
49.2043128316231
 10
16.4758881731894
 20
49.2039302411602
 10
16.4747931711478
 20
49.2034300463131
 10
16.4739544580467
 20
49.2030239242811
  0
LWPOLYLINE
  5
200C0
100
AcDbEntity
  8
0
100
AcDbPolyline
 70
0
 90
2
 10
16.5168050810689
 20
49.1992900087258
 10
16.5153302265361
 20
49.1979527667384
  0
LWPOLYLINE
  5
200C1
100
AcDbEntity
  8
0
100
AcDbPolyline
 70
0
 90
5
 10
16.5116658062047
 20
49.1818080849089
 10
16.5138925347132
 20
49.1797285382552
 10
16.5145098521165
 20
49.1792873897801
 10
16.5153219397074
 20
49.1789352345795
 10
16.5201862060852
 20
49.1770180066359
  0
LWPOLYLINE
  5
200C2
100
AcDbEntity
  8
0
100
AcDbPolyline
 70
0
 90
10
 10
16.5440127186027
 20
49.1814497191309
 10
16.5436638028309
 20
49.1815751258141
 10
16.543324320688
 20
49.18181028019
 10
16.5432139216092
 20
49.1820135951264
 10
16.5428288885691
 20
49.1822087951362
 10
16.5422980155475
 20
49.1824169844811
 10
16.5413632099518
 20
49.1826005867447
 10
16.5402987202949
 20
49.1827896042995
 10
16.5401919625762
 20
49.1827792698332
 10
16.5401316083416
 20
49.1827492932534
  0
LWPOLYLINE
  5
200C3
100
AcDbEntity
  8
0
100
AcDbPolyline
 70
0
 90
6
 10
16.5584692778911
 20
49.1785365194509
 10
16.558334698116
 20
49.1787635921378
 10
16.5582697354893
 20
49.179233177176
 10
16.5590893763358
 20
49.1800060870071
 10
16.55915414765
 20
49.1800805016973
 10
16.5595182022998
 20
49.181039643256
  0
LWPOLYLINE
  5
200C4
100
AcDbEntity
  8
0
100
AcDbPolyline
 70
0
 90
12
 10
16.6631200148812
 20
49.1245263995172
 10
16.6631772812449
 20
49.1249116190351
 10
16.6633739910835
 20
49.1255303683157
 10
16.663358083567
 20
49.1261270886211
 10
16.6630537738343
 20
49.1264649764606
 10
16.6629313316265
 20
49.1266365205755
 10
16.6628937347107
 20
49.1271546908343
 10
16.6622502790751
 20
49.1276347404494
 10
16.6613921567151
 20
49.1280796203435
 10
16.6609708522859
 20
49.1284292135672
 10
16.6610190052365
 20
49.1288024236401
 10
16.6617954738376
 20
49.130769719702
  0
LWPOLYLINE
  5
200C5
100
AcDbEntity
  8
0
100
AcDbPolyline
 70
0
 90
2
 10
16.6013510353584
 20
49.2077884715096
 10
16.6002496851507
 20
49.2075242374663
  0
LWPOLYLINE
  5
200C6
100
AcDbEntity
  8
0
100
AcDbPolyline
 70
0
 90
10
 10
16.6081155874303
 20
49.1974708708567
 10
16.6080260056917
 20
49.1976736165246
 10
16.6079517709334
 20
49.1976870437418
 10
16.6076253585398
 20
49.1976293552264
 10
16.6075624354047
 20
49.1976403094036
 10
16.6075285460075
 20
49.1977193943704
 10
16.6074215665131
 20
49.1979866916777
 10
16.6073794294255
 20
49.1980919739295
 10
16.607377743471
 20
49.1980978422466
 10
16.6073773385314
 20
49.1981156050359
  0
LWPOLYLINE
  5
200C7
100
AcDbEntity
  8
0
100
AcDbPolyline
 70
0
 90
6
 10
16.6397549976916
 20
49.2087719633496
 10
16.6392009721006
 20
49.2081794345092
 10
16.6385298546578
 20
49.2072086122332
 10
16.6383527216103
 20
49.2069528350105
 10
16.6381282870219
 20
49.2069880614727
 10
16.6387001462846
 20
49.2079115575049
  0
LWPOLYLINE
  5
200C8
100
AcDbEntity
  8
0
100
AcDbPolyline
 70
0
 90
6
 10
16.715587826402
 20
49.2043053950524
 10
16.7156604921718
 20
49.2042670832215
 10
16.7156755461157
 20
49.2040437663265
 10
16.7156889155434
 20
49.2036866297519
 10
16.7156987918543
 20
49.2034228012226
 10
16.715786865706
 20
49.2032527884808
  0
LWPOLYLINE
  5
200C9
100
AcDbEntity
  8
0
100
AcDbPolyline
 70
0
 90
9
 10
16.7173464486422
 20
49.2070377567533
 10
16.7169832656313
 20
49.2073627245007
 10
16.7165347584362
 20
49.2076074264409
 10
16.7158636472436
 20
49.2078102520122
 10
16.7155225828186
 20
49.207859142174
 10
16.7140487825359
 20
49.2081000148268
 10
16.7130649735992
 20
49.2083693551178
 10
16.712677428062
 20
49.2086088155749
 10
16.7123845906731
 20
49.2088369713634
  0
LWPOLYLINE
  5
200CA
100
AcDbEntity
  8
0
100
AcDbPolyline
 70
0
 90
11
 10
16.7164947016067
 20
49.2034784325968
 10
16.7166878803565
 20
49.2037534111799
 10
16.7168764067387
 20
49.2040473053515
 10
16.7170401474475
 20
49.2043025579966
 10
16.7172743289173
 20
49.204644492419
 10
16.7176524250356
 20
49.2049981504985
 10
16.7180429334606
 20
49.2053493394396
 10
16.7183137018222
 20
49.2057209580742
 10
16.7185392582541
 20
49.2065052390842
 10
16.7186456926045
 20
49.2067239329278
 10
16.7186120460071
 20
49.2069756152581
  0
LWPOLYLINE
  5
200CB
100
AcDbEntity
  8
0
100
AcDbPolyline
 70
0
 90
2
 10
16.613317325727
 20
49.1936533173917
 10
16.6139598521306
 20
49.1934936752887
  0
LWPOLYLINE
  5
200CC
100
AcDbEntity
  8
0
100
AcDbPolyline
 70
0
 90
31
 10
16.710749111522
 20
49.2103017961916
 10
16.7105062781323
 20
49.2109449996825
 10
16.7105013914726
 20
49.2116528475116
 10
16.7106092994864
 20
49.2120118402073
 10
16.7107454285864
 20
49.2122730520782
 10
16.7110176368892
 20
49.2126357456414
 10
16.711350373502
 20
49.212899782232
 10
16.7116077285015
 20
49.2130680971728
 10
16.7120062782889
 20
49.2133180013844
 10
16.7124504826331
 20
49.2135861862083
 10
16.7125974031804
 20
49.2137364731824
 10
16.7127846197299
 20
49.2139522090031
 10
16.7130666980188
 20
49.2141057200462
 10
16.713601811904
 20
49.2143094646876
 10
16.7141408191061
 20
49.2144118141093
 10
16.7145173249568
 20
49.214384439556
 10
16.7148412729871
 20
49.2143319465366
 10
16.7150835047496
 20
49.2142855713135
 10
16.7154134563426
 20
49.2142091518422
 10
16.715820389544
 20
49.2140838498697
 10
16.716260442972
 20
49.2139246867963
 10
16.7166371615252
 20
49.213815357957
 10
16.7170086021436
 20
49.2138232254426
 10
16.7172073263972
 20
49.2138965180048
 10
16.7173445574262
 20
49.213964265613
 10
16.7174664928478
 20
49.2140632207644
 10
16.7175863357117
 20
49.2142323015592
 10
16.7177430991984
 20
49.2144850531662
 10
16.7179857366956
 20
49.2148591564767
 10
16.7183330608155
 20
49.2153367315863
 10
16.718723964891
 20
49.2158890316751
  0
LWPOLYLINE
  5
200CD
100
AcDbEntity
  8
0
100
AcDbPolyline
 70
0
 90
16
 10
16.6544964920426
 20
49.2398232210763
 10
16.6541576122139
 20
49.2402440960517
 10
16.6537730012922
 20
49.2405531833614
 10
16.6533416859792
 20
49.2408113546221
 10
16.652360134109
 20
49.2414006882567
 10
16.6514488676425
 20
49.2419076592466
 10
16.6509052547895
 20
49.2421561255802
 10
16.6495108506209
 20
49.242780513102
 10
16.6479877960866
 20
49.2434487942298
 10
16.6467495124686
 20
49.2440355117146
 10
16.646613197426
 20
49.2441239954001
 10
16.6462227480907
 20
49.2444077612694
 10
16.6457958337814
 20
49.2446227157024
 10
16.6455200790856
 20
49.2447254414316
 10
16.644559068024
 20
49.2449289833735
 10
16.6438789742536
 20
49.2450561382607
  0
LWPOLYLINE
  5
200CE
100
AcDbEntity
  8
0
100
AcDbPolyline
 70
0
 90
3
 10
16.6123936650342
 20
49.1962571551951
 10
16.6126837526416
 20
49.1954808133345
 10
16.6127256200214
 20
49.1953235743823
  0
LWPOLYLINE
  5
200CF
100
AcDbEntity
  8
0
100
AcDbPolyline
 70
0
 90
3
 10
16.6115606438667
 20
49.1961112393245
 10
16.611663912467
 20
49.1957147230166
 10
16.6117411163333
 20
49.1953298216663
  0
LWPOLYLINE
  5
200D0
100
AcDbEntity
  8
0
100
AcDbPolyline
 70
0
 90
64
 10
16.6184090573324
 20
49.2591435500247
 10
16.6152411124748
 20
49.2597115241631
 10
16.6141418377644
 20
49.2598662640331
 10
16.6124712309977
 20
49.2601740900798
 10
16.6113300074653
 20
49.2602829532539
 10
16.6104804810715
 20
49.2603184994816
 10
16.6096343292661
 20
49.2602981964392
 10
16.6091322054112
 20
49.2602591680502
 10
16.6086976719894
 20
49.2601289293636
 10
16.6084665618278
 20
49.2600221278545
 10
16.608274586762
 20
49.25984573598
 10
16.6081778214488
 20
49.2596861207258
 10
16.6081575591904
 20
49.2594666148105
 10
16.6081658284275
 20
49.2593311970313
 10
16.6081770107129
 20
49.2591480737225
 10
16.6080667479434
 20
49.2588451366319
 10
16.607869752836
 20
49.2585335291056
 10
16.6078275980739
 20
49.2582365870892
 10
16.607881651709
 20
49.2580340079088
 10
16.6080493443317
 20
49.2577327046848
 10
16.6082277654037
 20
49.2574252682212
 10
16.6083329482024
 20
49.2571104466588
 10
16.608373468909
 20
49.256579118657
 10
16.6083363750952
 20
49.2561000996128
 10
16.6082538966735
 20
49.2558339511238
 10
16.6081347827217
 20
49.2557360678502
 10
16.6078839658531
 20
49.2556884697385
 10
16.6077704843242
 20
49.2556987093035
 10
16.6072289411258
 20
49.2557999453973
 10
16.6057646931845
 20
49.2561955089209
 10
16.6053278092276
 20
49.2563000584739
 10
16.6048685644945
 20
49.2563204598546
 10
16.604445872519
 20
49.2563078102916
 10
16.6039155814615
 20
49.2563049070972
 10
16.6037041595846
 20
49.2563207807219
 10
16.6033859439852
 20
49.2564050697182
 10
16.6026926350258
 20
49.2565883406445
 10
16.6024930679011
 20
49.256612739863
 10
16.6018989342949
 20
49.2566139897288
 10
16.6016825409398
 20
49.2566866719246
 10
16.6016020150379
 20
49.2568227035486
 10
16.6016407161289
 20
49.2569396824635
 10
16.6017359978013
 20
49.2570128206044
 10
16.601930331579
 20
49.2570744313672
 10
16.60228652484
 20
49.2571717447394
 10
16.602413610303
 20
49.257224702947
 10
16.6025039539057
 20
49.2573302333932
 10
16.6024704648772
 20
49.2574943795874
 10
16.6023937884555
 20
49.2575569678551
 10
16.6022768434084
 20
49.2575881223448
 10
16.6017002351504
 20
49.2576304109603
 10
16.6014658275128
 20
49.2576373266277
 10
16.600982065067
 20
49.2576471130381
 10
16.6006465013387
 20
49.2575871654966
 10
16.6004444246196
 20
49.257465397702
 10
16.6000833132894
 20
49.2571768361331
 10
16.5998473530426
 20
49.2569889453702
 10
16.5996327753584
 20
49.2568180794827
 10
16.5994258661883
 20
49.2566564650104
 10
16.5993002652947
 20
49.256558358839
 10
16.599081504471
 20
49.2564848823163
 10
16.598563587788
 20
49.2564915145467
 10
16.5979631079563
 20
49.2565862721919
 10
16.5973379981278
 20
49.2567823044399
  0
LWPOLYLINE
  5
200D1
100
AcDbEntity
  8
0
100
AcDbPolyline
 70
0
 90
4
 10
16.5973379981278
 20
49.2567823044399
 10
16.5967946055024
 20
49.2570682433861
 10
16.5965934905381
 20
49.2571679586675
 10
16.5962177331898
 20
49.2573000698875
  0
LWPOLYLINE
  5
200D2
100
AcDbEntity
  8
0
100
AcDbPolyline
 70
0
 90
5
 10
16.5522493498388
 20
49.1767465218952
 10
16.5526445410126
 20
49.1768535147271
 10
16.5541236489347
 20
49.1768425569048
 10
16.5577567589922
 20
49.1759778697039
 10
16.5581049857603
 20
49.1757326392015
  0
LWPOLYLINE
  5
200D3
100
AcDbEntity
  8
0
100
AcDbPolyline
 70
0
 90
8
 10
16.6423341914581
 20
49.2155992731834
 10
16.6423801257056
 20
49.2158090135469
 10
16.6423840765191
 20
49.2159901563136
 10
16.6423225624967
 20
49.2163060049191
 10
16.6422301089368
 20
49.216487158182
 10
16.6420917249807
 20
49.2166541340003
 10
16.6418894610995
 20
49.2168158209569
 10
16.6417609200792
 20
49.2169022051623
  0
LWPOLYLINE
  5
200D4
100
AcDbEntity
  8
0
100
AcDbPolyline
 70
0
 90
71
 10
16.6249031029153
 20
49.2598666991896
 10
16.6251820297867
 20
49.2598447264294
 10
16.6255228193708
 20
49.2597256092692
 10
16.625879050026
 20
49.2596176991877
 10
16.6260631202975
 20
49.2595619396481
 10
16.626198412875
 20
49.2595367604446
 10
16.6263259289624
 20
49.2595645492352
 10
16.6264196297836
 20
49.2596484331472
 10
16.6265527508085
 20
49.2597812367862
 10
16.626651193262
 20
49.2598005508484
 10
16.6267160646676
 20
49.2597932279695
 10
16.626785853263
 20
49.2597517921148
 10
16.6268158539318
 20
49.2597077733927
 10
16.6270485044691
 20
49.2592247348007
 10
16.6275099130356
 20
49.2587237106312
 10
16.6280089938129
 20
49.2584953635007
 10
16.6285418177337
 20
49.2582998211216
 10
16.6296467494309
 20
49.258112800447
 10
16.629840471226
 20
49.2581195984343
 10
16.6302606823172
 20
49.2582085862062
 10
16.6303397103246
 20
49.2581650510297
 10
16.6303551798263
 20
49.2581088903956
 10
16.6303350244134
 20
49.2579088667301
 10
16.6303350244134
 20
49.2579088667301
 10
16.6303903331564
 20
49.2577914636971
 10
16.6305352737521
 20
49.2576606867472
 10
16.6309848006542
 20
49.2575104311505
 10
16.6310606635036
 20
49.2574105957883
 10
16.6309971664815
 20
49.2573522998256
 10
16.6309128379904
 20
49.257303025557
 10
16.6307086040491
 20
49.2571771840273
 10
16.6305955428867
 20
49.2570302081296
 10
16.6304788483802
 20
49.2568615037865
 10
16.6303572274416
 20
49.2567844532775
 10
16.6299380849737
 20
49.2566546587923
 10
16.6297845206723
 20
49.2564016062334
 10
16.6298169760981
 20
49.256157612147
 10
16.6298971989427
 20
49.2560405386828
 10
16.6302954647094
 20
49.2557559176276
 10
16.6306213482389
 20
49.2555069652363
 10
16.6306986022899
 20
49.2553847435494
 10
16.6305823678604
 20
49.2551516920177
 10
16.6304435333376
 20
49.2549895830323
 10
16.6302210423672
 20
49.2548328755109
 10
16.629964977681
 20
49.2545553722833
 10
16.6298193698003
 20
49.2543694717614
 10
16.629890851342
 20
49.2542221513669
 10
16.6300639116528
 20
49.2541082567103
 10
16.6302053098118
 20
49.2540448120767
 10
16.630500931918
 20
49.2539020407522
 10
16.6308524354717
 20
49.2536854765326
 10
16.6312629276529
 20
49.2534432312203
 10
16.6316131030941
 20
49.253280429517
 10
16.6320850923335
 20
49.2529446704046
 10
16.6325926374197
 20
49.2528353170766
 10
16.6331971607614
 20
49.2527164660726
 10
16.6335021781591
 20
49.2526072583917
 10
16.6338582146987
 20
49.2524177486987
 10
16.634324947744
 20
49.2521498166312
 10
16.6347642850499
 20
49.2518573202637
 10
16.635257778788
 20
49.2514772507812
 10
16.6357496243589
 20
49.2509033825071
 10
16.636216184861
 20
49.2503784453372
 10
16.6368392580401
 20
49.2497610792562
 10
16.6374253356289
 20
49.2494787531003
 10
16.6379681884229
 20
49.2492059471324
 10
16.6389368940848
 20
49.2489787679897
 10
16.6397854248252
 20
49.248567464996
 10
16.6404498076707
 20
49.2482156216161
 10
16.6408641125395
 20
49.2476116686566
 10
16.6408481348047
 20
49.2472007188647
  0
LWPOLYLINE
  5
200D5
100
AcDbEntity
  8
0
100
AcDbPolyline
 70
0
 90
35
 10
16.6258112883712
 20
49.263464201369
 10
16.6257863469004
 20
49.2637697776301
 10
16.625707442428
 20
49.2640807695704
 10
16.625707442428
 20
49.2640807695704
 10
16.6256008170604
 20
49.2643084025079
 10
16.6253509788941
 20
49.2646929849532
 10
16.6247992598132
 20
49.2654818816584
 10
16.6246820600441
 20
49.2655597239297
 10
16.624301649136
 20
49.2658175767502
 10
16.624056236211
 20
49.2662163022317
 10
16.6238934767452
 20
49.2664490152456
 10
16.6236683026993
 20
49.2666411420084
 10
16.6233402825059
 20
49.2668271592395
 10
16.6227479338553
 20
49.2671097819853
 10
16.6220737678719
 20
49.2673425536581
 10
16.6214770952957
 20
49.2675757614509
 10
16.6210285462624
 20
49.2677300060487
 10
16.6206024566921
 20
49.2677993992152
 10
16.6199153083105
 20
49.2678593929153
 10
16.6189873765998
 20
49.2681036644023
 10
16.6184351105056
 20
49.2683698539363
 10
16.6179655706755
 20
49.2686837633749
 10
16.6175124768019
 20
49.269019192758
 10
16.6172045820884
 20
49.2693773141104
 10
16.6169210572494
 20
49.2697552466741
 10
16.6167397805102
 20
49.2699323755074
 10
16.616465814152
 20
49.2700848639284
 10
16.6160127536771
 20
49.2702337387689
 10
16.6155534066394
 20
49.2703369438261
 10
16.6152184084192
 20
49.2703695321779
 10
16.6149072054346
 20
49.2703998048399
 10
16.6145231699311
 20
49.2703817026194
 10
16.6142617216352
 20
49.2702908621146
 10
16.6138691839574
 20
49.269965610488
 10
16.6131682372933
 20
49.2695449363422
  0
LWPOLYLINE
  5
200D6
100
AcDbEntity
  8
0
100
AcDbPolyline
 70
0
 90
2
 10
16.632636863467
 20
49.2837926065236
 10
16.6322953831777
 20
49.2837178459096
  0
LWPOLYLINE
  5
200D7
100
AcDbEntity
  8
0
100
AcDbPolyline
 70
0
 90
5
 10
16.6298842138182
 20
49.2909088281172
 10
16.6292359115377
 20
49.2908847062566
 10
16.6287808521945
 20
49.2908904133413
 10
16.6286030532737
 20
49.2908670707197
 10
16.6281036642181
 20
49.2908912506914
  0
LWPOLYLINE
  5
200D8
100
AcDbEntity
  8
0
100
AcDbPolyline
 70
0
 90
9
 10
16.5650383248107
 20
49.2620379009552
 10
16.5646748702813
 20
49.2617524143607
 10
16.5645603886988
 20
49.2616792876671
 10
16.5642987283
 20
49.2614654538223
 10
16.5641538325099
 20
49.2612810475949
 10
16.5639893015842
 20
49.261005341377
 10
16.5637176244225
 20
49.2604385780185
 10
16.563392029996
 20
49.2597936205266
 10
16.5632340273809
 20
49.2595475576964
  0
LWPOLYLINE
  5
200D9
100
AcDbEntity
  8
0
100
AcDbPolyline
 70
0
 90
6
 10
16.6519270341794
 20
49.1437411234319
 10
16.6520867052982
 20
49.143585370209
 10
16.6522259791771
 20
49.1434903528306
 10
16.6523178532693
 20
49.1433641602842
 10
16.6524527788123
 20
49.1431202155524
 10
16.6525503030188
 20
49.1430895874529
  0
LWPOLYLINE
  5
200DA
100
AcDbEntity
  8
0
100
AcDbPolyline
 70
0
 90
6
 10
16.5300139049375
 20
49.1746600046619
 10
16.5302616889507
 20
49.1745266697387
 10
16.5312278331546
 20
49.1741458620102
 10
16.5319344616357
 20
49.1738560180096
 10
16.5321175131595
 20
49.1737833670136
 10
16.5323419571993
 20
49.1737346569981
  0
LWPOLYLINE
  5
200DB
100
AcDbEntity
  8
0
100
AcDbPolyline
 70
0
 90
3
 10
16.5300139049375
 20
49.1746600046619
 10
16.5303164981063
 20
49.1748557849353
 10
16.5308608711089
 20
49.1751873921866
  0
LWPOLYLINE
  5
200DC
100
AcDbEntity
  8
0
100
AcDbPolyline
 70
0
 90
7
 10
16.525903779225
 20
49.176654787382
 10
16.5263675401504
 20
49.1766704435623
 10
16.5264999390008
 20
49.1767064279981
 10
16.5270000541186
 20
49.1769693801494
 10
16.5273413035731
 20
49.1771937281919
 10
16.52759990371
 20
49.177226714546
 10
16.5278072217188
 20
49.1772776493123
  0
LWPOLYLINE
  5
200DD
100
AcDbEntity
  8
0
100
AcDbPolyline
 70
0
 90
4
 10
16.5957103277761
 20
49.1774267664916
 10
16.5956478860377
 20
49.1770059884478
 10
16.5955750647976
 20
49.1769192188961
 10
16.5945044994775
 20
49.1757195307549
  0
LWPOLYLINE
  5
200DE
100
AcDbEntity
  8
0
100
AcDbPolyline
 70
0
 90
5
 10
16.5963986155226
 20
49.177842022224
 10
16.596678026436
 20
49.1781410920347
 10
16.5968739001521
 20
49.1782432755149
 10
16.5970000368269
 20
49.1783742473263
 10
16.5976485369313
 20
49.17907667911
  0
LWPOLYLINE
  5
200DF
100
AcDbEntity
  8
0
100
AcDbPolyline
 70
0
 90
2
 10
16.6113490878399
 20
49.1911773472289
 10
16.6090653714042
 20
49.1904983901159
  0
LWPOLYLINE
  5
200E0
100
AcDbEntity
  8
0
100
AcDbPolyline
 70
0
 90
3
 10
16.6051548188792
 20
49.1922636854574
 10
16.6051733293646
 20
49.1923304835133
 10
16.6057480857441
 20
49.1924411414067
  0
LWPOLYLINE
  5
200E1
100
AcDbEntity
  8
0
100
AcDbPolyline
 70
0
 90
2
 10
16.6046672289836
 20
49.193682295406
 10
16.605549636641
 20
49.1938087011192
  0
LWPOLYLINE
  5
200E2
100
AcDbEntity
  8
0
100
AcDbPolyline
 70
0
 90
2
 10
16.6045391974049
 20
49.1940338447159
 10
16.6054225795506
 20
49.194160320054
  0
LWPOLYLINE
  5
200E3
100
AcDbEntity
  8
0
100
AcDbPolyline
 70
0
 90
4
 10
16.4966364315183
 20
49.2159261888434
 10
16.4962175009321
 20
49.2154584519849
 10
16.496194777104
 20
49.2154314270075
 10
16.4961330808581
 20
49.2153580360386
  0
LWPOLYLINE
  5
200E4
100
AcDbEntity
  8
0
100
AcDbPolyline
 70
0
 90
16
 10
16.553714718867
 20
49.2161401908127
 10
16.5537520206284
 20
49.2159472653964
 10
16.5536103447075
 20
49.2154215522678
 10
16.5536493160964
 20
49.2152612107766
 10
16.5541245348495
 20
49.2142839085494
 10
16.5542676407194
 20
49.2138607711913
 10
16.5544378831542
 20
49.2135671665075
 10
16.5549473595906
 20
49.2128437562015
 10
16.5551309606929
 20
49.2124902986171
 10
16.5552491640379
 20
49.2119944767189
 10
16.5553486877999
 20
49.2114214935112
 10
16.5555266560424
 20
49.2110510264181
 10
16.5560812226343
 20
49.2106428574282
 10
16.5565250180042
 20
49.2104398959255
 10
16.5569190237878
 20
49.2103479195028
 10
16.5574058743226
 20
49.2102786608245
  0
LWPOLYLINE
  5
200E5
100
AcDbEntity
  8
0
100
AcDbPolyline
 70
0
 90
2
 10
16.5930525955453
 20
49.2003047145755
 10
16.5945598417813
 20
49.2005080188598
  0
LWPOLYLINE
  5
200E6
100
AcDbEntity
  8
0
100
AcDbPolyline
 70
0
 90
4
 10
16.5525028297669
 20
49.226887762155
 10
16.5534117854558
 20
49.2262458442569
 10
16.554070527012
 20
49.2257759200026
 10
16.5552963185161
 20
49.2245336777573
  0
LWPOLYLINE
  5
200E7
100
AcDbEntity
  8
0
100
AcDbPolyline
 70
0
 90
10
 10
16.6339630083308
 20
49.2149493017629
 10
16.6339704239645
 20
49.2151381251837
 10
16.633938245494
 20
49.2153203002692
 10
16.6338376966846
 20
49.2155203504114
 10
16.633652801168
 20
49.215716561116
 10
16.6334614935657
 20
49.2158833959511
 10
16.6333106043884
 20
49.2159916251738
 10
16.632946599513
 20
49.2161804879051
 10
16.6327005724802
 20
49.2162910524395
 10
16.6325175192542
 20
49.2163766798711
  0
LWPOLYLINE
  5
200E8
100
AcDbEntity
  8
0
100
AcDbPolyline
 70
0
 90
7
 10
16.4613308284113
 20
49.2547956358329
 10
16.4611892204147
 20
49.2549385402874
 10
16.4610846702426
 20
49.2551763380511
 10
16.4610471869211
 20
49.2554044754411
 10
16.4610556349154
 20
49.2557336362555
 10
16.4612810514738
 20
49.2562421884091
 10
16.4614149352014
 20
49.2564318121763
  0
LWPOLYLINE
  5
200E9
100
AcDbEntity
  8
0
100
AcDbPolyline
 70
0
 90
7
 10
16.6413534017261
 20
49.2217346366372
 10
16.6410561583821
 20
49.2220921860317
 10
16.6410849774651
 20
49.2222730286254
 10
16.6406606263568
 20
49.2231450191364
 10
16.640033536531
 20
49.2242379573992
 10
16.6399716238365
 20
49.2242600909343
 10
16.6399998435061
 20
49.224389970967
  0
LWPOLYLINE
  5
200EA
100
AcDbEntity
  8
0
100
AcDbPolyline
 70
0
 90
14
 10
16.6380497508285
 20
49.2241996414841
 10
16.6376308454234
 20
49.2248160849648
 10
16.6371723168306
 20
49.2249734880981
 10
16.6372275525045
 20
49.225195901944
 10
16.6373581224727
 20
49.2254264347767
 10
16.6376586129296
 20
49.2258160053498
 10
16.6379985625129
 20
49.2262217289517
 10
16.6380288260577
 20
49.2265281678094
 10
16.6383769852022
 20
49.2269018032144
 10
16.639112710668
 20
49.2273215224371
 10
16.6401567230491
 20
49.2276692684655
 10
16.6409720536642
 20
49.2278952144044
 10
16.6413805202284
 20
49.2279924539078
 10
16.6420089056919
 20
49.2280569327163
  0
LWPOLYLINE
  5
200EB
100
AcDbEntity
  8
0
100
AcDbPolyline
 70
0
 90
22
 10
16.6394598622214
 20
49.2244374804003
 10
16.6396070898614
 20
49.22519058418
 10
16.6399715039523
 20
49.225610918495
 10
16.6406890434264
 20
49.2261890831417
 10
16.6409851502058
 20
49.2265696477021
 10
16.6410914255792
 20
49.2267999900067
 10
16.6415439299493
 20
49.2267776961915
 10
16.6419884833417
 20
49.2269746393395
 10
16.6423584380224
 20
49.227198311046
 10
16.6426998929697
 20
49.2273371244449
 10
16.6429534525567
 20
49.2274024940995
 10
16.6433287122199
 20
49.2274588244073
 10
16.6437660279143
 20
49.227454353681
 10
16.6442713543842
 20
49.2275277909778
 10
16.6445817622227
 20
49.2275273318464
 10
16.6450447295165
 20
49.2275945870789
 10
16.645651813131
 20
49.2278115998092
 10
16.6463790274099
 20
49.2280560298742
 10
16.6468099065537
 20
49.2281347184937
 10
16.6472470581657
 20
49.2281216846844
 10
16.6480236424702
 20
49.2282117116586
 10
16.6488406735892
 20
49.2283283362227
  0
LWPOLYLINE
  5
200EC
100
AcDbEntity
  8
0
100
AcDbPolyline
 70
0
 90
17
 10
16.6596299262769
 20
49.2129831418988
 10
16.660107895522
 20
49.212805323918
 10
16.6605792304309
 20
49.2126605373448
 10
16.6609100706465
 20
49.2126363898754
 10
16.6611352748651
 20
49.2126875092618
 10
16.6615124264673
 20
49.2129123572796
 10
16.6619425652324
 20
49.2131265218107
 10
16.6624389168114
 20
49.2132298172285
 10
16.6627341297134
 20
49.2132463350948
 10
16.6632694704394
 20
49.2131825187281
 10
16.6636821571467
 20
49.2130988574493
 10
16.6644358997495
 20
49.2130569103532
 10
16.6654298930456
 20
49.2130214539099
 10
16.6661071804918
 20
49.2130045981896
 10
16.6671309280431
 20
49.2127807488642
 10
16.6678151659342
 20
49.212640221671
 10
16.6686865189293
 20
49.2124662148648
  0
LWPOLYLINE
  5
200ED
100
AcDbEntity
  8
0
100
AcDbPolyline
 70
0
 90
9
 10
16.628691324243
 20
49.1959908083741
 10
16.6287580815512
 20
49.1958294688836
 10
16.6288028097324
 20
49.1957396503169
 10
16.628804515436
 20
49.1955894630783
 10
16.6286800913317
 20
49.1949756785992
 10
16.628515153958
 20
49.1942124887719
 10
16.6284189912982
 20
49.1938126023473
 10
16.628387678526
 20
49.1936161777572
 10
16.6283699615039
 20
49.193437929708
  0
LWPOLYLINE
  5
200EE
100
AcDbEntity
  8
0
100
AcDbPolyline
 70
0
 90
2
 10
16.6216710817018
 20
49.1797032906462
 10
16.6221457725316
 20
49.1797648263572
  0
LWPOLYLINE
  5
200EF
100
AcDbEntity
  8
0
100
AcDbPolyline
 70
0
 90
7
 10
16.6155870591851
 20
49.1719977223613
 10
16.6162493467888
 20
49.1721091154456
 10
16.6165375701863
 20
49.1722743904051
 10
16.6173076302017
 20
49.1725577531278
 10
16.6183774146863
 20
49.1729762152647
 10
16.6187119988379
 20
49.1730842003985
 10
16.6188251445933
 20
49.1730894144338
  0
LWPOLYLINE
  5
200F0
100
AcDbEntity
  8
0
100
AcDbPolyline
 70
0
 90
3
 10
16.6233071442542
 20
49.1687490632155
 10
16.6232942364269
 20
49.1692102044006
 10
16.6232886736004
 20
49.1695557207895
  0
LWPOLYLINE
  5
200F1
100
AcDbEntity
  8
0
100
AcDbPolyline
 70
0
 90
7
 10
16.6342895948404
 20
49.1770367330496
 10
16.6355246044946
 20
49.1777208377074
 10
16.6362809065515
 20
49.1777115805779
 10
16.6366139487352
 20
49.1776594906454
 10
16.6370488574992
 20
49.1776163127789
 10
16.6383434385454
 20
49.1775829210625
 10
16.6389831464516
 20
49.1775233556462
  0
LWPOLYLINE
  5
200F2
100
AcDbEntity
  8
0
100
AcDbPolyline
 70
0
 90
10
 10
16.6292497822326
 20
49.1984617659876
 10
16.6293049146888
 20
49.1990107859762
 10
16.629275446729
 20
49.1991990945982
 10
16.6293051059109
 20
49.1996194173077
 10
16.6292677267383
 20
49.1998750926001
 10
16.629188986768
 20
49.2001422263023
 10
16.6290381650607
 20
49.2004020052735
 10
16.6284942383015
 20
49.2014317479569
 10
16.6281067855213
 20
49.2021236929954
 10
16.6280453311896
 20
49.202317610103
  0
LWPOLYLINE
  5
200F3
100
AcDbEntity
  8
0
100
AcDbPolyline
 70
0
 90
10
 10
16.6343569463393
 20
49.1663980284639
 10
16.6341793502423
 20
49.1665663810213
 10
16.6332015893175
 20
49.1710375171922
 10
16.6332015194425
 20
49.1713083283032
 10
16.6328926615643
 20
49.1716249626116
 10
16.6324339686849
 20
49.1736420191146
 10
16.6324201006444
 20
49.1740577371447
 10
16.6322759664267
 20
49.1743979242382
 10
16.6321342341545
 20
49.1751022486666
 10
16.6317639277351
 20
49.1770108744041
  0
LWPOLYLINE
  5
200F4
100
AcDbEntity
  8
0
100
AcDbPolyline
 70
0
 90
10
 10
16.6234557743004
 20
49.1663581266508
 10
16.6234041136693
 20
49.1657576033387
 10
16.6234857041277
 20
49.1652198736289
 10
16.6238799338714
 20
49.1645164059557
 10
16.6243372859474
 20
49.1637977287751
 10
16.6247751668968
 20
49.1631787090651
 10
16.6249564621377
 20
49.1628983038092
 10
16.625345238332
 20
49.1621028239617
 10
16.6257002027962
 20
49.161282249004
 10
16.6259207165433
 20
49.1611152798552
  0
LWPOLYLINE
  5
200F5
100
AcDbEntity
  8
0
100
AcDbPolyline
 70
0
 90
2
 10
16.6253804239802
 20
49.1558722672106
 10
16.6261998523433
 20
49.1560729736114
  0
LWPOLYLINE
  5
200F6
100
AcDbEntity
  8
0
100
AcDbPolyline
 70
0
 90
5
 10
16.628360177066
 20
49.1412978984238
 10
16.6285476335138
 20
49.1420005286274
 10
16.6288174822073
 20
49.1425653550316
 10
16.629848171862
 20
49.1446027120757
 10
16.6301324427108
 20
49.1450695589352
  0
LWPOLYLINE
  5
200F7
100
AcDbEntity
  8
0
100
AcDbPolyline
 70
0
 90
13
 10
16.6442284136161
 20
49.1440342025295
 10
16.6433779324122
 20
49.144387998251
 10
16.6418877267587
 20
49.1448491545862
 10
16.6403838141584
 20
49.1451015441994
 10
16.6372774536195
 20
49.1456011314829
 10
16.6357356977536
 20
49.1458421425242
 10
16.6340832295395
 20
49.1461019324229
 10
16.6331288005456
 20
49.1461612056062
 10
16.6327406582317
 20
49.1461404904021
 10
16.631031599471
 20
49.1458339881716
 10
16.6306630273072
 20
49.1456733164919
 10
16.6303911286136
 20
49.1454342344228
 10
16.6301324427108
 20
49.1450695589352
  0
LWPOLYLINE
  5
200F8
100
AcDbEntity
  8
0
100
AcDbPolyline
 70
0
 90
3
 10
16.6463987938288
 20
49.1363962830631
 10
16.6445460740871
 20
49.1363553507946
 10
16.6433636414654
 20
49.1364558996573
  0
LWPOLYLINE
  5
200F9
100
AcDbEntity
  8
0
100
AcDbPolyline
 70
0
 90
12
 10
16.6499287147967
 20
49.1458824183945
 10
16.6506049783249
 20
49.1463633639849
 10
16.6508763782654
 20
49.1466009359771
 10
16.6511126440982
 20
49.1467004516307
 10
16.6511284113334
 20
49.1468061182712
 10
16.650899331507
 20
49.1474238857299
 10
16.6509862823072
 20
49.1478059993873
 10
16.6513284290165
 20
49.1482815464379
 10
16.6516019414697
 20
49.1487006065651
 10
16.6516553811943
 20
49.1492442141153
 10
16.6516947691328
 20
49.1496987176679
 10
16.6517331649814
 20
49.1501155559572
  0
LWPOLYLINE
  5
200FA
100
AcDbEntity
  8
0
100
AcDbPolyline
 70
0
 90
7
 10
16.652629800569
 20
49.1512604257952
 10
16.6528747061094
 20
49.1512679918235
 10
16.6531705620977
 20
49.1512946796158
 10
16.6535082998535
 20
49.1513212319154
 10
16.6539231385807
 20
49.151352176521
 10
16.6540348666743
 20
49.1513435037117
 10
16.6540886664818
 20
49.1513256811503
  0
LWPOLYLINE
  5
200FB
100
AcDbEntity
  8
0
100
AcDbPolyline
 70
0
 90
4
 10
16.6717147190169
 20
49.1471286285261
 10
16.6717539545797
 20
49.1472352170746
 10
16.6712602040097
 20
49.1482299509724
 10
16.6712758227647
 20
49.1485269139624
  0
LWPOLYLINE
  5
200FC
100
AcDbEntity
  8
0
100
AcDbPolyline
 70
0
 90
17
 10
16.4966023626571
 20
49.2492107859025
 10
16.4963995925944
 20
49.2494314412655
 10
16.4963640402868
 20
49.2498088369603
 10
16.4962822955349
 20
49.2498843884758
 10
16.4960806502946
 20
49.2499332435216
 10
16.4957634116744
 20
49.2498471542402
 10
16.4953507732671
 20
49.2498356350252
 10
16.4954371928427
 20
49.2498146977376
 10
16.4952583659338
 20
49.2498923280057
 10
16.495052593152
 20
49.2501308588553
 10
16.4947995018945
 20
49.2502393443144
 10
16.4944568132681
 20
49.2503052133039
 10
16.4943614098365
 20
49.2503797834184
 10
16.4943312867403
 20
49.2504771315661
 10
16.4943913034547
 20
49.2508613868851
 10
16.4943231511246
 20
49.2510610275848
 10
16.494145460548
 20
49.251504127827
  0
LWPOLYLINE
  5
200FD
100
AcDbEntity
  8
0
100
AcDbPolyline
 70
0
 90
9
 10
16.5248629253163
 20
49.2218477754545
 10
16.5255695778229
 20
49.2215096279201
 10
16.525961376998
 20
49.2213410836554
 10
16.5262981550509
 20
49.2213339666585
 10
16.5265378064581
 20
49.2213511097261
 10
16.5266729116867
 20
49.2214378459203
 10
16.526972273672
 20
49.2216361083268
 10
16.5274132968574
 20
49.2220632339705
 10
16.5278418550924
 20
49.2224450501152
  0
LWPOLYLINE
  5
200FE
100
AcDbEntity
  8
0
100
AcDbPolyline
 70
0
 90
3
 10
16.5373055855762
 20
49.2222236227167
 10
16.537931312443
 20
49.2222791235501
 10
16.5388945924675
 20
49.2225855879935
  0
LWPOLYLINE
  5
200FF
100
AcDbEntity
  8
0
100
AcDbPolyline
 70
0
 90
4
 10
16.5490967132457
 20
49.2229296162168
 10
16.5490474069807
 20
49.2225121767346
 10
16.5490496595885
 20
49.2220522638649
 10
16.5491620712226
 20
49.2213030667307
  0
LWPOLYLINE
  5
20100
100
AcDbEntity
  8
0
100
AcDbPolyline
 70
0
 90
5
 10
16.5552245403213
 20
49.2218668872562
 10
16.5549194631207
 20
49.221992494217
 10
16.5545413897798
 20
49.222053738484
 10
16.5538661816448
 20
49.2223306741334
 10
16.5534322738001
 20
49.2225268151689
  0
LWPOLYLINE
  5
20101
100
AcDbEntity
  8
0
100
AcDbPolyline
 70
0
 90
5
 10
16.5740058025225
 20
49.2239711905638
 10
16.5738244217499
 20
49.2238598782652
 10
16.5737508891812
 20
49.2238602571746
 10
16.5731311041298
 20
49.2240345452656
 10
16.5715875912759
 20
49.2244487507535
  0
LWPOLYLINE
  5
20102
100
AcDbEntity
  8
0
100
AcDbPolyline
 70
0
 90
5
 10
16.6002611148181
 20
49.187369000696
 10
16.6000576797701
 20
49.1867858144358
 10
16.5998995842636
 20
49.1866217373146
 10
16.59967962326
 20
49.1865289785728
 10
16.5993558701249
 20
49.1861572315128
  0
LWPOLYLINE
  5
20103
100
AcDbEntity
  8
0
100
AcDbPolyline
 70
0
 90
10
 10
16.6430444046461
 20
49.188760005123
 10
16.6433774541301
 20
49.1886961607886
 10
16.6436119111175
 20
49.189146794861
 10
16.6441160610671
 20
49.1890660319646
 10
16.6442221981222
 20
49.1891681615401
 10
16.6449335743741
 20
49.1890191121007
 10
16.6447150891063
 20
49.1885469426487
 10
16.6442600735015
 20
49.1886305409168
 10
16.6440741103491
 20
49.1885503473771
 10
16.6433774541301
 20
49.1886961607886
  0
LWPOLYLINE
  5
20104
100
AcDbEntity
  8
0
100
AcDbPolyline
 70
0
 90
10
 10
16.5768975897142
 20
49.2061954476706
 10
16.577207044613
 20
49.2058165629647
 10
16.5773093885478
 20
49.2055662287632
 10
16.5772015394893
 20
49.2052863846049
 10
16.576928477995
 20
49.2051080394262
 10
16.5767526288081
 20
49.2048245346974
 10
16.5767662340319
 20
49.2046048856846
 10
16.5766526684469
 20
49.2043745011991
 10
16.5766485663932
 20
49.2042177516806
 10
16.5766386213628
 20
49.2040425230079
  0
LWPOLYLINE
  5
20105
100
AcDbEntity
  8
0
100
AcDbPolyline
 70
0
 90
10
 10
16.5777248792449
 20
49.2077854227592
 10
16.5778780375086
 20
49.2076072747245
 10
16.5779744763556
 20
49.2072738633881
 10
16.5780950425772
 20
49.2070933978664
 10
16.578078871049
 20
49.2068924079638
 10
16.5782017076135
 20
49.2065986810967
 10
16.5782049861009
 20
49.206280250299
 10
16.5781956968538
 20
49.2059879313208
 10
16.578283670414
 20
49.205805148443
 10
16.578525523937
 20
49.2056338057975
  0
LWPOLYLINE
  5
20106
100
AcDbEntity
  8
0
100
AcDbPolyline
 70
0
 90
14
 10
16.5772015394893
 20
49.2052863846049
 10
16.5774537158601
 20
49.2053788606492
 10
16.5775998590394
 20
49.2054918733251
 10
16.5776381319816
 20
49.2055594078703
 10
16.5776779835007
 20
49.2055676426759
 10
16.5777103821867
 20
49.2055213366467
 10
16.5777245284279
 20
49.2054359251344
 10
16.5777455578115
 20
49.2052591845703
 10
16.5777696192456
 20
49.2051636759197
 10
16.5778484375837
 20
49.2051854836481
 10
16.5779355931421
 20
49.2052564939109
 10
16.5780879257476
 20
49.2053321384217
 10
16.5782336895041
 20
49.205347903718
 10
16.578552200836
 20
49.2052880808366
  0
LWPOLYLINE
  5
20107
100
AcDbEntity
  8
0
100
AcDbPolyline
 70
0
 90
4
 10
16.5844245362054
 20
49.2046301279472
 10
16.5842690066549
 20
49.2046325098647
 10
16.5835324492017
 20
49.2050570782879
 10
16.5835324492017
 20
49.2050570782879
  0
LWPOLYLINE
  5
20108
100
AcDbEntity
  8
0
100
AcDbPolyline
 70
0
 90
3
 10
16.4973720129018
 20
49.2148671205738
 10
16.4974529001263
 20
49.2149531694918
 10
16.4979023252332
 20
49.2154331411668
  0
LWPOLYLINE
  5
20109
100
AcDbEntity
  8
0
100
AcDbPolyline
 70
0
 90
2
 10
16.5999158123438
 20
49.2116081980496
 10
16.6003624875432
 20
49.2108406467171
  0
LWPOLYLINE
  5
2010A
100
AcDbEntity
  8
0
100
AcDbPolyline
 70
0
 90
90
 10
16.5364842993708
 20
49.2212329830593
 10
16.5365043618991
 20
49.2211984708614
 10
16.5365289934828
 20
49.2211318258081
 10
16.536552988069
 20
49.2210849456948
 10
16.5365977935315
 20
49.2209974077068
 10
16.536658710895
 20
49.2208808926493
 10
16.5366686626479
 20
49.220861857421
 10
16.5366744094561
 20
49.2208508656814
 10
16.5367680474869
 20
49.2207182130129
 10
16.5368265686396
 20
49.2206417862489
 10
16.5368866753844
 20
49.2205632836467
 10
16.5369778116271
 20
49.2204456491973
 10
16.5370027472699
 20
49.2204230203861
 10
16.5370325669884
 20
49.2203959570453
 10
16.5370826113934
 20
49.2203505380895
 10
16.5372279695697
 20
49.2202077562495
 10
16.5372328863689
 20
49.2202029260375
 10
16.5372486973413
 20
49.2201908739473
 10
16.5374167306411
 20
49.2200627867313
 10
16.5375490485184
 20
49.2199701486448
 10
16.5376268858823
 20
49.2199156528017
 10
16.5378758816237
 20
49.2197621441835
 10
16.5379178067603
 20
49.2197362955005
 10
16.5379385334781
 20
49.2197247835511
 10
16.5382310403649
 20
49.2195623216744
 10
16.5386077477646
 20
49.2193824964277
 10
16.5386638315758
 20
49.2193557239603
 10
16.538955817756
 20
49.2192163372976
 10
16.5390982451686
 20
49.2191554009683
 10
16.5392700089781
 20
49.2190819127946
 10
16.5394201136476
 20
49.2190176908377
 10
16.5395785372038
 20
49.218958352393
 10
16.5397439132766
 20
49.2188964093963
 10
16.5399223965519
 20
49.218840607259
 10
16.5404497334418
 20
49.2186757317439
 10
16.5405666872419
 20
49.2186478942337
 10
16.5406244343817
 20
49.2186341490166
 10
16.5408222478898
 20
49.2185870631087
 10
16.541112684942
 20
49.2185267354817
 10
16.5412018185355
 20
49.2185101954514
 10
16.5413640991959
 20
49.2184800822635
 10
16.5417647156014
 20
49.218420021175
 10
16.5418302070603
 20
49.2184129930793
 10
16.5420836875455
 20
49.2183857896534
 10
16.5423636698831
 20
49.2183608044224
 10
16.5424524220333
 20
49.2183528840229
 10
16.5425410453298
 20
49.2183449742583
 10
16.5428352136074
 20
49.2183203765796
 10
16.5429288111104
 20
49.2183156520805
 10
16.5430719013078
 20
49.2183091971422
 10
16.5431353445027
 20
49.2183063351313
 10
16.5433722405229
 20
49.2183004427469
 10
16.5435197766997
 20
49.2182970446222
 10
16.5436858434593
 20
49.2182987837479
 10
16.5437070203254
 20
49.2182990046525
 10
16.5439915721539
 20
49.2183205837673
 10
16.5442910436609
 20
49.2183409168551
 10
16.544354874985
 20
49.2183452506541
 10
16.5444908117352
 20
49.2183650941018
 10
16.5447180560105
 20
49.2183939784603
 10
16.5448903691339
 20
49.2184183708327
 10
16.5454884962554
 20
49.218503037771
 10
16.5457288262676
 20
49.2185370575441
 10
16.5460864664851
 20
49.2185886572566
 10
16.5465106534266
 20
49.2186498577144
 10
16.5466843321881
 20
49.2186749146162
 10
16.5471131545064
 20
49.2187367800324
 10
16.5472822001241
 20
49.218761167984
 10
16.5474662070771
 20
49.2187877132162
 10
16.5478818264486
 20
49.2188368641822
 10
16.5479251624614
 20
49.2188419887201
 10
16.5481222571329
 20
49.218866182145
 10
16.5482764193
 20
49.2188809892397
 10
16.5485877252554
 20
49.2189044654161
 10
16.5488807590287
 20
49.2189215625537
 10
16.5490720330828
 20
49.218922543873
 10
16.549416578155
 20
49.2189205191665
 10
16.549737741417
 20
49.2189079607693
 10
16.5501114704946
 20
49.218870023839
 10
16.5503740878448
 20
49.2188437815422
 10
16.550422159281
 20
49.2188389778363
 10
16.5505843778852
 20
49.2188168656796
 10
16.5507150018764
 20
49.2187990597873
 10
16.5512022813571
 20
49.2186944828321
 10
16.5514714445152
 20
49.2186224725319
 10
16.5516381457601
 20
49.2185735552096
 10
16.5519713197354
 20
49.2184769808646
 10
16.552270948136
 20
49.2183729488166
 10
16.5528483304651
 20
49.2181101045316
 10
16.5531295535121
 20
49.2179654809679
  0
LWPOLYLINE
  5
2010B
100
AcDbEntity
  8
0
100
AcDbPolyline
 70
0
 90
13
 10
16.5595524853855
 20
49.2117318727049
 10
16.5594522020308
 20
49.2115951400943
 10
16.5591972656953
 20
49.2112527270777
 10
16.5590847767952
 20
49.2111348098851
 10
16.5589087400717
 20
49.2109937439138
 10
16.5587663220005
 20
49.2109010251439
 10
16.5586132998766
 20
49.2108264582233
 10
16.5585013463115
 20
49.2107667605449
 10
16.558302165613
 20
49.2106605498245
 10
16.5580239854406
 20
49.2105135516421
 10
16.557814561736
 20
49.2103773676083
 10
16.5577181717351
 20
49.2103088694312
 10
16.5576037533984
 20
49.2102169479357
  0
LWPOLYLINE
  5
2010C
100
AcDbEntity
  8
0
100
AcDbPolyline
 70
0
 90
3
 10
16.576975244542
 20
49.2104255156001
 10
16.5765505665014
 20
49.2105871698719
 10
16.5758003376063
 20
49.2108762769213
  0
LWPOLYLINE
  5
2010D
100
AcDbEntity
  8
0
100
AcDbPolyline
 70
0
 90
3
 10
16.5871913775308
 20
49.2206362962188
 10
16.5880958778878
 20
49.2208914034634
 10
16.5883241487241
 20
49.2209557836514
  0
LWPOLYLINE
  5
2010E
100
AcDbEntity
  8
0
100
AcDbPolyline
 70
0
 90
40
 10
16.6028153267353
 20
49.1846794391632
 10
16.6030116036103
 20
49.184877417015
 10
16.6030965628664
 20
49.1849631115741
 10
16.6032149952213
 20
49.1850825687618
 10
16.6032467766257
 20
49.1851146240934
 10
16.6033605854991
 20
49.1852294170202
 10
16.6034244785488
 20
49.1852881510848
 10
16.6034596074207
 20
49.1853204428024
 10
16.6035600720919
 20
49.185412795476
 10
16.6036359252154
 20
49.1854841125068
 10
16.6036461064662
 20
49.1854945949504
 10
16.6036572975169
 20
49.1855061159111
 10
16.6037302849568
 20
49.1855812538017
 10
16.6038604869499
 20
49.1857005243694
 10
16.6040299564559
 20
49.1858557634306
 10
16.6040828224641
 20
49.1859070163927
 10
16.6041608097354
 20
49.1859826269138
 10
16.6043109306633
 20
49.1861139171404
 10
16.6043296312737
 20
49.1861302722706
 10
16.6045091426999
 20
49.1862967652839
 10
16.6045356319685
 20
49.1863205775602
 10
16.6045458570761
 20
49.1863297677577
 10
16.6048696444017
 20
49.1866208100169
 10
16.6052301508164
 20
49.1869448536087
 10
16.6054218327726
 20
49.1871212525713
 10
16.6056990300179
 20
49.1873566915823
 10
16.6057123084698
 20
49.1873679695022
 10
16.6059277160274
 20
49.1875636309087
 10
16.6059283233043
 20
49.1875641822853
 10
16.6060849906571
 20
49.1877019177258
 10
16.6061643249303
 20
49.1877711294263
 10
16.606402283442
 20
49.1879787229727
 10
16.606434822887
 20
49.1880071097484
 10
16.6065686379405
 20
49.188116089538
 10
16.6066259661145
 20
49.1881608761912
 10
16.6066603572293
 20
49.1881877434138
 10
16.6067878508417
 20
49.1882873428873
 10
16.6068742401726
 20
49.1883548298272
 10
16.6069389606011
 20
49.1883982154364
 10
16.606972120354
 20
49.1884204447285
  0
LWPOLYLINE
  5
2010F
100
AcDbEntity
  8
0
100
AcDbPolyline
 70
0
 90
3
 10
16.5746534448704
 20
49.2113411410954
 10
16.5754979204191
 20
49.2109924406002
 10
16.5758003376063
 20
49.2108762769213
  0
LWPOLYLINE
  5
20110
100
AcDbEntity
  8
0
100
AcDbPolyline
 70
0
 90
10
 10
16.5294029647498
 20
49.1746916245059
 10
16.5292330141529
 20
49.1747704161877
 10
16.5291436778044
 20
49.1748118391012
 10
16.5289797261281
 20
49.1748932779364
 10
16.5287979733486
 20
49.1749995854105
 10
16.5280523290835
 20
49.1754579445322
 10
16.5278272845908
 20
49.1755963408031
 10
16.5275784754395
 20
49.1757249844489
 10
16.5273571984296
 20
49.1758680822521
 10
16.5270093219027
 20
49.1760920817535
  0
LWPOLYLINE
  5
20111
100
AcDbEntity
  8
0
100
AcDbPolyline
 70
0
 90
2
 10
16.6441160610671
 20
49.1890660319646
 10
16.6438599436011
 20
49.1885908979448
  0
LWPOLYLINE
  5
20112
100
AcDbEntity
  8
0
100
AcDbPolyline
 70
0
 90
11
 10
16.5395047384624
 20
49.1930312292715
 10
16.5394466739328
 20
49.1930527838262
 10
16.5392484108739
 20
49.193112068238
 10
16.5390304244256
 20
49.19317790321
 10
16.5389275073587
 20
49.1932157777236
 10
16.5387172106581
 20
49.1933183452207
 10
16.5385069130869
 20
49.1934209123324
 10
16.5382981020929
 20
49.1935145394828
 10
16.5380468823188
 20
49.1936141811833
 10
16.5379439635943
 20
49.1936520548164
 10
16.5377277720517
 20
49.1937232588979
  0
LWPOLYLINE
  5
20113
100
AcDbEntity
  8
0
100
AcDbPolyline
 70
0
 90
3
 10
16.4981978279765
 20
49.2176117349225
 10
16.4979087381599
 20
49.2172963685179
 10
16.4976772018
 20
49.2170437897192
  0
LWPOLYLINE
  5
20114
100
AcDbEntity
  8
0
100
AcDbPolyline
 70
0
 90
2
 10
16.4976772018
 20
49.2170437897192
 10
16.4971601597315
 20
49.2164874246701
  0
LWPOLYLINE
  5
20115
100
AcDbEntity
  8
0
100
AcDbPolyline
 70
0
 90
2
 10
16.4971601597315
 20
49.2164874246701
 10
16.4966364315183
 20
49.2159261888434
  0
LWPOLYLINE
  5
20116
100
AcDbEntity
  8
0
100
AcDbPolyline
 70
0
 90
2
 10
16.4989251931638
 20
49.2165583007423
 10
16.4976772018
 20
49.2170437897192
  0
LWPOLYLINE
  5
20117
100
AcDbEntity
  8
0
100
AcDbPolyline
 70
0
 90
2
 10
16.4971601597315
 20
49.2164874246701
 10
16.4984052969031
 20
49.215996743394
  0
LWPOLYLINE
  5
20118
100
AcDbEntity
  8
0
100
AcDbPolyline
 70
0
 90
2
 10
16.4979023480377
 20
49.2154331699432
 10
16.4966364315183
 20
49.2159261888434
  0
LWPOLYLINE
  5
20119
100
AcDbEntity
  8
0
100
AcDbPolyline
 70
0
 90
3
 10
16.5798418560709
 20
49.171408772319
 10
16.5800461311779
 20
49.171817600431
 10
16.5803127466814
 20
49.1723511928298
  0
LWPOLYLINE
  5
2011A
100
AcDbEntity
  8
0
100
AcDbPolyline
 70
0
 90
4
 10
16.6127327618604
 20
49.1963618487296
 10
16.6125219747393
 20
49.1962850548992
 10
16.6123936650342
 20
49.1962571551951
 10
16.6122542501975
 20
49.1962329913681
  0
LWPOLYLINE
  5
2011B
100
AcDbEntity
  8
0
100
AcDbPolyline
 70
0
 90
3
 10
16.6075902433862
 20
49.1933345888567
 10
16.608147556713
 20
49.1935441670619
 10
16.6084967242291
 20
49.1936754698994
  0
LWPOLYLINE
  5
2011C
100
AcDbEntity
  8
0
100
AcDbPolyline
 70
0
 90
5
 10
16.6129551906287
 20
49.194335384031
 10
16.6128540309445
 20
49.194307326748
 10
16.6127215035211
 20
49.19425601137
 10
16.6126133492152
 20
49.1942092402448
 10
16.61254011486
 20
49.1941769735059
  0
LWPOLYLINE
  5
2011D
100
AcDbEntity
  8
0
100
AcDbPolyline
 70
0
 90
4
 10
16.6084967242291
 20
49.1936754698994
 10
16.6087975119592
 20
49.1931764232763
 10
16.6090523022133
 20
49.1927415123094
 10
16.6090917936547
 20
49.1926844868507
  0
LWPOLYLINE
  5
2011E
100
AcDbEntity
  8
0
100
AcDbPolyline
 70
0
 90
2
 10
16.6068292900384
 20
49.1980175801949
 10
16.6069857790913
 20
49.1979324305328
  0
LWPOLYLINE
  5
2011F
100
AcDbEntity
  8
0
100
AcDbPolyline
 70
0
 90
5
 10
16.6129551906287
 20
49.194335384031
 10
16.6130501502755
 20
49.1942955723311
 10
16.6131165083472
 20
49.1941452025789
 10
16.6132942235685
 20
49.193709904505
 10
16.6133173257269
 20
49.1936533173917
  0
LWPOLYLINE
  5
20120
100
AcDbEntity
  8
0
100
AcDbPolyline
 70
0
 90
6
 10
16.5587577565798
 20
49.2651442667839
 10
16.5585008836736
 20
49.2651310823046
 10
16.5580844261924
 20
49.2651045732761
 10
16.5576916263381
 20
49.2651526811393
 10
16.5566485329518
 20
49.2653884497752
 10
16.5553340123022
 20
49.2656443523422
  0
LWPOLYLINE
  5
20121
100
AcDbEntity
  8
0
100
AcDbPolyline
 70
0
 90
3
 10
16.5923208544021
 20
49.219279270144
 10
16.5927924647839
 20
49.2184990329817
 10
16.5930053422332
 20
49.2181393974656
  0
LWPOLYLINE
  5
20122
100
AcDbEntity
  8
0
100
AcDbPolyline
 70
0
 90
15
 10
16.6248207644878
 20
49.2022297876796
 10
16.6220381735045
 20
49.2021603797716
 10
16.6214398009679
 20
49.2021413850724
 10
16.6206966712266
 20
49.2020872794588
 10
16.6202716234619
 20
49.2020294159406
 10
16.6189256570133
 20
49.2016731174263
 10
16.6183703798356
 20
49.201534788854
 10
16.617873915773
 20
49.2014466572903
 10
16.6174055548486
 20
49.2013948826
 10
16.61717370942
 20
49.2013742789709
 10
16.617055802593
 20
49.2013638006471
 10
16.6165549190078
 20
49.2013535884051
 10
16.6159754943564
 20
49.2014321530709
 10
16.6157398500196
 20
49.201490094835
 10
16.6155835577144
 20
49.201610092739
  0
LWPOLYLINE
  5
20123
100
AcDbEntity
  8
0
100
AcDbPolyline
 70
0
 90
2
 10
16.5964664662044
 20
49.2007636987559
 10
16.5968397976806
 20
49.1996152249873
  0
LWPOLYLINE
  5
20124
100
AcDbEntity
  8
0
100
AcDbPolyline
 70
0
 90
2
 10
16.5985674177445
 20
49.2010530287571
 10
16.5964664662044
 20
49.2007636987559
  0
LWPOLYLINE
  5
20125
100
AcDbEntity
  8
0
100
AcDbPolyline
 70
0
 90
4
 10
16.599559280388
 20
49.2012421391658
 10
16.5994724947041
 20
49.2011875930144
 10
16.5992809815918
 20
49.2011520308198
 10
16.5985674177445
 20
49.2010530287571
  0
LWPOLYLINE
  5
20126
100
AcDbEntity
  8
0
100
AcDbPolyline
 70
0
 90
3
 10
16.5959281931793
 20
49.2023856500522
 10
16.596261530303
 20
49.2013657645991
 10
16.5964664662044
 20
49.2007636987559
  0
LWPOLYLINE
  5
20127
100
AcDbEntity
  8
0
100
AcDbPolyline
 70
0
 90
8
 10
16.5955468181663
 20
49.2043552120428
 10
16.5954658584239
 20
49.2043130159082
 10
16.5954045655448
 20
49.2042837928998
 10
16.5953300580075
 20
49.2042334615834
 10
16.5953211141054
 20
49.2041831692133
 10
16.5955503137853
 20
49.2035045848981
 10
16.5956555412148
 20
49.2031927580598
 10
16.5959281931793
 20
49.2023856500522
  0
LWPOLYLINE
  5
20128
100
AcDbEntity
  8
0
100
AcDbPolyline
 70
0
 90
2
 10
16.610727221762
 20
49.2038076114243
 10
16.6119412977153
 20
49.2038726913771
  0
LWPOLYLINE
  5
20129
100
AcDbEntity
  8
0
100
AcDbPolyline
 70
0
 90
6
 10
16.6366234576405
 20
49.1979628951819
 10
16.6366917662741
 20
49.1979025061977
 10
16.6368241276642
 20
49.1977228186391
 10
16.6375949030021
 20
49.1966760527814
 10
16.637877589812
 20
49.196291262928
 10
16.6381312722325
 20
49.1959603208052
  0
LWPOLYLINE
  5
2012A
100
AcDbEntity
  8
0
100
AcDbPolyline
 70
0
 90
9
 10
16.6395780267839
 20
49.1936793744067
 10
16.6395024528038
 20
49.1937983127644
 10
16.6393726232269
 20
49.1940744150898
 10
16.6393062470311
 20
49.1942230356834
 10
16.6391074488204
 20
49.1945744952864
 10
16.6389726329082
 20
49.1948128913515
 10
16.6387848990449
 20
49.1950684450709
 10
16.6383059699483
 20
49.1957203086491
 10
16.6381312722325
 20
49.1959603208052
  0
LWPOLYLINE
  5
2012B
100
AcDbEntity
  8
0
100
AcDbPolyline
 70
0
 90
5
 10
16.5580042800151
 20
49.175532585302
 10
16.5576071885348
 20
49.1755439010882
 10
16.5552020090584
 20
49.1761241818294
 10
16.5540959576195
 20
49.1763910096653
 10
16.5526437637878
 20
49.1763928512158
  0
LWPOLYLINE
  5
2012C
100
AcDbEntity
  8
0
100
AcDbPolyline
 70
0
 90
2
 10
16.5526507015557
 20
49.1766560340513
 10
16.5526452744583
 20
49.1760929124945
  0
LWPOLYLINE
  5
2012D
100
AcDbEntity
  8
0
100
AcDbPolyline
 70
0
 90
4
 10
16.5585426586751
 20
49.1762675604782
 10
16.5581404883853
 20
49.1762511622619
 10
16.5579931728975
 20
49.1760620130158
 10
16.5577402592804
 20
49.1759761139538
  0
LWPOLYLINE
  5
2012E
100
AcDbEntity
  8
0
100
AcDbPolyline
 70
0
 90
5
 10
16.5820211755336
 20
49.1692181597836
 10
16.5821264805994
 20
49.1692874017196
 10
16.5825543488957
 20
49.1693980087771
 10
16.5825702623941
 20
49.1694314866233
 10
16.5825658948912
 20
49.1694902511533
  0
LWPOLYLINE
  5
2012F
100
AcDbEntity
  8
0
100
AcDbPolyline
 70
0
 90
16
 10
16.5785259082732
 20
49.162711486819
 10
16.5785259082732
 20
49.162711486819
 10
16.5803705927166
 20
49.1628489918046
 10
16.5805429170091
 20
49.1627532296111
 10
16.5808322370134
 20
49.1627468069009
 10
16.5809596372346
 20
49.1627234635848
 10
16.5818636886209
 20
49.1626851530894
 10
16.5828633562001
 20
49.1628156686182
 10
16.5835867539845
 20
49.1628239077214
 10
16.584152153719
 20
49.1628911208502
 10
16.5848590756782
 20
49.1628495706599
 10
16.5858621784197
 20
49.1627102507013
 10
16.5860309617219
 20
49.1626358335665
 10
16.5864368902032
 20
49.1626214839687
 10
16.5865138798987
 20
49.1626539625391
 10
16.5865781398774
 20
49.1631122193122
  0
LWPOLYLINE
  5
20130
100
AcDbEntity
  8
0
100
AcDbPolyline
 70
0
 90
2
 10
16.5722689388121
 20
49.1646787174995
 10
16.5710237928083
 20
49.1647135653078
  0
LWPOLYLINE
  5
20131
100
AcDbEntity
  8
0
100
AcDbPolyline
 70
0
 90
7
 10
16.5634853762733
 20
49.1916631032947
 10
16.5633074863742
 20
49.1916557908273
 10
16.5628342098492
 20
49.1916274687746
 10
16.5608658435396
 20
49.1917194445988
 10
16.5604396642044
 20
49.1917052719358
 10
16.5593350213356
 20
49.1914590914532
 10
16.5585398823336
 20
49.1912349661737
  0
LWPOLYLINE
  5
20132
100
AcDbEntity
  8
0
100
AcDbPolyline
 70
0
 90
6
 10
16.5632903115711
 20
49.1916599682838
 10
16.5632874724095
 20
49.1918758144003
 10
16.5632086740926
 20
49.192102451849
 10
16.5624685404204
 20
49.1925898342915
 10
16.5620476533348
 20
49.1927920940235
 10
16.5617492991991
 20
49.1928518505778
  0
LWPOLYLINE
  5
20133
100
AcDbEntity
  8
0
100
AcDbPolyline
 70
0
 90
2
 10
16.5989905245593
 20
49.1843668822158
 10
16.599685292019
 20
49.1838352976199
  0
LWPOLYLINE
  5
20134
100
AcDbEntity
  8
0
100
AcDbPolyline
 70
0
 90
2
 10
16.644485697769
 20
49.1891152624203
 10
16.6442600735015
 20
49.1886305409168
  0
LWPOLYLINE
  5
20135
100
AcDbEntity
  8
0
100
AcDbPolyline
 70
0
 90
2
 10
16.6051586737086
 20
49.2021806397408
 10
16.6046210504394
 20
49.2019254564288
  0
LWPOLYLINE
  5
20136
100
AcDbEntity
  8
0
100
AcDbPolyline
 70
0
 90
3
 10
16.6125077152529
 20
49.2039042046133
 10
16.6134089830746
 20
49.2039492912133
 10
16.6134900385845
 20
49.2039533110421
  0
LWPOLYLINE
  5
20137
100
AcDbEntity
  8
0
100
AcDbPolyline
 70
0
 90
8
 10
16.6627367203427
 20
49.1989721399075
 10
16.6613511618128
 20
49.1978543717253
 10
16.6607901831618
 20
49.1974810339511
 10
16.6605516385836
 20
49.1973495053758
 10
16.6603394627943
 20
49.1972325150054
 10
16.6599490359973
 20
49.1971053623289
 10
16.6598510447541
 20
49.1970329831267
 10
16.6595608508644
 20
49.1969818286103
  0
LWPOLYLINE
  5
20138
100
AcDbEntity
  8
0
100
AcDbPolyline
 70
0
 90
2
 10
16.6628752507756
 20
49.1990860385118
 10
16.6633170446247
 20
49.1994492732302
  0
LWPOLYLINE
  5
20139
100
AcDbEntity
  8
0
100
AcDbPolyline
 70
0
 90
4
 10
16.576321516953
 20
49.2273359150991
 10
16.5763072026395
 20
49.2271046873892
 10
16.576327620139
 20
49.2266225707928
 10
16.5763385473582
 20
49.2265274669424
  0
LWPOLYLINE
  5
2013A
100
AcDbEntity
  8
0
100
AcDbPolyline
 70
0
 90
2
 10
16.6239097912139
 20
49.2334218544667
 10
16.6244770715323
 20
49.233546069081
  0
LWPOLYLINE
  5
2013B
100
AcDbEntity
  8
0
100
AcDbPolyline
 70
0
 90
15
 10
16.5147567796568
 20
49.2171293930935
 10
16.5147264957681
 20
49.2171255047296
 10
16.5142308517639
 20
49.2170611374515
 10
16.5139182590489
 20
49.2170368411702
 10
16.513681391951
 20
49.2170254782081
 10
16.5132538710981
 20
49.2170344672288
 10
16.512808259778
 20
49.2170707442732
 10
16.5125386107179
 20
49.2171093167921
 10
16.512165121068
 20
49.217184230648
 10
16.5118109667339
 20
49.2172740079194
 10
16.5113888979001
 20
49.2173999864736
 10
16.5110043199886
 20
49.2175272033743
 10
16.5105591384774
 20
49.2177047143352
 10
16.5101248055937
 20
49.2178991037117
 10
16.5097877269965
 20
49.2180783905185
  0
LWPOLYLINE
  5
2013C
100
AcDbEntity
  8
0
100
AcDbPolyline
 70
0
 90
9
 10
16.5147579928891
 20
49.2171295704731
 10
16.5151203618728
 20
49.2171907201582
 10
16.5154416033776
 20
49.2172517267652
 10
16.5157123949881
 20
49.2173072188605
 10
16.5161015974216
 20
49.2173962498627
 10
16.51644090674
 20
49.2174780873419
 10
16.5167355233995
 20
49.2175588033057
 10
16.5171100308774
 20
49.2176614328491
 10
16.5174210644012
 20
49.2177521878816
  0
LWPOLYLINE
  5
2013D
100
AcDbEntity
  8
0
100
AcDbPolyline
 70
0
 90
14
 10
16.6875897308765
 20
49.208028906448
 10
16.6878819728357
 20
49.2084571044996
 10
16.6880576502
 20
49.2088291030029
 10
16.6881671423959
 20
49.2092758649912
 10
16.6881890794214
 20
49.2094001296329
 10
16.6881252560038
 20
49.2100408475175
 10
16.6879810530419
 20
49.2104595973813
 10
16.6873840747763
 20
49.2114637498548
 10
16.68727297928
 20
49.2116739168471
 10
16.6867335033796
 20
49.213380329371
 10
16.6864501533804
 20
49.2135608597363
 10
16.68478071365
 20
49.2137167226619
 10
16.6822574743541
 20
49.2139056137023
 10
16.6807373321117
 20
49.2140367068686
  0
LWPOLYLINE
  5
2013E
100
AcDbEntity
  8
0
100
AcDbPolyline
 70
0
 90
5
 10
16.6635469975103
 20
49.2000008737337
 10
16.6635847546768
 20
49.1998597266833
 10
16.6635578881043
 20
49.1997229863943
 10
16.6634916357994
 20
49.1996050905747
 10
16.6634273866684
 20
49.199547750313
  0
LWPOLYLINE
  5
2013F
100
AcDbEntity
  8
0
100
AcDbPolyline
 70
0
 90
2
 10
16.5939752043968
 20
49.2045740210606
 10
16.5943742659035
 20
49.2050410292264
  0
LWPOLYLINE
  5
20140
100
AcDbEntity
  8
0
100
AcDbPolyline
 70
0
 90
5
 10
16.6555452249167
 20
49.1963284319285
 10
16.6569482025183
 20
49.1965495576868
 10
16.6580680151349
 20
49.1967264225223
 10
16.6590834659948
 20
49.1968976748062
 10
16.6593954909054
 20
49.1969526790744
  0
LWPOLYLINE
  5
20141
100
AcDbEntity
  8
0
100
AcDbPolyline
 70
0
 90
3
 10
16.5092205243689
 20
49.2184282554619
 10
16.5095868008731
 20
49.2181932577044
 10
16.5097903156754
 20
49.2180769477653
  0
LWPOLYLINE
  5
20142
100
AcDbEntity
  8
0
100
AcDbPolyline
 70
0
 90
8
 10
16.6593954909054
 20
49.1969526790744
 10
16.6598510447541
 20
49.1970329831267
 10
16.6599490359973
 20
49.1971053623289
 10
16.6603394627943
 20
49.1972325150054
 10
16.6607901831618
 20
49.1974810339511
 10
16.6613511618128
 20
49.1978543717253
 10
16.6620295007231
 20
49.1983906588626
 10
16.6625701698655
 20
49.1988352025331
  0
LWPOLYLINE
  5
20143
100
AcDbEntity
  8
0
100
AcDbPolyline
 70
0
 90
5
 10
16.5927900844293
 20
49.2027636836624
 10
16.5928408678259
 20
49.2030068538866
 10
16.5929623776457
 20
49.2032721799831
 10
16.5931621097154
 20
49.203617137464
 10
16.593351227603
 20
49.2038397705623
  0
LWPOLYLINE
  5
20144
100
AcDbEntity
  8
0
100
AcDbPolyline
 70
0
 90
4
 10
16.5710131136801
 20
49.1935374338992
 10
16.5717952296514
 20
49.1932560707123
 10
16.5720813030821
 20
49.1931596552178
 10
16.572219757814
 20
49.1931166928285
  0
LWPOLYLINE
  5
20145
100
AcDbEntity
  8
0
100
AcDbPolyline
 70
0
 90
20
 10
16.5675958592135
 20
49.1936561353508
 10
16.5678033382516
 20
49.1937166795461
 10
16.5681352325778
 20
49.1938134914444
 10
16.5686810802932
 20
49.193972323376
 10
16.5687237853981
 20
49.193984749669
 10
16.5688409652885
 20
49.1940147117554
 10
16.5689247065692
 20
49.1940332474001
 10
16.5689624329189
 20
49.1940404562561
 10
16.5690806754913
 20
49.1940508116741
 10
16.5691179294151
 20
49.1940521696904
 10
16.5692108929535
 20
49.1940514897055
 10
16.569292118147
 20
49.1940468785498
 10
16.56942595902
 20
49.1940351054161
 10
16.5695093481676
 20
49.1940149072341
 10
16.5696715882551
 20
49.1939756095611
 10
16.5697604901391
 20
49.1939540759976
 10
16.5699459957042
 20
49.1938961326428
 10
16.5702264816738
 20
49.1938085208935
 10
16.5707961469185
 20
49.1936099113455
 10
16.5710131136801
 20
49.1935374338992
  0
LWPOLYLINE
  5
20146
100
AcDbEntity
  8
0
100
AcDbPolyline
 70
0
 90
4
 10
16.5675958592135
 20
49.1936561353508
 10
16.5670003988611
 20
49.1934791315701
 10
16.5664541270143
 20
49.1933261075648
 10
16.5654435444032
 20
49.1930354771491
  0
LWPOLYLINE
  5
20147
100
AcDbEntity
  8
0
100
AcDbPolyline
 70
0
 90
3
 10
16.6070575336294
 20
49.1884777014585
 10
16.6072404275985
 20
49.1886003046044
 10
16.60766175251
 20
49.1889150313275
  0
LWPOLYLINE
  5
20148
100
AcDbEntity
  8
0
100
AcDbPolyline
 70
0
 90
2
 10
16.603131090316
 20
49.2157824385573
 10
16.6032195448759
 20
49.2158024737057
  0
LWPOLYLINE
  5
20149
100
AcDbEntity
  8
0
100
AcDbPolyline
 70
0
 90
2
 10
16.6015517260066
 20
49.2154755068929
 10
16.6015247349033
 20
49.2155286598433
  0
LWPOLYLINE
  5
2014A
100
AcDbEntity
  8
0
100
AcDbPolyline
 70
0
 90
2
 10
16.5898701073165
 20
49.2186427171824
 10
16.5899528902676
 20
49.2186653267492
  0
LWPOLYLINE
  5
2014B
100
AcDbEntity
  8
0
100
AcDbPolyline
 70
0
 90
2
 10
16.583027651418
 20
49.2205296161283
 10
16.5825965221267
 20
49.2203888880926
  0
LWPOLYLINE
  5
2014C
100
AcDbEntity
  8
0
100
AcDbPolyline
 70
0
 90
2
 10
16.5885174236887
 20
49.1871836423489
 10
16.5885766698143
 20
49.1872226752439
  0
LWPOLYLINE
  5
2014D
100
AcDbEntity
  8
0
100
AcDbPolyline
 70
0
 90
2
 10
16.5958601662951
 20
49.1774441057504
 10
16.5957103277761
 20
49.1774267664916
  0
LWPOLYLINE
  5
2014E
100
AcDbEntity
  8
0
100
AcDbPolyline
 70
0
 90
2
 10
16.5717746770118
 20
49.2169854832388
 10
16.57168037455
 20
49.2168994821989
  0
LWPOLYLINE
  5
2014F
100
AcDbEntity
  8
0
100
AcDbPolyline
 70
0
 90
2
 10
16.5662755873299
 20
49.1933610885189
 10
16.5659435030598
 20
49.1932639587597
  0
LWPOLYLINE
  5
20150
100
AcDbEntity
  8
0
100
AcDbPolyline
 70
0
 90
2
 10
16.5665435421567
 20
49.1933021102803
 10
16.5664861696794
 20
49.1933911657807
  0
LWPOLYLINE
  5
20151
100
AcDbEntity
  8
0
100
AcDbPolyline
 70
0
 90
2
 10
16.5711207098947
 20
49.1935930789682
 10
16.5710241437487
 20
49.1936244494071
  0
LWPOLYLINE
  5
20152
100
AcDbEntity
  8
0
100
AcDbPolyline
 70
0
 90
8
 10
16.5779248429171
 20
49.2302842206039
 10
16.5774570162744
 20
49.2298259319144
 10
16.577051975146
 20
49.2293405351548
 10
16.5767060637582
 20
49.2287967457028
 10
16.5765271923715
 20
49.2283693022987
 10
16.5764462390363
 20
49.2281002379379
 10
16.5763493112567
 20
49.2277858966151
 10
16.5763215467051
 20
49.2273359071058
  0
LWPOLYLINE
  5
20153
100
AcDbEntity
  8
0
100
AcDbPolyline
 70
0
 90
3
 10
16.5930053422332
 20
49.2181393974656
 10
16.5931519116078
 20
49.2178993371965
 10
16.5937963855982
 20
49.216827536933
  0
LWPOLYLINE
  5
20154
100
AcDbEntity
  8
0
100
AcDbPolyline
 70
0
 90
2
 10
16.6234138465483
 20
49.1665035309981
 10
16.6234231722403
 20
49.166376369505
  0
LWPOLYLINE
  5
20155
100
AcDbEntity
  8
0
100
AcDbPolyline
 70
0
 90
2
 10
16.5603306236684
 20
49.2160324157666
 10
16.5603177671271
 20
49.2161889559949
  0
LWPOLYLINE
  5
20156
100
AcDbEntity
  8
0
100
AcDbPolyline
 70
0
 90
2
 10
16.5575466163754
 20
49.2101976936573
 10
16.5574278244949
 20
49.2102467475686
  0
LWPOLYLINE
  5
20157
100
AcDbEntity
  8
0
100
AcDbPolyline
 70
0
 90
2
 10
16.5595392109656
 20
49.2117585644263
 10
16.559559745051
 20
49.2119490802888
  0
LWPOLYLINE
  5
20158
100
AcDbEntity
  8
0
100
AcDbPolyline
 70
0
 90
2
 10
16.6235919626405
 20
49.233351824167
 10
16.6237071510779
 20
49.2333774834478
  0
LWPOLYLINE
  5
20159
100
AcDbEntity
  8
0
100
AcDbPolyline
 70
0
 90
9
 10
16.6199977585919
 20
49.2324359012635
 10
16.6202887615338
 20
49.2325551198115
 10
16.6204840860155
 20
49.2326209218211
 10
16.6206224283816
 20
49.2326675272701
 10
16.6209288625117
 20
49.2327515979239
 10
16.6212225494109
 20
49.2328230573024
 10
16.6217115470521
 20
49.232934327251
 10
16.6221110253247
 20
49.2330212978843
 10
16.6225458584988
 20
49.2331183849941
  0
LWPOLYLINE
  5
2015A
100
AcDbEntity
  8
0
100
AcDbPolyline
 70
0
 90
6
 10
16.6186373133719
 20
49.2309204900733
 10
16.6187307445933
 20
49.2310878858967
 10
16.6188948379367
 20
49.2313886932022
 10
16.6190348150776
 20
49.2316452898844
 10
16.6193322886598
 20
49.2320190693142
 10
16.619660897153
 20
49.2322584727713
  0
LWPOLYLINE
  5
2015B
100
AcDbEntity
  8
0
100
AcDbPolyline
 70
0
 90
2
 10
16.6001055005865
 20
49.2066275016225
 10
16.600568455045
 20
49.2060686202095
  0
LWPOLYLINE
  5
2015C
100
AcDbEntity
  8
0
100
AcDbPolyline
 70
0
 90
64
 10
16.619005213653
 20
49.1747868778181
 10
16.6190231710994
 20
49.1746191909118
 10
16.6190488181151
 20
49.1744249137452
 10
16.619091346909
 20
49.1741970232334
 10
16.6191668939102
 20
49.1738760863435
 10
16.6192018846549
 20
49.1737400180819
 10
16.6193128533681
 20
49.173485843628
 10
16.61944163012
 20
49.1732885556166
 10
16.6195430363778
 20
49.1732000120387
 10
16.6195695170945
 20
49.1731720655968
 10
16.6195985771773
 20
49.1730592529129
 10
16.61963227414
 20
49.172950115052
 10
16.6197200538346
 20
49.1727648235725
 10
16.6198498445607
 20
49.1725667389659
 10
16.6198962887955
 20
49.1724932383745
 10
16.6199439858294
 20
49.1724263946193
 10
16.6201089569009
 20
49.1722283396667
 10
16.620172548676
 20
49.1721049039957
 10
16.6202442245435
 20
49.1719562303045
 10
16.6203859980341
 20
49.1717860284254
 10
16.6205239506323
 20
49.171662824382
 10
16.6207521696634
 20
49.1715007279454
 10
16.6208867605556
 20
49.1714102929572
 10
16.6209687097471
 20
49.1713473069881
 10
16.6210473025678
 20
49.1712349277509
 10
16.621116566801
 20
49.1711338394287
 10
16.621257818855
 20
49.171021016052
 10
16.6213772560663
 20
49.170931327508
 10
16.6214328142511
 20
49.1708889283786
 10
16.6215013342487
 20
49.1708157400414
 10
16.6215730459253
 20
49.1707273601478
 10
16.6216182677818
 20
49.1706716270182
 10
16.6217459781838
 20
49.1705552133279
 10
16.6218020070215
 20
49.1705165573811
 10
16.6219239563818
 20
49.1704444098661
 10
16.6219894871562
 20
49.1704073962149
 10
16.6220795018466
 20
49.1702995706531
 10
16.6221171794949
 20
49.1702452412269
 10
16.6221280844103
 20
49.1701821745215
 10
16.6221835563819
 20
49.1700746407665
 10
16.6222137725799
 20
49.1700160657296
 10
16.6222881906421
 20
49.1699038377768
 10
16.6223710658028
 20
49.1697892226978
 10
16.6224487983966
 20
49.1696543696136
 10
16.6225587968665
 20
49.1694522647199
 10
16.6226542863614
 20
49.169253146014
 10
16.6227303264327
 20
49.1690757641994
 10
16.6227902325827
 20
49.1688635704101
 10
16.6228196331257
 20
49.1686669029046
 10
16.6228568671602
 20
49.168504928136
 10
16.6228920827818
 20
49.1682873783912
 10
16.6228904050259
 20
49.1682358027569
 10
16.6228847829965
 20
49.1681341028862
 10
16.6229121335638
 20
49.1680754470412
 10
16.6229459342861
 20
49.1680218514458
 10
16.6230055807787
 20
49.1678048088689
 10
16.6230494586537
 20
49.1675905213396
 10
16.6230792100015
 20
49.1673177487436
 10
16.6230994942031
 20
49.1671317748064
 10
16.6231133416048
 20
49.1670048153003
 10
16.6231475376649
 20
49.1668648943971
 10
16.623220842857
 20
49.1667594816238
 10
16.6232617369758
 20
49.166711136494
 10
16.6234087463904
 20
49.1665372057597
  0
LWPOLYLINE
  5
2015D
100
AcDbEntity
  8
0
100
AcDbPolyline
 70
0
 90
13
 10
16.6456625582081
 20
49.1990430491527
 10
16.6454917833761
 20
49.1993039334175
 10
16.6446770254631
 20
49.2003364699596
 10
16.6446233210257
 20
49.200491937915
 10
16.6444945291966
 20
49.2006755747828
 10
16.6443955156409
 20
49.2007516019661
 10
16.6443465594059
 20
49.2008152764703
 10
16.6441386255034
 20
49.2010857218418
 10
16.64393051631
 20
49.2012583825122
 10
16.6435525231561
 20
49.2017253074513
 10
16.6434961009719
 20
49.2018396941073
 10
16.6434626887966
 20
49.201907431509
 10
16.6434068708751
 20
49.2019786179771
  0
LWPOLYLINE
  5
2015E
100
AcDbEntity
  8
0
100
AcDbPolyline
 70
0
 90
29
 10
16.5654435444032
 20
49.1930354771491
 10
16.5651557140298
 20
49.1929517014476
 10
16.5646941826446
 20
49.1928725826377
 10
16.5640992286214
 20
49.1928793597756
 10
16.5638600978707
 20
49.192942285557
 10
16.5633469898155
 20
49.1931023550594
 10
16.5628498880471
 20
49.1932640744377
 10
16.5622531977813
 20
49.1934632609125
 10
16.5617887400544
 20
49.1936202608878
 10
16.5613335436259
 20
49.1937683905387
 10
16.5611230862895
 20
49.1938306409798
 10
16.5608076720116
 20
49.1939167981867
 10
16.5606384036414
 20
49.1939596134628
 10
16.5605112936592
 20
49.1939917642953
 10
16.5601216646267
 20
49.1940782033901
 10
16.5598820708069
 20
49.1941294369103
 10
16.5595995237884
 20
49.1941827771107
 10
16.5592380070992
 20
49.1942419155599
 10
16.558947697047
 20
49.1942774265056
 10
16.5588207373407
 20
49.1942909778315
 10
16.558116725082
 20
49.1943553687011
 10
16.5578059620537
 20
49.1943898220407
 10
16.557443433913
 20
49.1944378028245
 10
16.5572185827001
 20
49.1944705068193
 10
16.556964530762
 20
49.194520548735
 10
16.5567403193384
 20
49.1945809738013
 10
16.5565287694055
 20
49.1946672000154
 10
16.5562710419882
 20
49.1947996126808
 10
16.5559929305585
 20
49.195005740605
  0
LWPOLYLINE
  5
2015F
100
AcDbEntity
  8
0
100
AcDbPolyline
 70
0
 90
2
 10
16.6622733754552
 20
49.1843636832325
 10
16.6630235307701
 20
49.1842154973053
  0
LWPOLYLINE
  5
20160
100
AcDbEntity
  8
0
100
AcDbPolyline
 70
0
 90
3
 10
16.5930525953976
 20
49.2003047154696
 10
16.5931311862336
 20
49.2000643485291
 10
16.5932536431672
 20
49.1996898194063
  0
LWPOLYLINE
  5
20161
100
AcDbEntity
  8
0
100
AcDbPolyline
 70
0
 90
5
 10
16.5869397496293
 20
49.1730538124866
 10
16.587236555002
 20
49.1730379592248
 10
16.5879359408658
 20
49.1730002926578
 10
16.5902974120811
 20
49.1728613050817
 10
16.5910158628022
 20
49.1728179049091
  0
LWPOLYLINE
  5
20162
100
AcDbEntity
  8
0
100
AcDbPolyline
 70
0
 90
3
 10
16.5869397496293
 20
49.1730538124866
 10
16.5867753833938
 20
49.1730625914453
 10
16.5842069593323
 20
49.1731891394215
  0
LWPOLYLINE
  5
20163
100
AcDbEntity
  8
0
100
AcDbPolyline
 70
0
 90
4
 10
16.5840156542013
 20
49.173199222105
 10
16.5852003171874
 20
49.1731390422169
 10
16.5858640042709
 20
49.1731083568038
 10
16.5866487215285
 20
49.1730693564153
  0
LWPOLYLINE
  5
20164
100
AcDbEntity
  8
0
100
AcDbPolyline
 70
0
 90
2
 10
16.6044511863171
 20
49.2027010922525
 10
16.6050232749086
 20
49.2022205942211
  0
LWPOLYLINE
  5
20165
100
AcDbEntity
  8
0
100
AcDbPolyline
 70
0
 90
2
 10
16.662894915524
 20
49.1842409076566
 10
16.662364643136
 20
49.1843456551798
  0
LWPOLYLINE
  5
20166
100
AcDbEntity
  8
0
100
AcDbPolyline
 70
0
 90
2
 10
16.6594960714467
 20
49.1849133845253
 10
16.6622733754552
 20
49.1843636832325
  0
LWPOLYLINE
  5
20167
100
AcDbEntity
  8
0
100
AcDbPolyline
 70
0
 90
4
 10
16.6061831160614
 20
49.1985130875793
 10
16.6065752798976
 20
49.1982027659041
 10
16.6067654892548
 20
49.1980522510742
 10
16.6068304980716
 20
49.1980168917364
  0
LWPOLYLINE
  5
20168
100
AcDbEntity
  8
0
100
AcDbPolyline
 70
0
 90
5
 10
16.6048139928596
 20
49.1965643120862
 10
16.6047990246519
 20
49.1965922856225
 10
16.6047760750169
 20
49.196651893686
 10
16.6046770829046
 20
49.1969288905154
 10
16.6045700754644
 20
49.1972301929833
  0
LWPOLYLINE
  5
20169
100
AcDbEntity
  8
0
100
AcDbPolyline
 70
0
 90
6
 10
16.6630235307701
 20
49.1842154973053
 10
16.6636838762449
 20
49.1840850310162
 10
16.6638922992012
 20
49.1840434087721
 10
16.6662189089406
 20
49.1835834441938
 10
16.6670433629157
 20
49.1834384489533
 10
16.6676342006277
 20
49.1833345352378
  0
LWPOLYLINE
  5
2016A
100
AcDbEntity
  8
0
100
AcDbPolyline
 70
0
 90
2
 10
16.6431402133273
 20
49.1882391789805
 10
16.648084535676
 20
49.1872252176736
  0
LWPOLYLINE
  5
2016B
100
AcDbEntity
  8
0
100
AcDbPolyline
 70
0
 90
2
 10
16.6430773276692
 20
49.1882520736799
 10
16.6424022073827
 20
49.1883937496119
  0
LWPOLYLINE
  5
2016C
100
AcDbEntity
  8
0
100
AcDbPolyline
 70
0
 90
2
 10
16.6410768019008
 20
49.1886753342247
 10
16.6419312009019
 20
49.1884941561713
  0
LWPOLYLINE
  5
2016D
100
AcDbEntity
  8
0
100
AcDbPolyline
 70
0
 90
2
 10
16.6410104659182
 20
49.1886891495251
 10
16.6406038741498
 20
49.1887738263581
  0
LWPOLYLINE
  5
2016E
100
AcDbEntity
  8
0
100
AcDbPolyline
 70
0
 90
5
 10
16.6410509930721
 20
49.2010790461031
 10
16.6412683278013
 20
49.2011274327759
 10
16.6420890807996
 20
49.2014317084582
 10
16.6422821309954
 20
49.2014677373501
 10
16.6429687322796
 20
49.2017164693641
  0
LWPOLYLINE
  5
2016F
100
AcDbEntity
  8
0
100
AcDbPolyline
 70
0
 90
5
 10
16.6397938936344
 20
49.2009855053648
 10
16.6400114591831
 20
49.2009815944747
 10
16.6404542976417
 20
49.200983193821
 10
16.6408129796885
 20
49.2010300026309
 10
16.6410509930721
 20
49.2010790461031
  0
LWPOLYLINE
  5
20170
100
AcDbEntity
  8
0
100
AcDbPolyline
 70
0
 90
15
 10
16.6232200743144
 20
49.1695554796476
 10
16.6230453636956
 20
49.1695397981121
 10
16.622977258871
 20
49.1695336851395
 10
16.6228326068284
 20
49.1695079534524
 10
16.6227416762031
 20
49.1694921788169
 10
16.6226109443886
 20
49.1694727602138
 10
16.6227214969316
 20
49.169240642237
 10
16.6227812403876
 20
49.169108962366
 10
16.622807623582
 20
49.1690405239116
 10
16.6228360267164
 20
49.1689417753749
 10
16.6228575464422
 20
49.1688348227018
 10
16.6228659571202
 20
49.168812633957
 10
16.6228742346378
 20
49.1687977078276
 10
16.6228899630956
 20
49.168782432506
 10
16.6229204648144
 20
49.1687695032266
  0
LWPOLYLINE
  5
20171
100
AcDbEntity
  8
0
100
AcDbPolyline
 70
0
 90
28
 10
16.6057480857441
 20
49.1924411414067
 10
16.6057799465104
 20
49.1924538014398
 10
16.6058198596116
 20
49.1924611529458
 10
16.6058615167609
 20
49.1924654622989
 10
16.6059408350673
 20
49.192464843172
 10
16.6062443420956
 20
49.1924537926362
 10
16.6066139807744
 20
49.1924442624541
 10
16.6067642689602
 20
49.19244342641
 10
16.6067911380257
 20
49.1924453306324
 10
16.6068367037203
 20
49.1924485598784
 10
16.6069117978908
 20
49.1924584947191
 10
16.6069931654251
 20
49.192472221646
 10
16.6071242704915
 20
49.192498154675
 10
16.6072976315574
 20
49.1925264498117
 10
16.60731231471
 20
49.1925278349577
 10
16.6074443963897
 20
49.1925402874135
 10
16.6075719898897
 20
49.1925498718839
 10
16.6076599759081
 20
49.1925561068309
 10
16.6078268675302
 20
49.1925575313384
 10
16.6078283904862
 20
49.1925574683064
 10
16.6079025987132
 20
49.1925543954206
 10
16.6079371425825
 20
49.1925526427177
 10
16.6079911121356
 20
49.1925499039537
 10
16.6080967693088
 20
49.1925435519118
 10
16.608144770351
 20
49.1925406940674
 10
16.6081914257788
 20
49.192528424526
 10
16.6082215988767
 20
49.1925145076851
 10
16.6082318180679
 20
49.192508276203
  0
LWPOLYLINE
  5
20172
100
AcDbEntity
  8
0
100
AcDbPolyline
 70
0
 90
5
 10
16.6082497127241
 20
49.189757409497
 10
16.6081864692105
 20
49.1897066176358
 10
16.6080618037111
 20
49.1896090522046
 10
16.6079061051955
 20
49.1894904738839
 10
16.6077545621411
 20
49.1893759886765
  0
LWPOLYLINE
  5
20173
100
AcDbEntity
  8
0
100
AcDbPolyline
 70
0
 90
3
 10
16.6072815610349
 20
49.1935856100942
 10
16.6074378588557
 20
49.1934744338643
 10
16.6075902435337
 20
49.1933345879626
  0
LWPOLYLINE
  5
20174
100
AcDbEntity
  8
0
100
AcDbPolyline
 70
0
 90
3
 10
16.5880311726613
 20
49.218137750167
 10
16.5888198090536
 20
49.2183564953997
 10
16.5899005799392
 20
49.2186529737821
  0
LWPOLYLINE
  5
20175
100
AcDbEntity
  8
0
100
AcDbPolyline
 70
0
 90
2
 10
16.587388889229
 20
49.2180728957732
 10
16.5872116642701
 20
49.2180218879559
  0
LWPOLYLINE
  5
20176
100
AcDbEntity
  8
0
100
AcDbPolyline
 70
0
 90
4
 10
16.5869582409024
 20
49.2178347296132
 10
16.5870046265129
 20
49.2178731151675
 10
16.5872145381377
 20
49.2179315376489
 10
16.5873586422955
 20
49.2179701291729
  0
LWPOLYLINE
  5
20177
100
AcDbEntity
  8
0
100
AcDbPolyline
 70
0
 90
15
 10
16.6321151916594
 20
49.2086713302215
 10
16.6322488362524
 20
49.2086907902677
 10
16.6327046984492
 20
49.2087467099927
 10
16.6329979023154
 20
49.2087913549498
 10
16.6332428723146
 20
49.2089092301061
 10
16.6334849079811
 20
49.2089170377409
 10
16.6339152440713
 20
49.2089607775938
 10
16.6341705945539
 20
49.2089484173758
 10
16.6344930479774
 20
49.2089695562337
 10
16.6347899713518
 20
49.2090225376914
 10
16.6351096811994
 20
49.2090683772704
 10
16.6355072005432
 20
49.2091287064581
 10
16.6355879891252
 20
49.209158739658
 10
16.635637223829
 20
49.2092043631715
 10
16.6356709917449
 20
49.2092573650818
  0
LWPOLYLINE
  5
20178
100
AcDbEntity
  8
0
100
AcDbPolyline
 70
0
 90
16
 10
16.5995542053365
 20
49.2036630561987
 10
16.5998852632433
 20
49.2033778252437
 10
16.6003514951488
 20
49.2029761812801
 10
16.6006179654126
 20
49.2027459757542
 10
16.6009538205382
 20
49.2024550225395
 10
16.6011707919504
 20
49.2022670742586
 10
16.6013136770109
 20
49.2021432482271
 10
16.6016274433618
 20
49.2018765057986
 10
16.6019234897257
 20
49.2016234307323
 10
16.6019734943332
 20
49.2015805749417
 10
16.6020252358414
 20
49.2015363950724
 10
16.6021150477333
 20
49.2014581009797
 10
16.6024070219867
 20
49.2012037413469
 10
16.6025210176712
 20
49.2011043680525
 10
16.6026683576556
 20
49.2009819420354
 10
16.6028183813182
 20
49.2008599774845
  0
LWPOLYLINE
  5
20179
100
AcDbEntity
  8
0
100
AcDbPolyline
 70
0
 90
22
 10
16.5763903987399
 20
49.2263387584972
 10
16.5764106955266
 20
49.2263021204585
 10
16.5764557420961
 20
49.2262628096048
 10
16.5764847162709
 20
49.226242979576
 10
16.5765108525833
 20
49.2262186060418
 10
16.5765266224485
 20
49.2261876161114
 10
16.5767150048958
 20
49.2261967561995
 10
16.5770246672582
 20
49.2262399343325
 10
16.5771952309886
 20
49.226259927761
 10
16.5773425529208
 20
49.2262609923251
 10
16.5774579964086
 20
49.2262485746146
 10
16.5775342666395
 20
49.2262300256646
 10
16.5776536873349
 20
49.2261877695191
 10
16.5776910688644
 20
49.2261622050666
 10
16.5777457031235
 20
49.226128369276
 10
16.5777971183896
 20
49.2260856211586
 10
16.578305142404
 20
49.2254225251595
 10
16.5792485795034
 20
49.2241217421226
 10
16.5793696981397
 20
49.2239233023886
 10
16.5793841723996
 20
49.2238642701593
 10
16.579379179458
 20
49.2238168797297
 10
16.5793586675597
 20
49.2237673009967
  0
LWPOLYLINE
  5
2017A
100
AcDbEntity
  8
0
100
AcDbPolyline
 70
0
 90
9
 10
16.5793586675597
 20
49.2237673009967
 10
16.5795283107197
 20
49.2236710843631
 10
16.57958345698
 20
49.2236066207701
 10
16.5796070346617
 20
49.2235493208972
 10
16.579606522937
 20
49.2234657059041
 10
16.5795961691674
 20
49.2234315024901
 10
16.5795785536884
 20
49.2233936171684
 10
16.5795480519851
 20
49.2233559919772
 10
16.5794753617972
 20
49.2232929362784
  0
LWPOLYLINE
  5
2017B
100
AcDbEntity
  8
0
100
AcDbPolyline
 70
0
 90
5
 10
16.6086346397915
 20
49.1900136345126
 10
16.6085044838884
 20
49.1899385617291
 10
16.6084324760564
 20
49.1898896409004
 10
16.6083151915562
 20
49.1898099606721
 10
16.6082496945122
 20
49.1897574027794
  0
LWPOLYLINE
  5
2017C
100
AcDbEntity
  8
0
100
AcDbPolyline
 70
0
 90
3
 10
16.6081648803455
 20
49.1893146157991
 10
16.6083351998491
 20
49.1894533147433
 10
16.6084933545273
 20
49.1895821063924
  0
LWPOLYLINE
  5
2017D
100
AcDbEntity
  8
0
100
AcDbPolyline
 70
0
 90
13
 10
16.6053317036767
 20
49.1992278833471
 10
16.6052624900477
 20
49.1992935950209
 10
16.6051116518961
 20
49.1994111880129
 10
16.6049570795586
 20
49.1995316900862
 10
16.6047097363458
 20
49.1997245144674
 10
16.6045870595657
 20
49.1998162370802
 10
16.6042543200469
 20
49.2000321192581
 10
16.6040349054686
 20
49.2001564026395
 10
16.6037627422001
 20
49.2003035190476
 10
16.6035703973032
 20
49.2004074896825
 10
16.6033229381813
 20
49.2005488472553
 10
16.6031630557616
 20
49.2006401779789
 10
16.6029453952831
 20
49.2007645116487
  0
LWPOLYLINE
  5
2017E
100
AcDbEntity
  8
0
100
AcDbPolyline
 70
0
 90
2
 10
16.5980997750871
 20
49.2049117248614
 10
16.5978392206506
 20
49.2051350029491
  0
LWPOLYLINE
  5
2017F
100
AcDbEntity
  8
0
100
AcDbPolyline
 70
0
 90
5
 10
16.5870539679414
 20
49.2180143005349
 10
16.5867789922245
 20
49.2179424258432
 10
16.5865927832356
 20
49.2178948685527
 10
16.5863875706422
 20
49.2178424573371
 10
16.5858719904052
 20
49.2177107762464
  0
LWPOLYLINE
  5
20180
100
AcDbEntity
  8
0
100
AcDbPolyline
 70
0
 90
2
 10
16.5868969612664
 20
49.217794208471
 10
16.5860019965221
 20
49.2175325163173
  0
LWPOLYLINE
  5
20181
100
AcDbEntity
  8
0
100
AcDbPolyline
 70
0
 90
3
 10
16.5899005799392
 20
49.2186529737821
 10
16.5913005324438
 20
49.2190341321922
 10
16.5922491191798
 20
49.219287454551
  0
LWPOLYLINE
  5
20182
100
AcDbEntity
  8
0
100
AcDbPolyline
 70
0
 90
7
 10
16.5721869400366
 20
49.1930533671033
 10
16.5727922376892
 20
49.1928453449355
 10
16.5731694883298
 20
49.1927200482641
 10
16.5747105042639
 20
49.1922112688883
 10
16.5749499648231
 20
49.1921203949836
 10
16.575391367611
 20
49.1919151721469
 10
16.57553493968
 20
49.1918490181681
  0
LWPOLYLINE
  5
20183
100
AcDbEntity
  8
0
100
AcDbPolyline
 70
0
 90
11
 10
16.5754244367065
 20
49.1921750284375
 10
16.5752857060195
 20
49.1922267453728
 10
16.5748995275021
 20
49.192346959361
 10
16.5737688171256
 20
49.1927216701937
 10
16.5732392707681
 20
49.192898955895
 10
16.5724058129238
 20
49.1931779800378
 10
16.5722244455892
 20
49.1932342586259
 10
16.5721298057629
 20
49.193263625032
 10
16.5718437318261
 20
49.1933600406452
 10
16.5716144521696
 20
49.1934393805948
 10
16.571172085327
 20
49.1935924540977
  0
LWPOLYLINE
  5
20184
100
AcDbEntity
  8
0
100
AcDbPolyline
 70
0
 90
5
 10
16.5681932083684
 20
49.1803470744815
 10
16.5689826020857
 20
49.1802979922243
 10
16.569506363709
 20
49.1802216118991
 10
16.5695993458058
 20
49.1801672045181
 10
16.5697509640886
 20
49.1801444954676
  0
LWPOLYLINE
  5
20185
100
AcDbEntity
  8
0
100
AcDbPolyline
 70
0
 90
4
 10
16.5675162867135
 20
49.1803012513126
 10
16.5675243867396
 20
49.180323966306
 10
16.5676331831129
 20
49.1803724018988
 10
16.56805064833
 20
49.1803536735753
  0
LWPOLYLINE
  5
20186
100
AcDbEntity
  8
0
100
AcDbPolyline
 70
0
 90
8
 10
16.6012569383644
 20
49.1829449277546
 10
16.6013404416502
 20
49.183030277492
 10
16.6015518288675
 20
49.1832503139273
 10
16.6018711790907
 20
49.1835862986903
 10
16.6020991906153
 20
49.1838238480504
 10
16.602124889464
 20
49.1838895462233
 10
16.6021408712508
 20
49.1839304029896
 10
16.6023757847151
 20
49.1841739403894
  0
LWPOLYLINE
  5
20187
100
AcDbEntity
  8
0
100
AcDbPolyline
 70
0
 90
28
 10
16.6059752660486
 20
49.1633001555014
 10
16.6060001418182
 20
49.1633083054741
 10
16.6060459827258
 20
49.1633271591647
 10
16.6060995277461
 20
49.1633566715583
 10
16.6061517072483
 20
49.163376807014
 10
16.6062746350454
 20
49.1634769710124
 10
16.6063194763311
 20
49.1635135084445
 10
16.606328998295
 20
49.1635465573683
 10
16.6063542290339
 20
49.1636341282421
 10
16.6063993352795
 20
49.1637906822585
 10
16.6064127767295
 20
49.1638373344275
 10
16.6064633651076
 20
49.1639390983054
 10
16.6064842989324
 20
49.1639561194463
 10
16.6065671644178
 20
49.164006867695
 10
16.6066104151637
 20
49.1640333551307
 10
16.6067189818953
 20
49.1640722547554
 10
16.6068484982437
 20
49.1640923269719
 10
16.6069016868245
 20
49.1640967043775
 10
16.6070302586962
 20
49.164098918952
 10
16.6075906633694
 20
49.1640815172974
 10
16.6077156409379
 20
49.1640846037995
 10
16.6079167410185
 20
49.1641048302472
 10
16.607990118155
 20
49.164113265567
 10
16.6081017707518
 20
49.1641261008782
 10
16.6082203655836
 20
49.1641632282763
 10
16.6082815210973
 20
49.164179385922
 10
16.6087181623621
 20
49.1643098913719
 10
16.6088170759088
 20
49.1643372866128
  0
LWPOLYLINE
  5
20188
100
AcDbEntity
  8
0
100
AcDbPolyline
 70
0
 90
4
 10
16.6287826429879
 20
49.1982880082245
 10
16.62921276548
 20
49.1982572733591
 10
16.6292497822326
 20
49.1984617659876
 10
16.6297979709867
 20
49.198433390665
  0
LWPOLYLINE
  5
20189
100
AcDbEntity
  8
0
100
AcDbPolyline
 70
0
 90
3
 10
16.6225772628109
 20
49.1748954601335
 10
16.622686975129
 20
49.1749580006487
 10
16.6228434457639
 20
49.174998540874
  0
LWPOLYLINE
  5
2018A
100
AcDbEntity
  8
0
100
AcDbPolyline
 70
0
 90
6
 10
16.6143222815319
 20
49.1946711414923
 10
16.6144469335268
 20
49.1946977672775
 10
16.6145423253409
 20
49.1947614947715
 10
16.6147634836387
 20
49.1951990965823
 10
16.6146662971692
 20
49.1953432786795
 10
16.6145408558453
 20
49.1954890344593
  0
LWPOLYLINE
  5
2018B
100
AcDbEntity
  8
0
100
AcDbPolyline
 70
0
 90
3
 10
16.5756194342659
 20
49.1918035296382
 10
16.5759439331291
 20
49.191659424612
 10
16.5764622339688
 20
49.1914741059798
  0
LWPOLYLINE
  5
2018C
100
AcDbEntity
  8
0
100
AcDbPolyline
 70
0
 90
41
 10
16.6321206097221
 20
49.2085989287657
 10
16.6321449842089
 20
49.2085289279506
 10
16.6321457101821
 20
49.2084025983305
 10
16.6321443966047
 20
49.2082815333651
 10
16.6321377104381
 20
49.2081357317113
 10
16.6321177879964
 20
49.2080775152239
 10
16.6320755094373
 20
49.2080153953256
 10
16.6319285116317
 20
49.2078260648467
 10
16.6318005527495
 20
49.2076608894239
 10
16.6316781159185
 20
49.2075123299355
 10
16.6315820330188
 20
49.2073756803008
 10
16.6314786207157
 20
49.2072420583575
 10
16.6313847065449
 20
49.2071194090374
 10
16.6312747749315
 20
49.206971460878
 10
16.6311476763081
 20
49.2068104794809
 10
16.6310578477952
 20
49.2066919614459
 10
16.630956075645
 20
49.2065480442631
 10
16.6308819503444
 20
49.2064500460336
 10
16.6307432466551
 20
49.2062757074012
 10
16.6306338654877
 20
49.2061438153439
 10
16.6305346728453
 20
49.2060046211631
 10
16.6304066037776
 20
49.2058339627714
 10
16.6303742259308
 20
49.2057901766792
 10
16.6303645903754
 20
49.2057771427613
 10
16.6303313063323
 20
49.2057295861249
 10
16.6301596675851
 20
49.2055054442627
 10
16.63003033847
 20
49.2053378446932
 10
16.6299861227167
 20
49.2053018706406
 10
16.6299498355652
 20
49.2052714855571
 10
16.6292359122584
 20
49.2043455010833
 10
16.6292284420927
 20
49.2043127198914
 10
16.6292226748534
 20
49.204295760609
 10
16.6290149689327
 20
49.2039466117414
 10
16.6289338571836
 20
49.2038344876598
 10
16.6288069612734
 20
49.2036788251606
 10
16.6287070707194
 20
49.2035761714775
 10
16.6285459429591
 20
49.2034105843818
 10
16.6282825128988
 20
49.2031481237897
 10
16.6282261575988
 20
49.2030988816229
 10
16.6282065623233
 20
49.2030871162681
 10
16.62819946881
 20
49.2030828560076
  0
LWPOLYLINE
  5
2018D
100
AcDbEntity
  8
0
100
AcDbPolyline
 70
0
 90
2
 10
16.5933137239388
 20
49.199506062044
 10
16.5931311862336
 20
49.2000643485291
  0
LWPOLYLINE
  5
2018E
100
AcDbEntity
  8
0
100
AcDbPolyline
 70
0
 90
12
 10
16.6947855191938
 20
49.2088907126411
 10
16.6947972142665
 20
49.208887731955
 10
16.6948974267141
 20
49.2088649096548
 10
16.6950705229117
 20
49.2088361610012
 10
16.6952288621971
 20
49.2088132513788
 10
16.6953098446248
 20
49.2088008382531
 10
16.6953464948367
 20
49.2087936390208
 10
16.6953800929601
 20
49.2087831510109
 10
16.6954129736464
 20
49.2087694473777
 10
16.6954514380268
 20
49.208749442545
 10
16.6955105710554
 20
49.2087068293356
 10
16.6955438930372
 20
49.2086785318029
  0
LWPOLYLINE
  5
2018F
100
AcDbEntity
  8
0
100
AcDbPolyline
 70
0
 90
6
 10
16.611886891073
 20
49.2105235427457
 10
16.6121774291488
 20
49.2103055078065
 10
16.6128019580136
 20
49.2098210469287
 10
16.6128250991798
 20
49.2098004347057
 10
16.6128398716944
 20
49.209776154778
 10
16.6129213099203
 20
49.2096180264498
  0
LWPOLYLINE
  5
20190
100
AcDbEntity
  8
0
100
AcDbPolyline
 70
0
 90
8
 10
16.6019915798749
 20
49.2047750341849
 10
16.6020487070052
 20
49.2047581991769
 10
16.6021052407025
 20
49.2047332538952
 10
16.6021355050598
 20
49.2047118190214
 10
16.6021662078399
 20
49.2046877288454
 10
16.6041343104144
 20
49.2029641624045
 10
16.6042793157568
 20
49.2028596497684
 10
16.6043292978466
 20
49.2028194416147
  0
LWPOLYLINE
  5
20191
100
AcDbEntity
  8
0
100
AcDbPolyline
 70
0
 90
6
 10
16.6006818630138
 20
49.2059291075292
 10
16.6009373609795
 20
49.2056244648609
 10
16.6011243647266
 20
49.2054115974391
 10
16.6012826012312
 20
49.2052057352705
 10
16.6016082376382
 20
49.204900668174
 10
16.601653593748
 20
49.2048658629586
  0
LWPOLYLINE
  5
20192
100
AcDbEntity
  8
0
100
AcDbPolyline
 70
0
 90
2
 10
16.5992745447426
 20
49.2077603865293
 10
16.5999648038662
 20
49.2067893974844
  0
LWPOLYLINE
  5
20193
100
AcDbEntity
  8
0
100
AcDbPolyline
 70
0
 90
3
 10
16.598382318876
 20
49.2092236613183
 10
16.5988503943841
 20
49.2084482280477
 10
16.5990701805337
 20
49.2080923448755
  0
LWPOLYLINE
  5
20194
100
AcDbEntity
  8
0
100
AcDbPolyline
 70
0
 90
2
 10
16.5978731922271
 20
49.2100581428279
 10
16.5982591302966
 20
49.2094057986356
  0
LWPOLYLINE
  5
20195
100
AcDbEntity
  8
0
100
AcDbPolyline
 70
0
 90
3
 10
16.5972711419355
 20
49.2110419264438
 10
16.5973152740244
 20
49.2109670345097
 10
16.5977831362346
 20
49.2101694097441
  0
LWPOLYLINE
  5
20196
100
AcDbEntity
  8
0
100
AcDbPolyline
 70
0
 90
2
 10
16.5968598940117
 20
49.2117256593349
 10
16.5971948027286
 20
49.2111768239603
  0
LWPOLYLINE
  5
20197
100
AcDbEntity
  8
0
100
AcDbPolyline
 70
0
 90
4
 10
16.5858332475494
 20
49.2177659049679
 10
16.5860019965221
 20
49.2175325163173
 10
16.5863292119967
 20
49.2170616287718
 10
16.5866047973338
 20
49.2166798316435
  0
LWPOLYLINE
  5
20198
100
AcDbEntity
  8
0
100
AcDbPolyline
 70
0
 90
46
 10
16.6286983112336
 20
49.1886451159874
 10
16.6287133254766
 20
49.1886183900538
 10
16.6287477808352
 20
49.1885481963632
 10
16.6287683745219
 20
49.1884993669601
 10
16.6287833031675
 20
49.1884639683204
 10
16.6288094295003
 20
49.1883823322358
 10
16.6288341583013
 20
49.1882720341404
 10
16.6288431256438
 20
49.1882320390934
 10
16.6289064602735
 20
49.1879628225261
 10
16.6289514456566
 20
49.1877627863496
 10
16.6289727734064
 20
49.1876679485911
 10
16.6289821399255
 20
49.1876235715547
 10
16.6290003689192
 20
49.1875371931773
 10
16.6290024247567
 20
49.1875274480882
 10
16.6290366237288
 20
49.1873653934655
 10
16.6291095904225
 20
49.187037614816
 10
16.6291742514213
 20
49.1867462429103
 10
16.6291885386194
 20
49.1866818585417
 10
16.6292979000341
 20
49.186171416533
 10
16.6293636564914
 20
49.1858687248215
 10
16.6293871478283
 20
49.1857605823638
 10
16.6295186674829
 20
49.1851548376476
 10
16.6295542348182
 20
49.1849912887996
 10
16.6296387534957
 20
49.1846026435484
 10
16.6297471890372
 20
49.1841140216558
 10
16.629751792332
 20
49.184093275549
 10
16.629804064879
 20
49.1838224631315
 10
16.6298340513487
 20
49.1836401608747
 10
16.6299218901557
 20
49.1832354635085
 10
16.6299337599962
 20
49.1831807724569
 10
16.6299822324195
 20
49.1829322127986
 10
16.6300274653462
 20
49.1827117341277
 10
16.6300807217388
 20
49.1824810593535
 10
16.6301352190198
 20
49.1822654865105
 10
16.6302818217687
 20
49.1816258049548
 10
16.6305344723054
 20
49.18052501238
 10
16.6305358604505
 20
49.1805184761985
 10
16.6305387915168
 20
49.180504664064
 10
16.6305388021847
 20
49.1805046159766
 10
16.6308120458854
 20
49.1792172295274
 10
16.6310403732926
 20
49.1781433896913
 10
16.631167092514
 20
49.1775338689649
 10
16.6311670118943
 20
49.1775024781385
 10
16.6311646014342
 20
49.1774750705454
 10
16.6311320972631
 20
49.1771055490876
 10
16.6311094951345
 20
49.1768485905696
  0
LWPOLYLINE
  5
20199
100
AcDbEntity
  8
0
100
AcDbPolyline
 70
0
 90
24
 10
16.628102781933
 20
49.1907979984809
 10
16.628143699544
 20
49.1906571465512
 10
16.6281711991543
 20
49.1905677232663
 10
16.6282021727263
 20
49.190466999042
 10
16.6282436086486
 20
49.1903401361397
 10
16.6282775832
 20
49.1902334582481
 10
16.6283114693384
 20
49.1901273167892
 10
16.6283144823619
 20
49.1901170143673
 10
16.6283446077668
 20
49.1900139771445
 10
16.6283764661375
 20
49.1898651568206
 10
16.6283834051271
 20
49.1898327380713
 10
16.6283994806726
 20
49.1897576390982
 10
16.6284193816823
 20
49.1896299775794
 10
16.6284309456465
 20
49.1895169218967
 10
16.6284344909174
 20
49.1894215697574
 10
16.6284328794317
 20
49.1893466559787
 10
16.6284238297311
 20
49.1892750152117
 10
16.6284071565244
 20
49.189196677922
 10
16.6284022720885
 20
49.1891737280864
 10
16.6283757328116
 20
49.1890674769126
 10
16.628361229815
 20
49.1889836916082
 10
16.6283606401231
 20
49.1889377931646
 10
16.6283613342414
 20
49.1889124563968
 10
16.62836183076
 20
49.1888943423466
  0
LWPOLYLINE
  5
2019A
100
AcDbEntity
  8
0
100
AcDbPolyline
 70
0
 90
4
 10
16.548348851879
 20
49.1799519787549
 10
16.5476066461054
 20
49.1798039229517
 10
16.5471421446197
 20
49.1797052379537
 10
16.5466994250278
 20
49.1796087920287
  0
LWPOLYLINE
  5
2019B
100
AcDbEntity
  8
0
100
AcDbPolyline
 70
0
 90
16
 10
16.6283641831314
 20
49.1933877939964
 10
16.6283538967249
 20
49.1933229941586
 10
16.6283523913562
 20
49.1932923889632
 10
16.6283604369316
 20
49.1932314173499
 10
16.6283635475586
 20
49.1932077329187
 10
16.6283619382852
 20
49.1931750753679
 10
16.6283588471238
 20
49.1931433722133
 10
16.628342041654
 20
49.1930363937295
 10
16.6282283775009
 20
49.1923128444971
 10
16.6281633785622
 20
49.1918797066359
 10
16.6281421469235
 20
49.1917382252188
 10
16.6281349684587
 20
49.19171584767
 10
16.6280876813288
 20
49.1915939559861
 10
16.6280777061455
 20
49.1915734791208
 10
16.6280708300254
 20
49.191545406668
 10
16.6280463871684
 20
49.1913646114255
  0
LWPOLYLINE
  5
2019C
100
AcDbEntity
  8
0
100
AcDbPolyline
 70
0
 90
2
 10
16.6397121470051
 20
49.1889595314877
 10
16.6404919315629
 20
49.1887971392273
  0
LWPOLYLINE
  5
2019D
100
AcDbEntity
  8
0
100
AcDbPolyline
 70
0
 90
3
 10
16.6563462648185
 20
49.1855410151861
 10
16.6576251463113
 20
49.1852899996614
 10
16.659200536924
 20
49.1849720237712
  0
LWPOLYLINE
  5
2019E
100
AcDbEntity
  8
0
100
AcDbPolyline
 70
0
 90
21
 10
16.610196595028
 20
49.1994553363136
 10
16.6101770811665
 20
49.199431418656
 10
16.6101727261725
 20
49.1994235124349
 10
16.6101703218565
 20
49.1994180056178
 10
16.6099506827584
 20
49.1991614365198
 10
16.6100189625147
 20
49.199133829634
 10
16.6102089327308
 20
49.1990570205855
 10
16.6103989009937
 20
49.1989802111266
 10
16.6105888698847
 20
49.1989034023446
 10
16.6106182297957
 20
49.1988915309211
 10
16.6107791710986
 20
49.1988245663402
 10
16.6109695342629
 20
49.1987453590864
 10
16.611159895307
 20
49.1986661523149
 10
16.6113869316834
 20
49.1985716852612
 10
16.6113970887858
 20
49.198567458831
 10
16.6115989852364
 20
49.1984834505755
 10
16.6120296369087
 20
49.1983042571251
 10
16.6122404846917
 20
49.1982165230459
 10
16.6122897400352
 20
49.198196027506
 10
16.612662178166
 20
49.1980410528335
 10
16.6129574243914
 20
49.1979181965329
  0
LWPOLYLINE
  5
2019F
100
AcDbEntity
  8
0
100
AcDbPolyline
 70
0
 90
39
 10
16.6611085031374
 20
49.2257475100374
 10
16.6611609335877
 20
49.2257337628179
 10
16.6612386832543
 20
49.2257080964398
 10
16.6612691138586
 20
49.2256980508677
 10
16.6613476105357
 20
49.2256131012681
 10
16.6613799159539
 20
49.2255781404113
 10
16.6614233551578
 20
49.2255157709168
 10
16.6614915160134
 20
49.2254179079698
 10
16.6614969526844
 20
49.2254101008385
 10
16.6615853439578
 20
49.2253218495981
 10
16.6616425898677
 20
49.2252646939137
 10
16.6616756548178
 20
49.2252255446787
 10
16.6617574934947
 20
49.2251286428595
 10
16.6617745348355
 20
49.225108465503
 10
16.6618025944587
 20
49.2250710814197
 10
16.6619445058844
 20
49.2248820151713
 10
16.6621701585487
 20
49.2246435634191
 10
16.6622795611809
 20
49.2245641625952
 10
16.6624792545916
 20
49.2244284358887
 10
16.6626502664012
 20
49.2242910262268
 10
16.6628138663058
 20
49.2241595707381
 10
16.6629923372523
 20
49.2240816808436
 10
16.6630421203159
 20
49.2240694452359
 10
16.6632109115974
 20
49.2240497521843
 10
16.6634849439958
 20
49.2240602518068
 10
16.663574474499
 20
49.2240683571305
 10
16.6637338895217
 20
49.2241067009186
 10
16.6638660027107
 20
49.2241431244793
 10
16.6639571399466
 20
49.2241725963975
 10
16.6640472530332
 20
49.2242032624052
 10
16.6641639140847
 20
49.2242606668353
 10
16.6642104951477
 20
49.2242881809914
 10
16.6643461508409
 20
49.2243771286089
 10
16.6644363319732
 20
49.2244545576293
 10
16.6646474133393
 20
49.2246469383377
 10
16.6647357843886
 20
49.2247312038135
 10
16.6648100203381
 20
49.2248039840044
 10
16.6648751853726
 20
49.2248807252908
 10
16.6648763417594
 20
49.224882086357
  0
LWPOLYLINE
  5
201A0
100
AcDbEntity
  8
0
100
AcDbPolyline
 70
0
 90
9
 10
16.6581618326317
 20
49.1337248884635
 10
16.6587098956006
 20
49.1341305949232
 10
16.6609529496399
 20
49.1355289494618
 10
16.6642663244074
 20
49.1376058246211
 10
16.6644369366906
 20
49.1379446239523
 10
16.6644845140255
 20
49.1384663783681
 10
16.664434633265
 20
49.1389254641244
 10
16.6647809702255
 20
49.1392678584705
 10
16.6649979259775
 20
49.1393977859491
  0
LWPOLYLINE
  5
201A1
100
AcDbEntity
  8
0
100
AcDbPolyline
 70
0
 90
54
 10
16.6265737704238
 20
49.1415655164465
 10
16.6265550926326
 20
49.1414912934404
 10
16.6265406856131
 20
49.1414255826457
 10
16.6265311428694
 20
49.1413820556964
 10
16.6264739064627
 20
49.1411205896585
 10
16.6264631695437
 20
49.1410668271858
 10
16.6264519949077
 20
49.14103501263
 10
16.6264406570204
 20
49.1410100605772
 10
16.6264394375986
 20
49.1410077592018
 10
16.6264266631809
 20
49.1409836542821
 10
16.6264032318556
 20
49.1409526003564
 10
16.6263803361316
 20
49.1409258353925
 10
16.6263495873858
 20
49.1408965247848
 10
16.6263130388902
 20
49.1408697884904
 10
16.626267654083
 20
49.1408406178433
 10
16.6261531293153
 20
49.140771640859
 10
16.6260794832644
 20
49.1407265409244
 10
16.6260226743926
 20
49.1406980992397
 10
16.6259840924023
 20
49.1406795401303
 10
16.6259480233347
 20
49.1406641436524
 10
16.6258656274371
 20
49.1406311774714
 10
16.6257103701217
 20
49.140583557154
 10
16.625659293661
 20
49.1405697213701
 10
16.6256318671145
 20
49.1405604538331
 10
16.6256028228181
 20
49.1405484487858
 10
16.6255759442016
 20
49.1405366874649
 10
16.6255743547245
 20
49.1405358739879
 10
16.6255505125732
 20
49.1405236718308
 10
16.6255060247764
 20
49.1404982726981
 10
16.6254742330124
 20
49.140475309802
 10
16.6254598836365
 20
49.1404628072097
 10
16.6254493431208
 20
49.1404522927276
 10
16.6254339278837
 20
49.1404353731709
 10
16.6254175536546
 20
49.1404142251118
 10
16.625403092904
 20
49.1403881473845
 10
16.6253922645944
 20
49.1403651306615
 10
16.625383803814
 20
49.1403402916524
 10
16.625379746167
 20
49.1403213720978
 10
16.6253698847808
 20
49.1402606164273
 10
16.6253508236615
 20
49.1401093935179
 10
16.6253328567605
 20
49.1399668424428
 10
16.6253234461746
 20
49.1398773561064
 10
16.6253020920292
 20
49.1396952853613
 10
16.6252863706805
 20
49.1395612379597
 10
16.6252360596137
 20
49.1391688394299
 10
16.6251708534995
 20
49.1388351727893
 10
16.6251553510487
 20
49.1387666073089
 10
16.6250749218993
 20
49.1384108725846
 10
16.6250627647626
 20
49.1383563869953
 10
16.6249878602786
 20
49.1380206659489
 10
16.6249053279774
 20
49.1376808881626
 10
16.6248366238658
 20
49.1373660968492
 10
16.6248366151984
 20
49.1373660573428
 10
16.6248363029984
 20
49.1373640996463
  0
LWPOLYLINE
  5
201A2
100
AcDbEntity
  8
0
100
AcDbPolyline
 70
0
 90
8
 10
16.592940091102
 20
49.2007793211891
 10
16.5929137579297
 20
49.2009074889885
 10
16.5928238318506
 20
49.2014515044124
 10
16.5927746541072
 20
49.2019627742084
 10
16.592754284239
 20
49.2021352669137
 10
16.5927519796381
 20
49.2024915733309
 10
16.5927825404525
 20
49.2027275600252
 10
16.5927900844293
 20
49.2027636836624
  0
LWPOLYLINE
  5
201A3
100
AcDbEntity
  8
0
100
AcDbPolyline
 70
0
 90
4
 10
16.595665250025
 20
49.192888477221
 10
16.5953162811347
 20
49.1938304854098
 10
16.5946255787573
 20
49.1956938914017
 10
16.5944506124802
 20
49.1961639582478
  0
LWPOLYLINE
  5
201A4
100
AcDbEntity
  8
0
100
AcDbPolyline
 70
0
 90
2
 10
16.5963490483638
 20
49.2125960548163
 10
16.5967415191695
 20
49.2119338425048
  0
LWPOLYLINE
  5
201A5
100
AcDbEntity
  8
0
100
AcDbPolyline
 70
0
 90
4
 10
16.6424644513821
 20
49.2020593606491
 10
16.6426012637965
 20
49.2020320430179
 10
16.6426600020074
 20
49.2021079776032
 10
16.6431846935306
 20
49.2022885309817
  0
LWPOLYLINE
  5
201A6
100
AcDbEntity
  8
0
100
AcDbPolyline
 70
0
 90
18
 10
16.5603383235836
 20
49.2159720198486
 10
16.5602175003693
 20
49.2155976018699
 10
16.5601375681251
 20
49.2153789426716
 10
16.5600576367347
 20
49.2151602825167
 10
16.5600219093391
 20
49.2150625441448
 10
16.5599777046849
 20
49.2149416222018
 10
16.5598977759213
 20
49.2147229629128
 10
16.5596631594035
 20
49.2140673500134
 10
16.5595845666299
 20
49.2138368679212
 10
16.559393681366
 20
49.2133268069964
 10
16.5593422451281
 20
49.2131893658185
 10
16.559316762783
 20
49.2131212757557
 10
16.5593126046537
 20
49.2131025183287
 10
16.5592536070696
 20
49.2128363623373
 10
16.5592774335141
 20
49.2126465072196
 10
16.5593780349299
 20
49.212284682629
 10
16.5594330364166
 20
49.2120831408161
 10
16.559498890285
 20
49.2120037254283
  0
LWPOLYLINE
  5
201A7
100
AcDbEntity
  8
0
100
AcDbPolyline
 70
0
 90
8
 10
16.560336721733
 20
49.2162249607671
 10
16.5603092275588
 20
49.2163281785013
 10
16.5602939893658
 20
49.2164419718023
 10
16.5603033175879
 20
49.2165838417156
 10
16.5603416085969
 20
49.2167493148047
 10
16.5604047826542
 20
49.2169189538843
 10
16.5605335741609
 20
49.2171554935809
 10
16.5606046796777
 20
49.2172993710896
  0
LWPOLYLINE
  5
201A8
100
AcDbEntity
  8
0
100
AcDbPolyline
 70
0
 90
7
 10
16.6494650473803
 20
49.1869443210072
 10
16.6506663276745
 20
49.1866998774472
 10
16.6512535761262
 20
49.1865803746293
 10
16.6516260354727
 20
49.1865132942525
 10
16.651722779468
 20
49.1864958696866
 10
16.6521388862231
 20
49.1863985762154
 10
16.6533852558103
 20
49.1861396109433
  0
LWPOLYLINE
  5
201A9
100
AcDbEntity
  8
0
100
AcDbPolyline
 70
0
 90
47
 10
16.5927942198534
 20
49.1905343102971
 10
16.592698462593
 20
49.1905161240077
 10
16.592632528156
 20
49.1904992318649
 10
16.5925288800399
 20
49.1904635345185
 10
16.592463619862
 20
49.1905274003373
 10
16.592435667885
 20
49.190553238773
 10
16.5924008265993
 20
49.1905812654442
 10
16.5923539034502
 20
49.1906132553861
 10
16.5922998993748
 20
49.1906436661903
 10
16.5922418453911
 20
49.1906737894286
 10
16.5921829811558
 20
49.190701449998
 10
16.5921245544221
 20
49.190726471465
 10
16.592048037563
 20
49.1907571560835
 10
16.591984854339
 20
49.1907788919406
 10
16.591924859389
 20
49.1907960330564
 10
16.5918431984371
 20
49.1908159241052
 10
16.5917827675819
 20
49.1908266844761
 10
16.5916920036518
 20
49.190834602681
 10
16.5916154355458
 20
49.1908339508431
 10
16.5915325623938
 20
49.1908281115719
 10
16.5914486277272
 20
49.1908173395929
 10
16.5913545120363
 20
49.190799865739
 10
16.591199634005
 20
49.1907649344419
 10
16.5910583504338
 20
49.1907249893949
 10
16.5909429158281
 20
49.1906832887969
 10
16.5908385220838
 20
49.1906411690999
 10
16.590745920747
 20
49.1905939168809
 10
16.5905331732128
 20
49.1904782892655
 10
16.5899991110251
 20
49.1901693302769
 10
16.5898609515384
 20
49.1900954778306
 10
16.5897622211828
 20
49.1900451581283
 10
16.5896627969652
 20
49.1899991198989
 10
16.589551460896
 20
49.1899530957316
 10
16.5894145702497
 20
49.1899017920751
 10
16.5892943997176
 20
49.1898612094947
 10
16.5892203054792
 20
49.1898377567895
 10
16.589132132065
 20
49.1898115673193
 10
16.5890435207516
 20
49.1897879516977
 10
16.5889404018522
 20
49.1897641738612
 10
16.5886549424183
 20
49.1897029131493
 10
16.5883749667721
 20
49.1896452975126
 10
16.5880641745405
 20
49.1895862698765
 10
16.5879110245177
 20
49.1895622022336
 10
16.587776434511
 20
49.1895450700037
 10
16.5876119335245
 20
49.1895283905537
 10
16.5872856374945
 20
49.1895027035971
 10
16.5872533602394
 20
49.1895008165678
  0
LWPOLYLINE
  5
201AA
100
AcDbEntity
  8
0
100
AcDbPolyline
 70
0
 90
113
 10
16.6331191634079
 20
49.1535563351481
 10
16.6330929052703
 20
49.15355744549
 10
16.6330904212434
 20
49.1535575412223
 10
16.6330884605571
 20
49.1535575654157
 10
16.6330870260594
 20
49.1535573916457
 10
16.6330858515055
 20
49.1535571548501
 10
16.6330843783733
 20
49.1535565532472
 10
16.6330835595298
 20
49.1535559978997
 10
16.6330805771798
 20
49.153553335944
 10
16.6330689509253
 20
49.1535418503039
 10
16.6330524027976
 20
49.1535255757529
 10
16.6330318827194
 20
49.1535019202981
 10
16.6329271298521
 20
49.1534021228864
 10
16.6328769235073
 20
49.1533528524006
 10
16.6328630806552
 20
49.1533377377584
 10
16.6328469125944
 20
49.1533168853727
 10
16.6328348877756
 20
49.153298687478
 10
16.6328205699944
 20
49.1532745388546
 10
16.6328140748651
 20
49.1532603678708
 10
16.6328048948198
 20
49.1532327294231
 10
16.6328017453401
 20
49.1532181618393
 10
16.6327903069677
 20
49.1531248076196
 10
16.6327896841125
 20
49.1530947803472
 10
16.6327923991898
 20
49.1530782576621
 10
16.6327983643719
 20
49.1530598302016
 10
16.6328042041787
 20
49.1530441796501
 10
16.6328140052578
 20
49.1530262404549
 10
16.6328245947995
 20
49.1530115588323
 10
16.632838594742
 20
49.1529958430137
 10
16.6328588459292
 20
49.1529780004462
 10
16.6328772473962
 20
49.152965372532
 10
16.632892514337
 20
49.1529559600031
 10
16.6329078876282
 20
49.1529478302962
 10
16.632935826823
 20
49.1529348093938
 10
16.63295357987
 20
49.152928141319
 10
16.6329728370412
 20
49.152922221754
 10
16.6329949285263
 20
49.1529169276655
 10
16.6330150986383
 20
49.1529134242622
 10
16.6330355253685
 20
49.1529103731438
 10
16.633061989167
 20
49.1529071699601
 10
16.6334311072002
 20
49.1528852101679
 10
16.6334488628257
 20
49.1528823862063
 10
16.6334565908005
 20
49.1528785729711
 10
16.6334628439267
 20
49.1528729098452
 10
16.6334661926236
 20
49.1528671318433
 10
16.6334677023643
 20
49.1528599575809
 10
16.6334675198275
 20
49.1528444519951
 10
16.6334286643785
 20
49.1524089691882
 10
16.6334262266615
 20
49.152374879194
 10
16.6334154713612
 20
49.1522416952558
 10
16.6334104572795
 20
49.1521350925753
 10
16.6333873640764
 20
49.151935751674
 10
16.633384787568
 20
49.1519216406726
 10
16.6333807265204
 20
49.151904647995
 10
16.6333305756701
 20
49.1517209499908
 10
16.6333251160473
 20
49.1517064271331
 10
16.6332348675214
 20
49.1514972191974
 10
16.6330736959051
 20
49.1512054032688
 10
16.633042362173
 20
49.1511496333359
 10
16.6329599545726
 20
49.1509956094577
 10
16.6328979330755
 20
49.1508778760998
 10
16.6327303739829
 20
49.1505661245476
 10
16.6326388509804
 20
49.1503917202197
 10
16.6325143624452
 20
49.1501512648575
 10
16.6324021580503
 20
49.1499302918844
 10
16.6323448335202
 20
49.1498161281436
 10
16.6322736442617
 20
49.1496770064331
 10
16.6321293260835
 20
49.149388757834
 10
16.632057756564
 20
49.1492444896898
 10
16.6319891591086
 20
49.1491035339709
 10
16.6317602878005
 20
49.1486080060742
 10
16.6317262410651
 20
49.1485370484271
 10
16.6316605457062
 20
49.1484026922138
 10
16.6315542852633
 20
49.148207599086
 10
16.6314501572798
 20
49.1480292356085
 10
16.6312448460596
 20
49.1477058654391
 10
16.6312354684598
 20
49.1476901879809
 10
16.6312253439795
 20
49.1476707493569
 10
16.6311569916287
 20
49.1475174812335
 10
16.6310549951291
 20
49.1472887720031
 10
16.6310265039591
 20
49.1472243917015
 10
16.6309318432093
 20
49.1470104926801
 10
16.6309101444268
 20
49.1469548523724
 10
16.6309003649424
 20
49.1469271078836
 10
16.6308890113141
 20
49.146891491668
 10
16.630878773024
 20
49.1468533675331
 10
16.6308699209837
 20
49.1468221611791
 10
16.6308504868765
 20
49.1467549228407
 10
16.630803429643
 20
49.1466092846118
 10
16.6307762192421
 20
49.1465353367891
 10
16.6307641377343
 20
49.1465058285428
 10
16.6307312937901
 20
49.1464329384678
 10
16.6307021817347
 20
49.1463744221336
 10
16.6306041936206
 20
49.1461830691978
 10
16.6304009683082
 20
49.1457963317632
 10
16.6303708486221
 20
49.1457412497647
 10
16.6303687197058
 20
49.1457373582739
 10
16.6302840346788
 20
49.1455805923085
 10
16.6302599124473
 20
49.1455332462527
 10
16.6302391868174
 20
49.1454913230837
 10
16.6302327350629
 20
49.1454760514225
 10
16.6302262637819
 20
49.145456536387
 10
16.6302077205429
 20
49.1453982057123
 10
16.6302000250024
 20
49.1453740012005
 10
16.6301697461321
 20
49.1452704134634
 10
16.6301387943996
 20
49.1451522974512
 10
16.6301378314528
 20
49.1451475866628
 10
16.630135935241
 20
49.145138320042
 10
16.6301364338475
 20
49.1451299174521
 10
16.6301376303923
 20
49.1451266636662
 10
16.6301403982664
 20
49.1451246706146
 10
16.6301444730205
 20
49.1451227790477
 10
16.6301693778428
 20
49.1451155320609
  0
LWPOLYLINE
  5
201AB
100
AcDbEntity
  8
0
100
AcDbPolyline
 70
0
 90
10
 10
16.6224838897074
 20
49.1742345080479
 10
16.6228490061211
 20
49.1737275410936
 10
16.6232902272077
 20
49.1731531444272
 10
16.6235493921956
 20
49.1728157475847
 10
16.6236455281819
 20
49.1727345156718
 10
16.6236737213891
 20
49.1727106932243
 10
16.6237730420872
 20
49.1725299979068
 10
16.6238732506084
 20
49.1723543564669
 10
16.6238710218886
 20
49.1723077882364
 10
16.6238692035202
 20
49.1722697940729
  0
LWPOLYLINE
  5
201AC
100
AcDbEntity
  8
0
100
AcDbPolyline
 70
0
 90
4
 10
16.6221470787212
 20
49.1747126391784
 10
16.6222835032738
 20
49.1745143469354
 10
16.6223254917086
 20
49.1744556631508
 10
16.6224344169356
 20
49.1743043239038
  0
LWPOLYLINE
  5
201AD
100
AcDbEntity
  8
0
100
AcDbPolyline
 70
0
 90
27
 10
16.6199439858293
 20
49.1724263946193
 10
16.620053308401
 20
49.1724494457585
 10
16.6204282533533
 20
49.1725061674067
 10
16.6206176594523
 20
49.1725321275283
 10
16.6208667609732
 20
49.1725613264186
 10
16.6209720569237
 20
49.1725710489859
 10
16.6210731185087
 20
49.1725707123887
 10
16.6212828399996
 20
49.1725594967475
 10
16.6213595804624
 20
49.1725532147113
 10
16.6214011467085
 20
49.1725490109695
 10
16.6223433470365
 20
49.1724379835279
 10
16.6224230547207
 20
49.1724321097612
 10
16.6225832185566
 20
49.172420742451
 10
16.6226654193958
 20
49.1724149074564
 10
16.6227138205133
 20
49.1724078131731
 10
16.6228524081009
 20
49.1723808794063
 10
16.6229914183215
 20
49.1723449314748
 10
16.6230581408524
 20
49.1723367265971
 10
16.6232236781657
 20
49.1723250765572
 10
16.6232623515711
 20
49.1723225216728
 10
16.6233034879811
 20
49.1723190828009
 10
16.6234208669871
 20
49.1723020804313
 10
16.6234640193289
 20
49.1722961068738
 10
16.6237514089135
 20
49.1722758018548
 10
16.6238128044858
 20
49.1722733167754
 10
16.6238721497625
 20
49.1722715549079
 10
16.6239953793041
 20
49.1722697378723
  0
LWPOLYLINE
  5
201AE
100
AcDbEntity
  8
0
100
AcDbPolyline
 70
0
 90
42
 10
16.6233466677064
 20
49.166867000978
 10
16.6234240913289
 20
49.1668798963362
 10
16.6234744259339
 20
49.1669108909908
 10
16.6234962406987
 20
49.1669478088988
 10
16.6233865559984
 20
49.1681088976004
 10
16.6233260004364
 20
49.1687109258805
 10
16.6233071442542
 20
49.1687490632155
 10
16.6232740177711
 20
49.1687838934045
 10
16.6232135615586
 20
49.1688144742608
 10
16.6231440963462
 20
49.1688310674527
 10
16.6230789144684
 20
49.1688320267256
 10
16.6229703018127
 20
49.168803447559
 10
16.6229204648144
 20
49.1687695032266
 10
16.6229039364738
 20
49.1687530126073
 10
16.6228974312109
 20
49.1687421679135
 10
16.6228909060002
 20
49.1687290976854
 10
16.6228849869797
 20
49.1687032086132
 10
16.6228837402068
 20
49.1686764209721
 10
16.6228869002979
 20
49.1686457375229
 10
16.6230876830922
 20
49.1677137123041
 10
16.6231259712462
 20
49.1674244819495
 10
16.6231823026314
 20
49.1669584720237
 10
16.6231907959256
 20
49.166934353536
 10
16.6231999582934
 20
49.1669199151294
 10
16.6232092658337
 20
49.1669092044172
 10
16.6232163972051
 20
49.1669037548473
 10
16.6232243664477
 20
49.1668976644981
 10
16.6232526744674
 20
49.1668813699755
 10
16.6232873498737
 20
49.1668699760703
 10
16.6233216893301
 20
49.166865233461
 10
16.6233466677064
 20
49.166867000978
 10
16.6233590570268
 20
49.1668195421486
 10
16.6233721119371
 20
49.1667885739004
 10
16.6233901059331
 20
49.1667570958913
 10
16.6234258506577
 20
49.1667225233885
 10
16.6234653365254
 20
49.1666974865444
 10
16.623513560555
 20
49.1666730770521
 10
16.6235713278048
 20
49.166655131506
 10
16.6236386368161
 20
49.1666436588326
 10
16.6237071259397
 20
49.1666357518798
 10
16.6237622522217
 20
49.1666338548173
 10
16.623817565452
 20
49.1666308132205
  0
LWPOLYLINE
  5
201AF
100
AcDbEntity
  8
0
100
AcDbPolyline
 70
0
 90
18
 10
16.6190318628192
 20
49.172120573738
 10
16.618987394475
 20
49.1721067980001
 10
16.618976581047
 20
49.1720979916008
 10
16.6189775231889
 20
49.1720829714552
 10
16.6189828013167
 20
49.1720602173765
 10
16.6190053328503
 20
49.172016551915
 10
16.6191521375697
 20
49.171758430413
 10
16.6192152098708
 20
49.1716361849367
 10
16.6192605684073
 20
49.1715507824505
 10
16.6192641149267
 20
49.1715441060485
 10
16.6192782831856
 20
49.1715139313769
 10
16.6192830121419
 20
49.1715018918618
 10
16.6192994213168
 20
49.1714601184038
 10
16.6193505769207
 20
49.1713450620516
 10
16.6193969317854
 20
49.1712125800959
 10
16.6194038216516
 20
49.1711875757827
 10
16.6194129566238
 20
49.1711544154562
 10
16.6194135258377
 20
49.1711523492018
  0
LWPOLYLINE
  5
201B0
100
AcDbEntity
  8
0
100
AcDbPolyline
 70
0
 90
6
 10
16.6188500718489
 20
49.1730214170439
 10
16.618889500254
 20
49.172913858148
 10
16.618930637009
 20
49.1728016372597
 10
16.6189568354734
 20
49.1727301687649
 10
16.6190198185009
 20
49.1725525994621
 10
16.6190218944491
 20
49.1725457312219
  0
LWPOLYLINE
  5
201B1
100
AcDbEntity
  8
0
100
AcDbPolyline
 70
0
 90
11
 10
16.6182585346404
 20
49.1746325509183
 10
16.6182658253798
 20
49.1746125740941
 10
16.6182888598601
 20
49.1745494561814
 10
16.6183118926237
 20
49.1744863399551
 10
16.6184122997422
 20
49.1742112029506
 10
16.6184526163958
 20
49.1741017804147
 10
16.6184696746144
 20
49.174055480746
 10
16.6184744514421
 20
49.1740425166227
 10
16.6186633783163
 20
49.1735297340529
 10
16.6187340459294
 20
49.1733379240543
 10
16.6187576120005
 20
49.1732736398805
  0
LWPOLYLINE
  5
201B2
100
AcDbEntity
  8
0
100
AcDbPolyline
 70
0
 90
11
 10
16.6161744517833
 20
49.1706288777081
 10
16.6163189312806
 20
49.1706482440029
 10
16.616496934053
 20
49.1706754662278
 10
16.6167550391349
 20
49.1707238906584
 10
16.6168775242069
 20
49.1707499123738
 10
16.6169701561883
 20
49.1707710884344
 10
16.6174927311405
 20
49.1708546820928
 10
16.618057542315
 20
49.1709439952441
 10
16.6188484139214
 20
49.1710648397617
 10
16.6193172455809
 20
49.1711363981526
 10
16.6194135258377
 20
49.1711523492018
  0
LWPOLYLINE
  5
201B3
100
AcDbEntity
  8
0
100
AcDbPolyline
 70
0
 90
6
 10
16.6198749214967
 20
49.1689009625028
 10
16.6200205557309
 20
49.1689098869888
 10
16.6201205671035
 20
49.1689378448003
 10
16.6202139004312
 20
49.1689787505634
 10
16.6212919185677
 20
49.1691960733139
 10
16.6217325828737
 20
49.1692947717848
  0
LWPOLYLINE
  5
201B4
100
AcDbEntity
  8
0
100
AcDbPolyline
 70
0
 90
4
 10
16.6217325828737
 20
49.1692947717848
 10
16.6218632496504
 20
49.1693196799502
 10
16.6222069500531
 20
49.1693851965164
 10
16.6225587968665
 20
49.1694522647199
  0
LWPOLYLINE
  5
201B5
100
AcDbEntity
  8
0
100
AcDbPolyline
 70
0
 90
9
 10
16.6037458204994
 20
49.19627359269
 10
16.6026827996587
 20
49.1961033097959
 10
16.6025272229263
 20
49.1960904520294
 10
16.6023966845537
 20
49.1961128631821
 10
16.6020535463934
 20
49.1962884057207
 10
16.6012274997418
 20
49.1967025749373
 10
16.6011143767035
 20
49.1967700078893
 10
16.6010808899944
 20
49.1968190091885
 10
16.6010544875143
 20
49.1969078588946
  0
LWPOLYLINE
  5
201B6
100
AcDbEntity
  8
0
100
AcDbPolyline
 70
0
 90
39
 10
16.6871865276984
 20
49.207304274775
 10
16.6872817081125
 20
49.2072698581353
 10
16.6874525205975
 20
49.207211752472
 10
16.6877461907357
 20
49.2071118538363
 10
16.6879502232477
 20
49.2070424456279
 10
16.6880393924654
 20
49.2070148057929
 10
16.6882021922401
 20
49.2069643427117
 10
16.6883303856173
 20
49.2069312856544
 10
16.6884346290832
 20
49.2069044043233
 10
16.6885806235508
 20
49.2068734030939
 10
16.6886180950006
 20
49.2068678426925
 10
16.6887527811977
 20
49.2068478541248
 10
16.6889010157576
 20
49.2068337164586
 10
16.6889281909285
 20
49.2068311247077
 10
16.689085777978
 20
49.2068195663417
 10
16.689113589547
 20
49.2068186977298
 10
16.6891811581176
 20
49.2068165872106
 10
16.6891815633218
 20
49.2068165740246
 10
16.6891816036277
 20
49.2068165723292
 10
16.6893614523583
 20
49.2068109529117
 10
16.6895394677987
 20
49.2068137592993
 10
16.6897155412128
 20
49.2068233930445
 10
16.6901065872658
 20
49.2068715242128
 10
16.6910079010425
 20
49.2070086088673
 10
16.6911832269427
 20
49.2070346477858
 10
16.6913238153615
 20
49.2070511063616
 10
16.6916215153055
 20
49.2070868092478
 10
16.6917933789761
 20
49.2071019326876
 10
16.691944502252
 20
49.2071062867004
 10
16.6921425932786
 20
49.2071053413322
 10
16.6922993048711
 20
49.2070931474361
 10
16.6923309138414
 20
49.2070906884355
 10
16.6925516049768
 20
49.2070705257077
 10
16.6927624672604
 20
49.2070370112788
 10
16.6929824909525
 20
49.2069997984907
 10
16.6932553708727
 20
49.2069440421836
 10
16.6938475255018
 20
49.2068256503041
 10
16.693922815969
 20
49.2068116284463
 10
16.6940740260954
 20
49.2067834668039
  0
LWPOLYLINE
  5
201B7
100
AcDbEntity
  8
0
100
AcDbPolyline
 70
0
 90
71
 10
16.6194244420293
 20
49.1711072400733
 10
16.6194343276998
 20
49.1710720923672
 10
16.6194393198805
 20
49.1710531087473
 10
16.6194933151361
 20
49.1708477559099
 10
16.6194952824669
 20
49.1708402730697
 10
16.6195169698326
 20
49.1707577950915
 10
16.6195238449143
 20
49.1707316482696
 10
16.6195473099437
 20
49.1706424030408
 10
16.6196013056671
 20
49.1704370502367
 10
16.6196114426843
 20
49.1703984977466
 10
16.6196546424806
 20
49.1702341969178
 10
16.6196569777949
 20
49.1702318179131
 10
16.6196620188813
 20
49.1702266782047
 10
16.6196736105183
 20
49.1702214567993
 10
16.6197259849362
 20
49.1702171985196
 10
16.6197264743911
 20
49.1702171580952
 10
16.6197690845917
 20
49.1702191704297
 10
16.6199029146921
 20
49.1702447347696
 10
16.6199335312
 20
49.1702513946025
 10
16.6208283707628
 20
49.1704460045354
 10
16.6208571824067
 20
49.1704480437837
 10
16.6208756988127
 20
49.1704473463893
 10
16.6209266686972
 20
49.1704358671367
 10
16.6209805850798
 20
49.1704064976721
 10
16.6210610889009
 20
49.1703367705372
 10
16.6210663155714
 20
49.1703315751713
 10
16.6211894697989
 20
49.1702090807376
 10
16.6212583067313
 20
49.1701359879781
 10
16.6213695303747
 20
49.1700178868893
 10
16.6214087847347
 20
49.1699762042738
 10
16.6214380762795
 20
49.1699395364976
 10
16.6214802643603
 20
49.1698867265036
 10
16.621508087046
 20
49.1698460763323
 10
16.6215432078218
 20
49.1697378024644
 10
16.6215745207988
 20
49.1696412634149
 10
16.6215861034711
 20
49.1696171555819
 10
16.6216237379064
 20
49.1695343272714
 10
16.6217158176489
 20
49.1693316694622
 10
16.6217325828737
 20
49.1692947717848
 10
16.6218091567833
 20
49.1691858914788
 10
16.6218515722259
 20
49.1691321043839
 10
16.621866139153
 20
49.1691136310234
 10
16.6219084539027
 20
49.1690599688441
 10
16.6220099671136
 20
49.1689341387729
 10
16.6220248528359
 20
49.1689156888658
 10
16.6220581122431
 20
49.1688744592058
 10
16.6221028173388
 20
49.1688259408063
 10
16.6221095359446
 20
49.1687938458352
 10
16.6221195964636
 20
49.1687327228118
 10
16.6221536288378
 20
49.1685259568408
 10
16.6221876609275
 20
49.1683191908533
 10
16.6222039447663
 20
49.1682202558473
 10
16.6222160648803
 20
49.1681839031422
 10
16.6222258006161
 20
49.1681433567444
 10
16.6222384000126
 20
49.168066806541
 10
16.6222841173351
 20
49.1677331490574
 10
16.6222897553429
 20
49.167698893686
 10
16.6223284571703
 20
49.1674637480822
 10
16.6223347148727
 20
49.1674350213538
 10
16.6223523159456
 20
49.1673839788017
 10
16.6224514126526
 20
49.1671546503671
 10
16.6224922199122
 20
49.1670278082467
 10
16.6224929418629
 20
49.1669675212702
 10
16.6224840147396
 20
49.1668734048421
 10
16.6224755570988
 20
49.1667842637308
 10
16.6224408291008
 20
49.1665665933038
 10
16.622430999206
 20
49.1665518148361
 10
16.6224149791624
 20
49.1665466561418
 10
16.6223574953131
 20
49.1665325391618
 10
16.6223485104221
 20
49.1665218454374
 10
16.6223462208085
 20
49.1664985467147
  0
LWPOLYLINE
  5
201B8
100
AcDbEntity
  8
0
100
AcDbPolyline
 70
0
 90
25
 10
16.6242275325767
 20
49.1541837795797
 10
16.624253150652
 20
49.1541773527881
 10
16.62425814596
 20
49.1541764852644
 10
16.624262144731
 20
49.1541758999618
 10
16.6242665668516
 20
49.1541755074272
 10
16.6242720819594
 20
49.154175428315
 10
16.6242862552095
 20
49.1541757792488
 10
16.6244479669849
 20
49.1541849173169
 10
16.6244696878743
 20
49.1541865811351
 10
16.6244901691306
 20
49.1541886637304
 10
16.6245089203602
 20
49.1541911032641
 10
16.6245213385458
 20
49.15419298607
 10
16.6245331956683
 20
49.1541953456276
 10
16.6245452877156
 20
49.1541980374736
 10
16.6245593761394
 20
49.1542015028334
 10
16.6245942115671
 20
49.1542113034548
 10
16.6246582856703
 20
49.154231874358
 10
16.6248456394959
 20
49.1542865762749
 10
16.6255718517976
 20
49.15451239193
 10
16.6256956058236
 20
49.154550872634
 10
16.6257430547732
 20
49.1545692444312
 10
16.6257751780409
 20
49.1545868935845
 10
16.6258077526778
 20
49.1546092689187
 10
16.6258234144891
 20
49.154623132095
 10
16.6258343421891
 20
49.1546328035904
  0
LWPOLYLINE
  5
201B9
100
AcDbEntity
  8
0
100
AcDbPolyline
 70
0
 90
3
 10
16.5747389196858
 20
49.1775480731087
 10
16.5751066562196
 20
49.1774951684249
 10
16.5752299154071
 20
49.1774763647897
  0
LWPOLYLINE
  5
201BA
100
AcDbEntity
  8
0
100
AcDbPolyline
 70
0
 90
7
 10
16.5798835444895
 20
49.2195741140679
 10
16.5817711984723
 20
49.2199608805668
 10
16.5820078931298
 20
49.2200392053962
 10
16.5824832755512
 20
49.2202538847849
 10
16.5825328441737
 20
49.2202939492004
 10
16.5825909934283
 20
49.2203710000582
 10
16.5825965221267
 20
49.2203888880926
  0
LWPOLYLINE
  5
201BB
100
AcDbEntity
  8
0
100
AcDbPolyline
 70
0
 90
2
 10
16.5867817816781
 20
49.211892182876
 10
16.5876585137431
 20
49.2115599477928
  0
LWPOLYLINE
  5
201BC
100
AcDbEntity
  8
0
100
AcDbPolyline
 70
0
 90
5
 10
16.5837366846108
 20
49.2129603420994
 10
16.5843122901308
 20
49.2127653528487
 10
16.5848553783468
 20
49.2125814182983
 10
16.5857849171316
 20
49.2122664574378
 10
16.5865795849957
 20
49.2119684221759
  0
LWPOLYLINE
  5
201BD
100
AcDbEntity
  8
0
100
AcDbPolyline
 70
0
 90
2
 10
16.5826854595897
 20
49.2133164365939
 10
16.583164839779
 20
49.2131540519542
  0
LWPOLYLINE
  5
201BE
100
AcDbEntity
  8
0
100
AcDbPolyline
 70
0
 90
5
 10
16.6385296175497
 20
49.1892259784214
 10
16.6388240075311
 20
49.1891687984437
 10
16.6389870090656
 20
49.1891198874248
 10
16.6393913791531
 20
49.1890263304274
 10
16.6395769291482
 20
49.1889876903302
  0
LWPOLYLINE
  5
201BF
100
AcDbEntity
  8
0
100
AcDbPolyline
 70
0
 90
3
 10
16.6789311370362
 20
49.1816314632139
 10
16.6794888581166
 20
49.1813615098902
 10
16.6804425775254
 20
49.180908566911
  0
LWPOLYLINE
  5
201C0
100
AcDbEntity
  8
0
100
AcDbPolyline
 70
0
 90
3
 10
16.6588429118918
 20
49.1850435395268
 10
16.6576251463113
 20
49.1852899996614
 10
16.6562477279499
 20
49.1855606181847
  0
LWPOLYLINE
  5
201C1
100
AcDbEntity
  8
0
100
AcDbPolyline
 70
0
 90
3
 10
16.6536859186131
 20
49.1860771378542
 10
16.654464404204
 20
49.1859153767167
 10
16.656175925263
 20
49.1855749026024
  0
LWPOLYLINE
  5
201C2
100
AcDbEntity
  8
0
100
AcDbPolyline
 70
0
 90
2
 10
16.6486074744895
 20
49.1871188161365
 10
16.6493530782178
 20
49.1869671044277
  0
LWPOLYLINE
  5
201C3
100
AcDbEntity
  8
0
100
AcDbPolyline
 70
0
 90
5
 10
16.5752728777532
 20
49.1774698106839
 10
16.5754220229814
 20
49.1774470573295
 10
16.5755457024238
 20
49.1774275469846
 10
16.5756512156875
 20
49.1774069246269
 10
16.575756729711
 20
49.1773831887994
  0
LWPOLYLINE
  5
201C4
100
AcDbEntity
  8
0
100
AcDbPolyline
 70
0
 90
4
 10
16.5675139940991
 20
49.1802217877196
 10
16.5674390250849
 20
49.1796110305707
 10
16.5673850899544
 20
49.1791455953998
 10
16.5672893175488
 20
49.1783660986458
  0
LWPOLYLINE
  5
201C5
100
AcDbEntity
  8
0
100
AcDbPolyline
 70
0
 90
6
 10
16.5671028327826
 20
49.1777767999167
 10
16.5670662257322
 20
49.1774490956373
 10
16.5670808448484
 20
49.1773883561253
 10
16.5669963094824
 20
49.1766905313894
 10
16.5669943377741
 20
49.1766816167532
 10
16.5669935403354
 20
49.1766797435989
  0
LWPOLYLINE
  5
201C6
100
AcDbEntity
  8
0
100
AcDbPolyline
 70
0
 90
2
 10
16.6099680871337
 20
49.1929848761496
 10
16.6092249362173
 20
49.1927287068389
  0
LWPOLYLINE
  5
201C7
100
AcDbEntity
  8
0
100
AcDbPolyline
 70
0
 90
6
 10
16.6104163873182
 20
49.1923142569198
 10
16.6115237139246
 20
49.1924500379826
 10
16.611605829948
 20
49.1926150293062
 10
16.6117179635735
 20
49.1927801881131
 10
16.6118588870044
 20
49.1928545690798
 10
16.6121334255405
 20
49.1929195994613
  0
LWPOLYLINE
  5
201C8
100
AcDbEntity
  8
0
100
AcDbPolyline
 70
0
 90
8
 10
16.5739015438583
 20
49.2183901017181
 10
16.5740013974307
 20
49.2184441489453
 10
16.5743344420342
 20
49.2185375746013
 10
16.5747068635653
 20
49.218569215472
 10
16.5748312052759
 20
49.2185571630248
 10
16.5749357152349
 20
49.2185681226822
 10
16.5763418002873
 20
49.2188592317956
 10
16.5796272610023
 20
49.2195213446279
  0
LWPOLYLINE
  5
201C9
100
AcDbEntity
  8
0
100
AcDbPolyline
 70
0
 90
67
 10
16.5669017206385
 20
49.1935626205178
 10
16.5666642143847
 20
49.1938910016874
 10
16.5665969847673
 20
49.1940109512285
 10
16.5665438642164
 20
49.1941315437912
 10
16.5665270266514
 20
49.1941762288912
 10
16.5664911177416
 20
49.1942715203935
 10
16.566459534663
 20
49.1943978982603
 10
16.5664401820957
 20
49.1944754873108
 10
16.5664319536492
 20
49.1945783819866
 10
16.5664149400353
 20
49.1948100018674
 10
16.5664156061718
 20
49.1948509820837
 10
16.5664176025351
 20
49.1949737353425
 10
16.5664388696452
 20
49.1951942410449
 10
16.5664699873896
 20
49.1953944635903
 10
16.5665013879444
 20
49.1955355485779
 10
16.566502295952
 20
49.1955398447373
 10
16.5665511070395
 20
49.1957709260462
 10
16.5665412683856
 20
49.1957944673301
 10
16.5665212725396
 20
49.1958085110844
 10
16.5664738814053
 20
49.1958229556079
 10
16.5662598210779
 20
49.195866144284
 10
16.5662349644391
 20
49.1958728767577
 10
16.5662239123389
 20
49.1958837583335
 10
16.5662220860235
 20
49.1958981010901
 10
16.5662598850342
 20
49.1960155807876
 10
16.5663019024108
 20
49.196175875723
 10
16.5663086552454
 20
49.1962087414178
 10
16.5663504737207
 20
49.1964123465443
 10
16.5663628871111
 20
49.1964914743244
 10
16.5663735283908
 20
49.1966079243243
 10
16.566373272884
 20
49.1966827125368
 10
16.5663681935958
 20
49.1967974106516
 10
16.5663202901389
 20
49.1970438352571
 10
16.5662483135021
 20
49.1973580158705
 10
16.5662491893446
 20
49.1973901898275
 10
16.5662560388201
 20
49.1974520966884
 10
16.5662554550224
 20
49.1974705993224
 10
16.5662492931894
 20
49.1975032535038
 10
16.5662064920188
 20
49.1977300644802
 10
16.5661738307819
 20
49.1979553235701
 10
16.5661656469044
 20
49.1982485390769
 10
16.5661683438774
 20
49.1983465059359
 10
16.5661717918534
 20
49.1984717894602
 10
16.5661727987585
 20
49.1985083833417
 10
16.5661742146419
 20
49.1985514503742
 10
16.5662302398582
 20
49.1987746131547
 10
16.5662505026157
 20
49.1989112866321
 10
16.566290456959
 20
49.1990249395675
 10
16.5663889826008
 20
49.1991841016294
 10
16.5664474102079
 20
49.199363654979
 10
16.5664413343699
 20
49.1994752057115
 10
16.566478451068
 20
49.1995793395542
 10
16.5665180761326
 20
49.1997432619047
 10
16.5665775646715
 20
49.2000296276375
 10
16.5665833587397
 20
49.2008711819507
 10
16.5665844029973
 20
49.2008790354487
 10
16.5665901894068
 20
49.2008824325202
 10
16.5666293054039
 20
49.2008829566141
 10
16.5666402523989
 20
49.200888530271
 10
16.5666417622529
 20
49.2008952410072
 10
16.5666456920448
 20
49.20112708579
 10
16.5666350539799
 20
49.2011354642151
 10
16.5665986308563
 20
49.2011378455493
 10
16.5665881678502
 20
49.2011484978133
 10
16.5665893458937
 20
49.2012143687629
 10
16.5665931118101
 20
49.2014250091672
 10
16.5665934406556
 20
49.2014350540999
  0
LWPOLYLINE
  5
201CA
100
AcDbEntity
  8
0
100
AcDbPolyline
 70
0
 90
3
 10
16.5601216646267
 20
49.1940782033901
 10
16.5605052323798
 20
49.1939932974132
 10
16.5606384036414
 20
49.1939596134628
  0
LWPOLYLINE
  5
201CB
100
AcDbEntity
  8
0
100
AcDbPolyline
 70
0
 90
6
 10
16.5654346264082
 20
49.1929526293215
 10
16.5661633793278
 20
49.1931647356993
 10
16.5666450672431
 20
49.1932996709129
 10
16.5669430247183
 20
49.1933831353701
 10
16.5670303265413
 20
49.1934075903927
 10
16.5675072922717
 20
49.193549372018
  0
LWPOLYLINE
  5
201CC
100
AcDbEntity
  8
0
100
AcDbPolyline
 70
0
 90
3
 10
16.6070356909363
 20
49.1942170290068
 10
16.6075629096197
 20
49.1944185559558
 10
16.6081049545702
 20
49.1947300141664
  0
LWPOLYLINE
  5
201CD
100
AcDbEntity
  8
0
100
AcDbPolyline
 70
0
 90
188
 10
16.6254500101455
 20
49.1558053572187
 10
16.6255163646354
 20
49.1555942704228
 10
16.6256005889433
 20
49.155418908776
 10
16.6256303797067
 20
49.1552555600797
 10
16.6256553541269
 20
49.1551693664876
 10
16.6257337965644
 20
49.1550344329971
 10
16.6258436967112
 20
49.1549011555147
 10
16.6258787975759
 20
49.1548170261017
 10
16.6258679879999
 20
49.1546860522544
 10
16.6258349079134
 20
49.1546325080574
 10
16.6258599928545
 20
49.1546193871129
 10
16.625865979545
 20
49.1546153425812
 10
16.6258727028741
 20
49.1546093512702
 10
16.6258948326053
 20
49.154568159604
 10
16.6259389920044
 20
49.1544858641562
 10
16.6259652047901
 20
49.1544359609039
 10
16.6259999416705
 20
49.1543698293099
 10
16.626034676948
 20
49.1543036985024
 10
16.626048920858
 20
49.1542765797247
 10
16.6260600879265
 20
49.1542537475527
 10
16.6260987794044
 20
49.1541746451225
 10
16.6261007028056
 20
49.154171192237
 10
16.6261345428041
 20
49.1541104195244
 10
16.6261374470236
 20
49.1541052035601
 10
16.6261833577759
 20
49.1540234308645
 10
16.6262187958434
 20
49.1539673867736
 10
16.6262340500991
 20
49.1539432627521
 10
16.6262579828959
 20
49.1539079655946
 10
16.6263023585388
 20
49.1538425177558
 10
16.6263064953527
 20
49.1538364139717
 10
16.6263083467054
 20
49.153833684093
 10
16.6263126980322
 20
49.1538272653513
 10
16.6263579991626
 20
49.1537438214241
 10
16.6264103698199
 20
49.1536199047483
 10
16.6264307938389
 20
49.1535772482932
 10
16.6264625564553
 20
49.1535109071015
 10
16.6264681309782
 20
49.1534992637973
 10
16.6265011495568
 20
49.1534450482816
 10
16.6265391589442
 20
49.1533826376384
 10
16.6265819717147
 20
49.15331359059
 10
16.6265820951617
 20
49.1533133849626
 10
16.6266227084826
 20
49.1532478843245
 10
16.6266256890787
 20
49.1532430753473
 10
16.6266634454368
 20
49.1531821762557
 10
16.6266680902819
 20
49.1531746847586
 10
16.6266999087419
 20
49.1531161676193
 10
16.6267293713128
 20
49.1530619808646
 10
16.6267343356623
 20
49.1530500139951
 10
16.6267369128516
 20
49.1530438007615
 10
16.6267526077832
 20
49.1530059670324
 10
16.6267558108979
 20
49.1529982450926
 10
16.6267618126591
 20
49.1529837765684
 10
16.6267619483385
 20
49.1529833791522
 10
16.6267848173034
 20
49.1529164095868
 10
16.6267913367775
 20
49.1528973169086
 10
16.6268102901114
 20
49.1528496215327
 10
16.6268216823227
 20
49.1528209550859
 10
16.626841040357
 20
49.1527832086717
 10
16.6268746758457
 20
49.1527176222234
 10
16.6268749843323
 20
49.1527170208629
 10
16.6269089280697
 20
49.1526508339375
 10
16.6269428702065
 20
49.1525846477991
 10
16.6269460349727
 20
49.1525784752308
 10
16.6269656059221
 20
49.1525403133395
 10
16.6269765547527
 20
49.1525189626029
 10
16.6269768222352
 20
49.1525184596429
 10
16.6270118614535
 20
49.1524523511148
 10
16.6270190407736
 20
49.1524388043507
 10
16.6270468995094
 20
49.1523862406908
 10
16.627081938688
 20
49.152320131246
 10
16.627116975194
 20
49.1522540207029
 10
16.6271520128225
 20
49.152187911139
 10
16.6271666905425
 20
49.1521602178961
 10
16.6271786701297
 20
49.1521376123013
 10
16.6271870503576
 20
49.1521218015638
 10
16.6271906671191
 20
49.1521149762803
 10
16.6272279893522
 20
49.1520497139349
 10
16.627245326455
 20
49.1520193986196
 10
16.6272884046843
 20
49.1519440696282
 10
16.6273278232509
 20
49.1518825852535
 10
16.6273694499244
 20
49.1518176590739
 10
16.6274311640601
 20
49.1517211441697
 10
16.6274333024847
 20
49.1517177996477
 10
16.6274450611743
 20
49.1516946827575
 10
16.6275513012721
 20
49.1514858250292
 10
16.6275826525151
 20
49.1514241904555
 10
16.6276503689375
 20
49.1513003896257
 10
16.6277366986047
 20
49.1511425567594
 10
16.6278332993244
 20
49.1509659445107
 10
16.6278373742956
 20
49.1509584949827
 10
16.6282275163638
 20
49.1502167460598
 10
16.6283109443526
 20
49.1500498022386
 10
16.6283655992426
 20
49.1499488396598
 10
16.6284392235112
 20
49.1498172004804
 10
16.6284918386082
 20
49.1497202550783
 10
16.6285527839343
 20
49.1495902505765
 10
16.6285818606706
 20
49.1495215773381
 10
16.6286218476793
 20
49.149415054704
 10
16.628645227756
 20
49.1493424510147
 10
16.6286711452051
 20
49.149246872195
 10
16.628673237772
 20
49.1492371795085
 10
16.6286959947242
 20
49.1491317715639
 10
16.6287086271103
 20
49.1490532520589
 10
16.6287230536596
 20
49.1489361487427
 10
16.6287240721843
 20
49.1489220186881
 10
16.6287286494455
 20
49.1488584872798
 10
16.6287291469085
 20
49.1487137156255
 10
16.6287242183447
 20
49.1486321448965
 10
16.6287148841867
 20
49.1485413081823
 10
16.6287019476557
 20
49.148456457523
 10
16.6286909394061
 20
49.148391732222
 10
16.6286760522829
 20
49.1483506107287
 10
16.628666130691
 20
49.1483279300539
 10
16.6286469102618
 20
49.1482922002176
 10
16.628626910864
 20
49.1482612090018
 10
16.6285798021041
 20
49.1481971859653
 10
16.628529569406
 20
49.1481412630993
 10
16.6284975441786
 20
49.1481121345393
 10
16.6284673990521
 20
49.1480866664368
 10
16.6284294210485
 20
49.1480568453873
 10
16.6283878299611
 20
49.1480280349856
 10
16.6283527543022
 20
49.1480065595317
 10
16.6283105499705
 20
49.1479823185504
 10
16.6282651908894
 20
49.147953784214
 10
16.628238915637
 20
49.1479332930996
 10
16.6282246795269
 20
49.1479167298308
 10
16.6282051283031
 20
49.1478905630479
 10
16.6281828711888
 20
49.1478557036363
 10
16.6281685297352
 20
49.1478271928865
 10
16.628132233395
 20
49.1477359861539
 10
16.6280438101015
 20
49.1475081331892
 10
16.627982633301
 20
49.147362796806
 10
16.6279557737106
 20
49.1472879955341
 10
16.627926721707
 20
49.1471921456785
 10
16.627795368984
 20
49.1467146941475
 10
16.6277808845082
 20
49.1466317235528
 10
16.6277782567009
 20
49.1465931877219
 10
16.6277787021337
 20
49.1465544170887
 10
16.6277840921323
 20
49.1465117361969
 10
16.6277915547279
 20
49.1464527585177
 10
16.6278114368162
 20
49.1463553056618
 10
16.6278268037789
 20
49.1462693820273
 10
16.6278353962361
 20
49.1461911193947
 10
16.6278412006165
 20
49.1460660788338
 10
16.6278409328698
 20
49.1459930684369
 10
16.6278337363523
 20
49.1458716304256
 10
16.6278254813471
 20
49.1457750811396
 10
16.6278214509642
 20
49.1457065078121
 10
16.6278226967464
 20
49.1456519663248
 10
16.6278349311495
 20
49.1454953612374
 10
16.6278409320353
 20
49.1453548679813
 10
16.6278458962985
 20
49.1451913276116
 10
16.6278461287089
 20
49.1450783746181
 10
16.6278427255037
 20
49.1449648930461
 10
16.6278384612845
 20
49.1449010969029
 10
16.6278231581896
 20
49.1448180683397
 10
16.6277957090599
 20
49.144681449248
 10
16.6277901043223
 20
49.1446559986135
 10
16.6277752712714
 20
49.1446070117073
 10
16.6277588025709
 20
49.1445671356595
 10
16.6277315719746
 20
49.1445088589918
 10
16.6277147934019
 20
49.1444767386252
 10
16.6276928401266
 20
49.1444417195726
 10
16.6276423880948
 20
49.1443619926242
 10
16.6276098331165
 20
49.1443075911328
 10
16.6275916824356
 20
49.1442703999182
 10
16.6275790195218
 20
49.1442316957808
 10
16.6275709273257
 20
49.1441928637159
 10
16.6275560064098
 20
49.1440672611154
 10
16.62753991702
 20
49.1439101903838
 10
16.6275341746254
 20
49.1438226826747
 10
16.6275366807524
 20
49.1437688625681
 10
16.6275417100865
 20
49.1436770519571
 10
16.6275453976652
 20
49.143524636716
 10
16.6275547692399
 20
49.143355257654
 10
16.6275706783269
 20
49.143099149335
 10
16.6275809332859
 20
49.1429864532089
 10
16.627595674934
 20
49.142779375532
 10
16.6276114019355
 20
49.1426065569115
 10
16.6276297184102
 20
49.1422758483151
 10
16.6276317866873
 20
49.1422385193566
 10
16.6276304191897
 20
49.1420246035826
 10
16.6276184570732
 20
49.1417954664488
 10
16.6276135058142
 20
49.1417291523845
 10
16.6276001999077
 20
49.1415509599397
 10
16.627590510487
 20
49.141411979337
 10
16.6275718737588
 20
49.1413771893999
 10
16.6275670918028
 20
49.1413682638908
  0
LWPOLYLINE
  5
201CE
100
AcDbEntity
  8
0
100
AcDbPolyline
 70
0
 90
12
 10
16.6179275326378
 20
49.1768765621635
 10
16.6179674524108
 20
49.1768394099236
 10
16.6179835481472
 20
49.1768028322824
 10
16.6179640350355
 20
49.1767571309644
 10
16.6179683458931
 20
49.1767108550381
 10
16.6179833576676
 20
49.1766724821337
 10
16.6182214352211
 20
49.1762474863276
 10
16.6184124190689
 20
49.1759203142769
 10
16.6186149877653
 20
49.1755874019288
 10
16.6187743985256
 20
49.1753201960621
 10
16.6188658881959
 20
49.1751668398148
 10
16.6189820429643
 20
49.1749636023486
  0
LWPOLYLINE
  5
201CF
100
AcDbEntity
  8
0
100
AcDbPolyline
 70
0
 90
15
 10
16.6140803843638
 20
49.1784602468209
 10
16.6142600783982
 20
49.1783574791637
 10
16.6148970575209
 20
49.1779961066685
 10
16.6158698183158
 20
49.177444419916
 10
16.6164243200579
 20
49.1771075972993
 10
16.6167140217972
 20
49.1768819180682
 10
16.6170453577417
 20
49.1766130372944
 10
16.6173040697068
 20
49.1763991633603
 10
16.617593148586
 20
49.176161308281
 10
16.6176531906891
 20
49.1760896816744
 10
16.6177940441447
 20
49.1757446160482
 10
16.6178309151161
 20
49.1755433629818
 10
16.6179376071336
 20
49.1754107118258
 10
16.6181458087446
 20
49.1750292481243
 10
16.6181844219016
 20
49.1749365510879
  0
LWPOLYLINE
  5
201D0
100
AcDbEntity
  8
0
100
AcDbPolyline
 70
0
 90
10
 10
16.6076014014966
 20
49.182802139107
 10
16.6085456828923
 20
49.1825883608286
 10
16.6088934947843
 20
49.182476113548
 10
16.6093363514389
 20
49.1822558015896
 10
16.6098044208011
 20
49.1818826418679
 10
16.6106107939806
 20
49.181123135115
 10
16.6112463609533
 20
49.1805193704121
 10
16.6118757263563
 20
49.1799539667398
 10
16.6124868846099
 20
49.1795043757001
 10
16.6128497243777
 20
49.1792613260396
  0
LWPOLYLINE
  5
201D1
100
AcDbEntity
  8
0
100
AcDbPolyline
 70
0
 90
27
 10
16.6075152127526
 20
49.18332727943
 10
16.6076926989937
 20
49.1833078668281
 10
16.6081846070305
 20
49.1832245119312
 10
16.6085598089136
 20
49.1831394673042
 10
16.6089478996634
 20
49.183010846258
 10
16.6092194906809
 20
49.1828922557556
 10
16.6095902785649
 20
49.18268142519
 10
16.6098575702606
 20
49.1824949989989
 10
16.6101329416072
 20
49.1822589723674
 10
16.6104842994164
 20
49.1819391457809
 10
16.6114730898703
 20
49.1810156120912
 10
16.6126267978027
 20
49.1800273069146
 10
16.6128055955991
 20
49.1798672501221
 10
16.6130050963284
 20
49.1797258088042
 10
16.6133109586169
 20
49.1794647292764
 10
16.6135470735627
 20
49.1793055124017
 10
16.613701140968
 20
49.1792043717909
 10
16.6139254820533
 20
49.1790452456766
 10
16.6143373715164
 20
49.1788553218072
 10
16.6148296774854
 20
49.178578576777
 10
16.6163445342499
 20
49.1777504397331
 10
16.6166113754809
 20
49.1775936096376
 10
16.6170308336131
 20
49.1773811952558
 10
16.617234234571
 20
49.1772353661555
 10
16.6173974751396
 20
49.177091369661
 10
16.617581260347
 20
49.1769403352799
 10
16.6176304834137
 20
49.1769193890338
  0
LWPOLYLINE
  5
201D2
100
AcDbEntity
  8
0
100
AcDbPolyline
 70
0
 90
6
 10
16.6248416554404
 20
49.2336258978974
 10
16.6254971850645
 20
49.2337694280572
 10
16.6260208001604
 20
49.2338859215335
 10
16.6269071506043
 20
49.2340805579631
 10
16.6280294658875
 20
49.2343269979012
 10
16.6282533306416
 20
49.2343732884251
  0
LWPOLYLINE
  5
201D3
100
AcDbEntity
  8
0
100
AcDbPolyline
 70
0
 90
8
 10
16.6046993617128
 20
49.1834681202787
 10
16.6049285673311
 20
49.1834094781879
 10
16.605026697129
 20
49.1833976218399
 10
16.6053092132675
 20
49.1833865375343
 10
16.6055659703463
 20
49.1833814937483
 10
16.6058901065069
 20
49.1833755891421
 10
16.6065711506597
 20
49.183366696325
 10
16.6070552918236
 20
49.1833600760591
  0
LWPOLYLINE
  5
201D4
100
AcDbEntity
  8
0
100
AcDbPolyline
 70
0
 90
8
 10
16.6025016869576
 20
49.1841754934706
 10
16.6029337540622
 20
49.183940190097
 10
16.6032243686423
 20
49.1837999526191
 10
16.6034333494807
 20
49.1837180922262
 10
16.603775583601
 20
49.1836090001004
 10
16.604005019179
 20
49.1835526644259
 10
16.6041177152262
 20
49.1835298027162
 10
16.6042592080412
 20
49.1835249201188
  0
LWPOLYLINE
  5
201D5
100
AcDbEntity
  8
0
100
AcDbPolyline
 70
0
 90
17
 10
16.6021090117594
 20
49.1838234264972
 10
16.6024776606289
 20
49.1836623389853
 10
16.6028291870311
 20
49.1835146891728
 10
16.6031425525876
 20
49.1833984321197
 10
16.6033173412564
 20
49.1833392807826
 10
16.6032985080772
 20
49.1833112623321
 10
16.6033066315018
 20
49.1832846127779
 10
16.6039959104587
 20
49.1829230259593
 10
16.604038552405
 20
49.1829121202548
 10
16.6049057240245
 20
49.1827735302445
 10
16.6050703226082
 20
49.1827811300188
 10
16.6053522922322
 20
49.1827106708034
 10
16.6054116751734
 20
49.1827059262749
 10
16.6055090904882
 20
49.1829185165723
 10
16.6057616357072
 20
49.1829222017616
 10
16.6060527934976
 20
49.1828982097805
 10
16.6071167762306
 20
49.1828171840441
  0
LWPOLYLINE
  5
201D6
100
AcDbEntity
  8
0
100
AcDbPolyline
 70
0
 90
15
 10
16.5954037089272
 20
49.1862569150266
 10
16.595709659551
 20
49.1862650575476
 10
16.5957393074548
 20
49.1862645459869
 10
16.5959915858319
 20
49.1862487148549
 10
16.5960732852195
 20
49.1862410632198
 10
16.5962175964409
 20
49.1862194302727
 10
16.5969720850235
 20
49.1860524124186
 10
16.5978806757808
 20
49.1858475752579
 10
16.5980699144511
 20
49.1857997043034
 10
16.5983828136765
 20
49.1857028840808
 10
16.5988131185486
 20
49.1855557572601
 10
16.5996871398039
 20
49.1851875446952
 10
16.5998518946094
 20
49.1851092521442
 10
16.600919761463
 20
49.1845244598306
 10
16.6017553440768
 20
49.1840433735923
  0
LWPOLYLINE
  5
201D7
100
AcDbEntity
  8
0
100
AcDbPolyline
 70
0
 90
14
 10
16.5914868578995
 20
49.1856564922009
 10
16.5914696089157
 20
49.1856798702346
 10
16.5914590327616
 20
49.1857972947857
 10
16.5914606685521
 20
49.1858127787543
 10
16.5914916031996
 20
49.1858370096713
 10
16.5915633008811
 20
49.1858689202159
 10
16.5916272617899
 20
49.1859266028417
 10
16.5916910950565
 20
49.1859461508293
 10
16.5918239905522
 20
49.1859729628609
 10
16.5920640945657
 20
49.1860195822536
 10
16.5922288486829
 20
49.1860405072067
 10
16.5924114628898
 20
49.1860640894238
 10
16.5927935631856
 20
49.186099752465
 10
16.5930562072198
 20
49.1861188354218
  0
LWPOLYLINE
  5
201D8
100
AcDbEntity
  8
0
100
AcDbPolyline
 70
0
 90
3
 10
16.6049288835416
 20
49.1982448791064
 10
16.6050297359824
 20
49.198160672677
 10
16.6052567538463
 20
49.1975419840486
  0
LWPOLYLINE
  5
201D9
100
AcDbEntity
  8
0
100
AcDbPolyline
 70
0
 90
6
 10
16.5901859044561
 20
49.1881388761173
 10
16.5896448368076
 20
49.1878551255368
 10
16.5895187597773
 20
49.1878347934808
 10
16.5892502169899
 20
49.18768832867
 10
16.5888386261075
 20
49.1874061385484
 10
16.5886218671375
 20
49.1872606098739
  0
LWPOLYLINE
  5
201DA
100
AcDbEntity
  8
0
100
AcDbPolyline
 70
0
 90
5
 10
16.5884866523459
 20
49.1871662816728
 10
16.5874720449707
 20
49.186460061291
 10
16.587136058888
 20
49.1862215828216
 10
16.5869805702311
 20
49.1861076063182
 10
16.5865281629061
 20
49.1857814455253
  0
LWPOLYLINE
  5
201DB
100
AcDbEntity
  8
0
100
AcDbPolyline
 70
0
 90
2
 10
16.6691986719941
 20
49.1821906612989
 10
16.6686848009354
 20
49.182471458584
  0
LWPOLYLINE
  5
201DC
100
AcDbEntity
  8
0
100
AcDbPolyline
 70
0
 90
77
 10
16.6259207165433
 20
49.1611152798552
 10
16.6259194622757
 20
49.1611129778577
 10
16.6258244686014
 20
49.1609384744803
 10
16.6258067076115
 20
49.1609014005208
 10
16.6257955766704
 20
49.1608708049882
 10
16.6257890421512
 20
49.1608528464231
 10
16.6257870892071
 20
49.1608462819261
 10
16.6257806059413
 20
49.1608244820429
 10
16.625773931564
 20
49.1607946884135
 10
16.625767882235
 20
49.160767685005
 10
16.6257590294571
 20
49.1607066394305
 10
16.6257557854942
 20
49.1606592865268
 10
16.6257595117876
 20
49.1606098037737
 10
16.625763294265
 20
49.1605842937093
 10
16.6257745537875
 20
49.1605518959084
 10
16.6257982874173
 20
49.160488419043
 10
16.6258031186232
 20
49.1604754984617
 10
16.6258222459108
 20
49.1604262912885
 10
16.6258288611256
 20
49.1603885902668
 10
16.6258334892863
 20
49.1603688382564
 10
16.6258357041816
 20
49.1603386044409
 10
16.6258329377576
 20
49.1603084704403
 10
16.6258143271708
 20
49.1601815604093
 10
16.6257987464625
 20
49.160075318636
 10
16.6257971855348
 20
49.1600470788793
 10
16.6257994338177
 20
49.1600174805605
 10
16.625805491789
 20
49.15997729802
 10
16.6258130528231
 20
49.1599472615471
 10
16.6258225609246
 20
49.1599221565718
 10
16.6258371119222
 20
49.1598940618059
 10
16.625849461777
 20
49.1598760536372
 10
16.6258500890603
 20
49.1598751410778
 10
16.6258534402742
 20
49.1598702533934
 10
16.625868959755
 20
49.1598513623906
 10
16.6258931321917
 20
49.159827656701
 10
16.6259626898894
 20
49.159764470538
 10
16.6259720113864
 20
49.1597539144771
 10
16.6259746835006
 20
49.1597460536579
 10
16.6259725977462
 20
49.1597344192021
 10
16.625965700443
 20
49.1597235297095
 10
16.625896702832
 20
49.1596282002049
 10
16.6258535342322
 20
49.1595683492215
 10
16.6258378570267
 20
49.1595466133929
 10
16.6258125561684
 20
49.1595033981682
 10
16.6257904603943
 20
49.1594591434254
 10
16.6257841003543
 20
49.159424865899
 10
16.6257709486875
 20
49.1593547426916
 10
16.625770893903
 20
49.1593477227649
 10
16.6257701669366
 20
49.15925445744
 10
16.6257699226578
 20
49.1592231433426
 10
16.6257694951303
 20
49.1591682265388
 10
16.6257701708436
 20
49.1591512068102
 10
16.625778351348
 20
49.1589470438966
 10
16.6257784589988
 20
49.1589443688256
 10
16.6257986745008
 20
49.1587518786077
 10
16.6257976571813
 20
49.1586549368269
 10
16.6257955262866
 20
49.1586402655403
 10
16.6257809716902
 20
49.1585400631583
 10
16.6257491804625
 20
49.1584139000835
 10
16.6257316316149
 20
49.1583277521931
 10
16.6257051560385
 20
49.1581977801538
 10
16.6256734102098
 20
49.1580156392417
 10
16.6256715258946
 20
49.158004826721
 10
16.6256564767669
 20
49.1577936511724
 10
16.625660075514
 20
49.1577067030491
 10
16.6256684395312
 20
49.1575046116671
 10
16.6256965656987
 20
49.1572824715167
 10
16.6257357137353
 20
49.157078839034
 10
16.6257876722193
 20
49.1569096691698
 10
16.6258506116973
 20
49.1567674880906
 10
16.625884883811
 20
49.1566900654796
 10
16.6259954297191
 20
49.1564697409669
 10
16.6260070662823
 20
49.1564465476358
 10
16.6260264407487
 20
49.1564079340966
 10
16.6260352147156
 20
49.1563901134409
 10
16.6261421980682
 20
49.1561728191662
 10
16.6261550596415
 20
49.1561505446229
  0
LWPOLYLINE
  5
201DD
100
AcDbEntity
  8
0
100
AcDbPolyline
 70
0
 90
15
 10
16.5679056385074
 20
49.1781184032125
 10
16.5692978358626
 20
49.1780408813956
 10
16.5706736073839
 20
49.1779690715186
 10
16.5722252662993
 20
49.1778882396361
 10
16.5722815979136
 20
49.1778879987498
 10
16.5723377357849
 20
49.1778922676788
 10
16.572557804435
 20
49.1778814307991
 10
16.5726628973383
 20
49.1778691933709
 10
16.5737482424088
 20
49.1778072460109
 10
16.5741756641359
 20
49.1777723605978
 10
16.5743485769175
 20
49.177756346694
 10
16.5745048095833
 20
49.1777418770606
 10
16.5747018887682
 20
49.1777207171907
 10
16.5751304444099
 20
49.1776581404859
 10
16.5752321203124
 20
49.1776411493688
  0
LWPOLYLINE
  5
201DE
100
AcDbEntity
  8
0
100
AcDbPolyline
 70
0
 90
10
 10
16.5669424412155
 20
49.1765061023101
 10
16.566943417045
 20
49.1765060334342
 10
16.5669706740969
 20
49.1765039048073
 10
16.5669898264271
 20
49.1764973996509
 10
16.5669995877138
 20
49.1764909490956
 10
16.5670073390404
 20
49.1764816416855
 10
16.5670102496733
 20
49.1764740698863
 10
16.5670109074566
 20
49.1764676039638
 10
16.5670098692603
 20
49.1764530571463
 10
16.5669068568082
 20
49.175619424856
  0
LWPOLYLINE
  5
201DF
100
AcDbEntity
  8
0
100
AcDbPolyline
 70
0
 90
5
 10
16.5626955178526
 20
49.1782275948001
 10
16.5625557898598
 20
49.1782133322621
 10
16.562490799997
 20
49.1782200068336
 10
16.5624303801919
 20
49.1782507065708
 10
16.562304500712
 20
49.178220910341
  0
LWPOLYLINE
  5
201E0
100
AcDbEntity
  8
0
100
AcDbPolyline
 70
0
 90
3
 10
16.5640383837749
 20
49.1782253584224
 10
16.564108647
 20
49.1782195309787
 10
16.5644158650642
 20
49.1781853799839
  0
LWPOLYLINE
  5
201E1
100
AcDbEntity
  8
0
100
AcDbPolyline
 70
0
 90
13
 10
16.5623473637402
 20
49.1781337353361
 10
16.5624868359607
 20
49.1781665362101
 10
16.562490799997
 20
49.1782200068336
 10
16.5625557898598
 20
49.1782133322621
 10
16.5627819673514
 20
49.1782364187888
 10
16.5632429263043
 20
49.1782656552688
 10
16.563443717179
 20
49.1782655482439
 10
16.5634570840909
 20
49.1782655411792
 10
16.563613509429
 20
49.1782557943477
 10
16.5636211777581
 20
49.178255322333
 10
16.5638344193283
 20
49.1782421935107
 10
16.5638382208522
 20
49.1782419587882
 10
16.5640069888763
 20
49.1782279622266
  0
LWPOLYLINE
  5
201E2
100
AcDbEntity
  8
0
100
AcDbPolyline
 70
0
 90
4
 10
16.6077964667566
 20
49.1962412076953
 10
16.6081149922717
 20
49.1954885407809
 10
16.6083974929652
 20
49.1948685254069
 10
16.6087473351463
 20
49.1942812299444
  0
LWPOLYLINE
  5
201E3
100
AcDbEntity
  8
0
100
AcDbPolyline
 70
0
 90
7
 10
16.6434422601527
 20
49.132890344188
 10
16.6434483151396
 20
49.1334737057828
 10
16.643436019015
 20
49.1338938839844
 10
16.6435102229838
 20
49.1349362224322
 10
16.6435199896047
 20
49.1357178684535
 10
16.6433148339344
 20
49.1361521353649
 10
16.6431507783837
 20
49.1364034113158
  0
LWPOLYLINE
  5
201E4
100
AcDbEntity
  8
0
100
AcDbPolyline
 70
0
 90
9
 10
16.5780440440398
 20
49.2302593783028
 10
16.5781259575759
 20
49.2302766872687
 10
16.5782026518136
 20
49.2302725647061
 10
16.5794962885393
 20
49.2298226619881
 10
16.5800042614432
 20
49.2296328335687
 10
16.5803851633478
 20
49.2294512063511
 10
16.5809774125119
 20
49.2292290700803
 10
16.5810414013927
 20
49.2291780930169
 10
16.5810584639832
 20
49.2291103800316
  0
LWPOLYLINE
  5
201E5
100
AcDbEntity
  8
0
100
AcDbPolyline
 70
0
 90
4
 10
16.6090574542004
 20
49.1969636605132
 10
16.6090957452023
 20
49.1967946183931
 10
16.6090455765145
 20
49.1964939009961
 10
16.6088257725417
 20
49.1953906352865
  0
LWPOLYLINE
  5
201E6
100
AcDbEntity
  8
0
100
AcDbPolyline
 70
0
 90
3
 10
16.6682998738459
 20
49.1370303178143
 10
16.6659667535135
 20
49.1386780270562
 10
16.6649979259775
 20
49.1393977859491
  0
LWPOLYLINE
  5
201E7
100
AcDbEntity
  8
0
100
AcDbPolyline
 70
0
 90
3
 10
16.6065052636611
 20
49.1959445702069
 10
16.6065546347841
 20
49.1960058665489
 10
16.6070185655887
 20
49.1962422553975
  0
LWPOLYLINE
  5
201E8
100
AcDbEntity
  8
0
100
AcDbPolyline
 70
0
 90
10
 10
16.6087473351463
 20
49.1942812299444
 10
16.609108322327
 20
49.1938858617999
 10
16.6099324675447
 20
49.1930231998202
 10
16.6099680871337
 20
49.1929848761496
 10
16.6102394335562
 20
49.1927177894963
 10
16.610314640966
 20
49.1925964877985
 10
16.6103784356288
 20
49.1924280674538
 10
16.6106180302477
 20
49.1916773044649
 10
16.6106722224593
 20
49.1915997387639
 10
16.6113490878399
 20
49.1911773472289
  0
LWPOLYLINE
  5
201E9
100
AcDbEntity
  8
0
100
AcDbPolyline
 70
0
 90
2
 10
16.6127256200214
 20
49.1953235743823
 10
16.6127531532861
 20
49.1950972303916
  0
LWPOLYLINE
  5
201EA
100
AcDbEntity
  8
0
100
AcDbPolyline
 70
0
 90
6
 10
16.609108322327
 20
49.1938858617999
 10
16.6105666212301
 20
49.1944845616071
 10
16.6120277960048
 20
49.1949779621655
 10
16.6127531532861
 20
49.1950972303916
 10
16.6135190446092
 20
49.1952294942215
 10
16.6135729684181
 20
49.1953507876669
  0
LWPOLYLINE
  5
201EB
100
AcDbEntity
  8
0
100
AcDbPolyline
 70
0
 90
3
 10
16.609108322327
 20
49.1938858617999
 10
16.6090714456922
 20
49.1938868671475
 10
16.6084967243766
 20
49.1936754690054
  0
LWPOLYLINE
  5
201EC
100
AcDbEntity
  8
0
100
AcDbPolyline
 70
0
 90
64
 10
16.5493051912486
 20
49.180006308797
 10
16.5495318588363
 20
49.1799940872469
 10
16.5497326380245
 20
49.1799682576436
 10
16.5498797694542
 20
49.1799401076754
 10
16.5499171918865
 20
49.1799329473362
 10
16.5501106517953
 20
49.1798747535699
 10
16.5502938792379
 20
49.1798009035958
 10
16.5504449343672
 20
49.1797188770887
 10
16.5505687361738
 20
49.1796364428042
 10
16.550712391466
 20
49.1795208708433
 10
16.5508494418587
 20
49.179360322256
 10
16.5509250266644
 20
49.1792375393473
 10
16.5509964876781
 20
49.1790681515029
 10
16.5510843245026
 20
49.178859943132
 10
16.5512078667254
 20
49.1785214955337
 10
16.5512869492055
 20
49.1783045247112
 10
16.5513758553833
 20
49.1781081565832
 10
16.5514826958305
 20
49.1779566671389
 10
16.5515724070251
 20
49.1778551547743
 10
16.5516661158056
 20
49.1777810648847
 10
16.5518150989121
 20
49.1776890294219
 10
16.5519886762252
 20
49.1776001069176
 10
16.5522267260677
 20
49.1774993206168
 10
16.5522289614364
 20
49.1774988460507
 10
16.5523328498218
 20
49.1774767724074
 10
16.5524521604052
 20
49.1774620399801
 10
16.5526419352141
 20
49.1774508889508
 10
16.552652709533
 20
49.1774507822538
 10
16.5532097101255
 20
49.17744524575
 10
16.5538590971608
 20
49.1774387873938
 10
16.5541990730851
 20
49.1774138376655
 10
16.554450317998
 20
49.1773773094377
 10
16.5547493319372
 20
49.1773123481138
 10
16.5563221522292
 20
49.1769471250605
 10
16.5578893318366
 20
49.1765824748983
 10
16.5582851024989
 20
49.1765105660728
 10
16.5585151030923
 20
49.1764864446949
 10
16.5586840664118
 20
49.1764726239405
 10
16.5588484374512
 20
49.1764623650774
 10
16.5592499011238
 20
49.1764634050839
 10
16.5594824755059
 20
49.1764772227322
 10
16.5594930954348
 20
49.1764778533813
 10
16.5597661430335
 20
49.1765052828137
 10
16.5599490424318
 20
49.1765430189917
 10
16.5601604874088
 20
49.1765958159201
 10
16.5603136296038
 20
49.1766524155602
 10
16.5604559042631
 20
49.1767154766186
 10
16.560569798723
 20
49.1767757903705
 10
16.560689321224
 20
49.1768554105887
 10
16.5608031988404
 20
49.1769491011791
 10
16.560927307372
 20
49.177087835488
 10
16.5611381445993
 20
49.17733230873
 10
16.5612857351107
 20
49.1775062486554
 10
16.5613667267836
 20
49.1775943376071
 10
16.561398739274
 20
49.1776324222801
 10
16.5614669360986
 20
49.1777019157392
 10
16.5615305542248
 20
49.1777573225645
 10
16.5616251611681
 20
49.177830959129
 10
16.5617845188237
 20
49.1779212420785
 10
16.5619366207703
 20
49.1779999538261
 10
16.5619912527962
 20
49.178023784725
 10
16.562074588624
 20
49.1780532437531
 10
16.5622045097071
 20
49.1780966519881
 10
16.5622423380007
 20
49.17810683821
  0
LWPOLYLINE
  5
201ED
100
AcDbEntity
  8
0
100
AcDbPolyline
 70
0
 90
4
 10
16.5474465396848
 20
49.1797699080024
 10
16.5480361298819
 20
49.1798951663634
 10
16.5482692875373
 20
49.1799375243406
 10
16.548628417402
 20
49.1800027667818
  0
LWPOLYLINE
  5
201EE
100
AcDbEntity
  8
0
100
AcDbPolyline
 70
0
 90
3
 10
16.5463384081661
 20
49.1795257295168
 10
16.5468348896227
 20
49.179639959266
 10
16.5472771159605
 20
49.1797339133401
  0
LWPOLYLINE
  5
201EF
100
AcDbEntity
  8
0
100
AcDbPolyline
 70
0
 90
3
 10
16.5951077091316
 20
49.184297648452
 10
16.5951209932182
 20
49.1843826209535
 10
16.5951759570311
 20
49.1847139572684
  0
LWPOLYLINE
  5
201F0
100
AcDbEntity
  8
0
100
AcDbPolyline
 70
0
 90
4
 10
16.5954101284725
 20
49.2224115646901
 10
16.5946714947814
 20
49.2222583509408
 10
16.5939534744458
 20
49.2221109958123
 10
16.5935200544548
 20
49.2220227219664
  0
LWPOLYLINE
  5
201F1
100
AcDbEntity
  8
0
100
AcDbPolyline
 70
0
 90
3
 10
16.5931899849574
 20
49.2219542484714
 10
16.5930026194753
 20
49.2219144638827
 10
16.5920287345275
 20
49.2217139313599
  0
LWPOLYLINE
  5
201F2
100
AcDbEntity
  8
0
100
AcDbPolyline
 70
0
 90
5
 10
16.588504106548
 20
49.2210057998059
 10
16.590807723746
 20
49.2216460145218
 10
16.591224128252
 20
49.2216297968313
 10
16.5914843264611
 20
49.2216193965508
 10
16.591556397728
 20
49.221616515877
  0
LWPOLYLINE
  5
201F3
100
AcDbEntity
  8
0
100
AcDbPolyline
 70
0
 90
4
 10
16.5919169815157
 20
49.2075935773041
 10
16.592349791255
 20
49.2077995459992
 10
16.5924863519113
 20
49.207830928843
 10
16.5935319530949
 20
49.2080953431667
  0
LWPOLYLINE
  5
201F4
100
AcDbEntity
  8
0
100
AcDbPolyline
 70
0
 90
9
 10
16.6536859186131
 20
49.1860771378542
 10
16.6534431323178
 20
49.1861275850603
 10
16.6533852558103
 20
49.1861396109433
 10
16.6521388862231
 20
49.1863985762154
 10
16.651722779468
 20
49.1864958696866
 10
16.6516260354727
 20
49.1865132942525
 10
16.6514961117721
 20
49.1865366936572
 10
16.6512535761262
 20
49.1865803746293
 10
16.6494650473803
 20
49.1869443210072
  0
LWPOLYLINE
  5
201F5
100
AcDbEntity
  8
0
100
AcDbPolyline
 70
0
 90
3
 10
16.6072136625117
 20
49.1952812114789
 10
16.6081049545702
 20
49.1947300141664
 10
16.6087473351463
 20
49.1942812299444
  0
LWPOLYLINE
  5
201F6
100
AcDbEntity
  8
0
100
AcDbPolyline
 70
0
 90
6
 10
16.6775886810321
 20
49.1677722650833
 10
16.6779318941121
 20
49.1681813112875
 10
16.6781619239086
 20
49.1684677259677
 10
16.6782637919915
 20
49.1685182145344
 10
16.6784176369085
 20
49.1687126308449
 10
16.6784447207576
 20
49.1687809053133
  0
LWPOLYLINE
  5
201F7
100
AcDbEntity
  8
0
100
AcDbPolyline
 70
0
 90
2
 10
16.6769444552762
 20
49.16703284675
 10
16.6773425266073
 20
49.1675012200456
  0
LWPOLYLINE
  5
201F8
100
AcDbEntity
  8
0
100
AcDbPolyline
 70
0
 90
13
 10
16.675106942106
 20
49.1641997280293
 10
16.6751204421986
 20
49.1642564155008
 10
16.6751833200388
 20
49.164520460879
 10
16.6752200459563
 20
49.1646746828881
 10
16.6752516770599
 20
49.1647848914044
 10
16.6753116715891
 20
49.1649939172351
 10
16.6755061937315
 20
49.1654743896145
 10
16.6756962490494
 20
49.1658041250079
 10
16.6758927873751
 20
49.1661164082495
 10
16.6759166085779
 20
49.1661450426263
 10
16.6762926901629
 20
49.1665971157452
 10
16.676448898174
 20
49.1667848843423
 10
16.6764510791025
 20
49.1667875057991
  0
LWPOLYLINE
  5
201F9
100
AcDbEntity
  8
0
100
AcDbPolyline
 70
0
 90
14
 10
16.6617783124566
 20
49.1401868285274
 10
16.6617837968207
 20
49.1401962312956
 10
16.6617900239151
 20
49.1402027388402
 10
16.661945522744
 20
49.1403380645802
 10
16.6620341564983
 20
49.1404168274413
 10
16.6621817485762
 20
49.1405452103396
 10
16.6623049319581
 20
49.1406526811008
 10
16.6623588038466
 20
49.14069917516
 10
16.6623773870639
 20
49.1407165201142
 10
16.6623957375982
 20
49.1407352867228
 10
16.6624184047984
 20
49.1407607879992
 10
16.6624365111344
 20
49.1407834807318
 10
16.6624524314949
 20
49.1408061460665
 10
16.6624624480787
 20
49.1408223321085
  0
LWPOLYLINE
  5
201FA
100
AcDbEntity
  8
0
100
AcDbPolyline
 70
0
 90
7
 10
16.6071642690366
 20
49.1888377259423
 10
16.6070320107578
 20
49.1887368568182
 10
16.6067050250197
 20
49.1884604215685
 10
16.6064088391015
 20
49.188229037034
 10
16.6063994229522
 20
49.188221680835
 10
16.6062762979357
 20
49.1881315485888
 10
16.6062660521278
 20
49.1881221536161
  0
LWPOLYLINE
  5
201FB
100
AcDbEntity
  8
0
100
AcDbPolyline
 70
0
 90
4
 10
16.6081149922717
 20
49.1954885407809
 10
16.6088257725417
 20
49.1953906352865
 10
16.6087650782631
 20
49.1950255563656
 10
16.6087473351463
 20
49.1942812299444
  0
LWPOLYLINE
  5
201FC
100
AcDbEntity
  8
0
100
AcDbPolyline
 70
0
 90
15
 10
16.6062205741909
 20
49.188080451694
 10
16.6058807566833
 20
49.1877688459116
 10
16.6057469440797
 20
49.1876598653191
 10
16.6055172897451
 20
49.1874626852931
 10
16.6052526187401
 20
49.1872268422025
 10
16.6050502477237
 20
49.1870315951083
 10
16.604676102278
 20
49.186706583953
 10
16.6043885862413
 20
49.1864419835148
 10
16.6042395250342
 20
49.1863058698225
 10
16.6041693127253
 20
49.1862438653727
 10
16.603714776592
 20
49.1858424605284
 10
16.6036557233316
 20
49.185794361337
 10
16.6035688101025
 20
49.1857235698292
 10
16.6034329463118
 20
49.1855902900366
 10
16.6033056331318
 20
49.1854787817861
  0
LWPOLYLINE
  5
201FD
100
AcDbEntity
  8
0
100
AcDbPolyline
 70
0
 90
2
 10
16.5862158047872
 20
49.2203653316393
 10
16.5870781322189
 20
49.2206048429334
  0
LWPOLYLINE
  5
201FE
100
AcDbEntity
  8
0
100
AcDbPolyline
 70
0
 90
9
 10
16.573696182728
 20
49.2182607070522
 10
16.5735522538047
 20
49.2182204118203
 10
16.5732679814904
 20
49.2180298632771
 10
16.5731445254425
 20
49.2179410104327
 10
16.5727046902524
 20
49.2176244525779
 10
16.5726767791648
 20
49.2176042786783
 10
16.5725100929385
 20
49.2174837953444
 10
16.5720169515745
 20
49.2171273414943
 10
16.5718564328173
 20
49.217012041501
  0
LWPOLYLINE
  5
201FF
100
AcDbEntity
  8
0
100
AcDbPolyline
 70
0
 90
6
 10
16.5716931000644
 20
49.2168739631493
 10
16.5715890450622
 20
49.2167673076554
 10
16.570610212183
 20
49.2156312088227
 10
16.5704073148177
 20
49.2153871613809
 10
16.5699928311383
 20
49.2148886079349
 10
16.5699609763805
 20
49.2148391971794
  0
LWPOLYLINE
  5
20200
100
AcDbEntity
  8
0
100
AcDbPolyline
 70
0
 90
2
 10
16.6075902435337
 20
49.1933345879626
 10
16.6084967243766
 20
49.1936754690054
  0
LWPOLYLINE
  5
20201
100
AcDbEntity
  8
0
100
AcDbPolyline
 70
0
 90
6
 10
16.6099324675447
 20
49.1930231998202
 10
16.610517081694
 20
49.1932107919982
 10
16.6109232346435
 20
49.1933365657076
 10
16.6113588648087
 20
49.1935455534525
 10
16.6115445136848
 20
49.1936186698287
 10
16.6119811749449
 20
49.193872282547
  0
LWPOLYLINE
  5
20202
100
AcDbEntity
  8
0
100
AcDbPolyline
 70
0
 90
10
 10
16.6105666212301
 20
49.1944845616071
 10
16.6109171400661
 20
49.194131582546
 10
16.6110773482143
 20
49.1939926684163
 10
16.6115445136848
 20
49.1936186698287
 10
16.6116623611252
 20
49.1934650992952
 10
16.6120015818047
 20
49.1931098834654
 10
16.6121740789944
 20
49.1928471343885
 10
16.6123283369243
 20
49.1924045465757
 10
16.6123812820122
 20
49.1922901694866
 10
16.6125045970524
 20
49.1922260911288
  0
LWPOLYLINE
  5
20203
100
AcDbEntity
  8
0
100
AcDbPolyline
 70
0
 90
5
 10
16.6106180302477
 20
49.1916773044649
 10
16.611623421314
 20
49.1918570589838
 10
16.6123061674543
 20
49.1920978910722
 10
16.6124447987534
 20
49.1921518484365
 10
16.6125045970524
 20
49.1922260911288
  0
LWPOLYLINE
  5
20204
100
AcDbEntity
  8
0
100
AcDbPolyline
 70
0
 90
4
 10
16.6095554124186
 20
49.19164290912
 10
16.6097304712699
 20
49.1916617333416
 10
16.610065058403
 20
49.1916194991527
 10
16.6106180302477
 20
49.1916773044649
  0
LWPOLYLINE
  5
20205
100
AcDbEntity
  8
0
100
AcDbPolyline
 70
0
 90
5
 10
16.6091800530058
 20
49.19216829358
 10
16.6095232360273
 20
49.1917342448903
 10
16.6095554124186
 20
49.19164290912
 10
16.6095409834037
 20
49.191495267989
 10
16.6091753235413
 20
49.191431372413
  0
LWPOLYLINE
  5
20206
100
AcDbEntity
  8
0
100
AcDbPolyline
 70
0
 90
2
 10
16.6103784356288
 20
49.1924280674538
 10
16.6095228074171
 20
49.1922532869261
  0
LWPOLYLINE
  5
20207
100
AcDbEntity
  8
0
100
AcDbPolyline
 70
0
 90
3
 10
16.6098363998447
 20
49.1953138132578
 10
16.6100021301644
 20
49.1949817547027
 10
16.6105666212301
 20
49.1944845616071
  0
LWPOLYLINE
  5
20208
100
AcDbEntity
  8
0
100
AcDbPolyline
 70
0
 90
8
 10
16.6088257725417
 20
49.1953906352865
 10
16.6088839600335
 20
49.1953418537373
 10
16.6098363998447
 20
49.1953138132578
 10
16.6117411163333
 20
49.1953298216663
 10
16.612588226783
 20
49.1953147041804
 10
16.6127256200214
 20
49.1953235743823
 10
16.6133813486787
 20
49.1953848681306
 10
16.6135729684181
 20
49.1953507876669
  0
LWPOLYLINE
  5
20209
100
AcDbEntity
  8
0
100
AcDbPolyline
 70
0
 90
2
 10
16.6404441103412
 20
49.2059517354309
 10
16.638972664533
 20
49.2062957943808
  0
LWPOLYLINE
  5
2020A
100
AcDbEntity
  8
0
100
AcDbPolyline
 70
0
 90
3
 10
16.6081149922717
 20
49.1954885407809
 10
16.6076857445083
 20
49.1954885803547
 10
16.6072136625117
 20
49.1952812114789
  0
LWPOLYLINE
  5
2020B
100
AcDbEntity
  8
0
100
AcDbPolyline
 70
0
 90
4
 10
16.6073628689408
 20
49.1973275395228
 10
16.6072785476711
 20
49.1972915158341
 10
16.6070868305123
 20
49.1972463832031
 10
16.6065215438989
 20
49.1970694814788
  0
LWPOLYLINE
  5
2020C
100
AcDbEntity
  8
0
100
AcDbPolyline
 70
0
 90
2
 10
16.6077683804889
 20
49.193149152932
 10
16.6075902435337
 20
49.1933345879626
  0
LWPOLYLINE
  5
2020D
100
AcDbEntity
  8
0
100
AcDbPolyline
 70
0
 90
7
 10
16.6079025987133
 20
49.1925543954207
 10
16.6079073278345
 20
49.1926286280483
 10
16.6078813523025
 20
49.1927694805852
 10
16.6078539417668
 20
49.192893594288
 10
16.6078105377841
 20
49.1930522202756
 10
16.6077909540796
 20
49.1931067667496
 10
16.6077683804889
 20
49.193149152932
  0
LWPOLYLINE
  5
2020E
100
AcDbEntity
  8
0
100
AcDbPolyline
 70
0
 90
2
 10
16.6053725092371
 20
49.1973874505002
 10
16.6052567538463
 20
49.1975419840486
  0
LWPOLYLINE
  5
2020F
100
AcDbEntity
  8
0
100
AcDbPolyline
 70
0
 90
6
 10
16.6069857790912
 20
49.1979324305328
 10
16.6070702040685
 20
49.1978624350214
 10
16.6071938452074
 20
49.1976944571474
 10
16.6073628689408
 20
49.1973275395228
 10
16.6076278988467
 20
49.1966539254358
 10
16.6077964667566
 20
49.1962412076953
  0
LWPOLYLINE
  5
20210
100
AcDbEntity
  8
0
100
AcDbPolyline
 70
0
 90
4
 10
16.6077964667566
 20
49.1962412076953
 10
16.6079390650867
 20
49.1962661453248
 10
16.6089450552944
 20
49.1964975159257
 10
16.6090455765145
 20
49.1964939009961
  0
LWPOLYLINE
  5
20211
100
AcDbEntity
  8
0
100
AcDbPolyline
 70
0
 90
3
 10
16.6090574542004
 20
49.1969636605132
 10
16.6089565355565
 20
49.1969516900257
 10
16.6076278988467
 20
49.1966539254358
  0
LWPOLYLINE
  5
20212
100
AcDbEntity
  8
0
100
AcDbPolyline
 70
0
 90
7
 10
16.6073628689408
 20
49.1973275395228
 10
16.6081155874303
 20
49.1974708708567
 10
16.6087403277039
 20
49.1975791984021
 10
16.6088530867702
 20
49.1975817327443
 10
16.6089254880469
 20
49.1975393397382
 10
16.6089581098502
 20
49.1974352096681
 10
16.6090574542004
 20
49.1969636605132
  0
LWPOLYLINE
  5
20213
100
AcDbEntity
  8
0
100
AcDbPolyline
 70
0
 90
2
 10
16.6055090904882
 20
49.1829185165723
 10
16.6055659703464
 20
49.1833814937483
  0
LWPOLYLINE
  5
20214
100
AcDbEntity
  8
0
100
AcDbPolyline
 70
0
 90
2
 10
16.5860862312654
 20
49.2203293412314
 10
16.5871913775308
 20
49.2206362962188
  0
LWPOLYLINE
  5
20215
100
AcDbEntity
  8
0
100
AcDbPolyline
 70
0
 90
52
 10
16.5622064807051
 20
49.1781971542521
 10
16.5621315527026
 20
49.1781773131321
 10
16.5621115433056
 20
49.1781720143905
 10
16.5620395408215
 20
49.1781497585213
 10
16.5619777828707
 20
49.1781283776035
 10
16.5619275570704
 20
49.1781100077466
 10
16.5618866313086
 20
49.178092300817
 10
16.5618223087405
 20
49.17806450457
 10
16.5617196323176
 20
49.1780129793435
 10
16.5616099272196
 20
49.177950758561
 10
16.561521213906
 20
49.1778961579979
 10
16.561476798996
 20
49.1778654659542
 10
16.5614374690479
 20
49.1778343132418
 10
16.561387164847
 20
49.1777900490034
 10
16.5613015751487
 20
49.1777128759867
 10
16.5612261752963
 20
49.1776271756781
 10
16.5610510301543
 20
49.1774180557608
 10
16.5609772699543
 20
49.1773241474437
 10
16.5608245637442
 20
49.1771297275481
 10
16.5606833785835
 20
49.1770012816284
 10
16.5606388401786
 20
49.1769653528981
 10
16.5605125455778
 20
49.1768713276912
 10
16.5603823163665
 20
49.1767914594861
 10
16.5602690939571
 20
49.1767412349969
 10
16.5601295073186
 20
49.1766885860076
 10
16.5600294305119
 20
49.1766589266582
 10
16.559916728449
 20
49.1766313520365
 10
16.5598001601737
 20
49.1766088195387
 10
16.5597795675514
 20
49.1766048373949
 10
16.5596386501013
 20
49.1765868289722
 10
16.5594968243014
 20
49.1765817813061
 10
16.5594829221978
 20
49.1765813906046
 10
16.559245507568
 20
49.1765747149046
 10
16.5586904951747
 20
49.1765777404804
 10
16.5585087236767
 20
49.1765827374186
 10
16.5584991517309
 20
49.1765830000491
 10
16.5584449023995
 20
49.1765867086889
 10
16.5583165856443
 20
49.1765954795659
 10
16.558121120105
 20
49.1766235018926
 10
16.5579491871
 20
49.1766541339821
 10
16.5576254168723
 20
49.1767195091723
 10
16.5573514474724
 20
49.1767840919169
 10
16.5571723974605
 20
49.1768271569165
 10
16.5563605696592
 20
49.1770224118535
 10
16.5547912696894
 20
49.1773988320303
 10
16.5544653060244
 20
49.1774632274675
 10
16.5542500899388
 20
49.1774938235602
 10
16.5538730118339
 20
49.177521191614
 10
16.553699470898
 20
49.1775234876733
 10
16.5534195928472
 20
49.1775271903667
 10
16.5526563354188
 20
49.1775285537817
 10
16.552652709533
 20
49.1774507822538
  0
LWPOLYLINE
  5
20216
100
AcDbEntity
  8
0
100
AcDbPolyline
 70
0
 90
32
 10
16.5526563354188
 20
49.1775285537817
 10
16.5525885925566
 20
49.1775286744282
 10
16.5525204400675
 20
49.1775319517033
 10
16.5524567539784
 20
49.1775390755296
 10
16.5523373655492
 20
49.1775625767694
 10
16.55226673397
 20
49.1775807833258
 10
16.5521975808909
 20
49.1776017186239
 10
16.5520564892343
 20
49.1776620244975
 10
16.5519041844245
 20
49.1777391690765
 10
16.5517592366175
 20
49.1778285075776
 10
16.5516465096743
 20
49.1779365184709
 10
16.5515945164542
 20
49.1779928711061
 10
16.5515469004254
 20
49.1780536067299
 10
16.5515143803171
 20
49.1780990470503
 10
16.5514417090017
 20
49.1782358780643
 10
16.5513967211736
 20
49.1783439295165
 10
16.5513314602917
 20
49.1785358352106
 10
16.5512055671243
 20
49.1788776429157
 10
16.5511298623229
 20
49.1790858995671
 10
16.551025210071
 20
49.1792989647498
 10
16.5509430558821
 20
49.179427248984
 10
16.5508097865064
 20
49.1795683478489
 10
16.5507134084584
 20
49.179656810463
 10
16.5505146834424
 20
49.1797932368041
 10
16.5503250195932
 20
49.1798900561301
 10
16.5501427773535
 20
49.1799596345426
 10
16.5499466937646
 20
49.1800170078845
 10
16.5497689200868
 20
49.1800505408472
 10
16.5495252095159
 20
49.1800806327172
 10
16.5493070299706
 20
49.1800899324177
 10
16.5490320690695
 20
49.1800838706354
 10
16.5487116183251
 20
49.1800459766228
  0
LWPOLYLINE
  5
20217
100
AcDbEntity
  8
0
100
AcDbPolyline
 70
0
 90
9
 10
16.5643069301491
 20
49.1781974900679
 10
16.564108647
 20
49.1782195309787
 10
16.5640383837749
 20
49.1782253584224
 10
16.5640069888763
 20
49.1782279622266
 10
16.5638382208522
 20
49.1782419587882
 10
16.5638344193283
 20
49.1782421935107
 10
16.563621177758
 20
49.178255322333
 10
16.563613509429
 20
49.1782557943477
 10
16.5635425534542
 20
49.1782602152887
  0
LWPOLYLINE
  5
20218
100
AcDbEntity
  8
0
100
AcDbPolyline
 70
0
 90
6
 10
16.5644593295146
 20
49.178180548923
 10
16.5644959077266
 20
49.1781764826451
 10
16.5647478173182
 20
49.1781650358211
 10
16.564841191248
 20
49.1781203107928
 10
16.5649070952075
 20
49.1781168569653
 10
16.564985509776
 20
49.1781127432642
  0
LWPOLYLINE
  5
20219
100
AcDbEntity
  8
0
100
AcDbPolyline
 70
0
 90
7
 10
16.5769828176751
 20
49.2311296703782
 10
16.5770801062834
 20
49.231027679468
 10
16.5772509736171
 20
49.230856746379
 10
16.577356441267
 20
49.2307720704772
 10
16.5774703818042
 20
49.2306904389285
 10
16.5776156062075
 20
49.2305858846833
 10
16.5777819426829
 20
49.2304864488589
  0
LWPOLYLINE
  5
2021A
100
AcDbEntity
  8
0
100
AcDbPolyline
 70
0
 90
4
 10
16.5948668893939
 20
49.1828066161254
 10
16.5948912431682
 20
49.1829551760366
 10
16.5949953890806
 20
49.1835776402331
 10
16.5950397269433
 20
49.1838617963784
  0
LWPOLYLINE
  5
2021B
100
AcDbEntity
  8
0
100
AcDbPolyline
 70
0
 90
6
 10
16.5950277040048
 20
49.1804289696663
 10
16.5950131952529
 20
49.1804862728639
 10
16.5949701463761
 20
49.1806725312281
 10
16.5948499396079
 20
49.1811529793794
 10
16.5947904382283
 20
49.1814171254388
 10
16.5947669112983
 20
49.1816325365593
  0
LWPOLYLINE
  5
2021C
100
AcDbEntity
  8
0
100
AcDbPolyline
 70
0
 90
2
 10
16.5951417715471
 20
49.1799784412745
 10
16.5950349768366
 20
49.1804002438505
  0
LWPOLYLINE
  5
2021D
100
AcDbEntity
  8
0
100
AcDbPolyline
 70
0
 90
67
 10
16.6574019857653
 20
49.1381115989956
 10
16.6574046242796
 20
49.1381123304001
 10
16.6574233439107
 20
49.1381153596031
 10
16.6575148449396
 20
49.1381277058922
 10
16.6576006384071
 20
49.1381392825063
 10
16.6577180463627
 20
49.1381553571616
 10
16.6579212209243
 20
49.1381831734848
 10
16.6579449363881
 20
49.1381864200401
 10
16.6579721521987
 20
49.1381889989707
 10
16.6579819191026
 20
49.1381892904766
 10
16.6580270282083
 20
49.138187739474
 10
16.6580474869488
 20
49.1381874723872
 10
16.658061965995
 20
49.138188366512
 10
16.6580770739128
 20
49.1381902184548
 10
16.6581216503306
 20
49.1381970719161
 10
16.6581265528045
 20
49.1381978254316
 10
16.6581764943405
 20
49.1382055029877
 10
16.6582167393821
 20
49.1382153043356
 10
16.6582771417612
 20
49.1382316458215
 10
16.6583269025813
 20
49.1382429021037
 10
16.6583319722142
 20
49.1382440490679
 10
16.658418505666
 20
49.1382597453862
 10
16.658509244149
 20
49.1382779629897
 10
16.6585281419841
 20
49.1382825394022
 10
16.6587111028638
 20
49.13832684267
 10
16.6587279495402
 20
49.1383309226291
 10
16.6587472943585
 20
49.1383356064846
 10
16.6587715091318
 20
49.1383417813628
 10
16.6588174967034
 20
49.1383556593128
 10
16.6588328552962
 20
49.1383609476056
 10
16.6588428134164
 20
49.1383648784159
 10
16.658842883344
 20
49.1383649059562
 10
16.6588904085026
 20
49.1383836631822
 10
16.6589245515055
 20
49.1383988849498
 10
16.658972761783
 20
49.1384203784274
 10
16.6591181496953
 20
49.1384851951765
 10
16.6592085866438
 20
49.1385255135246
 10
16.659311634953
 20
49.138572198915
 10
16.6593610783975
 20
49.1385945985502
 10
16.6594474701067
 20
49.138633139224
 10
16.6594981954064
 20
49.1386535281309
 10
16.6595167082377
 20
49.1386615348995
 10
16.6595932692316
 20
49.138697808808
 10
16.6596096017018
 20
49.138705661879
 10
16.6596568113196
 20
49.1387255415244
 10
16.65981484423
 20
49.1387864685668
 10
16.6600005035744
 20
49.1388485655714
 10
16.6600993206008
 20
49.1388810172494
 10
16.660178953728
 20
49.1389094848663
 10
16.6603526500415
 20
49.138984793073
 10
16.6604415050862
 20
49.1390242933675
 10
16.6604649755779
 20
49.1390354974348
 10
16.6604786485157
 20
49.1390420242445
 10
16.66055537229
 20
49.1390809317639
 10
16.6606335558284
 20
49.139123225209
 10
16.6606917950855
 20
49.1391576824939
 10
16.6607938176921
 20
49.1392170312761
 10
16.6608260146652
 20
49.1392344043873
 10
16.6608473910367
 20
49.1392444487201
 10
16.6608996504863
 20
49.1392702088657
 10
16.6609131814587
 20
49.1392779909186
 10
16.6609636190615
 20
49.1393087417578
 10
16.6610419287964
 20
49.1393612910432
 10
16.6610742986758
 20
49.1393824929822
 10
16.6611676450992
 20
49.1394397837621
 10
16.6611964325437
 20
49.1394571869104
 10
16.6612892441198
 20
49.1395138140112
  0
LWPOLYLINE
  5
2021E
100
AcDbEntity
  8
0
100
AcDbPolyline
 70
0
 90
5
 10
16.6037993062965
 20
49.1973258843881
 10
16.6052567538463
 20
49.1975419840486
 10
16.6067421990833
 20
49.1977841985302
 10
16.606838319794
 20
49.1978214915174
 10
16.6069857790912
 20
49.1979324305328
  0
LWPOLYLINE
  5
2021F
100
AcDbEntity
  8
0
100
AcDbPolyline
 70
0
 90
4
 10
16.6439010762149
 20
49.132218145332
 10
16.6438424123891
 20
49.1325981608986
 10
16.6452803948874
 20
49.1329710928202
 10
16.6465168940192
 20
49.1335220031566
  0
LWPOLYLINE
  5
20220
100
AcDbEntity
  8
0
100
AcDbPolyline
 70
0
 90
11
 10
16.5194149676585
 20
49.2202030794591
 10
16.5198459956778
 20
49.2202337627647
 10
16.5209022147759
 20
49.2203225161638
 10
16.521086927956
 20
49.2203357307889
 10
16.52143010529
 20
49.220346523914
 10
16.5215442990194
 20
49.2203317206711
 10
16.5216406976283
 20
49.2202580201803
 10
16.5217114505802
 20
49.2201319165193
 10
16.5217752644731
 20
49.2200730711736
 10
16.5219936717534
 20
49.2200478154719
 10
16.5222810457441
 20
49.2200777010549
  0
LWPOLYLINE
  5
20221
100
AcDbEntity
  8
0
100
AcDbPolyline
 70
0
 90
9
 10
16.5189390570764
 20
49.2202575838226
 10
16.5186252104787
 20
49.2203593470829
 10
16.5181609879486
 20
49.2204233340191
 10
16.5178281683277
 20
49.2205399413145
 10
16.5175876578149
 20
49.2206469535917
 10
16.5173145505766
 20
49.2207516310618
 10
16.5169798145587
 20
49.2208302881426
 10
16.51647203799
 20
49.2208587402385
 10
16.5161175672348
 20
49.2210062017194
  0
LWPOLYLINE
  5
20222
100
AcDbEntity
  8
0
100
AcDbPolyline
 70
0
 90
5
 10
16.633238276316
 20
49.1237524851068
 10
16.6331131830748
 20
49.1227096404732
 10
16.6328853076875
 20
49.122287600999
 10
16.6327901816954
 20
49.1217681514808
 10
16.6336771231173
 20
49.1178923896768
  0
LWPOLYLINE
  5
20223
100
AcDbEntity
  8
0
100
AcDbPolyline
 70
0
 90
2
 10
16.6117297542384
 20
49.1961411251026
 10
16.6115606438666
 20
49.1961112393245
  0
LWPOLYLINE
  5
20224
100
AcDbEntity
  8
0
100
AcDbPolyline
 70
0
 90
9
 10
16.6072815610349
 20
49.1935856100942
 10
16.6072002583643
 20
49.1936571121946
 10
16.6071846301554
 20
49.1936723115482
 10
16.6071472028163
 20
49.1937226629051
 10
16.6071123372081
 20
49.1937917372067
 10
16.6070667507873
 20
49.1938820508318
 10
16.6070072759296
 20
49.1940180019399
 10
16.6069301269155
 20
49.1941943525061
 10
16.6070356909363
 20
49.1942170290068
  0
LWPOLYLINE
  5
20225
100
AcDbEntity
  8
0
100
AcDbPolyline
 70
0
 90
9
 10
16.671792588388
 20
49.1807439856156
 10
16.6717597849518
 20
49.1807621830303
 10
16.670511604269
 20
49.1814545976962
 10
16.6699343899072
 20
49.1817806931524
 10
16.6699322298906
 20
49.1817819123354
 10
16.6698221865475
 20
49.1818440798952
 10
16.66960703969
 20
49.1819656238571
 10
16.669504925058
 20
49.1820233112072
 10
16.6693584868849
 20
49.1821033316836
  0
LWPOLYLINE
  5
20226
100
AcDbEntity
  8
0
100
AcDbPolyline
 70
0
 90
16
 10
16.4931619521128
 20
49.2106855637986
 10
16.493131479176
 20
49.2109517827327
 10
16.4930403782051
 20
49.2112056852471
 10
16.4929173520395
 20
49.2114449005598
 10
16.4926949302056
 20
49.2117722341153
 10
16.4924677056222
 20
49.2121158678632
 10
16.4923212616058
 20
49.212406684061
 10
16.4922703300109
 20
49.2126985726165
 10
16.4923240624441
 20
49.2129055259774
 10
16.4924579359897
 20
49.213118779678
 10
16.4926871211938
 20
49.2133087557575
 10
16.4934333602971
 20
49.2138622700457
 10
16.4936243917533
 20
49.2140286057453
 10
16.4938326517724
 20
49.2143626329515
 10
16.4938737356866
 20
49.2145082462342
 10
16.49385527346
 20
49.2148239976228
  0
LWPOLYLINE
  5
20227
100
AcDbEntity
  8
0
100
AcDbPolyline
 70
0
 90
181
 10
16.567041916111
 20
49.1934219347775
 10
16.5670959186521
 20
49.193347537932
 10
16.5671498723209
 20
49.193268523477
 10
16.5672388029108
 20
49.1931274783205
 10
16.5672992199231
 20
49.193022954468
 10
16.567326811254
 20
49.1929628400845
 10
16.5674580857468
 20
49.1926780922641
 10
16.5675111631849
 20
49.192554731241
 10
16.5675391196686
 20
49.1924897555568
 10
16.5675780247939
 20
49.1923576486305
 10
16.5676253290671
 20
49.1922388125933
 10
16.5676437431419
 20
49.1921826849789
 10
16.5676518502928
 20
49.1921337834112
 10
16.5676546825396
 20
49.1920675911028
 10
16.5676431723856
 20
49.1920079756358
 10
16.5676137139805
 20
49.1919334232758
 10
16.5675441666799
 20
49.1918309599112
 10
16.5673852094259
 20
49.1916355110339
 10
16.5673519102816
 20
49.1915945677016
 10
16.5672195970913
 20
49.1913420917381
 10
16.5671731689026
 20
49.1912833361746
 10
16.5671342409538
 20
49.1912417584932
 10
16.5671073719829
 20
49.1912198543032
 10
16.5670823892094
 20
49.1912040544795
 10
16.5670557994836
 20
49.1911921202272
 10
16.567006484139
 20
49.1911765774148
 10
16.5670646135255
 20
49.1910965037038
 10
16.5671610269644
 20
49.1909460055093
 10
16.5671794847805
 20
49.1908980220313
 10
16.5671781633341
 20
49.19085321595
 10
16.5671708646313
 20
49.1908022583578
 10
16.5671464022563
 20
49.1907282967656
 10
16.5671398574819
 20
49.1907077875956
 10
16.5670692820586
 20
49.1904866439182
 10
16.5668641787066
 20
49.1900146312903
 10
16.5667529815282
 20
49.1897699810468
 10
16.5666294414192
 20
49.1894981742238
 10
16.5665707061158
 20
49.1893689453832
 10
16.5664866185829
 20
49.1892226662718
 10
16.5663283334515
 20
49.1889473103476
 10
16.5662785730812
 20
49.1888961864249
 10
16.566244668406
 20
49.1888351563492
 10
16.5662445995867
 20
49.1887631490496
 10
16.5662723654155
 20
49.1886955667363
 10
16.5663175896738
 20
49.1886333889418
 10
16.5664261134472
 20
49.1885256982165
 10
16.5664683992864
 20
49.1884720852412
 10
16.5665677601729
 20
49.18851787748
 10
16.5666009660749
 20
49.1885329805946
 10
16.5666142146271
 20
49.1885390060418
 10
16.5666498937173
 20
49.1885510451949
 10
16.5666963862083
 20
49.1885577940484
 10
16.5667331529727
 20
49.1885566137294
 10
16.5667707349243
 20
49.1885505164256
 10
16.5668007469461
 20
49.18854179946
 10
16.5668333116106
 20
49.1885268419837
 10
16.5668736354902
 20
49.1885042057351
 10
16.5669731114458
 20
49.1884238189996
 10
16.5670051014422
 20
49.1883979677402
 10
16.567118326655
 20
49.1882955854928
 10
16.5671301026912
 20
49.1882849373296
 10
16.5672506086454
 20
49.1881773757825
 10
16.5672667315262
 20
49.1881575385101
 10
16.5672782587236
 20
49.188140449393
 10
16.5672926879491
 20
49.1881091845979
 10
16.5673059023681
 20
49.1880686068552
 10
16.5673699258399
 20
49.1879204794047
 10
16.5674749441873
 20
49.1877057098774
 10
16.5675112197041
 20
49.1876513800242
 10
16.5675545735634
 20
49.1875928940467
 10
16.5675753150963
 20
49.1875692518996
 10
16.5678489479881
 20
49.187285923559
 10
16.5679533659044
 20
49.1871888935131
 10
16.5684498910577
 20
49.1867576148693
 10
16.5686846950787
 20
49.1865296553956
 10
16.5688010924949
 20
49.1864246042646
 10
16.5689722046177
 20
49.1862753453959
 10
16.5691024823458
 20
49.186149067644
 10
16.5691472103494
 20
49.1861020040916
 10
16.5692037962103
 20
49.1860277719296
 10
16.5693317092893
 20
49.1858799502166
 10
16.5694014659891
 20
49.1858004325686
 10
16.5694732597724
 20
49.1856944662088
 10
16.5695017372986
 20
49.185660854785
 10
16.5695941906699
 20
49.1855617867807
 10
16.5696383310662
 20
49.1855235919731
 10
16.5697714755214
 20
49.1854404468139
 10
16.5700406769109
 20
49.1852957108431
 10
16.5701350229058
 20
49.1852368487695
 10
16.5702214351682
 20
49.1851800449303
 10
16.5703017143432
 20
49.1851236184522
 10
16.5708636465381
 20
49.1846879256932
 10
16.5713571581368
 20
49.1843152876721
 10
16.5713574815649
 20
49.1843150429521
 10
16.5714279804297
 20
49.1842609950439
 10
16.5715026533299
 20
49.184205073348
 10
16.5720096065684
 20
49.1839220392478
 10
16.572385191681
 20
49.1837189306277
 10
16.5725248539926
 20
49.1836388700911
 10
16.5725707639855
 20
49.1836132831224
 10
16.5726063850581
 20
49.1835906723796
 10
16.5728387568285
 20
49.1833865945209
 10
16.5730341294339
 20
49.1831459623139
 10
16.5730700953581
 20
49.1831146019285
 10
16.5731707518069
 20
49.183048407994
 10
16.5733204586879
 20
49.182977654841
 10
16.5734317058546
 20
49.182935823146
 10
16.5735079889723
 20
49.1829059754688
 10
16.5738894641836
 20
49.182653894051
 10
16.5743596756931
 20
49.1823300648919
 10
16.5746398733506
 20
49.1821453984406
 10
16.5748023353811
 20
49.182060083766
 10
16.5750072635677
 20
49.1819641323866
 10
16.5751524388954
 20
49.1819140401551
 10
16.5752468543711
 20
49.1818846677713
 10
16.5753027832179
 20
49.1818727278359
 10
16.5754071589573
 20
49.1818531999937
 10
16.5760811213187
 20
49.1817728946673
 10
16.5767816563568
 20
49.1816779212856
 10
16.5769225493599
 20
49.1816570103271
 10
16.5769966526479
 20
49.18164030227
 10
16.5770553147187
 20
49.1816185156041
 10
16.577104480096
 20
49.1815932491851
 10
16.5771502614055
 20
49.1815625861104
 10
16.577183527778
 20
49.1815275049343
 10
16.5772121605096
 20
49.1814812396149
 10
16.5772292329588
 20
49.1814306241275
 10
16.5772411042305
 20
49.1812463999297
 10
16.5772583573457
 20
49.1811955259358
 10
16.5772892933888
 20
49.1811611834971
 10
16.5773383852431
 20
49.181128856379
 10
16.5773786909156
 20
49.1811120954102
 10
16.577441243804
 20
49.1810934808432
 10
16.5775022518375
 20
49.1810833476525
 10
16.5775661124931
 20
49.181089339073
 10
16.5776343601491
 20
49.1811021534306
 10
16.5777027497002
 20
49.1811199537086
 10
16.5777467778085
 20
49.1811332167701
 10
16.5777836826017
 20
49.1811495016599
 10
16.5779925700293
 20
49.1812821319315
 10
16.5783040410647
 20
49.1815452581727
 10
16.5783713569048
 20
49.1815903891154
 10
16.5784306147705
 20
49.1816241828081
 10
16.578504367539
 20
49.1816496003509
 10
16.5785754329373
 20
49.1816654203918
 10
16.5786885136408
 20
49.1816799759005
 10
16.5787910750791
 20
49.1816772309139
 10
16.5788965616177
 20
49.1816709852976
 10
16.5790038346263
 20
49.1816606153326
 10
16.5793347857197
 20
49.1816135109152
 10
16.5793791037393
 20
49.1816116881481
 10
16.5794184806264
 20
49.1816130416145
 10
16.5794772814816
 20
49.1816229224459
 10
16.5795437303357
 20
49.1816399503248
 10
16.5796163940469
 20
49.1816652896555
 10
16.5798269634894
 20
49.1817544388937
 10
16.5798725573671
 20
49.1817649170033
 10
16.5799400716993
 20
49.1817755086547
 10
16.580126317636
 20
49.1817656879576
 10
16.5801994996039
 20
49.1817687217144
 10
16.5803329113746
 20
49.1817796569864
 10
16.5803715782589
 20
49.1817853013922
 10
16.5804141583507
 20
49.1817998171657
 10
16.5806819123369
 20
49.1819027995395
 10
16.5807362571642
 20
49.1819195990779
 10
16.5808007615109
 20
49.1819350406358
 10
16.5812125015723
 20
49.1820175971706
 10
16.5813250159984
 20
49.1820414273205
 10
16.5813945024381
 20
49.1820601173003
 10
16.581611835195
 20
49.1821417830525
 10
16.5818616117006
 20
49.1822333532973
 10
16.5820211012695
 20
49.1822793370922
 10
16.5836874038453
 20
49.1826576018786
 10
16.5839180259896
 20
49.1827412115544
 10
16.5840025278582
 20
49.1827769954724
 10
16.5841884829645
 20
49.182861119896
 10
16.5845693786761
 20
49.1830290294925
 10
16.58459212971
 20
49.1830388145087
 10
16.5846228509811
 20
49.1830557057803
 10
16.5847037342969
 20
49.1831041124109
 10
16.5848602488956
 20
49.1831949070063
  0
LWPOLYLINE
  5
20228
100
AcDbEntity
  8
0
100
AcDbPolyline
 70
0
 90
6
 10
16.5635210958178
 20
49.1782615525433
 10
16.5634570840908
 20
49.1782655411791
 10
16.5634437171789
 20
49.1782655482438
 10
16.5632429263043
 20
49.1782656552688
 10
16.5627819673514
 20
49.1782364187888
 10
16.562704361445
 20
49.1782284974213
  0
LWPOLYLINE
  5
20229
100
AcDbEntity
  8
0
100
AcDbPolyline
 70
0
 90
13
 10
16.5948018791603
 20
49.182385841134
 10
16.5947780522033
 20
49.1822212660928
 10
16.5947481690235
 20
49.181919387801
 10
16.5947524807408
 20
49.1817646597088
 10
16.5947669112983
 20
49.1816325365593
 10
16.5947904382283
 20
49.1814171254388
 10
16.5948499396079
 20
49.1811529793794
 10
16.5949701463761
 20
49.1806725312281
 10
16.5950131952529
 20
49.1804862728639
 10
16.5950277053686
 20
49.1804289697631
 10
16.5950349768366
 20
49.1804002438505
 10
16.5951417715471
 20
49.1799784412745
 10
16.5951491063828
 20
49.1799494729276
  0
LWPOLYLINE
  5
2022A
100
AcDbEntity
  8
0
100
AcDbPolyline
 70
0
 90
4
 10
16.5950919366594
 20
49.1841964079663
 10
16.5950397269433
 20
49.1838617963784
 10
16.5949953890806
 20
49.1835776402331
 10
16.5949905613257
 20
49.1835487880785
  0
LWPOLYLINE
  5
2022B
100
AcDbEntity
  8
0
100
AcDbPolyline
 70
0
 90
11
 10
16.5949521107127
 20
49.1866355230118
 10
16.5950815902593
 20
49.1862206957093
 10
16.5951554611889
 20
49.1859497896267
 10
16.5951862377862
 20
49.1858161159347
 10
16.5952106222276
 20
49.1856685112339
 10
16.5952298789888
 20
49.1854659098142
 10
16.5952327632266
 20
49.1852822273974
 10
16.595226213049
 20
49.1851314310274
 10
16.5951978846477
 20
49.1848701063752
 10
16.5951905120969
 20
49.184802096217
 10
16.5951868549764
 20
49.1847800305548
  0
LWPOLYLINE
  5
2022C
100
AcDbEntity
  8
0
100
AcDbPolyline
 70
0
 90
3
 10
16.5951774149008
 20
49.1847230742536
 10
16.5951905120969
 20
49.184802096217
 10
16.5951978846477
 20
49.1848701063752
  0
LWPOLYLINE
  5
2022D
100
AcDbEntity
  8
0
100
AcDbPolyline
 70
0
 90
2
 10
16.5953309862957
 20
49.179220023477
 10
16.5952102272407
 20
49.1797073664286
  0
LWPOLYLINE
  5
2022E
100
AcDbEntity
  8
0
100
AcDbPolyline
 70
0
 90
6
 10
16.5990334007408
 20
49.1777289724916
 10
16.5992033585715
 20
49.1777471094238
 10
16.5997113743807
 20
49.1777961071907
 10
16.6000681404152
 20
49.1778305156279
 10
16.6005465059442
 20
49.1778779678831
 10
16.601349481916
 20
49.1779540856081
  0
LWPOLYLINE
  5
2022F
100
AcDbEntity
  8
0
100
AcDbPolyline
 70
0
 90
4
 10
16.5958983931047
 20
49.1774204889187
 10
16.5959777667477
 20
49.1773980110679
 10
16.596001496806
 20
49.1774239094735
 10
16.5961751292615
 20
49.1776067225199
  0
LWPOLYLINE
  5
20230
100
AcDbEntity
  8
0
100
AcDbPolyline
 70
0
 90
4
 10
16.596077070839
 20
49.1777354581753
 10
16.595934457949
 20
49.1775808780409
 10
16.5959012627766
 20
49.1775580650825
 10
16.5958669741864
 20
49.1774629838697
  0
LWPOLYLINE
  5
20231
100
AcDbEntity
  8
0
100
AcDbPolyline
 70
0
 90
5
 10
16.5968719729222
 20
49.1787193620182
 10
16.5967663809451
 20
49.1786196685274
 10
16.596306781474
 20
49.1780820737932
 10
16.5961743120542
 20
49.1779271214463
 10
16.5960542950541
 20
49.1778100324005
  0
LWPOLYLINE
  5
20232
100
AcDbEntity
  8
0
100
AcDbPolyline
 70
0
 90
17
 10
16.5944216502264
 20
49.1756185273239
 10
16.5943120326963
 20
49.1754848912425
 10
16.5941540625517
 20
49.1752944894936
 10
16.5939487205465
 20
49.1750517892075
 10
16.5938417342612
 20
49.1749252480447
 10
16.59358688111
 20
49.1746323579214
 10
16.5933695393304
 20
49.1743946843431
 10
16.5932537679401
 20
49.1742745729007
 10
16.592862555237
 20
49.1738693338749
 10
16.5924305903564
 20
49.173446094095
 10
16.5922556274316
 20
49.1732959984437
 10
16.5921468747234
 20
49.1732194401244
 10
16.5920516318924
 20
49.1731571377147
 10
16.5919606583981
 20
49.1731015605553
 10
16.5918502532849
 20
49.1730425226985
 10
16.5917720021912
 20
49.1730084721195
 10
16.5914169707321
 20
49.1728836657866
  0
LWPOLYLINE
  5
20233
100
AcDbEntity
  8
0
100
AcDbPolyline
 70
0
 90
7
 10
16.5860174153652
 20
49.1964600601328
 10
16.5860038038674
 20
49.1964635795296
 10
16.5859643017824
 20
49.196467918782
 10
16.5858751434296
 20
49.1964762376253
 10
16.585783251587
 20
49.1964793872955
 10
16.5856327996069
 20
49.1964694213944
 10
16.5855536593405
 20
49.1964597244573
  0
LWPOLYLINE
  5
20234
100
AcDbEntity
  8
0
100
AcDbPolyline
 70
0
 90
4
 10
16.5951395266481
 20
49.1844942874835
 10
16.5951209932182
 20
49.1843826209535
 10
16.5951077091316
 20
49.184297648452
 10
16.5950939395325
 20
49.1842089329648
  0
LWPOLYLINE
  5
20235
100
AcDbEntity
  8
0
100
AcDbPolyline
 70
0
 90
4
 10
16.6346010854902
 20
49.218153755795
 10
16.6345135161843
 20
49.2184527392499
 10
16.6345001673713
 20
49.2185531869784
 10
16.6345090505734
 20
49.2186250855288
  0
LWPOLYLINE
  5
20236
100
AcDbEntity
  8
0
100
AcDbPolyline
 70
0
 90
5
 10
16.6154772439427
 20
49.1908602333074
 10
16.6153200053538
 20
49.1908547091
 10
16.6151948781133
 20
49.1908502822929
 10
16.6150143174099
 20
49.1908439205215
 10
16.6147168878239
 20
49.1908332635966
  0
LWPOLYLINE
  5
20237
100
AcDbEntity
  8
0
100
AcDbPolyline
 70
0
 90
35
 10
16.656367193861
 20
49.1821005030386
 10
16.6569752324219
 20
49.181975053723
 10
16.6572936228762
 20
49.1819093625003
 10
16.6576151973748
 20
49.1818435088731
 10
16.6581987809663
 20
49.1817273304697
 10
16.6584560854814
 20
49.1816761058006
 10
16.6588452566677
 20
49.1815986275732
 10
16.6589448283266
 20
49.1815788040785
 10
16.6592860850268
 20
49.1815108632871
 10
16.6594574556371
 20
49.1814667112504
 10
16.6594999820444
 20
49.1814593600693
 10
16.6597469013825
 20
49.1813779110814
 10
16.6599319301779
 20
49.1812531428175
 10
16.6600150061089
 20
49.1811919519063
 10
16.6602637959064
 20
49.181018669305
 10
16.6603856188559
 20
49.1809319878533
 10
16.6606196833167
 20
49.180765441276
 10
16.6611077430173
 20
49.1804181614033
 10
16.6614339753001
 20
49.1801860262837
 10
16.6617980908732
 20
49.1799265300154
 10
16.661914969139
 20
49.1798426137175
 10
16.6621125672938
 20
49.1797008550449
 10
16.6625676013955
 20
49.1793744051532
 10
16.6631927390692
 20
49.1789206254859
 10
16.6635275214803
 20
49.1786862136427
 10
16.6635933509652
 20
49.1786401199223
 10
16.6636393613064
 20
49.178607276487
 10
16.6649578882229
 20
49.177665973622
 10
16.6652452861828
 20
49.1774622646422
 10
16.6657001844859
 20
49.1771612414367
 10
16.6659862793754
 20
49.1769746520727
 10
16.6663036145049
 20
49.1767676855327
 10
16.6668811073601
 20
49.1763932089574
 10
16.66737413916
 20
49.1761075726399
 10
16.6686915229444
 20
49.1753626955514
  0
LWPOLYLINE
  5
20238
100
AcDbEntity
  8
0
100
AcDbPolyline
 70
0
 90
3
 10
16.6718586996184
 20
49.1807073094194
 10
16.6727377417714
 20
49.1802194238568
 10
16.6742939105406
 20
49.1793543276829
  0
LWPOLYLINE
  5
20239
100
AcDbEntity
  8
0
100
AcDbPolyline
 70
0
 90
22
 10
16.6625562453792
 20
49.1237936402208
 10
16.6651117535163
 20
49.1233844755633
 10
16.66570930593
 20
49.1234062442459
 10
16.666394776675
 20
49.123534522974
 10
16.6671451912453
 20
49.1235941582421
 10
16.6680003862005
 20
49.123455102957
 10
16.6697386491669
 20
49.1229622903322
 10
16.6715399140123
 20
49.1222760169268
 10
16.6727901797843
 20
49.1216450344418
 10
16.6729471053497
 20
49.1213869692157
 10
16.6731121927308
 20
49.1212914607735
 10
16.6735370727234
 20
49.1212292246142
 10
16.6741952680818
 20
49.1209878357032
 10
16.6745295129422
 20
49.1207224238429
 10
16.6746806076848
 20
49.1204121685153
 10
16.675174311249
 20
49.1201778114379
 10
16.6761043567998
 20
49.1199137506522
 10
16.6764929808309
 20
49.1197953915965
 10
16.6774903953002
 20
49.119510009239
 10
16.6782079943955
 20
49.1193920855278
 10
16.6786911258137
 20
49.1193325031282
 10
16.6789229700662
 20
49.1195148807708
  0
LWPOLYLINE
  5
2023A
100
AcDbEntity
  8
0
100
AcDbPolyline
 70
0
 90
4
 10
16.66960703969
 20
49.1819656238571
 10
16.6699322298906
 20
49.1817819123354
 10
16.670511604269
 20
49.1814545976962
 10
16.671202745609
 20
49.1810711987994
  0
LWPOLYLINE
  5
2023B
100
AcDbEntity
  8
0
100
AcDbPolyline
 70
0
 90
24
 10
16.6787532085632
 20
49.1691377325456
 10
16.6788982821203
 20
49.1693131105094
 10
16.6790692949783
 20
49.1695198444744
 10
16.6792403106252
 20
49.1697265782755
 10
16.6793318539321
 20
49.1698372421974
 10
16.6794166034821
 20
49.1699336834282
 10
16.6795989771002
 20
49.1701412145548
 10
16.6796185437439
 20
49.1701634803354
 10
16.6797813536078
 20
49.1703487454828
 10
16.6799637302776
 20
49.1705562760205
 10
16.679979144973
 20
49.1705738183956
 10
16.6801701320364
 20
49.1707654950154
 10
16.6803316393578
 20
49.1709275834502
 10
16.6803787543775
 20
49.1709748686168
 10
16.6804278379373
 20
49.171024128007
 10
16.6805985756455
 20
49.1711850284757
 10
16.6808218420805
 20
49.1713954298061
 10
16.6809102415611
 20
49.1714787343743
 10
16.6809458693631
 20
49.1715123090649
 10
16.6810554674979
 20
49.1716065591773
 10
16.6812906950623
 20
49.1718088405128
 10
16.6818201902881
 20
49.1722452765923
 10
16.682114245073
 20
49.1724876452414
 10
16.6827134163324
 20
49.1729649327943
  0
LWPOLYLINE
  5
2023C
100
AcDbEntity
  8
0
100
AcDbPolyline
 70
0
 90
2
 10
16.5873061884964
 20
49.2206686782321
 10
16.5880500469648
 20
49.2208784777326
  0
LWPOLYLINE
  5
2023D
100
AcDbEntity
  8
0
100
AcDbPolyline
 70
0
 90
6
 10
16.6745208415814
 20
49.1253192901188
 10
16.6744610433085
 20
49.1220906088163
 10
16.6745103171802
 20
49.121874781269
 10
16.6748170298075
 20
49.1217211617266
 10
16.6752306356675
 20
49.1216766387287
 10
16.6779151146884
 20
49.1214659899097
  0
LWPOLYLINE
  5
2023E
100
AcDbEntity
  8
0
100
AcDbPolyline
 70
0
 90
4
 10
16.6776453198159
 20
49.1361444457226
 10
16.6836144299559
 20
49.1401825390735
 10
16.6845706459171
 20
49.1405742125835
 10
16.6812790824257
 20
49.146280757405
  0
LWPOLYLINE
  5
2023F
100
AcDbEntity
  8
0
100
AcDbPolyline
 70
0
 90
5
 10
16.6260033766923
 20
49.1423632503817
 10
16.6271236944338
 20
49.1425439077629
 10
16.6272190747516
 20
49.1425955284213
 10
16.6272588809127
 20
49.1426614960016
 10
16.6271652407573
 20
49.1432464993592
  0
LWPOLYLINE
  5
20240
100
AcDbEntity
  8
0
100
AcDbPolyline
 70
0
 90
13
 10
16.6336973083394
 20
49.1178089369335
 10
16.6338756487919
 20
49.1178426964724
 10
16.6343613526122
 20
49.1178061001078
 10
16.6353394513895
 20
49.1168599477022
 10
16.637025759382
 20
49.1152077740423
 10
16.6376964323656
 20
49.1149311571709
 10
16.6376549055525
 20
49.1145825761559
 10
16.6375818408258
 20
49.1144261901107
 10
16.6425135876601
 20
49.1136514768152
 10
16.6446155796574
 20
49.1134759651992
 10
16.6454358627031
 20
49.113490711157
 10
16.6469652467301
 20
49.1129938723947
 10
16.6471338716929
 20
49.1127681549065
  0
LWPOLYLINE
  5
20241
100
AcDbEntity
  8
0
100
AcDbPolyline
 70
0
 90
5
 10
16.5779434591136
 20
49.2084085000363
 10
16.5777149633821
 20
49.2077955198816
 10
16.5774496947692
 20
49.2073067634754
 10
16.5768854524313
 20
49.2062078812434
 10
16.5767076334527
 20
49.2062571062264
  0
LWPOLYLINE
  5
20242
100
AcDbEntity
  8
0
100
AcDbPolyline
 70
0
 90
5
 10
16.5768975897142
 20
49.2061954476706
 10
16.5772032535608
 20
49.2063062412369
 10
16.5774695242887
 20
49.2065898287303
 10
16.5776933580171
 20
49.2071296500725
 10
16.5776338032156
 20
49.2076385186875
  0
LWPOLYLINE
  5
20243
100
AcDbEntity
  8
0
100
AcDbPolyline
 70
0
 90
2
 10
16.5513523146158
 20
49.2117384947894
 10
16.5511828225316
 20
49.2117090653291
  0
LWPOLYLINE
  5
20244
100
AcDbEntity
  8
0
100
AcDbPolyline
 70
0
 90
7
 10
16.5628417396294
 20
49.2644675952486
 10
16.562892242376
 20
49.2646577150596
 10
16.5631813411819
 20
49.2653211449935
 10
16.5640759761524
 20
49.2658016065061
 10
16.5644291819284
 20
49.2659236092753
 10
16.5644291819284
 20
49.2659236092752
 10
16.564411298257
 20
49.2659422370764
  0
LWPOLYLINE
  5
20245
100
AcDbEntity
  8
0
100
AcDbPolyline
 70
0
 90
3
 10
16.6070185833201
 20
49.1962422892786
 10
16.6075349456728
 20
49.1965121165185
 10
16.6076791448239
 20
49.1965390672994
  0
LWPOLYLINE
  5
20246
100
AcDbEntity
  8
0
100
AcDbPolyline
 70
0
 90
14
 10
16.653048317325
 20
49.1370773632862
 10
16.6531889552767
 20
49.1376379270168
 10
16.653251127039
 20
49.1379509313781
 10
16.6531917556102
 20
49.1382070161275
 10
16.6527864720334
 20
49.1387076188832
 10
16.652273397435
 20
49.1392081233422
 10
16.6517144484057
 20
49.140033885646
 10
16.6510543014531
 20
49.1410917333879
 10
16.65094193207
 20
49.1415653342317
 10
16.6504527599035
 20
49.1421089440336
 10
16.6500556403562
 20
49.1425820791491
 10
16.6499975420085
 20
49.1427708085504
 10
16.6502258351193
 20
49.1430668447129
 10
16.6508015671858
 20
49.1433206818877
  0
LWPOLYLINE
  5
20247
100
AcDbEntity
  8
0
100
AcDbPolyline
 70
0
 90
3
 10
16.6434961009719
 20
49.2018396941073
 10
16.6434025283007
 20
49.2019127394717
 10
16.6431102378451
 20
49.202262910009
  0
LWPOLYLINE
  5
20248
100
AcDbEntity
  8
0
100
AcDbPolyline
 70
0
 90
5
 10
16.6421049845752
 20
49.2014346765885
 10
16.6422633436866
 20
49.2015038900633
 10
16.6427397232446
 20
49.2016752498348
 10
16.6425307933097
 20
49.2019233035104
 10
16.6426012637965
 20
49.2020320430179
  0
LWPOLYLINE
  5
20249
100
AcDbEntity
  8
0
100
AcDbPolyline
 70
0
 90
3
 10
16.5956022168649
 20
49.2224556110726
 10
16.5954101284726
 20
49.2224115646902
 10
16.5933340039212
 20
49.2219848285085
  0
LWPOLYLINE
  5
2024A
100
AcDbEntity
  8
0
100
AcDbPolyline
 70
0
 90
4
 10
16.5933340039212
 20
49.2219848285085
 10
16.5918993107858
 20
49.2216920908039
 10
16.5918006208542
 20
49.2216868064192
 10
16.5917272066542
 20
49.221609687989
  0
LWPOLYLINE
  5
2024B
100
AcDbEntity
  8
0
100
AcDbPolyline
 70
0
 90
2
 10
16.5883241487241
 20
49.2209557836514
 10
16.590807723746
 20
49.2216460145218
  0
LWPOLYLINE
  5
2024C
100
AcDbEntity
  8
0
100
AcDbPolyline
 70
0
 90
2
 10
16.5001103892421
 20
49.2160872904092
 10
16.5009908305682
 20
49.2157432115471
  0
LWPOLYLINE
  5
2024D
100
AcDbEntity
  8
0
100
AcDbPolyline
 70
0
 90
4
 10
16.6118413569436
 20
49.1973056942968
 10
16.6116505842546
 20
49.1972188294152
 10
16.6112879331161
 20
49.1971496363075
 10
16.6108397496845
 20
49.1970763800638
  0
LWPOLYLINE
  5
2024E
100
AcDbEntity
  8
0
100
AcDbPolyline
 70
0
 90
2
 10
16.6090710009029
 20
49.1966462984234
 10
16.6093057066004
 20
49.1966569313283
  0
LWPOLYLINE
  5
2024F
100
AcDbEntity
  8
0
100
AcDbPolyline
 70
0
 90
10
 10
16.6169988384528
 20
49.1905788362058
 10
16.6165371269021
 20
49.1907469499461
 10
16.6161725703727
 20
49.1908580828715
 10
16.6161436269312
 20
49.1908637221003
 10
16.6161181668803
 20
49.1908658090644
 10
16.6160048377979
 20
49.1908668312334
 10
16.6158262541783
 20
49.190868570204
 10
16.6157419541387
 20
49.1908692955052
 10
16.6156561236507
 20
49.1908667466868
 10
16.6155827468235
 20
49.1908639940812
  0
LWPOLYLINE
  5
20250
100
AcDbEntity
  8
0
100
AcDbPolyline
 70
0
 90
69
 10
16.6336968563246
 20
49.117796667411
 10
16.6337522689992
 20
49.1178225660857
 10
16.6375505973121
 20
49.118509153166
 10
16.6377477396259
 20
49.1185337649107
 10
16.6380208591891
 20
49.1185488243248
 10
16.6392499954878
 20
49.1185101798442
 10
16.6393800641776
 20
49.1185278764808
 10
16.6394798993562
 20
49.1185711124917
 10
16.6395518796197
 20
49.1186463873606
 10
16.6395866605938
 20
49.1187342276832
 10
16.6396902082563
 20
49.1194191740055
 10
16.6397962238178
 20
49.1202831075163
 10
16.6408494173649
 20
49.1202168115972
 10
16.6413053091871
 20
49.1201980188974
 10
16.6416940115109
 20
49.1201973592814
 10
16.6423679260871
 20
49.1202220981113
 10
16.6426579998189
 20
49.1202338214679
 10
16.6430093768313
 20
49.1202448105394
 10
16.6434209716372
 20
49.1202558020873
 10
16.6436471525699
 20
49.1202966547295
 10
16.6438018409999
 20
49.1203339936579
 10
16.6440981039866
 20
49.1204121762614
 10
16.6454357086885
 20
49.1207307897923
 10
16.6459281239457
 20
49.1208489609806
 10
16.6462534270672
 20
49.120924033249
 10
16.6465385728385
 20
49.1209986200665
 10
16.6467679686357
 20
49.1210711683407
 10
16.647566007633
 20
49.1213517391471
 10
16.6482206650631
 20
49.1215756004991
 10
16.648268782934
 20
49.1215846960736
 10
16.6483316827291
 20
49.1215851576597
 10
16.6484054724986
 20
49.1215763486563
 10
16.6484745985809
 20
49.1215640447291
 10
16.6485202563498
 20
49.1215629270415
 10
16.6485930777185
 20
49.1215768418262
 10
16.6501418178791
 20
49.122215194574
 10
16.6513347830001
 20
49.1227021524964
 10
16.651715082596
 20
49.1228512749117
 10
16.6518589056771
 20
49.122905381551
 10
16.6520276972209
 20
49.122954285812
 10
16.6523247534026
 20
49.1230227331442
 10
16.6531207445411
 20
49.1231790260204
 10
16.6532029664833
 20
49.1231902545
 10
16.6532590714707
 20
49.1231901433498
 10
16.6532029664833
 20
49.1231902545
 10
16.6531207445411
 20
49.1231790260204
 10
16.6523247534026
 20
49.1230227331442
 10
16.6520276972209
 20
49.122954285812
 10
16.6518589056771
 20
49.122905381551
 10
16.651715082596
 20
49.1228512749117
 10
16.6513347830001
 20
49.1227021524964
 10
16.6501418178791
 20
49.122215194574
 10
16.6485930777185
 20
49.1215768418262
 10
16.6485202563498
 20
49.1215629270415
 10
16.6484745985809
 20
49.1215640447291
 10
16.6484054724986
 20
49.1215763486563
 10
16.6483316827291
 20
49.1215851576597
 10
16.648268782934
 20
49.1215846960736
 10
16.6482206650631
 20
49.1215756004991
 10
16.647566007633
 20
49.1213517391471
 10
16.6467679686357
 20
49.1210711683407
 10
16.6465385728385
 20
49.1209986200665
 10
16.6462534270672
 20
49.120924033249
 10
16.646099410003
 20
49.1208884637616
 10
16.6459281239457
 20
49.1208489609806
 10
16.6457951425056
 20
49.1208170474858
 10
16.6455975945863
 20
49.1207696294076
 10
16.6454357086885
 20
49.1207307897923
 10
16.6452957909183
 20
49.1206974812768
  0
LWPOLYLINE
  5
20251
100
AcDbEntity
  8
0
100
AcDbPolyline
 70
0
 90
3
 10
16.5692227749016
 20
49.2134882963468
 10
16.5721767276319
 20
49.2125785756643
 10
16.5722116757429
 20
49.2125768106903
  0
LWPOLYLINE
  5
20252
100
AcDbEntity
  8
0
100
AcDbPolyline
 70
0
 90
7
 10
16.5943854058165
 20
49.1964896330735
 10
16.5941997916177
 20
49.1969864251198
 10
16.594146545545
 20
49.197162463699
 10
16.5939901314922
 20
49.1976387152521
 10
16.5938304076792
 20
49.1981249528868
 10
16.5937174729538
 20
49.1984742209875
 10
16.5936015844215
 20
49.1988313296122
  0
LWPOLYLINE
  5
20253
100
AcDbEntity
  8
0
100
AcDbPolyline
 70
0
 90
7
 10
16.5938690658637
 20
49.1971185283745
 10
16.5920542383336
 20
49.1968653316589
 10
16.5918983804666
 20
49.1968387994388
 10
16.59171190648
 20
49.1968071084585
 10
16.5915172578183
 20
49.1967555705201
 10
16.5913810634461
 20
49.1967203030105
 10
16.5913070554809
 20
49.1966879128951
  0
LWPOLYLINE
  5
20254
100
AcDbEntity
  8
0
100
AcDbPolyline
 70
0
 90
16
 10
16.6064404753765
 20
49.195168711727
 10
16.6063705036271
 20
49.1952372886963
 10
16.6062573173757
 20
49.195353635903
 10
16.6061650433246
 20
49.1954737263649
 10
16.6061067604279
 20
49.1955810301961
 10
16.6060408250348
 20
49.195718816028
 10
16.6059831552422
 20
49.1958650568031
 10
16.6058323237374
 20
49.1962688995254
 10
16.6056637822364
 20
49.196704772647
 10
16.6056377750722
 20
49.1967344060367
 10
16.6056025727284
 20
49.1967545236109
 10
16.6055559702013
 20
49.196766778083
 10
16.6055252227227
 20
49.1967732820617
 10
16.6054719368924
 20
49.1967616362467
 10
16.6050865589899
 20
49.1966296708436
 10
16.6048391221005
 20
49.1965450183953
  0
LWPOLYLINE
  5
20255
100
AcDbEntity
  8
0
100
AcDbPolyline
 70
0
 90
4
 10
16.6236217890029
 20
49.2047211463132
 10
16.6227166489394
 20
49.2056272872744
 10
16.6223422451751
 20
49.2060147010146
 10
16.6218499562673
 20
49.2065520610956
  0
LWPOLYLINE
  5
20256
100
AcDbEntity
  8
0
100
AcDbPolyline
 70
0
 90
3
 10
16.6219526119167
 20
49.2065112928553
 10
16.6221295398348
 20
49.2065475923411
 10
16.6222557702042
 20
49.2065681864941
  0
LWPOLYLINE
  5
20257
100
AcDbEntity
  8
0
100
AcDbPolyline
 70
0
 90
2
 10
16.5606074768298
 20
49.2127956726991
 10
16.5625342104026
 20
49.2124832742801
  0
LWPOLYLINE
  5
20258
100
AcDbEntity
  8
0
100
AcDbPolyline
 70
0
 90
19
 10
16.5627540153118
 20
49.2121288776092
 10
16.5631121599691
 20
49.212159723868
 10
16.5635853095419
 20
49.2123204221462
 10
16.5642650426244
 20
49.2122196704107
 10
16.5666708772629
 20
49.2118420047944
 10
16.5673604780803
 20
49.2117282795784
 10
16.5685549030745
 20
49.2115068419304
 10
16.5699267423735
 20
49.2112295447006
 10
16.5706289576662
 20
49.2108872159916
 10
16.5708410153305
 20
49.2107065627247
 10
16.5707684739025
 20
49.2105986445239
 10
16.570943155811
 20
49.2102944844726
 10
16.5710730558062
 20
49.2099689563753
 10
16.5710641104017
 20
49.2096065023901
 10
16.5709240432593
 20
49.2090356276346
 10
16.570640265111
 20
49.2083731164431
 10
16.5702203939125
 20
49.2076396807239
 10
16.5700423230106
 20
49.2073580861305
 10
16.5697814349934
 20
49.2070997230998
  0
LWPOLYLINE
  5
20259
100
AcDbEntity
  8
0
100
AcDbPolyline
 70
0
 90
8
 10
16.6079048179838
 20
49.2003789115718
 10
16.6073618860994
 20
49.2022991342008
 10
16.6071348166318
 20
49.2029424248872
 10
16.6068531753675
 20
49.2034763843785
 10
16.6064384898374
 20
49.2042092226032
 10
16.6057509415834
 20
49.2054067226331
 10
16.6051997130036
 20
49.2063744597799
 10
16.6048879799973
 20
49.2069399320409
  0
LWPOLYLINE
  5
2025A
100
AcDbEntity
  8
0
100
AcDbPolyline
 70
0
 90
2
 10
16.612116915076
 20
49.1962096077894
 10
16.6117325748954
 20
49.1961415962143
  0
LWPOLYLINE
  5
2025B
100
AcDbEntity
  8
0
100
AcDbPolyline
 70
0
 90
5
 10
16.5924006386206
 20
49.2575288686492
 10
16.592384460983
 20
49.2573402168883
 10
16.5923716997412
 20
49.2571918770973
 10
16.592378005268
 20
49.2570677732806
 10
16.5923960111583
 20
49.2569948802179
  0
LWPOLYLINE
  5
2025C
100
AcDbEntity
  8
0
100
AcDbPolyline
 70
0
 90
6
 10
16.6200459582755
 20
49.2083017211443
 10
16.6198652354927
 20
49.208481954433
 10
16.6197414750209
 20
49.208605526015
 10
16.6196391704821
 20
49.2087438206012
 10
16.6194793987357
 20
49.2090021449994
 10
16.6190691229155
 20
49.2097275514323
  0
LWPOLYLINE
  5
2025D
100
AcDbEntity
  8
0
100
AcDbPolyline
 70
0
 90
4
 10
16.6218503890589
 20
49.2065569758856
 10
16.6214073455224
 20
49.206995611152
 10
16.6208244226794
 20
49.2075726869207
 10
16.6205235149161
 20
49.2078456320014
  0
LWPOLYLINE
  5
2025E
100
AcDbEntity
  8
0
100
AcDbPolyline
 70
0
 90
14
 10
16.6055908156086
 20
49.2243850454347
 10
16.6060893909915
 20
49.2242651493345
 10
16.6069030324444
 20
49.2241029848922
 10
16.6075186179901
 20
49.2240062038119
 10
16.6082808637591
 20
49.2239102173912
 10
16.6089901083743
 20
49.2238424923962
 10
16.6104882863909
 20
49.22375129293
 10
16.6115468953417
 20
49.2236869386464
 10
16.6134923984677
 20
49.2235644110282
 10
16.6141751611868
 20
49.2234938764966
 10
16.6153846820038
 20
49.2232939111882
 10
16.6160029583073
 20
49.223162183143
 10
16.6166331367256
 20
49.2230118475924
 10
16.616769967303
 20
49.2229792875843
  0
LWPOLYLINE
  5
2025F
100
AcDbEntity
  8
0
100
AcDbPolyline
 70
0
 90
10
 10
16.5698547286033
 20
49.1995046721231
 10
16.5697060077682
 20
49.1993393175145
 10
16.5696330923868
 20
49.1992154504099
 10
16.5695855384114
 20
49.1990451762806
 10
16.5695912189437
 20
49.1989068231483
 10
16.5696245712279
 20
49.1987888926498
 10
16.5697121464393
 20
49.198570346936
 10
16.5698138063194
 20
49.1983092951344
 10
16.5698864476978
 20
49.1981175463444
 10
16.5699713200787
 20
49.1979102959165
  0
LWPOLYLINE
  5
20260
100
AcDbEntity
  8
0
100
AcDbPolyline
 70
0
 90
2
 10
16.6217636827381
 20
49.206456507031
 10
16.6192537048876
 20
49.205853779159
  0
LWPOLYLINE
  5
20261
100
AcDbEntity
  8
0
100
AcDbPolyline
 70
0
 90
3
 10
16.6228149999352
 20
49.2116621284954
 10
16.6232625163021
 20
49.2117706484842
 10
16.6233616285522
 20
49.2117380394568
  0
LWPOLYLINE
  5
20262
100
AcDbEntity
  8
0
100
AcDbPolyline
 70
0
 90
2
 10
16.6136091128862
 20
49.2078029256177
 10
16.6146526857888
 20
49.2083894572847
  0
LWPOLYLINE
  5
20263
100
AcDbEntity
  8
0
100
AcDbPolyline
 70
0
 90
3
 10
16.6095366859289
 20
49.1903599108124
 10
16.6089148291056
 20
49.1901400167154
 10
16.6087591417983
 20
49.1900849363475
  0
LWPOLYLINE
  5
20264
100
AcDbEntity
  8
0
100
AcDbPolyline
 70
0
 90
6
 10
16.6532647327264
 20
49.2287362808167
 10
16.6532599337857
 20
49.2287188165394
 10
16.653259164524
 20
49.2287167726181
 10
16.6532378240976
 20
49.2286263640613
 10
16.6532025746559
 20
49.2284625308925
 10
16.6531804803635
 20
49.2283531864301
  0
LWPOLYLINE
  5
20265
100
AcDbEntity
  8
0
100
AcDbPolyline
 70
0
 90
5
 10
16.578260200689
 20
49.2413121201371
 10
16.5801806318325
 20
49.240430685902
 10
16.5816950789568
 20
49.2397354873444
 10
16.5825671883437
 20
49.2393351206785
 10
16.5828647059256
 20
49.2391985899941
  0
LWPOLYLINE
  5
20266
100
AcDbEntity
  8
0
100
AcDbPolyline
 70
0
 90
5
 10
16.5782349218848
 20
49.2413287764819
 10
16.5780715845431
 20
49.2414324083276
 10
16.5778630512613
 20
49.2415328286819
 10
16.5771671365224
 20
49.2418548704969
 10
16.5770055335635
 20
49.2419063424421
  0
LWPOLYLINE
  5
20267
100
AcDbEntity
  8
0
100
AcDbPolyline
 70
0
 90
4
 10
16.6089389085475
 20
49.1898634994494
 10
16.6092112298046
 20
49.1899585913513
 10
16.6094979227234
 20
49.1900585901046
 10
16.6097189681241
 20
49.1901357567125
  0
LWPOLYLINE
  5
20268
100
AcDbEntity
  8
0
100
AcDbPolyline
 70
0
 90
6
 10
16.6218196193327
 20
49.200092478371
 10
16.6231273436668
 20
49.2003543716531
 10
16.6239309456405
 20
49.200490066469
 10
16.6247150363464
 20
49.2006202153146
 10
16.6249859361328
 20
49.2006288760823
 10
16.6259638385375
 20
49.2006180531163
  0
LWPOLYLINE
  5
20269
100
AcDbEntity
  8
0
100
AcDbPolyline
 70
0
 90
18
 10
16.6004372696872
 20
49.2240460167318
 10
16.6005165541958
 20
49.2239080012812
 10
16.6004316881407
 20
49.223889232434
 10
16.6003437027274
 20
49.2240590123419
 10
16.6003058044129
 20
49.2242967431451
 10
16.6003122194506
 20
49.2243214385512
 10
16.6003381666931
 20
49.2243365739264
 10
16.601426476219
 20
49.2248608950933
 10
16.6013850924342
 20
49.2248973984837
 10
16.6011761018632
 20
49.2248667581124
 10
16.6011582203414
 20
49.224865490795
 10
16.6011178223979
 20
49.2248224677451
 10
16.601213393127
 20
49.2247405094443
 10
16.6012959374599
 20
49.2247791929978
 10
16.6013463864418
 20
49.224787290919
 10
16.6014311214532
 20
49.2248068637225
 10
16.6015267696032
 20
49.2248498224246
 10
16.6016051781427
 20
49.2248926446828
  0
LWPOLYLINE
  5
2026A
100
AcDbEntity
  8
0
100
AcDbPolyline
 70
0
 90
9
 10
16.5087612639399
 20
49.2281928473525
 10
16.5088886743833
 20
49.2285107272725
 10
16.5090706789597
 20
49.2289871197644
 10
16.5091300087328
 20
49.2291660545711
 10
16.5091757094696
 20
49.2293579436485
 10
16.5092357464174
 20
49.2297326890491
 10
16.5092906376991
 20
49.2300869829497
 10
16.5093388595884
 20
49.2304059708466
 10
16.5093489918759
 20
49.2305032200827
  0
LWPOLYLINE
  5
2026B
100
AcDbEntity
  8
0
100
AcDbPolyline
 70
0
 90
2
 10
16.607532760665
 20
49.2009373088207
 10
16.6076843408512
 20
49.2003532508127
  0
LWPOLYLINE
  5
2026C
100
AcDbEntity
  8
0
100
AcDbPolyline
 70
0
 90
2
 10
16.6078105490169
 20
49.1999539025684
 10
16.6079388407226
 20
49.1993955103789
  0
LWPOLYLINE
  5
2026D
100
AcDbEntity
  8
0
100
AcDbPolyline
 70
0
 90
2
 10
16.6081917425377
 20
49.1991560083791
 10
16.6080146600468
 20
49.1999632985876
  0
LWPOLYLINE
  5
2026E
100
AcDbEntity
  8
0
100
AcDbPolyline
 70
0
 90
9
 10
16.6189820429643
 20
49.1749636023486
 10
16.6189649393494
 20
49.1749501810397
 10
16.6189337542633
 20
49.1749410089386
 10
16.6187951421184
 20
49.1749240512027
 10
16.6186510095075
 20
49.1749087828119
 10
16.6184897845512
 20
49.1748984547324
 10
16.6183425835946
 20
49.1748909282162
 10
16.6182127511118
 20
49.1748952136215
 10
16.6181844248465
 20
49.1749365332066
  0
LWPOLYLINE
  5
2026F
100
AcDbEntity
  8
0
100
AcDbPolyline
 70
0
 90
7
 10
16.6182566582018
 20
49.1746378296241
 10
16.6182427408883
 20
49.1747281975852
 10
16.6182806524485
 20
49.1747409213499
 10
16.6184838710849
 20
49.1747592877619
 10
16.6189123264507
 20
49.1747980303709
 10
16.6189724423959
 20
49.1747881759308
 10
16.619005213653
 20
49.174786877818
  0
LWPOLYLINE
  5
20270
100
AcDbEntity
  8
0
100
AcDbPolyline
 70
0
 90
2
 10
16.6189899399489
 20
49.174923188123
 10
16.6189976343051
 20
49.1748303897824
  0
LWPOLYLINE
  5
20271
100
AcDbEntity
  8
0
100
AcDbPolyline
 70
0
 90
5
 10
16.5803109509578
 20
49.2295272646259
 10
16.5804462984782
 20
49.2294772724232
 10
16.5805186047031
 20
49.2294484897889
 10
16.580742032744
 20
49.2293595287148
 10
16.5811558088275
 20
49.2292028635412
  0
LWPOLYLINE
  5
20272
100
AcDbEntity
  8
0
100
AcDbPolyline
 70
0
 90
5
 10
16.5820778180326
 20
49.2288587011827
 10
16.5819977699118
 20
49.2289342414719
 10
16.5819105718577
 20
49.2290154246033
 10
16.5818240633083
 20
49.2290832696695
 10
16.5817299049986
 20
49.2291531039455
  0
LWPOLYLINE
  5
20273
100
AcDbEntity
  8
0
100
AcDbPolyline
 70
0
 90
8
 10
16.5912011016896
 20
49.1944451414165
 10
16.5910301892553
 20
49.194505548293
 10
16.5908707342417
 20
49.1945592609843
 10
16.5907330519385
 20
49.1946090019445
 10
16.5905595508251
 20
49.1946775459743
 10
16.5904668395716
 20
49.1947232438538
 10
16.5903409564388
 20
49.194808465411
 10
16.5902293582367
 20
49.1949183092585
  0
LWPOLYLINE
  5
20274
100
AcDbEntity
  8
0
100
AcDbPolyline
 70
0
 90
2
 10
16.5933576970406
 20
49.1969606648105
 10
16.5939332490542
 20
49.1970416774576
  0
LWPOLYLINE
  5
20275
100
AcDbEntity
  8
0
100
AcDbPolyline
 70
0
 90
2
 10
16.5938742359409
 20
49.1975991932472
 10
16.5939944703719
 20
49.1972424835286
  0
LWPOLYLINE
  5
20276
100
AcDbEntity
  8
0
100
AcDbPolyline
 70
0
 90
3
 10
16.5964021308568
 20
49.2146557720172
 10
16.596033938617
 20
49.2145602797682
 10
16.595562887439
 20
49.214438042781
  0
LWPOLYLINE
  5
20277
100
AcDbEntity
  8
0
100
AcDbPolyline
 70
0
 90
3
 10
16.6070330452496
 20
49.1954284182371
 10
16.6065052636611
 20
49.1959445702069
 10
16.6057125544615
 20
49.196788096732
  0
LWPOLYLINE
  5
20278
100
AcDbEntity
  8
0
100
AcDbPolyline
 70
0
 90
41
 10
16.6247540137933
 20
49.1817024896713
 10
16.6246561104805
 20
49.1818312368552
 10
16.6245353554219
 20
49.1819898435441
 10
16.6244109659792
 20
49.1821395101006
 10
16.6243442443294
 20
49.1822196309206
 10
16.624306287516
 20
49.182261627438
 10
16.6242640143299
 20
49.1823038613304
 10
16.6242122478102
 20
49.1823409013355
 10
16.6241721396057
 20
49.1823641133852
 10
16.6238669231336
 20
49.1827036828581
 10
16.6235802590843
 20
49.1830210476685
 10
16.6233511614849
 20
49.1832761857991
 10
16.6231448005034
 20
49.183502993725
 10
16.6231332700979
 20
49.1835152025795
 10
16.623128832979
 20
49.1835312597877
 10
16.6231323408579
 20
49.1835518587357
 10
16.6231472859372
 20
49.1835817688596
 10
16.623192166404
 20
49.183649433099
 10
16.6232960133425
 20
49.1837997773515
 10
16.6233344375277
 20
49.1838228461891
 10
16.623498592812
 20
49.1839412770568
 10
16.6236239258492
 20
49.1840231340305
 10
16.6236893142959
 20
49.1840927913093
 10
16.6237200794949
 20
49.1841296994566
 10
16.6237125713454
 20
49.1841560314097
 10
16.6236699280949
 20
49.1842005002438
 10
16.6235395349492
 20
49.184332104371
 10
16.6235308089165
 20
49.18435409912
 10
16.6235326263698
 20
49.1843791008622
 10
16.6235658894931
 20
49.1846070308826
 10
16.6235665364914
 20
49.1846500394169
 10
16.6235430554781
 20
49.1846879042481
 10
16.6233342052697
 20
49.1850027235047
 10
16.6232360327087
 20
49.1851405863377
 10
16.6231405777008
 20
49.1852703201407
 10
16.6231349707465
 20
49.185320303046
 10
16.6229677145332
 20
49.1855559374141
 10
16.622797741508
 20
49.1857971681306
 10
16.6227664297793
 20
49.1858356547603
 10
16.6227265034962
 20
49.1858627686763
 10
16.6225283165294
 20
49.1859459804066
  0
LWPOLYLINE
  5
20279
100
AcDbEntity
  8
0
100
AcDbPolyline
 70
0
 90
25
 10
16.6182845711904
 20
49.190195254061
 10
16.6182486117852
 20
49.1901203502741
 10
16.618225828909
 20
49.1900282893077
 10
16.6182365075975
 20
49.1899634698789
 10
16.6182599943991
 20
49.1898837284295
 10
16.6182992350387
 20
49.1897711837271
 10
16.6183465928127
 20
49.1896931316976
 10
16.6184140431868
 20
49.189618762876
 10
16.6185484956242
 20
49.1895355685996
 10
16.6186660078696
 20
49.1894714357967
 10
16.6187929991283
 20
49.1894125865925
 10
16.6189916820826
 20
49.1892954968315
 10
16.6191071445919
 20
49.1892019133055
 10
16.6191647309435
 20
49.1891245849076
 10
16.6191932738712
 20
49.188993193345
 10
16.6192686345591
 20
49.1887183170974
 10
16.6190492300058
 20
49.1880874695413
 10
16.6189381158932
 20
49.1877358113492
 10
16.618971669603
 20
49.1877155738381
 10
16.6190952540693
 20
49.1876773771244
 10
16.6192609515611
 20
49.187634834224
 10
16.6193178366664
 20
49.187614529217
 10
16.6193896833483
 20
49.1875863285744
 10
16.6194393593552
 20
49.1875570111977
 10
16.619475395211
 20
49.1875267285435
  0
LWPOLYLINE
  5
2027A
100
AcDbEntity
  8
0
100
AcDbPolyline
 70
0
 90
21
 10
16.6587022335537
 20
49.2089035342338
 10
16.6584099699766
 20
49.2089028584091
 10
16.6580228664632
 20
49.2088744321141
 10
16.6578999153895
 20
49.2088531145278
 10
16.6577286361576
 20
49.2088167273203
 10
16.6575648203072
 20
49.2087676605653
 10
16.6573198751246
 20
49.2086619621896
 10
16.6571258552851
 20
49.2085639186288
 10
16.6569164958185
 20
49.2084600916028
 10
16.65652495027
 20
49.2082652027539
 10
16.6561700562973
 20
49.2080867310273
 10
16.6555847522026
 20
49.2077922734925
 10
16.6553547938208
 20
49.2076289278255
 10
16.6553152987124
 20
49.2074910238167
 10
16.6553251994847
 20
49.2074113167584
 10
16.6553475962919
 20
49.2073134965714
 10
16.6554176380783
 20
49.2071423355801
 10
16.655566820914
 20
49.206931345226
 10
16.6557444552387
 20
49.2067017372233
 10
16.6559931495804
 20
49.2063797254337
 10
16.656231731172
 20
49.2061294464008
  0
LWPOLYLINE
  5
2027B
100
AcDbEntity
  8
0
100
AcDbPolyline
 70
0
 90
9
 10
16.6329365603604
 20
49.2029964615894
 10
16.6328987966456
 20
49.2029910810896
 10
16.6321703371821
 20
49.2029235308416
 10
16.6318889175558
 20
49.2028990402589
 10
16.6318167925768
 20
49.2028927698606
 10
16.6317582408119
 20
49.2029004824948
 10
16.6313070303342
 20
49.2031269254203
 10
16.6305821609888
 20
49.2035132093106
 10
16.6302859196692
 20
49.2036693755439
  0
LWPOLYLINE
  5
2027C
100
AcDbEntity
  8
0
100
AcDbPolyline
 70
0
 90
27
 10
16.5149000298562
 20
49.2415421574498
 10
16.514791935995
 20
49.2413298845014
 10
16.5146748176053
 20
49.2411402136949
 10
16.5145714863943
 20
49.2410599025766
 10
16.5144022213873
 20
49.2409897054806
 10
16.5140804302808
 20
49.2409046050415
 10
16.5139002890973
 20
49.2408565149641
 10
16.5137922536928
 20
49.2408093368286
 10
16.5137076649793
 20
49.2407384181029
 10
16.5136441400466
 20
49.2406605044588
 10
16.5136225884374
 20
49.2406083930708
 10
16.5136121682546
 20
49.2405268647766
 10
16.5136246459511
 20
49.2404612692755
 10
16.513666854386
 20
49.2403740116727
 10
16.5137698165853
 20
49.2402737364801
 10
16.5139917814134
 20
49.2401177560909
 10
16.5142921075528
 20
49.2399144671859
 10
16.515034707038
 20
49.2394148357495
 10
16.5151238803431
 20
49.2393325691471
 10
16.5152161261937
 20
49.2392079152796
 10
16.5153308812868
 20
49.2390270684389
 10
16.5156198180587
 20
49.2385940946382
 10
16.515949967642
 20
49.2380971300866
 10
16.5162202323484
 20
49.237786659786
 10
16.5162614332011
 20
49.2377393133472
 10
16.5165907567866
 20
49.2375450617623
 10
16.5172273405326
 20
49.2371943272929
  0
LWPOLYLINE
  5
2027D
100
AcDbEntity
  8
0
100
AcDbPolyline
 70
0
 90
26
 10
16.6486122036765
 20
49.1291171862713
 10
16.6485900218121
 20
49.1290751007999
 10
16.6485952141321
 20
49.1290072714748
 10
16.6486964005879
 20
49.1288868865384
 10
16.6488643835797
 20
49.1287440832552
 10
16.6490066706474
 20
49.128581467252
 10
16.6491255769035
 20
49.1283933230912
 10
16.6491742992055
 20
49.1280977499507
 10
16.6491635829373
 20
49.127740186397
 10
16.6491767659194
 20
49.1272107451732
 10
16.6491349923041
 20
49.1269880139485
 10
16.6488895696735
 20
49.126478303702
 10
16.6484199398736
 20
49.1256381037526
 10
16.6482312084915
 20
49.1252979992902
 10
16.647870052755
 20
49.1248689318759
 10
16.6474692929309
 20
49.1243435455947
 10
16.6468984448026
 20
49.123859599795
 10
16.6468798570949
 20
49.1237611484715
 10
16.6470734035371
 20
49.1234648584626
 10
16.647999685797
 20
49.122227666912
 10
16.6481324684865
 20
49.1221330300663
 10
16.6484380294796
 20
49.1221184265108
 10
16.6487892886808
 20
49.1221613158783
 10
16.6492185403381
 20
49.1221916212149
 10
16.6494452956068
 20
49.1221533623076
 10
16.6496083149518
 20
49.1220575120908
  0
LWPOLYLINE
  5
2027E
100
AcDbEntity
  8
0
100
AcDbPolyline
 70
0
 90
32
 10
16.5558574978694
 20
49.1951248021811
 10
16.5555013214243
 20
49.1954818519718
 10
16.5551910975756
 20
49.1958472438321
 10
16.5548680471436
 20
49.1960886993277
 10
16.5543336618375
 20
49.1963684503814
 10
16.5535762491131
 20
49.1965831727905
 10
16.5531084150969
 20
49.1966524692852
 10
16.5523561354111
 20
49.1967348501567
 10
16.551732900052
 20
49.1968039999314
 10
16.5510154783842
 20
49.197006363209
 10
16.5500708570595
 20
49.1973407689348
 10
16.5493838945786
 20
49.1975840124032
 10
16.5487489644072
 20
49.1978139598959
 10
16.5481190269182
 20
49.1979332693161
 10
16.5477240207689
 20
49.1979579015023
 10
16.5471835781729
 20
49.1979116343158
 10
16.5465952270317
 20
49.1977516763902
 10
16.5461399677861
 20
49.1975110309472
 10
16.5458701851251
 20
49.1972822692541
 10
16.5456445874493
 20
49.1969728976046
 10
16.5455038203217
 20
49.1964770880575
 10
16.5453871057698
 20
49.1954505604437
 10
16.545217318611
 20
49.1947466146221
 10
16.5450714382344
 20
49.1945115905841
 10
16.5448835972635
 20
49.1943172610298
 10
16.5445785606295
 20
49.1940831728363
 10
16.5443564052645
 20
49.1939599340176
 10
16.5441222300728
 20
49.1938492240547
 10
16.5440764185588
 20
49.1938333786101
 10
16.5437214333801
 20
49.1937270655806
 10
16.5433512402811
 20
49.193669055288
 10
16.5428593455353
 20
49.1936398909127
  0
LWPOLYLINE
  5
2027F
100
AcDbEntity
  8
0
100
AcDbPolyline
 70
0
 90
19
 10
16.5428081752189
 20
49.1936396732555
 10
16.5426719395109
 20
49.193667934364
 10
16.542371778577
 20
49.1937274533837
 10
16.5416937133452
 20
49.1939246998012
 10
16.5410684740988
 20
49.1941968170922
 10
16.5401452185178
 20
49.1946656432036
 10
16.5393938295566
 20
49.1950296909066
 10
16.5386986222747
 20
49.1953712450039
 10
16.5374898674072
 20
49.1959620323435
 10
16.5364564840857
 20
49.196474252678
 10
16.5360506804936
 20
49.1966574615738
 10
16.5357512575927
 20
49.1967339338078
 10
16.5354798520382
 20
49.196755690386
 10
16.5352640121151
 20
49.1967471347879
 10
16.5347504029176
 20
49.196666632693
 10
16.5345439392272
 20
49.1966067319885
 10
16.5344243685091
 20
49.1965580189386
 10
16.5342934317089
 20
49.1964938386616
 10
16.5342153669138
 20
49.1964503545219
  0
LWPOLYLINE
  5
20280
100
AcDbEntity
  8
0
100
AcDbPolyline
 70
0
 90
19
 10
16.5343084633686
 20
49.1963886237359
 10
16.534494216003
 20
49.1964850370404
 10
16.5346047762648
 20
49.1965256881408
 10
16.5348813391194
 20
49.1965956662344
 10
16.5350701543326
 20
49.1966272572597
 10
16.5352426923972
 20
49.1966430298898
 10
16.5354198733468
 20
49.1966358861691
 10
16.5355209401473
 20
49.1966091892277
 10
16.5359306481975
 20
49.1965327315597
 10
16.5360703403357
 20
49.1964912462695
 10
16.5377440737639
 20
49.1956678464587
 10
16.5399320344301
 20
49.1945930598998
 10
16.5406051905649
 20
49.1942611410561
 10
16.5408803094451
 20
49.1941248470216
 10
16.5416434309227
 20
49.1937938326978
 10
16.5419207417768
 20
49.1936766894102
 10
16.5422211467208
 20
49.1936223451024
 10
16.5426106069348
 20
49.1935744519088
 10
16.5427573109017
 20
49.1935645779992
  0
LWPOLYLINE
  5
20281
100
AcDbEntity
  8
0
100
AcDbPolyline
 70
0
 90
6
 10
16.5342048290448
 20
49.1964332279148
 10
16.5339204221714
 20
49.1962138815322
 10
16.533239488516
 20
49.1956710099918
 10
16.5322447049721
 20
49.1948984441887
 10
16.5316244779746
 20
49.1944164395308
 10
16.5314922236456
 20
49.1943187815218
  0
LWPOLYLINE
  5
20282
100
AcDbEntity
  8
0
100
AcDbPolyline
 70
0
 90
15
 10
16.583027651418
 20
49.2205296161282
 10
16.5831390224054
 20
49.2205313588023
 10
16.5832495669752
 20
49.2205462668374
 10
16.5833382715071
 20
49.2205631419534
 10
16.5834366246751
 20
49.2205948039456
 10
16.5835024510292
 20
49.2206197503
 10
16.5835848888205
 20
49.2206582143097
 10
16.5836546225369
 20
49.22070018089
 10
16.5837401815952
 20
49.2207441489113
 10
16.583774818788
 20
49.2207624746235
 10
16.5838236809821
 20
49.2207923846426
 10
16.5838688069034
 20
49.2208123327344
 10
16.5839262308303
 20
49.2208393231963
 10
16.5839931067121
 20
49.2208661076018
 10
16.5841138139625
 20
49.2209090532439
  0
LWPOLYLINE
  5
20283
100
AcDbEntity
  8
0
100
AcDbPolyline
 70
0
 90
11
 10
16.6381710228529
 20
49.2012990710014
 10
16.6394832122024
 20
49.2012395514054
 10
16.6397674641336
 20
49.201226598368
 10
16.6400701844586
 20
49.2012860381113
 10
16.6402367981825
 20
49.201318688159
 10
16.6403034650314
 20
49.2012162144646
 10
16.6405947769232
 20
49.201258567575
 10
16.640938236728
 20
49.2013447571815
 10
16.6412298135955
 20
49.2014291844187
 10
16.6415665981554
 20
49.2015660931063
 10
16.6416944058932
 20
49.2016198806313
  0
LWPOLYLINE
  5
20284
100
AcDbEntity
  8
0
100
AcDbPolyline
 70
0
 90
5
 10
16.646238654568
 20
49.1982306165159
 10
16.6461338041964
 20
49.1982017873891
 10
16.6460962004101
 20
49.1981660328546
 10
16.6460976207183
 20
49.1981279652831
 10
16.6462398988476
 20
49.1978927119047
  0
LWPOLYLINE
  5
20285
100
AcDbEntity
  8
0
100
AcDbPolyline
 70
0
 90
2
 10
16.6375320364892
 20
49.214380007262
 10
16.637400548755
 20
49.2143769689317
  0
LWPOLYLINE
  5
20286
100
AcDbEntity
  8
0
100
AcDbPolyline
 70
0
 90
2
 10
16.6378081928169
 20
49.2143017233225
 10
16.6378831803348
 20
49.2141916062641
  0
LWPOLYLINE
  5
20287
100
AcDbEntity
  8
0
100
AcDbPolyline
 70
0
 90
9
 10
16.6375414534972
 20
49.2143806718141
 10
16.6375740235626
 20
49.2143824275822
 10
16.6376146586002
 20
49.2143813155384
 10
16.6376404238618
 20
49.2143774356762
 10
16.6376689985642
 20
49.2143715833687
 10
16.6377170249689
 20
49.2143574260305
 10
16.6377522223843
 20
49.2143423633649
 10
16.6377838693741
 20
49.2143237036559
 10
16.6378024583066
 20
49.2143097301036
  0
LWPOLYLINE
  5
20288
100
AcDbEntity
  8
0
100
AcDbPolyline
 70
0
 90
21
 10
16.663440061427
 20
49.1894103801993
 10
16.6642625639375
 20
49.1899826106077
 10
16.6648570608469
 20
49.190392635446
 10
16.6656950668927
 20
49.190975711928
 10
16.6664441755919
 20
49.1915177972595
 10
16.6673175335834
 20
49.1922458830751
 10
16.6676870962907
 20
49.1927076278641
 10
16.6679523455876
 20
49.1932308607714
 10
16.6680569610845
 20
49.1935754772627
 10
16.6680799612141
 20
49.1940805860566
 10
16.6679041594122
 20
49.1947210328286
 10
16.6676234196833
 20
49.1953457783744
 10
16.6673535748339
 20
49.1958205228734
 10
16.6666746723918
 20
49.1969272657444
 10
16.6663479514197
 20
49.1974921588329
 10
16.666084442935
 20
49.1980780489494
 10
16.6659820021957
 20
49.1985416855971
 10
16.6659693119065
 20
49.198724481238
 10
16.6661120681579
 20
49.1997538074006
 10
16.6663017256187
 20
49.2006645155665
 10
16.6663702354312
 20
49.2007223334519
  0
LWPOLYLINE
  5
20289
100
AcDbEntity
  8
0
100
AcDbPolyline
 70
0
 90
5
 10
16.5699252642248
 20
49.2070091030524
 10
16.5700064976561
 20
49.2069712855313
 10
16.5696148921227
 20
49.2063980627833
 10
16.5691569978284
 20
49.2057301171373
 10
16.5690630870766
 20
49.2057494833661
  0
LWPOLYLINE
  5
2028A
100
AcDbEntity
  8
0
100
AcDbPolyline
 70
0
 90
11
 10
16.569586789902
 20
49.2063568957283
 10
16.570286248083
 20
49.206145717291
 10
16.5703112688085
 20
49.2061854889244
 10
16.5703682369994
 20
49.2062973651247
 10
16.5704381377375
 20
49.2064344939312
 10
16.5705241324754
 20
49.2065911303023
 10
16.5705975075074
 20
49.206728958476
 10
16.5706374847417
 20
49.2068483993304
 10
16.5706658689858
 20
49.2069561605926
 10
16.5708837350588
 20
49.2068936029122
 10
16.5710037801905
 20
49.2068589990311
  0
LWPOLYLINE
  5
2028B
100
AcDbEntity
  8
0
100
AcDbPolyline
 70
0
 90
9
 10
16.5558836204979
 20
49.216064876237
 10
16.5555653330668
 20
49.2163575180125
 10
16.5553386536907
 20
49.2165633387189
 10
16.5551180196103
 20
49.2167643435995
 10
16.5549198217981
 20
49.2169483136494
 10
16.5546832593626
 20
49.2171603940146
 10
16.5545142771706
 20
49.2173064646716
 10
16.554358840553
 20
49.2174374900815
 10
16.5542754384795
 20
49.2175056277973
  0
LWPOLYLINE
  5
2028C
100
AcDbEntity
  8
0
100
AcDbPolyline
 70
0
 90
10
 10
16.5582381588793
 20
49.2139721951975
 10
16.5580165180141
 20
49.2141345075878
 10
16.5577150395386
 20
49.2143934354884
 10
16.5574715192791
 20
49.2146159692431
 10
16.5571874847252
 20
49.2148754157434
 10
16.5569384290897
 20
49.2151029815393
 10
16.556753502163
 20
49.215271979428
 10
16.5565544445655
 20
49.215453719242
 10
16.5562663891445
 20
49.2157148675637
 10
16.5560067385826
 20
49.2159496368665
  0
LWPOLYLINE
  5
2028D
100
AcDbEntity
  8
0
100
AcDbPolyline
 70
0
 90
6
 10
16.5595588843819
 20
49.2133083798674
 10
16.559406353584
 20
49.2133621871861
 10
16.5591809278284
 20
49.213446711005
 10
16.5589415846573
 20
49.213560997689
 10
16.5586662202265
 20
49.2137001251642
 10
16.5585526992675
 20
49.2137651238041
  0
LWPOLYLINE
  5
2028E
100
AcDbEntity
  8
0
100
AcDbPolyline
 70
0
 90
4
 10
16.5617160116909
 20
49.2128750076922
 10
16.560816367487
 20
49.2130153467008
 10
16.560434305489
 20
49.2130803008553
 10
16.560291701785
 20
49.213107589335
  0
LWPOLYLINE
  5
2028F
100
AcDbEntity
  8
0
100
AcDbPolyline
 70
0
 90
3
 10
16.5629548347381
 20
49.2126850995689
 10
16.5625709242556
 20
49.2127445918915
 10
16.5622013293761
 20
49.2128018463345
  0
LWPOLYLINE
  5
20290
100
AcDbEntity
  8
0
100
AcDbPolyline
 70
0
 90
7
 10
16.5662817624875
 20
49.2121776589542
 10
16.5658892304005
 20
49.2122359147398
 10
16.5653972728488
 20
49.2123100653249
 10
16.5649963672531
 20
49.2123713401922
 10
16.5644356020567
 20
49.2124574118528
 10
16.5635689311672
 20
49.2125905310986
 10
16.5632767974326
 20
49.2126353049877
  0
LWPOLYLINE
  5
20291
100
AcDbEntity
  8
0
100
AcDbPolyline
 70
0
 90
15
 10
16.6287654664588
 20
49.1885061222263
 10
16.6288079171662
 20
49.1885794002543
 10
16.6288521695633
 20
49.1886769550072
 10
16.6288567354981
 20
49.1887179789775
 10
16.6288474536797
 20
49.1887743951011
 10
16.6287878073509
 20
49.189042153899
 10
16.6287454778975
 20
49.1891685919017
 10
16.6286967531859
 20
49.1893070595824
 10
16.6286418176812
 20
49.1894581126605
 10
16.6286055428489
 20
49.1895527794024
 10
16.6285814869301
 20
49.1895782132176
 10
16.6285480495297
 20
49.1895876983313
 10
16.6284951030353
 20
49.18958911136
 10
16.6284422247411
 20
49.189585916376
 10
16.6284239754458
 20
49.1895844455363
  0
LWPOLYLINE
  5
20292
100
AcDbEntity
  8
0
100
AcDbPolyline
 70
0
 90
2
 10
16.6278772485115
 20
49.2030671155405
 10
16.6278939355151
 20
49.2028978019865
  0
LWPOLYLINE
  5
20293
100
AcDbEntity
  8
0
100
AcDbPolyline
 70
0
 90
2
 10
16.6312329844558
 20
49.1767312861074
 10
16.6311765343267
 20
49.1765191775824
  0
LWPOLYLINE
  5
20294
100
AcDbEntity
  8
0
100
AcDbPolyline
 70
0
 90
6
 10
16.6358927523024
 20
49.2139388875879
 10
16.6344847092172
 20
49.2141937703798
 10
16.6339743298122
 20
49.2143110445697
 10
16.6335709689931
 20
49.21440720121
 10
16.6330889447871
 20
49.2145148966488
 10
16.6326914165639
 20
49.2145747410646
  0
LWPOLYLINE
  5
20295
100
AcDbEntity
  8
0
100
AcDbPolyline
 70
0
 90
2
 10
16.6221949845961
 20
49.1747652559017
 10
16.6224116789803
 20
49.1748232806712
  0
ENDSEC
  0
SECTION
  2
OBJECTS
  0
DICTIONARY
  5
C
330
0
100
AcDbDictionary
281
     1
  3
ACAD_GROUP
350
D
  3
ACAD_LAYOUT
350
1A
  3
ACAD_MLEADERSTYLE
350
43
  3
ACAD_PLOTSETTINGS
350
19
  3
ACAD_PLOTSTYLENAME
350
E
  3
ACAD_TABLESTYLE
350
42
  0
DICTIONARY
  5
D
102
{ACAD_REACTORS
330
C
102
}
330
C
100
AcDbDictionary
281
     1
  0
DICTIONARY
  5
1A
102
{ACAD_REACTORS
330
C
102
}
330
C
100
AcDbDictionary
281
     1
  3
Layout1
350
1E
  3
Model
350
22
  0
DICTIONARY
  5
43
102
{ACAD_REACTORS
330
C
102
}
330
C
100
AcDbDictionary
281
     1
  0
DICTIONARY
  5
19
102
{ACAD_REACTORS
330
C
102
}
330
C
100
AcDbDictionary
281
     1
  0
ACDBDICTIONARYWDFLT
  5
E
102
{ACAD_REACTORS
330
C
102
}
330
C
100
AcDbDictionary
281
     1
  3
Normal
350
F
100
AcDbDictionaryWithDefault
340
F
  0
DICTIONARY
  5
42
102
{ACAD_REACTORS
330
C
102
}
330
C
100
AcDbDictionary
281
     1
  0
LAYOUT
  5
1E
102
{ACAD_REACTORS
330
1A
102
}
330
1A
100
AcDbPlotSettings
  1

  2
none_device
  4

  6

 40
0.0
 41
0.0
 42
0.0
 43
0.0
 44
0.0
 45
0.0
 46
0.0
 47
0.0
 48
0.0
 49
0.0
140
0.0
141
0.0
142
1.0
143
1.0
 70
   688
 72
     0
 73
     0
 74
     5
  7

 75
    16
 76
     0
 77
     2
 78
   300
147
1.0
148
0.0
149
0.0
100
AcDbLayout
  1
Layout1
 70
     1
 71
     1
 10
0.0
 20
0.0
 11
12.0
 21
9.0
 12
0.0
 22
0.0
 32
0.0
 14
1.000000000000000E+20
 24
1.000000000000000E+20
 34
1.000000000000000E+20
 15
-1.000000000000000E+20
 25
-1.000000000000000E+20
 35
-1.000000000000000E+20
146
0.0
 13
0.0
 23
0.0
 33
0.0
 16
1.0
 26
0.0
 36
0.0
 17
0.0
 27
1.0
 37
0.0
 76
     0
330
1B
  0
LAYOUT
  5
22
102
{ACAD_REACTORS
330
1A
102
}
330
1A
100
AcDbPlotSettings
  1

  2
none_device
  4

  6

 40
0.0
 41
0.0
 42
0.0
 43
0.0
 44
0.0
 45
0.0
 46
0.0
 47
0.0
 48
0.0
 49
0.0
140
0.0
141
0.0
142
1.0
143
1.0
 70
  1712
 72
     0
 73
     0
 74
     0
  7

 75
     0
 76
     0
 77
     2
 78
   300
147
1.0
148
0.0
149
0.0
100
AcDbLayout
  1
Model
 70
     1
 71
     0
 10
0.0
 20
0.0
 11
12.0
 21
9.0
 12
0.0
 22
0.0
 32
0.0
 14
30.0
 24
49.75
 34
0.0
 15
130.5
 25
163.1318914119703
 35
0.0
146
0.0
 13
0.0
 23
0.0
 33
0.0
 16
1.0
 26
0.0
 36
0.0
 17
0.0
 27
1.0
 37
0.0
 76
     0
330
1F
331
29
  0
ENDSEC
  0
EOF
