  0
SECTION
  2
HEADER
  9
$ACADVER
  1
AC1018
  9
$ACADMAINTVER
 70
     0
  9
$DWGCODEPAGE
  3
ANSI_1252
  9
$EXTMIN
 10
-610316.6897
 20
-1168395.08
 30
0.0
  9
$EXTMAX
 10
-591752.81
 20
-1152069.3181
 30
0.0
  9
$LIMMIN
 10
0.0
 20
0.0
  9
$LIMMAX
 10
12.0
 20
9.0
  9
$ORTHOMODE
 70
     0
  9
$REGENMODE
 70
     1
  9
$FILLMODE
 70
     1
  9
$QTEXTMODE
 70
     0
  9
$MIRRTEXT
 70
     1
  9
$LTSCALE
 40
1.0
  9
$ATTMODE
 70
     1
  9
$TEXTSIZE
 40
0.2
  9
$TRACEWID
 40
0.05
  9
$TEXTSTYLE
  7
Standard
  9
$CLAYER
  8
0
  9
$CELTYPE
  6
ByLayer
  9
$CECOLOR
 62
   256
  9
$CELTSCALE
 40
1.0
  9
$DISPSILH
 70
     0
  9
$LUNITS
 70
     2
  9
$LUPREC
 70
     4
  9
$SKETCHINC
 40
0.1
  9
$FILLETRAD
 40
0.5
  9
$AUNITS
 70
     0
  9
$AUPREC
 70
     0
  9
$MENU
  1
.
  9
$ELEVATION
 40
0.0
  9
$PELEVATION
 40
0.0
  9
$THICKNESS
 40
0.0
  9
$LIMCHECK
 70
     0
  9
$CHAMFERA
 40
0.5
  9
$CHAMFERB
 40
0.5
  9
$CHAMFERC
 40
1.0
  9
$CHAMFERD
 40
0.0
  9
$SKPOLY
 70
     0
  9
$ANGBASE
 50
0.0
  9
$ANGDIR
 70
     0
  9
$PDMODE
 70
     0
  9
$PDSIZE
 40
0.0
  9
$PLINEWID
 40
0.0
  9
$SPLFRAME
 70
     0
  9
$SPLINETYPE
 70
     6
  9
$SPLINESEGS
 70
     8
  9
$HANDSEED
  5
000200C6
  9
$SURFTAB1
 70
     6
  9
$SURFTAB2
 70
     6
  9
$SURFTYPE
 70
     6
  9
$SURFU
 70
     6
  9
$SURFV
 70
     6
  9
$UCSBASE
  2

  9
$UCSNAME
  2

  9
$UCSORG
 10
0.0
 20
0.0
 30
0.0
  9
$UCSXDIR
 10
1.0
 20
0.0
 30
0.0
  9
$UCSYDIR
 10
0.0
 20
1.0
 30
0.0
  9
$UCSORTHOREF
  2

  9
$UCSORTHOVIEW
 70
     0
  9
$UCSORGTOP
 10
0.0
 20
0.0
 30
0.0
  9
$UCSORGBOTTOM
 10
0.0
 20
0.0
 30
0.0
  9
$UCSORGLEFT
 10
0.0
 20
0.0
 30
0.0
  9
$UCSORGRIGHT
 10
0.0
 20
0.0
 30
0.0
  9
$UCSORGFRONT
 10
0.0
 20
0.0
 30
0.0
  9
$UCSORGBACK
 10
0.0
 20
0.0
 30
0.0
  9
$PUCSBASE
  2

  9
$PUCSNAME
  2

  9
$PUCSORG
 10
0.0
 20
0.0
 30
0.0
  9
$PUCSXDIR
 10
1.0
 20
0.0
 30
0.0
  9
$PUCSYDIR
 10
0.0
 20
1.0
 30
0.0
  9
$PUCSORTHOREF
  2

  9
$PUCSORTHOVIEW
 70
     0
  9
$PUCSORGTOP
 10
0.0
 20
0.0
 30
0.0
  9
$PUCSORGBOTTOM
 10
0.0
 20
0.0
 30
0.0
  9
$PUCSORGLEFT
 10
0.0
 20
0.0
 30
0.0
  9
$PUCSORGRIGHT
 10
0.0
 20
0.0
 30
0.0
  9
$PUCSORGFRONT
 10
0.0
 20
0.0
 30
0.0
  9
$PUCSORGBACK
 10
0.0
 20
0.0
 30
0.0
  9
$WORLDVIEW
 70
     1
  9
$SHADEDGE
 70
     3
  9
$SHADEDIF
 70
    70
  9
$TILEMODE
 70
     1
  9
$MAXACTVP
 70
    64
  9
$PINSBASE
 10
0.0
 20
0.0
 30
0.0
  9
$PLIMCHECK
 70
     0
  9
$PEXTMIN
 10
1.000000000000000E+20
 20
1.000000000000000E+20
 30
1.000000000000000E+20
  9
$PEXTMAX
 10
-1.000000000000000E+20
 20
-1.000000000000000E+20
 30
-1.000000000000000E+20
  9
$PLIMMIN
 10
0.0
 20
0.0
  9
$PLIMMAX
 10
12.0
 20
9.0
  9
$UNITMODE
 70
     0
  9
$VISRETAIN
 70
     1
  9
$PLINEGEN
 70
     0
  9
$PSLTSCALE
 70
     1
  9
$TREEDEPTH
 70
  3020
  9
$CMLSTYLE
  2
Standard
  9
$CMLJUST
 70
     0
  9
$CMLSCALE
 40
1.0
  9
$PROXYGRAPHICS
 70
     1
  9
$MEASUREMENT
 70
     0
  9
$CELWEIGHT
370
    -1
  9
$ENDCAPS
280
     0
  9
$JOINSTYLE
280
     0
  9
$LWDISPLAY
290
     0
  9
$INSUNITS
 70
     1
  9
$HYPERLINKBASE
  1

  9
$STYLESHEET
  1

  9
$XEDIT
290
     1
  9
$CEPSNTYPE
380
     0
  9
$PSTYLEMODE
290
     1
  9
$EXTNAMES
290
     1
  9
$PSVPSCALE
 40
0.0
  9
$OLESTARTUP
290
     0
  9
$SORTENTS
280
   127
  9
$INDEXCTL
280
     0
  9
$HIDETEXT
280
     1
  9
$XCLIPFRAME
290
     0
  9
$HALOGAP
280
     0
  9
$OBSCOLOR
 70
   257
  9
$OBSLTYPE
280
     0
  9
$INTERSECTIONDISPLAY
280
     0
  9
$INTERSECTIONCOLOR
 70
   257
  9
$DIMASSOC
280
     2
  9
$PROJECTNAME
  1

  0
ENDSEC
  0
SECTION
  2
CLASSES
  0
CLASS
  1
ACDBDICTIONARYWDFLT
  2
AcDbDictionaryWithDefault
  3
ObjectDBX Classes
 90
        0
 91
        4
280
     0
281
     0
  0
ENDSEC
  0
SECTION
  2
TABLES
  0
TABLE
  2
VPORT
  5
8
330
0
100
AcDbSymbolTable
 70
     1
  0
VPORT
  5
29
330
8
100
AcDbSymbolTableRecord
100
AcDbViewportTableRecord
  2
*Active
 70
     0
 10
0.0
 20
0.0
 11
1.0
 21
1.0
 12
80.25
 22
106.4409457059851
 13
0.0
 23
0.0
 14
0.5
 24
0.5
 15
0.5
 25
0.5
 16
0.0
 26
0.0
 36
1.0
 17
0.0
 27
0.0
 37
0.0
 40
113.3818914119703
 41
0.8863849310366128
 42
50.0
 43
0.0
 44
0.0
 50
0.0
 51
0.0
 71
     0
 72
  1000
 73
     1
 74
     3
 75
     0
 76
     0
 77
     0
 78
     0
281
     0
 65
     1
110
0.0
120
0.0
130
0.0
111
1.0
121
0.0
131
0.0
112
0.0
122
1.0
132
0.0
 79
     0
146
0.0
  0
ENDTAB
  0
TABLE
  2
LTYPE
  5
5
330
0
100
AcDbSymbolTable
 70
     1
  0
LTYPE
  5
14
330
5
100
AcDbSymbolTableRecord
100
AcDbLinetypeTableRecord
  2
ByBlock
 70
     0
  3

 72
    65
 73
     0
 40
0.0
  0
LTYPE
  5
15
330
5
100
AcDbSymbolTableRecord
100
AcDbLinetypeTableRecord
  2
ByLayer
 70
     0
  3

 72
    65
 73
     0
 40
0.0
  0
LTYPE
  5
16
330
5
100
AcDbSymbolTableRecord
100
AcDbLinetypeTableRecord
  2
Continuous
 70
     0
  3
Solid line
 72
    65
 73
     0
 40
0.0
  0
ENDTAB
  0
TABLE
  2
LAYER
  5
2
330
0
100
AcDbSymbolTable
 70
     1
  0
LAYER
  5
10
330
2
100
AcDbSymbolTableRecord
100
AcDbLayerTableRecord
  2
0
 70
     0
 62
     7
  6
Continuous
370
    -3
390
F
  0
ENDTAB
  0
TABLE
  2
STYLE
  5
3
330
0
100
AcDbSymbolTable
 70
     1
  0
STYLE
  5
11
330
3
100
AcDbSymbolTableRecord
100
AcDbTextStyleTableRecord
  2
Standard
 70
     0
 40
0.0
 41
1.0
 50
0.0
 71
     0
 42
0.2
  3
txt
  4

  0
ENDTAB
  0
TABLE
  2
VIEW
  5
6
330
0
100
AcDbSymbolTable
 70
     0
  0
ENDTAB
  0
TABLE
  2
UCS
  5
7
330
0
100
AcDbSymbolTable
 70
     0
  0
ENDTAB
  0
TABLE
  2
APPID
  5
9
330
0
100
AcDbSymbolTable
 70
     1
  0
APPID
  5
12
330
9
100
AcDbSymbolTableRecord
100
AcDbRegAppTableRecord
  2
ACAD
 70
     0
  0
ENDTAB
  0
TABLE
  2
DIMSTYLE
  5
A
330
0
100
AcDbSymbolTable
 70
     1
100
AcDbDimStyleTable
  0
DIMSTYLE
105
27
330
A
100
AcDbSymbolTableRecord
100
AcDbDimStyleTableRecord
  2
Standard
 70
     0
340
11
  0
ENDTAB
  0
TABLE
  2
BLOCK_RECORD
  5
1
330
0
100
AcDbSymbolTable
 70
     1
  0
BLOCK_RECORD
  5
1F
330
1
100
AcDbSymbolTableRecord
100
AcDbBlockTableRecord
  2
*Model_Space
340
22
  0
BLOCK_RECORD
  5
1B
330
1
100
AcDbSymbolTableRecord
100
AcDbBlockTableRecord
  2
*Paper_Space
340
1E
  0
ENDTAB
  0
ENDSEC
  0
SECTION
  2
BLOCKS
  0
BLOCK
  5
20
330
1F
100
AcDbEntity
  8
0
100
AcDbBlockBegin
  2
*Model_Space
 70
     0
 10
0.0
 20
0.0
 30
0.0
  3
*Model_Space
  1

  0
ENDBLK
  5
21
330
1F
100
AcDbEntity
  8
0
100
AcDbBlockEnd
  0
BLOCK
  5
1C
330
1B
100
AcDbEntity
 67
     1
  8
0
100
AcDbBlockBegin
  2
*Paper_Space
 70
     0
 10
0.0
 20
0.0
 30
0.0
  3
*Paper_Space
  1

  0
ENDBLK
  5
1D
330
1B
100
AcDbEntity
 67
     1
  8
0
100
AcDbBlockEnd
  0
ENDSEC
  0
SECTION
  2
ENTITIES
  0
HATCH
  5
20000
100
AcDbEntity
  8
0
100
AcDbHatch
 10
0
 20
0
 30
0
210
0
220
0
230
1
  2
SOLID
 70
1
 71
0
 91
1
 92
2
 72
0
 73
1
 93
37
 10
-598280.739999998
 20
-1159928.2799
 10
-598279.534881645
 20
-1159928.38533419
 10
-598278.366380203
 20
-1159928.69843321
 10
-598277.269999998
 20
-1159929.2096837
 10
-598276.279053986
 20
-1159929.90355156
 10
-598275.423651562
 20
-1159930.75895399
 10
-598274.729783695
 20
-1159931.7499
 10
-598274.218533209
 20
-1159932.84628021
 10
-598273.905434191
 20
-1159934.01478165
 10
-598273.799999997
 20
-1159935.2199
 10
-598273.905434191
 20
-1159936.42501835
 10
-598274.218533209
 20
-1159937.5935198
 10
-598274.729783695
 20
-1159938.6899
 10
-598275.423651562
 20
-1159939.68084601
 10
-598276.279053986
 20
-1159940.53624844
 10
-598277.269999998
 20
-1159941.2301163
 10
-598278.366380203
 20
-1159941.74136679
 10
-598279.534881645
 20
-1159942.05446581
 10
-598280.739999998
 20
-1159942.1599
 10
-598281.945118352
 20
-1159942.05446581
 10
-598283.113619794
 20
-1159941.74136679
 10
-598284.209999999
 20
-1159941.2301163
 10
-598285.20094601
 20
-1159940.53624844
 10
-598286.056348435
 20
-1159939.68084601
 10
-598286.750216302
 20
-1159938.6899
 10
-598287.261466788
 20
-1159937.5935198
 10
-598287.574565806
 20
-1159936.42501835
 10
-598287.68
 20
-1159935.2199
 10
-598287.574565806
 20
-1159934.01478165
 10
-598287.261466788
 20
-1159932.84628021
 10
-598286.750216302
 20
-1159931.7499
 10
-598286.056348435
 20
-1159930.75895399
 10
-598285.20094601
 20
-1159929.90355156
 10
-598284.209999999
 20
-1159929.2096837
 10
-598283.113619794
 20
-1159928.69843321
 10
-598281.945118352
 20
-1159928.38533419
 10
-598280.739999998
 20
-1159928.2799
 97
0
 75
0
 76
1
 98
0
  0
HATCH
  5
20001
100
AcDbEntity
  8
0
100
AcDbHatch
 10
0
 20
0
 30
0
210
0
220
0
230
1
  2
SOLID
 70
1
 71
0
 91
1
 92
2
 72
0
 73
1
 93
37
 10
-603648.455200002
 20
-1162514.0592
 10
-603645.069060537
 20
-1162514.35544882
 10
-603641.785807207
 20
-1162515.23519389
 10
-603638.705200002
 20
-1162516.67170463
 10
-603635.920841613
 20
-1162518.62133336
 10
-603633.517333361
 20
-1162521.02484161
 10
-603631.567704628
 20
-1162523.8092
 10
-603630.131193896
 20
-1162526.88980721
 10
-603629.251448818
 20
-1162530.17306054
 10
-603628.955200002
 20
-1162533.5592
 10
-603629.251448818
 20
-1162536.94533946
 10
-603630.131193896
 20
-1162540.22859279
 10
-603631.567704628
 20
-1162543.3092
 10
-603633.517333361
 20
-1162546.09355839
 10
-603635.920841613
 20
-1162548.49706664
 10
-603638.705200002
 20
-1162550.44669537
 10
-603641.785807207
 20
-1162551.88320611
 10
-603645.069060537
 20
-1162552.76295118
 10
-603648.455200002
 20
-1162553.0592
 10
-603651.841339466
 20
-1162552.76295118
 10
-603655.124592796
 20
-1162551.88320611
 10
-603658.205200002
 20
-1162550.44669537
 10
-603660.98955839
 20
-1162548.49706664
 10
-603663.393066642
 20
-1162546.09355839
 10
-603665.342695375
 20
-1162543.3092
 10
-603666.779206107
 20
-1162540.22859279
 10
-603667.658951185
 20
-1162536.94533946
 10
-603667.955200002
 20
-1162533.5592
 10
-603667.658951185
 20
-1162530.17306054
 10
-603666.779206107
 20
-1162526.88980721
 10
-603665.342695375
 20
-1162523.8092
 10
-603663.393066642
 20
-1162521.02484161
 10
-603660.98955839
 20
-1162518.62133336
 10
-603658.205200002
 20
-1162516.67170463
 10
-603655.124592796
 20
-1162515.23519389
 10
-603651.841339466
 20
-1162514.35544882
 10
-603648.455200002
 20
-1162514.0592
 97
0
 75
0
 76
1
 98
0
  0
HATCH
  5
20002
100
AcDbEntity
  8
0
100
AcDbHatch
 10
0
 20
0
 30
0
210
0
220
0
230
1
  2
SOLID
 70
1
 71
0
 91
1
 92
2
 72
0
 73
1
 93
37
 10
-598595.951000001
 20
-1158205.091
 10
-598593.823809825
 20
-1158205.27710502
 10
-598591.761253246
 20
-1158205.82976539
 10
-598589.826000001
 20
-1158206.7321888
 10
-598588.076851783
 20
-1158207.95695557
 10
-598586.566955573
 20
-1158209.46685178
 10
-598585.342188805
 20
-1158211.216
 10
-598584.439765397
 20
-1158213.15125324
 10
-598583.887105027
 20
-1158215.21380982
 10
-598583.701000001
 20
-1158217.341
 10
-598583.887105027
 20
-1158219.46819017
 10
-598584.439765397
 20
-1158221.53074675
 10
-598585.342188805
 20
-1158223.466
 10
-598586.566955573
 20
-1158225.21514822
 10
-598588.076851783
 20
-1158226.72504443
 10
-598589.826000001
 20
-1158227.94981119
 10
-598591.761253246
 20
-1158228.8522346
 10
-598593.823809825
 20
-1158229.40489497
 10
-598595.951000001
 20
-1158229.591
 10
-598598.078190178
 20
-1158229.40489497
 10
-598600.140746757
 20
-1158228.8522346
 10
-598602.076000001
 20
-1158227.94981119
 10
-598603.82514822
 20
-1158226.72504443
 10
-598605.33504443
 20
-1158225.21514822
 10
-598606.559811198
 20
-1158223.466
 10
-598607.462234606
 20
-1158221.53074675
 10
-598608.014894976
 20
-1158219.46819017
 10
-598608.201000001
 20
-1158217.341
 10
-598608.014894976
 20
-1158215.21380982
 10
-598607.462234606
 20
-1158213.15125324
 10
-598606.559811198
 20
-1158211.216
 10
-598605.33504443
 20
-1158209.46685178
 10
-598603.82514822
 20
-1158207.95695557
 10
-598602.076000001
 20
-1158206.7321888
 10
-598600.140746757
 20
-1158205.82976539
 10
-598598.078190178
 20
-1158205.27710502
 10
-598595.951000001
 20
-1158205.091
 97
0
 75
0
 76
1
 98
0
  0
HATCH
  5
20003
100
AcDbEntity
  8
0
100
AcDbHatch
 10
0
 20
0
 30
0
210
0
220
0
230
1
  2
SOLID
 70
1
 71
0
 91
1
 92
2
 72
0
 73
1
 93
37
 10
-598107.015799999
 20
-1159560.121
 10
-598105.015372993
 20
-1159560.29601468
 10
-598103.075727948
 20
-1159560.81574101
 10
-598101.255799999
 20
-1159561.66438735
 10
-598099.610886736
 20
-1159562.81616801
 10
-598098.190968015
 20
-1159564.23608674
 10
-598097.039187348
 20
-1159565.881
 10
-598096.190541008
 20
-1159567.70092795
 10
-598095.670814685
 20
-1159569.64057299
 10
-598095.4958
 20
-1159571.641
 10
-598095.670814685
 20
-1159573.64142701
 10
-598096.190541008
 20
-1159575.58107205
 10
-598097.039187348
 20
-1159577.401
 10
-598098.190968015
 20
-1159579.04591326
 10
-598099.610886736
 20
-1159580.46583198
 10
-598101.255799999
 20
-1159581.61761265
 10
-598103.075727948
 20
-1159582.46625899
 10
-598105.015372993
 20
-1159582.98598531
 10
-598107.015799999
 20
-1159583.161
 10
-598109.016227006
 20
-1159582.98598531
 10
-598110.95587205
 20
-1159582.46625899
 10
-598112.775799999
 20
-1159581.61761265
 10
-598114.420713263
 20
-1159580.46583198
 10
-598115.840631984
 20
-1159579.04591326
 10
-598116.99241265
 20
-1159577.401
 10
-598117.84105899
 20
-1159575.58107205
 10
-598118.360785314
 20
-1159573.64142701
 10
-598118.535799999
 20
-1159571.641
 10
-598118.360785314
 20
-1159569.64057299
 10
-598117.84105899
 20
-1159567.70092795
 10
-598116.99241265
 20
-1159565.881
 10
-598115.840631984
 20
-1159564.23608674
 10
-598114.420713263
 20
-1159562.81616801
 10
-598112.775799999
 20
-1159561.66438735
 10
-598110.95587205
 20
-1159560.81574101
 10
-598109.016227006
 20
-1159560.29601468
 10
-598107.015799999
 20
-1159560.121
 97
0
 75
0
 76
1
 98
0
  0
HATCH
  5
20004
100
AcDbEntity
  8
0
100
AcDbHatch
 10
0
 20
0
 30
0
210
0
220
0
230
1
  2
SOLID
 70
1
 71
0
 91
1
 92
2
 72
0
 73
1
 93
33
 10
-591753.11
 20
-1160747.82
 10
-591753.28
 20
-1160749.58
 10
-591753.8
 20
-1160751.26
 10
-591754.63
 20
-1160752.82
 10
-591755.75
 20
-1160754.18
 10
-591757.11
 20
-1160755.3
 10
-591758.67
 20
-1160756.13
 10
-591760.35
 20
-1160756.65
 10
-591762.11
 20
-1160756.82
 10
-591763.87
 20
-1160756.65
 10
-591765.55
 20
-1160756.13
 10
-591767.11
 20
-1160755.3
 10
-591768.47
 20
-1160754.18
 10
-591769.59
 20
-1160752.82
 10
-591770.42
 20
-1160751.26
 10
-591770.94
 20
-1160749.58
 10
-591771.11
 20
-1160747.82
 10
-591770.94
 20
-1160746.06
 10
-591770.42
 20
-1160744.38
 10
-591769.59
 20
-1160742.82
 10
-591768.47
 20
-1160741.46
 10
-591767.11
 20
-1160740.34
 10
-591765.55
 20
-1160739.51
 10
-591763.87
 20
-1160738.99
 10
-591762.11
 20
-1160738.82
 10
-591760.35
 20
-1160738.99
 10
-591758.67
 20
-1160739.51
 10
-591757.11
 20
-1160740.34
 10
-591755.75
 20
-1160741.46
 10
-591754.63
 20
-1160742.82
 10
-591753.8
 20
-1160744.38
 10
-591753.28
 20
-1160746.06
 10
-591753.11
 20
-1160747.82
 97
0
 75
0
 76
1
 98
0
  0
HATCH
  5
20005
100
AcDbEntity
  8
0
100
AcDbHatch
 10
0
 20
0
 30
0
210
0
220
0
230
1
  2
SOLID
 70
1
 71
0
 91
1
 92
2
 72
0
 73
1
 93
25
 10
-595324.17
 20
-1157761.47
 10
-595340.1
 20
-1157766.44
 10
-595356.15
 20
-1157769.89
 10
-595358.61
 20
-1157759.05
 10
-595362.47
 20
-1157743.12
 10
-595332.42
 20
-1157736.54
 10
-595303.73
 20
-1157728.91
 10
-595296.25
 20
-1157726.33
 10
-595289.58
 20
-1157724.11
 10
-595285.01
 20
-1157722.59
 10
-595252.04
 20
-1157708.99
 10
-595238.19
 20
-1157702.42
 10
-595235.4
 20
-1157708.31
 10
-595228.19
 20
-1157705.22
 10
-595231.11
 20
-1157699.07
 10
-595143.67
 20
-1157657.5
 10
-595114.49
 20
-1157643.82
 10
-595122.15
 20
-1157662.95
 10
-595128.56
 20
-1157677.3
 10
-595132.24
 20
-1157686.76
 10
-595243.15
 20
-1157732.42
 10
-595261.56
 20
-1157740.41
 10
-595281.16
 20
-1157748.06
 10
-595295.56
 20
-1157752.55
 10
-595324.17
 20
-1157761.47
 97
0
 75
0
 76
1
 98
0
  0
HATCH
  5
20006
100
AcDbEntity
  8
0
100
AcDbHatch
 10
0
 20
0
 30
0
210
0
220
0
230
1
  2
SOLID
 70
1
 71
0
 91
1
 92
2
 72
0
 73
1
 93
37
 10
-597228.579999998
 20
-1162954.09
 10
-597226.612566145
 20
-1162954.26212816
 10
-597224.704911774
 20
-1162954.77328261
 10
-597222.914999997
 20
-1162955.60793218
 10
-597221.297216379
 20
-1162956.74071646
 10
-597219.900716456
 20
-1162958.13721638
 10
-597218.767932172
 20
-1162959.755
 10
-597217.933282603
 20
-1162961.54491178
 10
-597217.422128155
 20
-1162963.45256615
 10
-597217.249999996
 20
-1162965.42
 10
-597217.422128155
 20
-1162967.38743386
 10
-597217.933282603
 20
-1162969.29508823
 10
-597218.767932172
 20
-1162971.085
 10
-597219.900716456
 20
-1162972.70278362
 10
-597221.297216379
 20
-1162974.09928354
 10
-597222.914999997
 20
-1162975.23206783
 10
-597224.704911774
 20
-1162976.0667174
 10
-597226.612566145
 20
-1162976.57787185
 10
-597228.579999998
 20
-1162976.75
 10
-597230.547433852
 20
-1162976.57787185
 10
-597232.455088223
 20
-1162976.0667174
 10
-597234.244999999
 20
-1162975.23206783
 10
-597235.862783617
 20
-1162974.09928354
 10
-597237.25928354
 20
-1162972.70278362
 10
-597238.392067825
 20
-1162971.085
 10
-597239.226717393
 20
-1162969.29508823
 10
-597239.737871842
 20
-1162967.38743386
 10
-597239.91
 20
-1162965.42
 10
-597239.737871842
 20
-1162963.45256615
 10
-597239.226717393
 20
-1162961.54491178
 10
-597238.392067825
 20
-1162959.755
 10
-597237.25928354
 20
-1162958.13721638
 10
-597235.862783617
 20
-1162956.74071646
 10
-597234.244999999
 20
-1162955.60793218
 10
-597232.455088223
 20
-1162954.77328261
 10
-597230.547433852
 20
-1162954.26212816
 10
-597228.579999998
 20
-1162954.09
 97
0
 75
0
 76
1
 98
0
  0
HATCH
  5
20007
100
AcDbEntity
  8
0
100
AcDbHatch
 10
0
 20
0
 30
0
210
0
220
0
230
1
  2
SOLID
 70
1
 71
0
 91
1
 92
2
 72
0
 73
1
 93
37
 10
-598693.778499998
 20
-1160297.6066
 10
-598691.236290678
 20
-1160297.8290145
 10
-598688.771325101
 20
-1160298.48950003
 10
-598686.4585
 20
-1160299.56798809
 10
-598684.368089394
 20
-1160301.03170935
 10
-598682.563609353
 20
-1160302.83618939
 10
-598681.099888089
 20
-1160304.9266
 10
-598680.021400033
 20
-1160307.2394251
 10
-598679.360914497
 20
-1160309.70439068
 10
-598679.138500001
 20
-1160312.2466
 10
-598679.360914497
 20
-1160314.78880932
 10
-598680.021400033
 20
-1160317.2537749
 10
-598681.099888089
 20
-1160319.5666
 10
-598682.563609353
 20
-1160321.6570106
 10
-598684.368089394
 20
-1160323.46149064
 10
-598686.4585
 20
-1160324.92521191
 10
-598688.771325101
 20
-1160326.00369996
 10
-598691.236290678
 20
-1160326.6641855
 10
-598693.778499998
 20
-1160326.8866
 10
-598696.320709319
 20
-1160326.6641855
 10
-598698.785674895
 20
-1160326.00369996
 10
-598701.098499997
 20
-1160324.92521191
 10
-598703.188910602
 20
-1160323.46149064
 10
-598704.993390643
 20
-1160321.6570106
 10
-598706.457111907
 20
-1160319.5666
 10
-598707.535599964
 20
-1160317.2537749
 10
-598708.196085499
 20
-1160314.78880932
 10
-598708.418499995
 20
-1160312.2466
 10
-598708.196085499
 20
-1160309.70439068
 10
-598707.535599964
 20
-1160307.2394251
 10
-598706.457111907
 20
-1160304.9266
 10
-598704.993390643
 20
-1160302.83618939
 10
-598703.188910602
 20
-1160301.03170935
 10
-598701.098499997
 20
-1160299.56798809
 10
-598698.785674895
 20
-1160298.48950003
 10
-598696.320709319
 20
-1160297.8290145
 10
-598693.778499998
 20
-1160297.6066
 97
0
 75
0
 76
1
 98
0
  0
HATCH
  5
20008
100
AcDbEntity
  8
0
100
AcDbHatch
 10
0
 20
0
 30
0
210
0
220
0
230
1
  2
SOLID
 70
1
 71
0
 91
1
 92
2
 72
0
 73
1
 93
37
 10
-599097.355999999
 20
-1162582.004
 10
-599095.596943959
 20
-1162582.15789746
 10
-599093.891335947
 20
-1162582.61491375
 10
-599092.290999999
 20
-1162583.36116266
 10
-599090.844561513
 20
-1162584.37396979
 10
-599089.595969791
 20
-1162585.62256151
 10
-599088.583162659
 20
-1162587.069
 10
-599087.836913751
 20
-1162588.66933595
 10
-599087.379897462
 20
-1162590.37494396
 10
-599087.226
 20
-1162592.134
 10
-599087.379897462
 20
-1162593.89305604
 10
-599087.836913751
 20
-1162595.59866405
 10
-599088.583162659
 20
-1162597.199
 10
-599089.595969791
 20
-1162598.64543849
 10
-599090.844561513
 20
-1162599.89403021
 10
-599092.290999999
 20
-1162600.90683734
 10
-599093.891335947
 20
-1162601.65308625
 10
-599095.596943959
 20
-1162602.11010254
 10
-599097.355999999
 20
-1162602.264
 10
-599099.115056038
 20
-1162602.11010254
 10
-599100.82066405
 20
-1162601.65308625
 10
-599102.420999998
 20
-1162600.90683734
 10
-599103.867438484
 20
-1162599.89403021
 10
-599105.116030207
 20
-1162598.64543849
 10
-599106.128837338
 20
-1162597.199
 10
-599106.875086246
 20
-1162595.59866405
 10
-599107.332102536
 20
-1162593.89305604
 10
-599107.485999998
 20
-1162592.134
 10
-599107.332102536
 20
-1162590.37494396
 10
-599106.875086246
 20
-1162588.66933595
 10
-599106.128837338
 20
-1162587.069
 10
-599105.116030207
 20
-1162585.62256151
 10
-599103.867438484
 20
-1162584.37396979
 10
-599102.420999998
 20
-1162583.36116266
 10
-599100.82066405
 20
-1162582.61491375
 10
-599099.115056038
 20
-1162582.15789746
 10
-599097.355999999
 20
-1162582.004
 97
0
 75
0
 76
1
 98
0
  0
HATCH
  5
20009
100
AcDbEntity
  8
0
100
AcDbHatch
 10
0
 20
0
 30
0
210
0
220
0
230
1
  2
SOLID
 70
1
 71
0
 91
1
 92
2
 72
0
 73
1
 93
37
 10
-598837.624000002
 20
-1157290.841
 10
-598835.739917274
 20
-1157291.00583588
 10
-598833.913081446
 20
-1157291.49533506
 10
-598832.199000001
 20
-1157292.29462437
 10
-598830.649754436
 20
-1157293.37941779
 10
-598829.312417793
 20
-1157294.71675443
 10
-598828.227624369
 20
-1157296.266
 10
-598827.428335065
 20
-1157297.98008144
 10
-598826.93883588
 20
-1157299.80691727
 10
-598826.774
 20
-1157301.691
 10
-598826.93883588
 20
-1157303.57508273
 10
-598827.428335065
 20
-1157305.40191856
 10
-598828.227624369
 20
-1157307.116
 10
-598829.312417793
 20
-1157308.66524557
 10
-598830.649754436
 20
-1157310.00258221
 10
-598832.199000001
 20
-1157311.08737563
 10
-598833.913081446
 20
-1157311.88666494
 10
-598835.739917274
 20
-1157312.37616412
 10
-598837.624000002
 20
-1157312.541
 10
-598839.50808273
 20
-1157312.37616412
 10
-598841.334918557
 20
-1157311.88666494
 10
-598843.049000002
 20
-1157311.08737563
 10
-598844.598245568
 20
-1157310.00258221
 10
-598845.935582211
 20
-1157308.66524557
 10
-598847.020375634
 20
-1157307.116
 10
-598847.819664939
 20
-1157305.40191856
 10
-598848.309164123
 20
-1157303.57508273
 10
-598848.474000003
 20
-1157301.691
 10
-598848.309164123
 20
-1157299.80691727
 10
-598847.819664939
 20
-1157297.98008144
 10
-598847.020375634
 20
-1157296.266
 10
-598845.935582211
 20
-1157294.71675443
 10
-598844.598245568
 20
-1157293.37941779
 10
-598843.049000002
 20
-1157292.29462437
 10
-598841.334918557
 20
-1157291.49533506
 10
-598839.50808273
 20
-1157291.00583588
 10
-598837.624000002
 20
-1157290.841
 97
0
 75
0
 76
1
 98
0
  0
HATCH
  5
2000A
100
AcDbEntity
  8
0
100
AcDbHatch
 10
0
 20
0
 30
0
210
0
220
0
230
1
  2
SOLID
 70
1
 71
0
 91
1
 92
2
 72
0
 73
1
 93
25
 10
-595324.17
 20
-1157761.47
 10
-595340.1
 20
-1157766.44
 10
-595356.15
 20
-1157769.89
 10
-595358.61
 20
-1157759.05
 10
-595362.47
 20
-1157743.12
 10
-595332.42
 20
-1157736.54
 10
-595303.73
 20
-1157728.91
 10
-595296.25
 20
-1157726.33
 10
-595289.58
 20
-1157724.11
 10
-595285.01
 20
-1157722.59
 10
-595252.04
 20
-1157708.99
 10
-595238.19
 20
-1157702.42
 10
-595235.4
 20
-1157708.31
 10
-595228.19
 20
-1157705.22
 10
-595231.11
 20
-1157699.07
 10
-595143.67
 20
-1157657.5
 10
-595114.49
 20
-1157643.82
 10
-595122.15
 20
-1157662.95
 10
-595128.56
 20
-1157677.3
 10
-595132.24
 20
-1157686.76
 10
-595243.15
 20
-1157732.42
 10
-595261.56
 20
-1157740.41
 10
-595281.16
 20
-1157748.06
 10
-595295.56
 20
-1157752.55
 10
-595324.17
 20
-1157761.47
 97
0
 75
0
 76
1
 98
0
  0
HATCH
  5
2000B
100
AcDbEntity
  8
0
100
AcDbHatch
 10
0
 20
0
 30
0
210
0
220
0
230
1
  2
SOLID
 70
1
 71
0
 91
1
 92
2
 72
0
 73
1
 93
33
 10
-601025.65
 20
-1161249.42
 10
-601025.92
 20
-1161252.15
 10
-601026.72
 20
-1161254.78
 10
-601028.01
 20
-1161257.2
 10
-601029.75
 20
-1161259.32
 10
-601031.87
 20
-1161261.06
 10
-601034.29
 20
-1161262.35
 10
-601036.92
 20
-1161263.15
 10
-601039.65
 20
-1161263.42
 10
-601042.38
 20
-1161263.15
 10
-601045.01
 20
-1161262.35
 10
-601047.43
 20
-1161261.06
 10
-601049.55
 20
-1161259.32
 10
-601051.29
 20
-1161257.2
 10
-601052.58
 20
-1161254.78
 10
-601053.38
 20
-1161252.15
 10
-601053.65
 20
-1161249.42
 10
-601053.38
 20
-1161246.69
 10
-601052.58
 20
-1161244.06
 10
-601051.29
 20
-1161241.64
 10
-601049.55
 20
-1161239.52
 10
-601047.43
 20
-1161237.78
 10
-601045.01
 20
-1161236.49
 10
-601042.38
 20
-1161235.69
 10
-601039.65
 20
-1161235.42
 10
-601036.92
 20
-1161235.69
 10
-601034.29
 20
-1161236.49
 10
-601031.87
 20
-1161237.78
 10
-601029.75
 20
-1161239.52
 10
-601028.01
 20
-1161241.64
 10
-601026.72
 20
-1161244.06
 10
-601025.92
 20
-1161246.69
 10
-601025.65
 20
-1161249.42
 97
0
 75
0
 76
1
 98
0
  0
HATCH
  5
2000C
100
AcDbEntity
  8
0
100
AcDbHatch
 10
0
 20
0
 30
0
210
0
220
0
230
1
  2
SOLID
 70
1
 71
0
 91
1
 92
2
 72
0
 73
1
 93
33
 10
-591752.81
 20
-1160760.16
 10
-591752.98
 20
-1160761.92
 10
-591753.5
 20
-1160763.6
 10
-591754.33
 20
-1160765.16
 10
-591755.45
 20
-1160766.52
 10
-591756.81
 20
-1160767.64
 10
-591758.37
 20
-1160768.47
 10
-591760.05
 20
-1160768.99
 10
-591761.81
 20
-1160769.16
 10
-591763.57
 20
-1160768.99
 10
-591765.25
 20
-1160768.47
 10
-591766.81
 20
-1160767.64
 10
-591768.17
 20
-1160766.52
 10
-591769.29
 20
-1160765.16
 10
-591770.12
 20
-1160763.6
 10
-591770.64
 20
-1160761.92
 10
-591770.81
 20
-1160760.16
 10
-591770.64
 20
-1160758.4
 10
-591770.12
 20
-1160756.72
 10
-591769.29
 20
-1160755.16
 10
-591768.17
 20
-1160753.8
 10
-591766.81
 20
-1160752.68
 10
-591765.25
 20
-1160751.85
 10
-591763.57
 20
-1160751.33
 10
-591761.81
 20
-1160751.16
 10
-591760.05
 20
-1160751.33
 10
-591758.37
 20
-1160751.85
 10
-591756.81
 20
-1160752.68
 10
-591755.45
 20
-1160753.8
 10
-591754.33
 20
-1160755.16
 10
-591753.5
 20
-1160756.72
 10
-591752.98
 20
-1160758.4
 10
-591752.81
 20
-1160760.16
 97
0
 75
0
 76
1
 98
0
  0
HATCH
  5
2000D
100
AcDbEntity
  8
0
100
AcDbHatch
 10
0
 20
0
 30
0
210
0
220
0
230
1
  2
SOLID
 70
1
 71
0
 91
1
 92
2
 72
0
 73
1
 93
37
 10
-600141.081999999
 20
-1155551.206
 10
-600139.003431312
 20
-1155551.3878512
 10
-600136.988018883
 20
-1155551.92787933
 10
-600135.096999999
 20
-1155552.80967592
 10
-600133.387832311
 20
-1155554.00644802
 10
-600131.912448015
 20
-1155555.48183231
 10
-600130.715675916
 20
-1155557.191
 10
-600129.833879329
 20
-1155559.08201888
 10
-600129.293851196
 20
-1155561.09743131
 10
-600129.112
 20
-1155563.176
 10
-600129.293851196
 20
-1155565.25456869
 10
-600129.833879329
 20
-1155567.26998111
 10
-600130.715675916
 20
-1155569.161
 10
-600131.912448015
 20
-1155570.87016769
 10
-600133.387832311
 20
-1155572.34555198
 10
-600135.096999999
 20
-1155573.54232408
 10
-600136.988018883
 20
-1155574.42412067
 10
-600139.003431312
 20
-1155574.9641488
 10
-600141.081999999
 20
-1155575.146
 10
-600143.160568685
 20
-1155574.9641488
 10
-600145.175981114
 20
-1155574.42412067
 10
-600147.066999998
 20
-1155573.54232408
 10
-600148.776167686
 20
-1155572.34555198
 10
-600150.251551982
 20
-1155570.87016769
 10
-600151.448324081
 20
-1155569.161
 10
-600152.330120668
 20
-1155567.26998111
 10
-600152.870148801
 20
-1155565.25456869
 10
-600153.051999997
 20
-1155563.176
 10
-600152.870148801
 20
-1155561.09743131
 10
-600152.330120668
 20
-1155559.08201888
 10
-600151.448324081
 20
-1155557.191
 10
-600150.251551982
 20
-1155555.48183231
 10
-600148.776167686
 20
-1155554.00644802
 10
-600147.066999998
 20
-1155552.80967592
 10
-600145.175981114
 20
-1155551.92787933
 10
-600143.160568685
 20
-1155551.3878512
 10
-600141.081999999
 20
-1155551.206
 97
0
 75
0
 76
1
 98
0
  0
HATCH
  5
2000E
100
AcDbEntity
  8
0
100
AcDbHatch
 10
0
 20
0
 30
0
210
0
220
0
230
1
  2
SOLID
 70
1
 71
0
 91
1
 92
2
 72
0
 73
1
 93
37
 10
-597975.0033
 20
-1159426.7501
 10
-597971.947092073
 20
-1159427.01748355
 10
-597968.983745478
 20
-1159427.81150988
 10
-597966.203300001
 20
-1159429.10805289
 10
-597963.690238071
 20
-1159430.8677178
 10
-597961.520917803
 20
-1159433.03703807
 10
-597959.761252895
 20
-1159435.5501
 10
-597958.464709876
 20
-1159438.33054548
 10
-597957.670683549
 20
-1159441.29389207
 10
-597957.403300002
 20
-1159444.3501
 10
-597957.670683549
 20
-1159447.40630793
 10
-597958.464709876
 20
-1159450.36965452
 10
-597959.761252895
 20
-1159453.1501
 10
-597961.520917803
 20
-1159455.66316193
 10
-597963.690238071
 20
-1159457.8324822
 10
-597966.203300001
 20
-1159459.5921471
 10
-597968.983745478
 20
-1159460.88869012
 10
-597971.947092073
 20
-1159461.68271645
 10
-597975.0033
 20
-1159461.9501
 10
-597978.059507927
 20
-1159461.68271645
 10
-597981.022854522
 20
-1159460.88869012
 10
-597983.803299999
 20
-1159459.5921471
 10
-597986.316361929
 20
-1159457.8324822
 10
-597988.485682197
 20
-1159455.66316193
 10
-597990.245347105
 20
-1159453.1501
 10
-597991.541890124
 20
-1159450.36965452
 10
-597992.335916451
 20
-1159447.40630793
 10
-597992.603299998
 20
-1159444.3501
 10
-597992.335916451
 20
-1159441.29389207
 10
-597991.541890124
 20
-1159438.33054548
 10
-597990.245347105
 20
-1159435.5501
 10
-597988.485682197
 20
-1159433.03703807
 10
-597986.316361929
 20
-1159430.8677178
 10
-597983.803299999
 20
-1159429.10805289
 10
-597981.022854522
 20
-1159427.81150988
 10
-597978.059507927
 20
-1159427.01748355
 10
-597975.0033
 20
-1159426.7501
 97
0
 75
0
 76
1
 98
0
  0
HATCH
  5
2000F
100
AcDbEntity
  8
0
100
AcDbHatch
 10
0
 20
0
 30
0
210
0
220
0
230
1
  2
SOLID
 70
1
 71
0
 91
1
 92
2
 72
0
 73
1
 93
37
 10
-599194.5
 20
-1161880.78
 10
-599192.621126718
 20
-1161880.94438011
 10
-599190.799342049
 20
-1161881.43252584
 10
-599189.09
 20
-1161882.22960513
 10
-599187.545038063
 20
-1161883.31139913
 10
-599186.211399125
 20
-1161884.64503806
 10
-599185.129605131
 20
-1161886.19
 10
-599184.332525843
 20
-1161887.89934205
 10
-599183.844380112
 20
-1161889.72112672
 10
-599183.68
 20
-1161891.6
 10
-599183.844380112
 20
-1161893.47887328
 10
-599184.332525843
 20
-1161895.30065795
 10
-599185.129605131
 20
-1161897.01
 10
-599186.211399125
 20
-1161898.55496194
 10
-599187.545038063
 20
-1161899.88860088
 10
-599189.09
 20
-1161900.97039487
 10
-599190.799342049
 20
-1161901.76747416
 10
-599192.621126718
 20
-1161902.25561989
 10
-599194.5
 20
-1161902.42
 10
-599196.378873282
 20
-1161902.25561989
 10
-599198.200657951
 20
-1161901.76747416
 10
-599199.91
 20
-1161900.97039487
 10
-599201.454961937
 20
-1161899.88860088
 10
-599202.788600875
 20
-1161898.55496194
 10
-599203.870394869
 20
-1161897.01
 10
-599204.667474157
 20
-1161895.30065795
 10
-599205.155619888
 20
-1161893.47887328
 10
-599205.32
 20
-1161891.6
 10
-599205.155619888
 20
-1161889.72112672
 10
-599204.667474157
 20
-1161887.89934205
 10
-599203.870394869
 20
-1161886.19
 10
-599202.788600875
 20
-1161884.64503806
 10
-599201.454961937
 20
-1161883.31139913
 10
-599199.91
 20
-1161882.22960513
 10
-599198.200657951
 20
-1161881.43252584
 10
-599196.378873282
 20
-1161880.94438011
 10
-599194.5
 20
-1161880.78
 97
0
 75
0
 76
1
 98
0
  0
HATCH
  5
20010
100
AcDbEntity
  8
0
100
AcDbHatch
 10
0
 20
0
 30
0
210
0
220
0
230
1
  2
SOLID
 70
1
 71
0
 91
1
 92
2
 72
0
 73
1
 93
25
 10
-595324.17
 20
-1157761.47
 10
-595340.1
 20
-1157766.44
 10
-595356.15
 20
-1157769.89
 10
-595358.61
 20
-1157759.05
 10
-595362.47
 20
-1157743.12
 10
-595332.42
 20
-1157736.54
 10
-595303.73
 20
-1157728.91
 10
-595296.25
 20
-1157726.33
 10
-595289.58
 20
-1157724.11
 10
-595285.01
 20
-1157722.59
 10
-595252.04
 20
-1157708.99
 10
-595238.19
 20
-1157702.42
 10
-595235.4
 20
-1157708.31
 10
-595228.19
 20
-1157705.22
 10
-595231.11
 20
-1157699.07
 10
-595143.67
 20
-1157657.5
 10
-595114.49
 20
-1157643.82
 10
-595122.15
 20
-1157662.95
 10
-595128.56
 20
-1157677.3
 10
-595132.24
 20
-1157686.76
 10
-595243.15
 20
-1157732.42
 10
-595261.56
 20
-1157740.41
 10
-595281.16
 20
-1157748.06
 10
-595295.56
 20
-1157752.55
 10
-595324.17
 20
-1157761.47
 97
0
 75
0
 76
1
 98
0
  0
HATCH
  5
20011
100
AcDbEntity
  8
0
100
AcDbHatch
 10
0
 20
0
 30
0
210
0
220
0
230
1
  2
SOLID
 70
1
 71
0
 91
1
 92
2
 72
0
 73
1
 93
33
 10
-600912.21
 20
-1160516.25
 10
-600912.42
 20
-1160518.4
 10
-600913.05
 20
-1160520.46
 10
-600914.06
 20
-1160522.36
 10
-600915.43
 20
-1160524.03
 10
-600917.1
 20
-1160525.4
 10
-600919
 20
-1160526.41
 10
-600921.06
 20
-1160527.04
 10
-600923.21
 20
-1160527.25
 10
-600925.36
 20
-1160527.04
 10
-600927.42
 20
-1160526.41
 10
-600929.32
 20
-1160525.4
 10
-600930.99
 20
-1160524.03
 10
-600932.36
 20
-1160522.36
 10
-600933.37
 20
-1160520.46
 10
-600934
 20
-1160518.4
 10
-600934.21
 20
-1160516.25
 10
-600934
 20
-1160514.1
 10
-600933.37
 20
-1160512.04
 10
-600932.36
 20
-1160510.14
 10
-600930.99
 20
-1160508.47
 10
-600929.32
 20
-1160507.1
 10
-600927.42
 20
-1160506.09
 10
-600925.36
 20
-1160505.46
 10
-600923.21
 20
-1160505.25
 10
-600921.06
 20
-1160505.46
 10
-600919
 20
-1160506.09
 10
-600917.1
 20
-1160507.1
 10
-600915.43
 20
-1160508.47
 10
-600914.06
 20
-1160510.14
 10
-600913.05
 20
-1160512.04
 10
-600912.42
 20
-1160514.1
 10
-600912.21
 20
-1160516.25
 97
0
 75
0
 76
1
 98
0
  0
HATCH
  5
20012
100
AcDbEntity
  8
0
100
AcDbHatch
 10
0
 20
0
 30
0
210
0
220
0
230
1
  2
SOLID
 70
1
 71
0
 91
1
 92
2
 72
0
 73
1
 93
25
 10
-595324.17
 20
-1157761.47
 10
-595340.1
 20
-1157766.44
 10
-595356.15
 20
-1157769.89
 10
-595358.61
 20
-1157759.05
 10
-595362.47
 20
-1157743.12
 10
-595332.42
 20
-1157736.54
 10
-595303.73
 20
-1157728.91
 10
-595296.25
 20
-1157726.33
 10
-595289.58
 20
-1157724.11
 10
-595285.01
 20
-1157722.59
 10
-595252.04
 20
-1157708.99
 10
-595238.19
 20
-1157702.42
 10
-595235.4
 20
-1157708.31
 10
-595228.19
 20
-1157705.22
 10
-595231.11
 20
-1157699.07
 10
-595143.67
 20
-1157657.5
 10
-595114.49
 20
-1157643.82
 10
-595122.15
 20
-1157662.95
 10
-595128.56
 20
-1157677.3
 10
-595132.24
 20
-1157686.76
 10
-595243.15
 20
-1157732.42
 10
-595261.56
 20
-1157740.41
 10
-595281.16
 20
-1157748.06
 10
-595295.56
 20
-1157752.55
 10
-595324.17
 20
-1157761.47
 97
0
 75
0
 76
1
 98
0
  0
HATCH
  5
20013
100
AcDbEntity
  8
0
100
AcDbHatch
 10
0
 20
0
 30
0
210
0
220
0
230
1
  2
SOLID
 70
1
 71
0
 91
1
 92
2
 72
0
 73
1
 93
25
 10
-595324.17
 20
-1157761.47
 10
-595340.1
 20
-1157766.44
 10
-595356.15
 20
-1157769.89
 10
-595358.61
 20
-1157759.05
 10
-595362.47
 20
-1157743.12
 10
-595332.42
 20
-1157736.54
 10
-595303.73
 20
-1157728.91
 10
-595296.25
 20
-1157726.33
 10
-595289.58
 20
-1157724.11
 10
-595285.01
 20
-1157722.59
 10
-595252.04
 20
-1157708.99
 10
-595238.19
 20
-1157702.42
 10
-595235.4
 20
-1157708.31
 10
-595228.19
 20
-1157705.22
 10
-595231.11
 20
-1157699.07
 10
-595143.67
 20
-1157657.5
 10
-595114.49
 20
-1157643.82
 10
-595122.15
 20
-1157662.95
 10
-595128.56
 20
-1157677.3
 10
-595132.24
 20
-1157686.76
 10
-595243.15
 20
-1157732.42
 10
-595261.56
 20
-1157740.41
 10
-595281.16
 20
-1157748.06
 10
-595295.56
 20
-1157752.55
 10
-595324.17
 20
-1157761.47
 97
0
 75
0
 76
1
 98
0
  0
HATCH
  5
20014
100
AcDbEntity
  8
0
100
AcDbHatch
 10
0
 20
0
 30
0
210
0
220
0
230
1
  2
SOLID
 70
1
 71
0
 91
1
 92
2
 72
0
 73
1
 93
37
 10
-610305.8697
 20
-1156273.7591
 10
-610303.990826717
 20
-1156273.92348011
 10
-610302.169042049
 20
-1156274.41162584
 10
-610300.4597
 20
-1156275.20870513
 10
-610298.914738063
 20
-1156276.29049913
 10
-610297.581099125
 20
-1156277.62413806
 10
-610296.49930513
 20
-1156279.1691
 10
-610295.702225843
 20
-1156280.87844205
 10
-610295.214080112
 20
-1156282.70022672
 10
-610295.049699999
 20
-1156284.5791
 10
-610295.214080112
 20
-1156286.45797328
 10
-610295.702225843
 20
-1156288.27975795
 10
-610296.49930513
 20
-1156289.9891
 10
-610297.581099125
 20
-1156291.53406194
 10
-610298.914738063
 20
-1156292.86770088
 10
-610300.4597
 20
-1156293.94949487
 10
-610302.169042049
 20
-1156294.74657416
 10
-610303.990826717
 20
-1156295.23471989
 10
-610305.8697
 20
-1156295.3991
 10
-610307.748573282
 20
-1156295.23471989
 10
-610309.570357951
 20
-1156294.74657416
 10
-610311.2797
 20
-1156293.94949487
 10
-610312.824661937
 20
-1156292.86770088
 10
-610314.158300875
 20
-1156291.53406194
 10
-610315.240094869
 20
-1156289.9891
 10
-610316.037174157
 20
-1156288.27975795
 10
-610316.525319888
 20
-1156286.45797328
 10
-610316.6897
 20
-1156284.5791
 10
-610316.525319888
 20
-1156282.70022672
 10
-610316.037174157
 20
-1156280.87844205
 10
-610315.240094869
 20
-1156279.1691
 10
-610314.158300875
 20
-1156277.62413806
 10
-610312.824661937
 20
-1156276.29049913
 10
-610311.2797
 20
-1156275.20870513
 10
-610309.570357951
 20
-1156274.41162584
 10
-610307.748573282
 20
-1156273.92348011
 10
-610305.8697
 20
-1156273.7591
 97
0
 75
0
 76
1
 98
0
  0
HATCH
  5
20015
100
AcDbEntity
  8
0
100
AcDbHatch
 10
0
 20
0
 30
0
210
0
220
0
230
1
  2
SOLID
 70
1
 71
0
 91
1
 92
2
 72
0
 73
1
 93
33
 10
-598171.56
 20
-1160390.97
 10
-598171.81
 20
-1160393.51
 10
-598172.55
 20
-1160395.94
 10
-598173.75
 20
-1160398.19
 10
-598175.37
 20
-1160400.16
 10
-598177.34
 20
-1160401.78
 10
-598179.59
 20
-1160402.98
 10
-598182.02
 20
-1160403.72
 10
-598184.56
 20
-1160403.97
 10
-598187.1
 20
-1160403.72
 10
-598189.53
 20
-1160402.98
 10
-598191.78
 20
-1160401.78
 10
-598193.75
 20
-1160400.16
 10
-598195.37
 20
-1160398.19
 10
-598196.57
 20
-1160395.94
 10
-598197.31
 20
-1160393.51
 10
-598197.56
 20
-1160390.97
 10
-598197.31
 20
-1160388.43
 10
-598196.57
 20
-1160386
 10
-598195.37
 20
-1160383.75
 10
-598193.75
 20
-1160381.78
 10
-598191.78
 20
-1160380.16
 10
-598189.53
 20
-1160378.96
 10
-598187.1
 20
-1160378.22
 10
-598184.56
 20
-1160377.97
 10
-598182.02
 20
-1160378.22
 10
-598179.59
 20
-1160378.96
 10
-598177.34
 20
-1160380.16
 10
-598175.37
 20
-1160381.78
 10
-598173.75
 20
-1160383.75
 10
-598172.55
 20
-1160386
 10
-598171.81
 20
-1160388.43
 10
-598171.56
 20
-1160390.97
 97
0
 75
0
 76
1
 98
0
  0
HATCH
  5
20016
100
AcDbEntity
  8
0
100
AcDbHatch
 10
0
 20
0
 30
0
210
0
220
0
230
1
  2
SOLID
 70
1
 71
0
 91
1
 92
2
 72
0
 73
1
 93
37
 10
-599249.0568
 20
-1156946.7299
 10
-599247.320318224
 20
-1156946.88182247
 10
-599245.636598567
 20
-1156947.33297379
 10
-599244.0568
 20
-1156948.06964596
 10
-599242.628923903
 20
-1156949.06945557
 10
-599241.396355569
 20
-1156950.3020239
 10
-599240.396545963
 20
-1156951.7299
 10
-599239.659873793
 20
-1156953.30969857
 10
-599239.20872247
 20
-1156954.99341822
 10
-599239.0568
 20
-1156956.7299
 10
-599239.20872247
 20
-1156958.46638178
 10
-599239.659873793
 20
-1156960.15010143
 10
-599240.396545963
 20
-1156961.7299
 10
-599241.396355569
 20
-1156963.1577761
 10
-599242.628923903
 20
-1156964.39034443
 10
-599244.0568
 20
-1156965.39015404
 10
-599245.636598567
 20
-1156966.12682621
 10
-599247.320318224
 20
-1156966.57797753
 10
-599249.0568
 20
-1156966.7299
 10
-599250.793281777
 20
-1156966.57797753
 10
-599252.477001434
 20
-1156966.12682621
 10
-599254.0568
 20
-1156965.39015404
 10
-599255.484676097
 20
-1156964.39034443
 10
-599256.717244432
 20
-1156963.1577761
 10
-599257.717054038
 20
-1156961.7299
 10
-599258.453726208
 20
-1156960.15010143
 10
-599258.904877531
 20
-1156958.46638178
 10
-599259.0568
 20
-1156956.7299
 10
-599258.904877531
 20
-1156954.99341822
 10
-599258.453726208
 20
-1156953.30969857
 10
-599257.717054038
 20
-1156951.7299
 10
-599256.717244432
 20
-1156950.3020239
 10
-599255.484676097
 20
-1156949.06945557
 10
-599254.0568
 20
-1156948.06964596
 10
-599252.477001434
 20
-1156947.33297379
 10
-599250.793281777
 20
-1156946.88182247
 10
-599249.0568
 20
-1156946.7299
 97
0
 75
0
 76
1
 98
0
  0
HATCH
  5
20017
100
AcDbEntity
  8
0
100
AcDbHatch
 10
0
 20
0
 30
0
210
0
220
0
230
1
  2
SOLID
 70
1
 71
0
 91
1
 92
2
 72
0
 73
1
 93
33
 10
-598708.93
 20
-1161391.2
 10
-598709.4
 20
-1161395.88
 10
-598710.76
 20
-1161400.39
 10
-598712.98
 20
-1161404.54
 10
-598715.96
 20
-1161408.17
 10
-598719.6
 20
-1161411.16
 10
-598723.75
 20
-1161413.37
 10
-598728.25
 20
-1161414.74
 10
-598732.93
 20
-1161415.2
 10
-598737.62
 20
-1161414.74
 10
-598742.12
 20
-1161413.37
 10
-598746.27
 20
-1161411.16
 10
-598749.91
 20
-1161408.17
 10
-598752.89
 20
-1161404.54
 10
-598755.11
 20
-1161400.39
 10
-598756.47
 20
-1161395.88
 10
-598756.93
 20
-1161391.2
 10
-598756.47
 20
-1161386.52
 10
-598755.11
 20
-1161382.02
 10
-598752.89
 20
-1161377.87
 10
-598749.91
 20
-1161374.23
 10
-598746.27
 20
-1161371.25
 10
-598742.12
 20
-1161369.03
 10
-598737.62
 20
-1161367.66
 10
-598732.93
 20
-1161367.2
 10
-598728.25
 20
-1161367.66
 10
-598723.75
 20
-1161369.03
 10
-598719.6
 20
-1161371.25
 10
-598715.96
 20
-1161374.23
 10
-598712.98
 20
-1161377.87
 10
-598710.76
 20
-1161382.02
 10
-598709.4
 20
-1161386.52
 10
-598708.93
 20
-1161391.2
 97
0
 75
0
 76
1
 98
0
  0
HATCH
  5
20018
100
AcDbEntity
  8
0
100
AcDbHatch
 10
0
 20
0
 30
0
210
0
220
0
230
1
  2
SOLID
 70
1
 71
0
 91
1
 92
2
 72
0
 73
1
 93
37
 10
-603075.026799999
 20
-1159746.9083
 10
-603072.760691281
 20
-1159747.10655882
 10
-603070.56343713
 20
-1159747.6953113
 10
-603068.501800001
 20
-1159748.65666848
 10
-603066.638421695
 20
-1159749.96142002
 10
-603065.029920019
 20
-1159751.56992169
 10
-603063.725168482
 20
-1159753.4333
 10
-603062.763811301
 20
-1159755.49493713
 10
-603062.175058825
 20
-1159757.69219128
 10
-603061.976800002
 20
-1159759.9583
 10
-603062.175058825
 20
-1159762.22440872
 10
-603062.763811301
 20
-1159764.42166287
 10
-603063.725168482
 20
-1159766.4833
 10
-603065.029920019
 20
-1159768.3466783
 10
-603066.638421695
 20
-1159769.95517998
 10
-603068.501800001
 20
-1159771.25993151
 10
-603070.56343713
 20
-1159772.2212887
 10
-603072.760691281
 20
-1159772.81004117
 10
-603075.026799999
 20
-1159773.0083
 10
-603077.292908717
 20
-1159772.81004117
 10
-603079.490162869
 20
-1159772.2212887
 10
-603081.551799998
 20
-1159771.25993151
 10
-603083.415178304
 20
-1159769.95517998
 10
-603085.02367998
 20
-1159768.3466783
 10
-603086.328431516
 20
-1159766.4833
 10
-603087.289788698
 20
-1159764.42166287
 10
-603087.878541173
 20
-1159762.22440872
 10
-603088.076799996
 20
-1159759.9583
 10
-603087.878541173
 20
-1159757.69219128
 10
-603087.289788698
 20
-1159755.49493713
 10
-603086.328431516
 20
-1159753.4333
 10
-603085.02367998
 20
-1159751.56992169
 10
-603083.415178304
 20
-1159749.96142002
 10
-603081.551799998
 20
-1159748.65666848
 10
-603079.490162869
 20
-1159747.6953113
 10
-603077.292908717
 20
-1159747.10655882
 10
-603075.026799999
 20
-1159746.9083
 97
0
 75
0
 76
1
 98
0
  0
HATCH
  5
20019
100
AcDbEntity
  8
0
100
AcDbHatch
 10
0
 20
0
 30
0
210
0
220
0
230
1
  2
SOLID
 70
1
 71
0
 91
1
 92
2
 72
0
 73
1
 93
25
 10
-595324.17
 20
-1157761.47
 10
-595340.1
 20
-1157766.44
 10
-595356.15
 20
-1157769.89
 10
-595358.61
 20
-1157759.05
 10
-595362.47
 20
-1157743.12
 10
-595332.42
 20
-1157736.54
 10
-595303.73
 20
-1157728.91
 10
-595296.25
 20
-1157726.33
 10
-595289.58
 20
-1157724.11
 10
-595285.01
 20
-1157722.59
 10
-595252.04
 20
-1157708.99
 10
-595238.19
 20
-1157702.42
 10
-595235.4
 20
-1157708.31
 10
-595228.19
 20
-1157705.22
 10
-595231.11
 20
-1157699.07
 10
-595143.67
 20
-1157657.5
 10
-595114.49
 20
-1157643.82
 10
-595122.15
 20
-1157662.95
 10
-595128.56
 20
-1157677.3
 10
-595132.24
 20
-1157686.76
 10
-595243.15
 20
-1157732.42
 10
-595261.56
 20
-1157740.41
 10
-595281.16
 20
-1157748.06
 10
-595295.56
 20
-1157752.55
 10
-595324.17
 20
-1157761.47
 97
0
 75
0
 76
1
 98
0
  0
HATCH
  5
2001A
100
AcDbEntity
  8
0
100
AcDbHatch
 10
0
 20
0
 30
0
210
0
220
0
230
1
  2
SOLID
 70
1
 71
0
 91
1
 92
2
 72
0
 73
1
 93
33
 10
-599197.59
 20
-1161107.78
 10
-599197.86
 20
-1161110.51
 10
-599198.66
 20
-1161113.14
 10
-599199.95
 20
-1161115.56
 10
-599201.69
 20
-1161117.68
 10
-599203.81
 20
-1161119.42
 10
-599206.23
 20
-1161120.71
 10
-599208.86
 20
-1161121.51
 10
-599211.59
 20
-1161121.78
 10
-599214.32
 20
-1161121.51
 10
-599216.95
 20
-1161120.71
 10
-599219.37
 20
-1161119.42
 10
-599221.49
 20
-1161117.68
 10
-599223.23
 20
-1161115.56
 10
-599224.52
 20
-1161113.14
 10
-599225.32
 20
-1161110.51
 10
-599225.59
 20
-1161107.78
 10
-599225.32
 20
-1161105.05
 10
-599224.52
 20
-1161102.42
 10
-599223.23
 20
-1161100
 10
-599221.49
 20
-1161097.88
 10
-599219.37
 20
-1161096.14
 10
-599216.95
 20
-1161094.85
 10
-599214.32
 20
-1161094.05
 10
-599211.59
 20
-1161093.78
 10
-599208.86
 20
-1161094.05
 10
-599206.23
 20
-1161094.85
 10
-599203.81
 20
-1161096.14
 10
-599201.69
 20
-1161097.88
 10
-599199.95
 20
-1161100
 10
-599198.66
 20
-1161102.42
 10
-599197.86
 20
-1161105.05
 10
-599197.59
 20
-1161107.78
 97
0
 75
0
 76
1
 98
0
  0
HATCH
  5
2001B
100
AcDbEntity
  8
0
100
AcDbHatch
 10
0
 20
0
 30
0
210
0
220
0
230
1
  2
SOLID
 70
1
 71
0
 91
1
 92
2
 72
0
 73
1
 93
37
 10
-598252.690000001
 20
-1161252.89
 10
-598250.4794587
 20
-1161253.0833973
 10
-598248.336083577
 20
-1161253.65771294
 10
-598246.325000001
 20
-1161254.59549661
 10
-598244.50731373
 20
-1161255.86825424
 10
-598242.93825424
 20
-1161257.43731373
 10
-598241.665496611
 20
-1161259.255
 10
-598240.727712938
 20
-1161261.26608358
 10
-598240.153397305
 20
-1161263.4094587
 10
-598239.960000001
 20
-1161265.62
 10
-598240.153397305
 20
-1161267.8305413
 10
-598240.727712938
 20
-1161269.97391643
 10
-598241.665496611
 20
-1161271.985
 10
-598242.93825424
 20
-1161273.80268627
 10
-598244.50731373
 20
-1161275.37174576
 10
-598246.325000001
 20
-1161276.64450339
 10
-598248.336083577
 20
-1161277.58228706
 10
-598250.4794587
 20
-1161278.1566027
 10
-598252.690000001
 20
-1161278.35
 10
-598254.900541303
 20
-1161278.1566027
 10
-598257.043916426
 20
-1161277.58228706
 10
-598259.055000002
 20
-1161276.64450339
 10
-598260.872686273
 20
-1161275.37174576
 10
-598262.441745763
 20
-1161273.80268627
 10
-598263.714503392
 20
-1161271.985
 10
-598264.652287064
 20
-1161269.97391643
 10
-598265.226602698
 20
-1161267.8305413
 10
-598265.420000002
 20
-1161265.62
 10
-598265.226602698
 20
-1161263.4094587
 10
-598264.652287064
 20
-1161261.26608358
 10
-598263.714503392
 20
-1161259.255
 10
-598262.441745763
 20
-1161257.43731373
 10
-598260.872686273
 20
-1161255.86825424
 10
-598259.055000002
 20
-1161254.59549661
 10
-598257.043916426
 20
-1161253.65771294
 10
-598254.900541303
 20
-1161253.0833973
 10
-598252.690000001
 20
-1161252.89
 97
0
 75
0
 76
1
 98
0
  0
HATCH
  5
2001C
100
AcDbEntity
  8
0
100
AcDbHatch
 10
0
 20
0
 30
0
210
0
220
0
230
1
  2
SOLID
 70
1
 71
0
 91
1
 92
2
 72
0
 73
1
 93
37
 10
-594258.872400001
 20
-1160947.4107
 10
-594257.955537623
 20
-1160947.49091506
 10
-594257.066533645
 20
-1160947.72912296
 10
-594256.232400002
 20
-1160948.11808587
 10
-594255.478481423
 20
-1160948.64598534
 10
-594254.827685343
 20
-1160949.29678142
 10
-594254.299785871
 20
-1160950.0507
 10
-594253.910822965
 20
-1160950.88483364
 10
-594253.672615067
 20
-1160951.77383762
 10
-594253.592400003
 20
-1160952.6907
 10
-594253.672615067
 20
-1160953.60756238
 10
-594253.910822965
 20
-1160954.49656635
 10
-594254.299785871
 20
-1160955.3307
 10
-594254.827685343
 20
-1160956.08461858
 10
-594255.478481423
 20
-1160956.73541466
 10
-594256.232400002
 20
-1160957.26331413
 10
-594257.066533645
 20
-1160957.65227703
 10
-594257.955537623
 20
-1160957.89048493
 10
-594258.872400001
 20
-1160957.9707
 10
-594259.789262378
 20
-1160957.89048493
 10
-594260.678266357
 20
-1160957.65227703
 10
-594261.512399999
 20
-1160957.26331413
 10
-594262.266318578
 20
-1160956.73541466
 10
-594262.917114658
 20
-1160956.08461858
 10
-594263.44501413
 20
-1160955.3307
 10
-594263.833977036
 20
-1160954.49656635
 10
-594264.072184934
 20
-1160953.60756238
 10
-594264.152399998
 20
-1160952.6907
 10
-594264.072184934
 20
-1160951.77383762
 10
-594263.833977036
 20
-1160950.88483364
 10
-594263.44501413
 20
-1160950.0507
 10
-594262.917114658
 20
-1160949.29678142
 10
-594262.266318578
 20
-1160948.64598534
 10
-594261.512399999
 20
-1160948.11808587
 10
-594260.678266357
 20
-1160947.72912296
 10
-594259.789262378
 20
-1160947.49091506
 10
-594258.872400001
 20
-1160947.4107
 97
0
 75
0
 76
1
 98
0
  0
HATCH
  5
2001D
100
AcDbEntity
  8
0
100
AcDbHatch
 10
0
 20
0
 30
0
210
0
220
0
230
1
  2
SOLID
 70
1
 71
0
 91
1
 92
2
 72
0
 73
1
 93
25
 10
-595324.17
 20
-1157761.47
 10
-595340.1
 20
-1157766.44
 10
-595356.15
 20
-1157769.89
 10
-595358.61
 20
-1157759.05
 10
-595362.47
 20
-1157743.12
 10
-595332.42
 20
-1157736.54
 10
-595303.73
 20
-1157728.91
 10
-595296.25
 20
-1157726.33
 10
-595289.58
 20
-1157724.11
 10
-595285.01
 20
-1157722.59
 10
-595252.04
 20
-1157708.99
 10
-595238.19
 20
-1157702.42
 10
-595235.4
 20
-1157708.31
 10
-595228.19
 20
-1157705.22
 10
-595231.11
 20
-1157699.07
 10
-595143.67
 20
-1157657.5
 10
-595114.49
 20
-1157643.82
 10
-595122.15
 20
-1157662.95
 10
-595128.56
 20
-1157677.3
 10
-595132.24
 20
-1157686.76
 10
-595243.15
 20
-1157732.42
 10
-595261.56
 20
-1157740.41
 10
-595281.16
 20
-1157748.06
 10
-595295.56
 20
-1157752.55
 10
-595324.17
 20
-1157761.47
 97
0
 75
0
 76
1
 98
0
  0
HATCH
  5
2001E
100
AcDbEntity
  8
0
100
AcDbHatch
 10
0
 20
0
 30
0
210
0
220
0
230
1
  2
SOLID
 70
1
 71
0
 91
1
 92
2
 72
0
 73
1
 93
25
 10
-595324.17
 20
-1157761.47
 10
-595340.1
 20
-1157766.44
 10
-595356.15
 20
-1157769.89
 10
-595358.61
 20
-1157759.05
 10
-595362.47
 20
-1157743.12
 10
-595332.42
 20
-1157736.54
 10
-595303.73
 20
-1157728.91
 10
-595296.25
 20
-1157726.33
 10
-595289.58
 20
-1157724.11
 10
-595285.01
 20
-1157722.59
 10
-595252.04
 20
-1157708.99
 10
-595238.19
 20
-1157702.42
 10
-595235.4
 20
-1157708.31
 10
-595228.19
 20
-1157705.22
 10
-595231.11
 20
-1157699.07
 10
-595143.67
 20
-1157657.5
 10
-595114.49
 20
-1157643.82
 10
-595122.15
 20
-1157662.95
 10
-595128.56
 20
-1157677.3
 10
-595132.24
 20
-1157686.76
 10
-595243.15
 20
-1157732.42
 10
-595261.56
 20
-1157740.41
 10
-595281.16
 20
-1157748.06
 10
-595295.56
 20
-1157752.55
 10
-595324.17
 20
-1157761.47
 97
0
 75
0
 76
1
 98
0
  0
HATCH
  5
2001F
100
AcDbEntity
  8
0
100
AcDbHatch
 10
0
 20
0
 30
0
210
0
220
0
230
1
  2
SOLID
 70
1
 71
0
 91
1
 92
2
 72
0
 73
1
 93
37
 10
-594177.640000001
 20
-1160940.46
 10
-594176.528651664
 20
-1160940.55723038
 10
-594175.451071084
 20
-1160940.84596723
 10
-594174.440000001
 20
-1160941.31743742
 10
-594173.5261593
 20
-1160941.95731556
 10
-594172.737315566
 20
-1160942.7461593
 10
-594172.097437418
 20
-1160943.66
 10
-594171.625967229
 20
-1160944.67107108
 10
-594171.337230383
 20
-1160945.74865166
 10
-594171.240000002
 20
-1160946.86
 10
-594171.337230383
 20
-1160947.97134834
 10
-594171.625967229
 20
-1160949.04892892
 10
-594172.097437418
 20
-1160950.06
 10
-594172.737315566
 20
-1160950.9738407
 10
-594173.5261593
 20
-1160951.76268443
 10
-594174.440000001
 20
-1160952.40256258
 10
-594175.451071084
 20
-1160952.87403277
 10
-594176.528651664
 20
-1160953.16276962
 10
-594177.640000001
 20
-1160953.26
 10
-594178.751348337
 20
-1160953.16276962
 10
-594179.828928917
 20
-1160952.87403277
 10
-594180.84
 20
-1160952.40256258
 10
-594181.753840702
 20
-1160951.76268443
 10
-594182.542684435
 20
-1160950.9738407
 10
-594183.182562583
 20
-1160950.06
 10
-594183.654032772
 20
-1160949.04892892
 10
-594183.942769618
 20
-1160947.97134834
 10
-594184.039999999
 20
-1160946.86
 10
-594183.942769618
 20
-1160945.74865166
 10
-594183.654032772
 20
-1160944.67107108
 10
-594183.182562583
 20
-1160943.66
 10
-594182.542684435
 20
-1160942.7461593
 10
-594181.753840702
 20
-1160941.95731556
 10
-594180.84
 20
-1160941.31743742
 10
-594179.828928917
 20
-1160940.84596723
 10
-594178.751348337
 20
-1160940.55723038
 10
-594177.640000001
 20
-1160940.46
 97
0
 75
0
 76
1
 98
0
  0
HATCH
  5
20020
100
AcDbEntity
  8
0
100
AcDbHatch
 10
0
 20
0
 30
0
210
0
220
0
230
1
  2
SOLID
 70
1
 71
0
 91
1
 92
2
 72
0
 73
1
 93
25
 10
-595324.17
 20
-1157761.47
 10
-595340.1
 20
-1157766.44
 10
-595356.15
 20
-1157769.89
 10
-595358.61
 20
-1157759.05
 10
-595362.47
 20
-1157743.12
 10
-595332.42
 20
-1157736.54
 10
-595303.73
 20
-1157728.91
 10
-595296.25
 20
-1157726.33
 10
-595289.58
 20
-1157724.11
 10
-595285.01
 20
-1157722.59
 10
-595252.04
 20
-1157708.99
 10
-595238.19
 20
-1157702.42
 10
-595235.4
 20
-1157708.31
 10
-595228.19
 20
-1157705.22
 10
-595231.11
 20
-1157699.07
 10
-595143.67
 20
-1157657.5
 10
-595114.49
 20
-1157643.82
 10
-595122.15
 20
-1157662.95
 10
-595128.56
 20
-1157677.3
 10
-595132.24
 20
-1157686.76
 10
-595243.15
 20
-1157732.42
 10
-595261.56
 20
-1157740.41
 10
-595281.16
 20
-1157748.06
 10
-595295.56
 20
-1157752.55
 10
-595324.17
 20
-1157761.47
 97
0
 75
0
 76
1
 98
0
  0
HATCH
  5
20021
100
AcDbEntity
  8
0
100
AcDbHatch
 10
0
 20
0
 30
0
210
0
220
0
230
1
  2
SOLID
 70
1
 71
0
 91
1
 92
2
 72
0
 73
1
 93
25
 10
-595324.17
 20
-1157761.47
 10
-595340.1
 20
-1157766.44
 10
-595356.15
 20
-1157769.89
 10
-595358.61
 20
-1157759.05
 10
-595362.47
 20
-1157743.12
 10
-595332.42
 20
-1157736.54
 10
-595303.73
 20
-1157728.91
 10
-595296.25
 20
-1157726.33
 10
-595289.58
 20
-1157724.11
 10
-595285.01
 20
-1157722.59
 10
-595252.04
 20
-1157708.99
 10
-595238.19
 20
-1157702.42
 10
-595235.4
 20
-1157708.31
 10
-595228.19
 20
-1157705.22
 10
-595231.11
 20
-1157699.07
 10
-595143.67
 20
-1157657.5
 10
-595114.49
 20
-1157643.82
 10
-595122.15
 20
-1157662.95
 10
-595128.56
 20
-1157677.3
 10
-595132.24
 20
-1157686.76
 10
-595243.15
 20
-1157732.42
 10
-595261.56
 20
-1157740.41
 10
-595281.16
 20
-1157748.06
 10
-595295.56
 20
-1157752.55
 10
-595324.17
 20
-1157761.47
 97
0
 75
0
 76
1
 98
0
  0
HATCH
  5
20022
100
AcDbEntity
  8
0
100
AcDbHatch
 10
0
 20
0
 30
0
210
0
220
0
230
1
  2
SOLID
 70
1
 71
0
 91
1
 92
2
 72
0
 73
1
 93
37
 10
-594217.41
 20
-1160945.18
 10
-594216.46
 20
-1160945.26
 10
-594215.54
 20
-1160945.51
 10
-594214.67
 20
-1160945.91
 10
-594213.89
 20
-1160946.46
 10
-594213.22
 20
-1160947.13
 10
-594212.67
 20
-1160947.91
 10
-594212.27
 20
-1160948.78
 10
-594212.02
 20
-1160949.7
 10
-594211.94
 20
-1160950.65
 10
-594212.02
 20
-1160951.6
 10
-594212.27
 20
-1160952.52
 10
-594212.67
 20
-1160953.38
 10
-594213.22
 20
-1160954.17
 10
-594213.89
 20
-1160954.84
 10
-594214.67
 20
-1160955.39
 10
-594215.54
 20
-1160955.79
 10
-594216.46
 20
-1160956.04
 10
-594217.41
 20
-1160956.12
 10
-594218.36
 20
-1160956.04
 10
-594219.28
 20
-1160955.79
 10
-594220.14
 20
-1160955.39
 10
-594220.93
 20
-1160954.84
 10
-594221.6
 20
-1160954.17
 10
-594222.15
 20
-1160953.38
 10
-594222.55
 20
-1160952.52
 10
-594222.8
 20
-1160951.6
 10
-594222.88
 20
-1160950.65
 10
-594222.8
 20
-1160949.7
 10
-594222.55
 20
-1160948.78
 10
-594222.15
 20
-1160947.91
 10
-594221.6
 20
-1160947.13
 10
-594220.93
 20
-1160946.46
 10
-594220.14
 20
-1160945.91
 10
-594219.28
 20
-1160945.51
 10
-594218.36
 20
-1160945.26
 10
-594217.41
 20
-1160945.18
 97
0
 75
0
 76
1
 98
0
  0
HATCH
  5
20023
100
AcDbEntity
  8
0
100
AcDbHatch
 10
0
 20
0
 30
0
210
0
220
0
230
1
  2
SOLID
 70
1
 71
0
 91
1
 92
2
 72
0
 73
1
 93
25
 10
-595324.17
 20
-1157761.47
 10
-595340.1
 20
-1157766.44
 10
-595356.15
 20
-1157769.89
 10
-595358.61
 20
-1157759.05
 10
-595362.47
 20
-1157743.12
 10
-595332.42
 20
-1157736.54
 10
-595303.73
 20
-1157728.91
 10
-595296.25
 20
-1157726.33
 10
-595289.58
 20
-1157724.11
 10
-595285.01
 20
-1157722.59
 10
-595252.04
 20
-1157708.99
 10
-595238.19
 20
-1157702.42
 10
-595235.4
 20
-1157708.31
 10
-595228.19
 20
-1157705.22
 10
-595231.11
 20
-1157699.07
 10
-595143.67
 20
-1157657.5
 10
-595114.49
 20
-1157643.82
 10
-595122.15
 20
-1157662.95
 10
-595128.56
 20
-1157677.3
 10
-595132.24
 20
-1157686.76
 10
-595243.15
 20
-1157732.42
 10
-595261.56
 20
-1157740.41
 10
-595281.16
 20
-1157748.06
 10
-595295.56
 20
-1157752.55
 10
-595324.17
 20
-1157761.47
 97
0
 75
0
 76
1
 98
0
  0
HATCH
  5
20024
100
AcDbEntity
  8
0
100
AcDbHatch
 10
0
 20
0
 30
0
210
0
220
0
230
1
  2
SOLID
 70
1
 71
0
 91
1
 92
2
 72
0
 73
1
 93
25
 10
-595324.17
 20
-1157761.47
 10
-595340.1
 20
-1157766.44
 10
-595356.15
 20
-1157769.89
 10
-595358.61
 20
-1157759.05
 10
-595362.47
 20
-1157743.12
 10
-595332.42
 20
-1157736.54
 10
-595303.73
 20
-1157728.91
 10
-595296.25
 20
-1157726.33
 10
-595289.58
 20
-1157724.11
 10
-595285.01
 20
-1157722.59
 10
-595252.04
 20
-1157708.99
 10
-595238.19
 20
-1157702.42
 10
-595235.4
 20
-1157708.31
 10
-595228.19
 20
-1157705.22
 10
-595231.11
 20
-1157699.07
 10
-595143.67
 20
-1157657.5
 10
-595114.49
 20
-1157643.82
 10
-595122.15
 20
-1157662.95
 10
-595128.56
 20
-1157677.3
 10
-595132.24
 20
-1157686.76
 10
-595243.15
 20
-1157732.42
 10
-595261.56
 20
-1157740.41
 10
-595281.16
 20
-1157748.06
 10
-595295.56
 20
-1157752.55
 10
-595324.17
 20
-1157761.47
 97
0
 75
0
 76
1
 98
0
  0
HATCH
  5
20025
100
AcDbEntity
  8
0
100
AcDbHatch
 10
0
 20
0
 30
0
210
0
220
0
230
1
  2
SOLID
 70
1
 71
0
 91
1
 92
2
 72
0
 73
1
 93
25
 10
-595324.17
 20
-1157761.47
 10
-595340.1
 20
-1157766.44
 10
-595356.15
 20
-1157769.89
 10
-595358.61
 20
-1157759.05
 10
-595362.47
 20
-1157743.12
 10
-595332.42
 20
-1157736.54
 10
-595303.73
 20
-1157728.91
 10
-595296.25
 20
-1157726.33
 10
-595289.58
 20
-1157724.11
 10
-595285.01
 20
-1157722.59
 10
-595252.04
 20
-1157708.99
 10
-595238.19
 20
-1157702.42
 10
-595235.4
 20
-1157708.31
 10
-595228.19
 20
-1157705.22
 10
-595231.11
 20
-1157699.07
 10
-595143.67
 20
-1157657.5
 10
-595114.49
 20
-1157643.82
 10
-595122.15
 20
-1157662.95
 10
-595128.56
 20
-1157677.3
 10
-595132.24
 20
-1157686.76
 10
-595243.15
 20
-1157732.42
 10
-595261.56
 20
-1157740.41
 10
-595281.16
 20
-1157748.06
 10
-595295.56
 20
-1157752.55
 10
-595324.17
 20
-1157761.47
 97
0
 75
0
 76
1
 98
0
  0
HATCH
  5
20026
100
AcDbEntity
  8
0
100
AcDbHatch
 10
0
 20
0
 30
0
210
0
220
0
230
1
  2
SOLID
 70
1
 71
0
 91
1
 92
2
 72
0
 73
1
 93
25
 10
-595324.17
 20
-1157761.47
 10
-595340.1
 20
-1157766.44
 10
-595356.15
 20
-1157769.89
 10
-595358.61
 20
-1157759.05
 10
-595362.47
 20
-1157743.12
 10
-595332.42
 20
-1157736.54
 10
-595303.73
 20
-1157728.91
 10
-595296.25
 20
-1157726.33
 10
-595289.58
 20
-1157724.11
 10
-595285.01
 20
-1157722.59
 10
-595252.04
 20
-1157708.99
 10
-595238.19
 20
-1157702.42
 10
-595235.4
 20
-1157708.31
 10
-595228.19
 20
-1157705.22
 10
-595231.11
 20
-1157699.07
 10
-595143.67
 20
-1157657.5
 10
-595114.49
 20
-1157643.82
 10
-595122.15
 20
-1157662.95
 10
-595128.56
 20
-1157677.3
 10
-595132.24
 20
-1157686.76
 10
-595243.15
 20
-1157732.42
 10
-595261.56
 20
-1157740.41
 10
-595281.16
 20
-1157748.06
 10
-595295.56
 20
-1157752.55
 10
-595324.17
 20
-1157761.47
 97
0
 75
0
 76
1
 98
0
  0
HATCH
  5
20027
100
AcDbEntity
  8
0
100
AcDbHatch
 10
0
 20
0
 30
0
210
0
220
0
230
1
  2
SOLID
 70
1
 71
0
 91
1
 92
2
 72
0
 73
1
 93
37
 10
-604122.153099999
 20
-1162162.0391
 10
-604120.550327319
 20
-1162162.17932444
 10
-604118.996254076
 20
-1162162.59573711
 10
-604117.538099999
 20
-1162163.27568552
 10
-604116.220170361
 20
-1162164.19850979
 10
-604115.082509788
 20
-1162165.33617036
 10
-604114.159685522
 20
-1162166.6541
 10
-604113.479737109
 20
-1162168.11225408
 10
-604113.063324438
 20
-1162169.66632732
 10
-604112.923099998
 20
-1162171.2691
 10
-604113.063324438
 20
-1162172.87187268
 10
-604113.479737109
 20
-1162174.42594592
 10
-604114.159685522
 20
-1162175.8841
 10
-604115.082509788
 20
-1162177.20202964
 10
-604116.220170361
 20
-1162178.33969021
 10
-604117.538099999
 20
-1162179.26251448
 10
-604118.996254076
 20
-1162179.94246289
 10
-604120.550327319
 20
-1162180.35887556
 10
-604122.153099999
 20
-1162180.4991
 10
-604123.755872679
 20
-1162180.35887556
 10
-604125.309945922
 20
-1162179.94246289
 10
-604126.768099999
 20
-1162179.26251448
 10
-604128.086029637
 20
-1162178.33969021
 10
-604129.223690209
 20
-1162177.20202964
 10
-604130.146514476
 20
-1162175.8841
 10
-604130.826462889
 20
-1162174.42594592
 10
-604131.24287556
 20
-1162172.87187268
 10
-604131.383099999
 20
-1162171.2691
 10
-604131.24287556
 20
-1162169.66632732
 10
-604130.826462889
 20
-1162168.11225408
 10
-604130.146514476
 20
-1162166.6541
 10
-604129.223690209
 20
-1162165.33617036
 10
-604128.086029637
 20
-1162164.19850979
 10
-604126.768099999
 20
-1162163.27568552
 10
-604125.309945922
 20
-1162162.59573711
 10
-604123.755872679
 20
-1162162.17932444
 10
-604122.153099999
 20
-1162162.0391
 97
0
 75
0
 76
1
 98
0
  0
HATCH
  5
20028
100
AcDbEntity
  8
0
100
AcDbHatch
 10
0
 20
0
 30
0
210
0
220
0
230
1
  2
SOLID
 70
1
 71
0
 91
1
 92
2
 72
0
 73
1
 93
25
 10
-595324.17
 20
-1157761.47
 10
-595340.1
 20
-1157766.44
 10
-595356.15
 20
-1157769.89
 10
-595358.61
 20
-1157759.05
 10
-595362.47
 20
-1157743.12
 10
-595332.42
 20
-1157736.54
 10
-595303.73
 20
-1157728.91
 10
-595296.25
 20
-1157726.33
 10
-595289.58
 20
-1157724.11
 10
-595285.01
 20
-1157722.59
 10
-595252.04
 20
-1157708.99
 10
-595238.19
 20
-1157702.42
 10
-595235.4
 20
-1157708.31
 10
-595228.19
 20
-1157705.22
 10
-595231.11
 20
-1157699.07
 10
-595143.67
 20
-1157657.5
 10
-595114.49
 20
-1157643.82
 10
-595122.15
 20
-1157662.95
 10
-595128.56
 20
-1157677.3
 10
-595132.24
 20
-1157686.76
 10
-595243.15
 20
-1157732.42
 10
-595261.56
 20
-1157740.41
 10
-595281.16
 20
-1157748.06
 10
-595295.56
 20
-1157752.55
 10
-595324.17
 20
-1157761.47
 97
0
 75
0
 76
1
 98
0
  0
HATCH
  5
20029
100
AcDbEntity
  8
0
100
AcDbHatch
 10
0
 20
0
 30
0
210
0
220
0
230
1
  2
SOLID
 70
1
 71
0
 91
1
 92
2
 72
0
 73
1
 93
37
 10
-594126.15
 20
-1160943.11
 10
-594125.07
 20
-1160943.21
 10
-594124.02
 20
-1160943.49
 10
-594123.03
 20
-1160943.95
 10
-594122.14
 20
-1160944.57
 10
-594121.37
 20
-1160945.34
 10
-594120.75
 20
-1160946.23
 10
-594120.29
 20
-1160947.22
 10
-594120.01
 20
-1160948.27
 10
-594119.91
 20
-1160949.35
 10
-594120.01
 20
-1160950.44
 10
-594120.29
 20
-1160951.49
 10
-594120.75
 20
-1160952.47
 10
-594121.37
 20
-1160953.36
 10
-594122.14
 20
-1160954.13
 10
-594123.03
 20
-1160954.76
 10
-594124.02
 20
-1160955.22
 10
-594125.07
 20
-1160955.5
 10
-594126.15
 20
-1160955.59
 10
-594127.24
 20
-1160955.5
 10
-594128.29
 20
-1160955.22
 10
-594129.27
 20
-1160954.76
 10
-594130.16
 20
-1160954.13
 10
-594130.93
 20
-1160953.36
 10
-594131.56
 20
-1160952.47
 10
-594132.02
 20
-1160951.49
 10
-594132.3
 20
-1160950.44
 10
-594132.39
 20
-1160949.35
 10
-594132.3
 20
-1160948.27
 10
-594132.02
 20
-1160947.22
 10
-594131.56
 20
-1160946.23
 10
-594130.93
 20
-1160945.34
 10
-594130.16
 20
-1160944.57
 10
-594129.27
 20
-1160943.95
 10
-594128.29
 20
-1160943.49
 10
-594127.24
 20
-1160943.21
 10
-594126.15
 20
-1160943.11
 97
0
 75
0
 76
1
 98
0
  0
HATCH
  5
2002A
100
AcDbEntity
  8
0
100
AcDbHatch
 10
0
 20
0
 30
0
210
0
220
0
230
1
  2
SOLID
 70
1
 71
0
 91
1
 92
2
 72
0
 73
1
 93
25
 10
-595324.17
 20
-1157761.47
 10
-595340.1
 20
-1157766.44
 10
-595356.15
 20
-1157769.89
 10
-595358.61
 20
-1157759.05
 10
-595362.47
 20
-1157743.12
 10
-595332.42
 20
-1157736.54
 10
-595303.73
 20
-1157728.91
 10
-595296.25
 20
-1157726.33
 10
-595289.58
 20
-1157724.11
 10
-595285.01
 20
-1157722.59
 10
-595252.04
 20
-1157708.99
 10
-595238.19
 20
-1157702.42
 10
-595235.4
 20
-1157708.31
 10
-595228.19
 20
-1157705.22
 10
-595231.11
 20
-1157699.07
 10
-595143.67
 20
-1157657.5
 10
-595114.49
 20
-1157643.82
 10
-595122.15
 20
-1157662.95
 10
-595128.56
 20
-1157677.3
 10
-595132.24
 20
-1157686.76
 10
-595243.15
 20
-1157732.42
 10
-595261.56
 20
-1157740.41
 10
-595281.16
 20
-1157748.06
 10
-595295.56
 20
-1157752.55
 10
-595324.17
 20
-1157761.47
 97
0
 75
0
 76
1
 98
0
  0
HATCH
  5
2002B
100
AcDbEntity
  8
0
100
AcDbHatch
 10
0
 20
0
 30
0
210
0
220
0
230
1
  2
SOLID
 70
1
 71
0
 91
1
 92
2
 72
0
 73
1
 93
37
 10
-601058.34
 20
-1161455.27
 10
-601056.792794737
 20
-1161455.40536292
 10
-601055.292600523
 20
-1161455.80733875
 10
-601053.885
 20
-1161456.46371365
 10
-601052.612762398
 20
-1161457.35454401
 10
-601051.514544012
 20
-1161458.4527624
 10
-601050.623713652
 20
-1161459.725
 10
-601049.967338749
 20
-1161461.13260052
 10
-601049.56536292
 20
-1161462.63279474
 10
-601049.43
 20
-1161464.18
 10
-601049.56536292
 20
-1161465.72720526
 10
-601049.967338749
 20
-1161467.22739948
 10
-601050.623713652
 20
-1161468.635
 10
-601051.514544012
 20
-1161469.9072376
 10
-601052.612762398
 20
-1161471.00545599
 10
-601053.885
 20
-1161471.89628635
 10
-601055.292600523
 20
-1161472.55266125
 10
-601056.792794737
 20
-1161472.95463708
 10
-601058.34
 20
-1161473.09
 10
-601059.887205263
 20
-1161472.95463708
 10
-601061.387399477
 20
-1161472.55266125
 10
-601062.795
 20
-1161471.89628635
 10
-601064.067237602
 20
-1161471.00545599
 10
-601065.165455988
 20
-1161469.9072376
 10
-601066.056286348
 20
-1161468.635
 10
-601066.712661251
 20
-1161467.22739948
 10
-601067.114637079
 20
-1161465.72720526
 10
-601067.25
 20
-1161464.18
 10
-601067.114637079
 20
-1161462.63279474
 10
-601066.712661251
 20
-1161461.13260052
 10
-601066.056286348
 20
-1161459.725
 10
-601065.165455988
 20
-1161458.4527624
 10
-601064.067237602
 20
-1161457.35454401
 10
-601062.795
 20
-1161456.46371365
 10
-601061.387399477
 20
-1161455.80733875
 10
-601059.887205263
 20
-1161455.40536292
 10
-601058.34
 20
-1161455.27
 97
0
 75
0
 76
1
 98
0
  0
HATCH
  5
2002C
100
AcDbEntity
  8
0
100
AcDbHatch
 10
0
 20
0
 30
0
210
0
220
0
230
1
  2
SOLID
 70
1
 71
0
 91
1
 92
2
 72
0
 73
1
 93
25
 10
-595324.17
 20
-1157761.47
 10
-595340.1
 20
-1157766.44
 10
-595356.15
 20
-1157769.89
 10
-595358.61
 20
-1157759.05
 10
-595362.47
 20
-1157743.12
 10
-595332.42
 20
-1157736.54
 10
-595303.73
 20
-1157728.91
 10
-595296.25
 20
-1157726.33
 10
-595289.58
 20
-1157724.11
 10
-595285.01
 20
-1157722.59
 10
-595252.04
 20
-1157708.99
 10
-595238.19
 20
-1157702.42
 10
-595235.4
 20
-1157708.31
 10
-595228.19
 20
-1157705.22
 10
-595231.11
 20
-1157699.07
 10
-595143.67
 20
-1157657.5
 10
-595114.49
 20
-1157643.82
 10
-595122.15
 20
-1157662.95
 10
-595128.56
 20
-1157677.3
 10
-595132.24
 20
-1157686.76
 10
-595243.15
 20
-1157732.42
 10
-595261.56
 20
-1157740.41
 10
-595281.16
 20
-1157748.06
 10
-595295.56
 20
-1157752.55
 10
-595324.17
 20
-1157761.47
 97
0
 75
0
 76
1
 98
0
  0
HATCH
  5
2002D
100
AcDbEntity
  8
0
100
AcDbHatch
 10
0
 20
0
 30
0
210
0
220
0
230
1
  2
SOLID
 70
1
 71
0
 91
1
 92
2
 72
0
 73
1
 93
37
 10
-599427.199999999
 20
-1154347.67
 10
-599424.518872136
 20
-1154347.9045683
 10
-599421.919208987
 20
-1154348.60114594
 10
-599419.48
 20
-1154349.73856777
 10
-599417.275359307
 20
-1154351.2822738
 10
-599415.372273799
 20
-1154353.18535931
 10
-599413.828567767
 20
-1154355.39
 10
-599412.691145937
 20
-1154357.82920899
 10
-599411.994568295
 20
-1154360.42887214
 10
-599411.760000002
 20
-1154363.11
 10
-599411.994568295
 20
-1154365.79112786
 10
-599412.691145937
 20
-1154368.39079101
 10
-599413.828567767
 20
-1154370.83
 10
-599415.372273799
 20
-1154373.03464069
 10
-599417.275359307
 20
-1154374.9377262
 10
-599419.48
 20
-1154376.48143223
 10
-599421.919208987
 20
-1154377.61885406
 10
-599424.518872136
 20
-1154378.3154317
 10
-599427.199999999
 20
-1154378.55
 10
-599429.881127862
 20
-1154378.3154317
 10
-599432.480791011
 20
-1154377.61885406
 10
-599434.919999998
 20
-1154376.48143223
 10
-599437.124640691
 20
-1154374.9377262
 10
-599439.027726199
 20
-1154373.03464069
 10
-599440.571432232
 20
-1154370.83
 10
-599441.708854062
 20
-1154368.39079101
 10
-599442.405431703
 20
-1154365.79112786
 10
-599442.639999997
 20
-1154363.11
 10
-599442.405431703
 20
-1154360.42887214
 10
-599441.708854062
 20
-1154357.82920899
 10
-599440.571432232
 20
-1154355.39
 10
-599439.027726199
 20
-1154353.18535931
 10
-599437.124640691
 20
-1154351.2822738
 10
-599434.919999998
 20
-1154349.73856777
 10
-599432.480791011
 20
-1154348.60114594
 10
-599429.881127862
 20
-1154347.9045683
 10
-599427.199999999
 20
-1154347.67
 97
0
 75
0
 76
1
 98
0
  0
HATCH
  5
2002E
100
AcDbEntity
  8
0
100
AcDbHatch
 10
0
 20
0
 30
0
210
0
220
0
230
1
  2
SOLID
 70
1
 71
0
 91
1
 92
2
 72
0
 73
1
 93
37
 10
-598747.330499999
 20
-1154187.993
 10
-598745.533241361
 20
-1154188.15023976
 10
-598743.790591517
 20
-1154188.61718138
 10
-598742.1555
 20
-1154189.37963707
 10
-598740.67764824
 20
-1154190.41444001
 10
-598739.401940015
 20
-1154191.69014824
 10
-598738.367137072
 20
-1154193.168
 10
-598737.604681376
 20
-1154194.80309152
 10
-598737.137739758
 20
-1154196.54574136
 10
-598736.980500001
 20
-1154198.343
 10
-598737.137739758
 20
-1154200.14025864
 10
-598737.604681376
 20
-1154201.88290848
 10
-598738.367137072
 20
-1154203.518
 10
-598739.401940015
 20
-1154204.99585176
 10
-598740.67764824
 20
-1154206.27155998
 10
-598742.1555
 20
-1154207.30636293
 10
-598743.790591517
 20
-1154208.06881862
 10
-598745.533241361
 20
-1154208.53576024
 10
-598747.330499999
 20
-1154208.693
 10
-598749.127758638
 20
-1154208.53576024
 10
-598750.870408482
 20
-1154208.06881862
 10
-598752.505499998
 20
-1154207.30636293
 10
-598753.983351758
 20
-1154206.27155998
 10
-598755.259059984
 20
-1154204.99585176
 10
-598756.293862926
 20
-1154203.518
 10
-598757.056318622
 20
-1154201.88290848
 10
-598757.523260241
 20
-1154200.14025864
 10
-598757.680499997
 20
-1154198.343
 10
-598757.523260241
 20
-1154196.54574136
 10
-598757.056318622
 20
-1154194.80309152
 10
-598756.293862926
 20
-1154193.168
 10
-598755.259059984
 20
-1154191.69014824
 10
-598753.983351758
 20
-1154190.41444001
 10
-598752.505499998
 20
-1154189.37963707
 10
-598750.870408482
 20
-1154188.61718138
 10
-598749.127758638
 20
-1154188.15023976
 10
-598747.330499999
 20
-1154187.993
 97
0
 75
0
 76
1
 98
0
  0
HATCH
  5
2002F
100
AcDbEntity
  8
0
100
AcDbHatch
 10
0
 20
0
 30
0
210
0
220
0
230
1
  2
SOLID
 70
1
 71
0
 91
1
 92
2
 72
0
 73
1
 93
37
 10
-597262.379999999
 20
-1161702.68
 10
-597259.533906367
 20
-1161702.92900093
 10
-597256.77428985
 20
-1161703.66843794
 10
-597254.184999999
 20
-1161704.87584363
 10
-597251.844711076
 20
-1161706.51453158
 10
-597249.824531576
 20
-1161708.53471108
 10
-597248.18584363
 20
-1161710.875
 10
-597246.978437944
 20
-1161713.46428985
 10
-597246.239000926
 20
-1161716.22390637
 10
-597245.989999998
 20
-1161719.07
 10
-597246.239000926
 20
-1161721.91609363
 10
-597246.978437944
 20
-1161724.67571015
 10
-597248.18584363
 20
-1161727.265
 10
-597249.824531576
 20
-1161729.60528892
 10
-597251.844711076
 20
-1161731.62546842
 10
-597254.184999999
 20
-1161733.26415637
 10
-597256.77428985
 20
-1161734.47156206
 10
-597259.533906367
 20
-1161735.21099907
 10
-597262.379999999
 20
-1161735.46
 10
-597265.226093631
 20
-1161735.21099907
 10
-597267.985710148
 20
-1161734.47156206
 10
-597270.574999999
 20
-1161733.26415637
 10
-597272.915288922
 20
-1161731.62546842
 10
-597274.935468422
 20
-1161729.60528892
 10
-597276.574156367
 20
-1161727.265
 10
-597277.781562054
 20
-1161724.67571015
 10
-597278.520999071
 20
-1161721.91609363
 10
-597278.77
 20
-1161719.07
 10
-597278.520999071
 20
-1161716.22390637
 10
-597277.781562054
 20
-1161713.46428985
 10
-597276.574156367
 20
-1161710.875
 10
-597274.935468422
 20
-1161708.53471108
 10
-597272.915288922
 20
-1161706.51453158
 10
-597270.574999999
 20
-1161704.87584363
 10
-597267.985710148
 20
-1161703.66843794
 10
-597265.226093631
 20
-1161702.92900093
 10
-597262.379999999
 20
-1161702.68
 97
0
 75
0
 76
1
 98
0
  0
HATCH
  5
20030
100
AcDbEntity
  8
0
100
AcDbHatch
 10
0
 20
0
 30
0
210
0
220
0
230
1
  2
SOLID
 70
1
 71
0
 91
1
 92
2
 72
0
 73
1
 93
37
 10
-594046.78
 20
-1160933.23
 10
-594045.3
 20
-1160933.36
 10
-594043.87
 20
-1160933.74
 10
-594042.53
 20
-1160934.37
 10
-594041.31
 20
-1160935.22
 10
-594040.27
 20
-1160936.27
 10
-594039.42
 20
-1160937.48
 10
-594038.79
 20
-1160938.82
 10
-594038.41
 20
-1160940.26
 10
-594038.28
 20
-1160941.73
 10
-594038.41
 20
-1160943.21
 10
-594038.79
 20
-1160944.64
 10
-594039.42
 20
-1160945.98
 10
-594040.27
 20
-1160947.2
 10
-594041.31
 20
-1160948.24
 10
-594042.53
 20
-1160949.09
 10
-594043.87
 20
-1160949.72
 10
-594045.3
 20
-1160950.1
 10
-594046.78
 20
-1160950.23
 10
-594048.25
 20
-1160950.1
 10
-594049.68
 20
-1160949.72
 10
-594051.03
 20
-1160949.09
 10
-594052.24
 20
-1160948.24
 10
-594053.29
 20
-1160947.2
 10
-594054.14
 20
-1160945.98
 10
-594054.76
 20
-1160944.64
 10
-594055.15
 20
-1160943.21
 10
-594055.28
 20
-1160941.73
 10
-594055.15
 20
-1160940.26
 10
-594054.76
 20
-1160938.82
 10
-594054.14
 20
-1160937.48
 10
-594053.29
 20
-1160936.27
 10
-594052.24
 20
-1160935.22
 10
-594051.03
 20
-1160934.37
 10
-594049.68
 20
-1160933.74
 10
-594048.25
 20
-1160933.36
 10
-594046.78
 20
-1160933.23
 97
0
 75
0
 76
1
 98
0
  0
HATCH
  5
20031
100
AcDbEntity
  8
0
100
AcDbHatch
 10
0
 20
0
 30
0
210
0
220
0
230
1
  2
SOLID
 70
1
 71
0
 91
1
 92
2
 72
0
 73
1
 93
25
 10
-595324.17
 20
-1157761.47
 10
-595340.1
 20
-1157766.44
 10
-595356.15
 20
-1157769.89
 10
-595358.61
 20
-1157759.05
 10
-595362.47
 20
-1157743.12
 10
-595332.42
 20
-1157736.54
 10
-595303.73
 20
-1157728.91
 10
-595296.25
 20
-1157726.33
 10
-595289.58
 20
-1157724.11
 10
-595285.01
 20
-1157722.59
 10
-595252.04
 20
-1157708.99
 10
-595238.19
 20
-1157702.42
 10
-595235.4
 20
-1157708.31
 10
-595228.19
 20
-1157705.22
 10
-595231.11
 20
-1157699.07
 10
-595143.67
 20
-1157657.5
 10
-595114.49
 20
-1157643.82
 10
-595122.15
 20
-1157662.95
 10
-595128.56
 20
-1157677.3
 10
-595132.24
 20
-1157686.76
 10
-595243.15
 20
-1157732.42
 10
-595261.56
 20
-1157740.41
 10
-595281.16
 20
-1157748.06
 10
-595295.56
 20
-1157752.55
 10
-595324.17
 20
-1157761.47
 97
0
 75
0
 76
1
 98
0
  0
HATCH
  5
20032
100
AcDbEntity
  8
0
100
AcDbHatch
 10
0
 20
0
 30
0
210
0
220
0
230
1
  2
SOLID
 70
1
 71
0
 91
1
 92
2
 72
0
 73
1
 93
25
 10
-595324.17
 20
-1157761.47
 10
-595340.1
 20
-1157766.44
 10
-595356.15
 20
-1157769.89
 10
-595358.61
 20
-1157759.05
 10
-595362.47
 20
-1157743.12
 10
-595332.42
 20
-1157736.54
 10
-595303.73
 20
-1157728.91
 10
-595296.25
 20
-1157726.33
 10
-595289.58
 20
-1157724.11
 10
-595285.01
 20
-1157722.59
 10
-595252.04
 20
-1157708.99
 10
-595238.19
 20
-1157702.42
 10
-595235.4
 20
-1157708.31
 10
-595228.19
 20
-1157705.22
 10
-595231.11
 20
-1157699.07
 10
-595143.67
 20
-1157657.5
 10
-595114.49
 20
-1157643.82
 10
-595122.15
 20
-1157662.95
 10
-595128.56
 20
-1157677.3
 10
-595132.24
 20
-1157686.76
 10
-595243.15
 20
-1157732.42
 10
-595261.56
 20
-1157740.41
 10
-595281.16
 20
-1157748.06
 10
-595295.56
 20
-1157752.55
 10
-595324.17
 20
-1157761.47
 97
0
 75
0
 76
1
 98
0
  0
HATCH
  5
20033
100
AcDbEntity
  8
0
100
AcDbHatch
 10
0
 20
0
 30
0
210
0
220
0
230
1
  2
SOLID
 70
1
 71
0
 91
1
 92
2
 72
0
 73
1
 93
25
 10
-595324.17
 20
-1157761.47
 10
-595340.1
 20
-1157766.44
 10
-595356.15
 20
-1157769.89
 10
-595358.61
 20
-1157759.05
 10
-595362.47
 20
-1157743.12
 10
-595332.42
 20
-1157736.54
 10
-595303.73
 20
-1157728.91
 10
-595296.25
 20
-1157726.33
 10
-595289.58
 20
-1157724.11
 10
-595285.01
 20
-1157722.59
 10
-595252.04
 20
-1157708.99
 10
-595238.19
 20
-1157702.42
 10
-595235.4
 20
-1157708.31
 10
-595228.19
 20
-1157705.22
 10
-595231.11
 20
-1157699.07
 10
-595143.67
 20
-1157657.5
 10
-595114.49
 20
-1157643.82
 10
-595122.15
 20
-1157662.95
 10
-595128.56
 20
-1157677.3
 10
-595132.24
 20
-1157686.76
 10
-595243.15
 20
-1157732.42
 10
-595261.56
 20
-1157740.41
 10
-595281.16
 20
-1157748.06
 10
-595295.56
 20
-1157752.55
 10
-595324.17
 20
-1157761.47
 97
0
 75
0
 76
1
 98
0
  0
HATCH
  5
20034
100
AcDbEntity
  8
0
100
AcDbHatch
 10
0
 20
0
 30
0
210
0
220
0
230
1
  2
SOLID
 70
1
 71
0
 91
1
 92
2
 72
0
 73
1
 93
25
 10
-595324.17
 20
-1157761.47
 10
-595340.1
 20
-1157766.44
 10
-595356.15
 20
-1157769.89
 10
-595358.61
 20
-1157759.05
 10
-595362.47
 20
-1157743.12
 10
-595332.42
 20
-1157736.54
 10
-595303.73
 20
-1157728.91
 10
-595296.25
 20
-1157726.33
 10
-595289.58
 20
-1157724.11
 10
-595285.01
 20
-1157722.59
 10
-595252.04
 20
-1157708.99
 10
-595238.19
 20
-1157702.42
 10
-595235.4
 20
-1157708.31
 10
-595228.19
 20
-1157705.22
 10
-595231.11
 20
-1157699.07
 10
-595143.67
 20
-1157657.5
 10
-595114.49
 20
-1157643.82
 10
-595122.15
 20
-1157662.95
 10
-595128.56
 20
-1157677.3
 10
-595132.24
 20
-1157686.76
 10
-595243.15
 20
-1157732.42
 10
-595261.56
 20
-1157740.41
 10
-595281.16
 20
-1157748.06
 10
-595295.56
 20
-1157752.55
 10
-595324.17
 20
-1157761.47
 97
0
 75
0
 76
1
 98
0
  0
HATCH
  5
20035
100
AcDbEntity
  8
0
100
AcDbHatch
 10
0
 20
0
 30
0
210
0
220
0
230
1
  2
SOLID
 70
1
 71
0
 91
1
 92
2
 72
0
 73
1
 93
25
 10
-595324.17
 20
-1157761.47
 10
-595340.1
 20
-1157766.44
 10
-595356.15
 20
-1157769.89
 10
-595358.61
 20
-1157759.05
 10
-595362.47
 20
-1157743.12
 10
-595332.42
 20
-1157736.54
 10
-595303.73
 20
-1157728.91
 10
-595296.25
 20
-1157726.33
 10
-595289.58
 20
-1157724.11
 10
-595285.01
 20
-1157722.59
 10
-595252.04
 20
-1157708.99
 10
-595238.19
 20
-1157702.42
 10
-595235.4
 20
-1157708.31
 10
-595228.19
 20
-1157705.22
 10
-595231.11
 20
-1157699.07
 10
-595143.67
 20
-1157657.5
 10
-595114.49
 20
-1157643.82
 10
-595122.15
 20
-1157662.95
 10
-595128.56
 20
-1157677.3
 10
-595132.24
 20
-1157686.76
 10
-595243.15
 20
-1157732.42
 10
-595261.56
 20
-1157740.41
 10
-595281.16
 20
-1157748.06
 10
-595295.56
 20
-1157752.55
 10
-595324.17
 20
-1157761.47
 97
0
 75
0
 76
1
 98
0
  0
HATCH
  5
20036
100
AcDbEntity
  8
0
100
AcDbHatch
 10
0
 20
0
 30
0
210
0
220
0
230
1
  2
SOLID
 70
1
 71
0
 91
1
 92
2
 72
0
 73
1
 93
25
 10
-595324.17
 20
-1157761.47
 10
-595340.1
 20
-1157766.44
 10
-595356.15
 20
-1157769.89
 10
-595358.61
 20
-1157759.05
 10
-595362.47
 20
-1157743.12
 10
-595332.42
 20
-1157736.54
 10
-595303.73
 20
-1157728.91
 10
-595296.25
 20
-1157726.33
 10
-595289.58
 20
-1157724.11
 10
-595285.01
 20
-1157722.59
 10
-595252.04
 20
-1157708.99
 10
-595238.19
 20
-1157702.42
 10
-595235.4
 20
-1157708.31
 10
-595228.19
 20
-1157705.22
 10
-595231.11
 20
-1157699.07
 10
-595143.67
 20
-1157657.5
 10
-595114.49
 20
-1157643.82
 10
-595122.15
 20
-1157662.95
 10
-595128.56
 20
-1157677.3
 10
-595132.24
 20
-1157686.76
 10
-595243.15
 20
-1157732.42
 10
-595261.56
 20
-1157740.41
 10
-595281.16
 20
-1157748.06
 10
-595295.56
 20
-1157752.55
 10
-595324.17
 20
-1157761.47
 97
0
 75
0
 76
1
 98
0
  0
HATCH
  5
20037
100
AcDbEntity
  8
0
100
AcDbHatch
 10
0
 20
0
 30
0
210
0
220
0
230
1
  2
SOLID
 70
1
 71
0
 91
1
 92
2
 72
0
 73
1
 93
25
 10
-595324.17
 20
-1157761.47
 10
-595340.1
 20
-1157766.44
 10
-595356.15
 20
-1157769.89
 10
-595358.61
 20
-1157759.05
 10
-595362.47
 20
-1157743.12
 10
-595332.42
 20
-1157736.54
 10
-595303.73
 20
-1157728.91
 10
-595296.25
 20
-1157726.33
 10
-595289.58
 20
-1157724.11
 10
-595285.01
 20
-1157722.59
 10
-595252.04
 20
-1157708.99
 10
-595238.19
 20
-1157702.42
 10
-595235.4
 20
-1157708.31
 10
-595228.19
 20
-1157705.22
 10
-595231.11
 20
-1157699.07
 10
-595143.67
 20
-1157657.5
 10
-595114.49
 20
-1157643.82
 10
-595122.15
 20
-1157662.95
 10
-595128.56
 20
-1157677.3
 10
-595132.24
 20
-1157686.76
 10
-595243.15
 20
-1157732.42
 10
-595261.56
 20
-1157740.41
 10
-595281.16
 20
-1157748.06
 10
-595295.56
 20
-1157752.55
 10
-595324.17
 20
-1157761.47
 97
0
 75
0
 76
1
 98
0
  0
HATCH
  5
20038
100
AcDbEntity
  8
0
100
AcDbHatch
 10
0
 20
0
 30
0
210
0
220
0
230
1
  2
SOLID
 70
1
 71
0
 91
1
 92
2
 72
0
 73
1
 93
25
 10
-595324.17
 20
-1157761.47
 10
-595340.1
 20
-1157766.44
 10
-595356.15
 20
-1157769.89
 10
-595358.61
 20
-1157759.05
 10
-595362.47
 20
-1157743.12
 10
-595332.42
 20
-1157736.54
 10
-595303.73
 20
-1157728.91
 10
-595296.25
 20
-1157726.33
 10
-595289.58
 20
-1157724.11
 10
-595285.01
 20
-1157722.59
 10
-595252.04
 20
-1157708.99
 10
-595238.19
 20
-1157702.42
 10
-595235.4
 20
-1157708.31
 10
-595228.19
 20
-1157705.22
 10
-595231.11
 20
-1157699.07
 10
-595143.67
 20
-1157657.5
 10
-595114.49
 20
-1157643.82
 10
-595122.15
 20
-1157662.95
 10
-595128.56
 20
-1157677.3
 10
-595132.24
 20
-1157686.76
 10
-595243.15
 20
-1157732.42
 10
-595261.56
 20
-1157740.41
 10
-595281.16
 20
-1157748.06
 10
-595295.56
 20
-1157752.55
 10
-595324.17
 20
-1157761.47
 97
0
 75
0
 76
1
 98
0
  0
HATCH
  5
20039
100
AcDbEntity
  8
0
100
AcDbHatch
 10
0
 20
0
 30
0
210
0
220
0
230
1
  2
SOLID
 70
1
 71
0
 91
1
 92
2
 72
0
 73
1
 93
25
 10
-595324.17
 20
-1157761.47
 10
-595340.1
 20
-1157766.44
 10
-595356.15
 20
-1157769.89
 10
-595358.61
 20
-1157759.05
 10
-595362.47
 20
-1157743.12
 10
-595332.42
 20
-1157736.54
 10
-595303.73
 20
-1157728.91
 10
-595296.25
 20
-1157726.33
 10
-595289.58
 20
-1157724.11
 10
-595285.01
 20
-1157722.59
 10
-595252.04
 20
-1157708.99
 10
-595238.19
 20
-1157702.42
 10
-595235.4
 20
-1157708.31
 10
-595228.19
 20
-1157705.22
 10
-595231.11
 20
-1157699.07
 10
-595143.67
 20
-1157657.5
 10
-595114.49
 20
-1157643.82
 10
-595122.15
 20
-1157662.95
 10
-595128.56
 20
-1157677.3
 10
-595132.24
 20
-1157686.76
 10
-595243.15
 20
-1157732.42
 10
-595261.56
 20
-1157740.41
 10
-595281.16
 20
-1157748.06
 10
-595295.56
 20
-1157752.55
 10
-595324.17
 20
-1157761.47
 97
0
 75
0
 76
1
 98
0
  0
HATCH
  5
2003A
100
AcDbEntity
  8
0
100
AcDbHatch
 10
0
 20
0
 30
0
210
0
220
0
230
1
  2
SOLID
 70
1
 71
0
 91
1
 92
2
 72
0
 73
1
 93
37
 10
-598705.06
 20
-1161243.4
 10
-598701.89
 20
-1161243.68
 10
-598698.8
 20
-1161244.5
 10
-598695.91
 20
-1161245.85
 10
-598693.3
 20
-1161247.68
 10
-598691.05
 20
-1161249.93
 10
-598689.22
 20
-1161252.55
 10
-598687.87
 20
-1161255.44
 10
-598687.04
 20
-1161258.52
 10
-598686.76
 20
-1161261.7
 10
-598687.04
 20
-1161264.87
 10
-598687.87
 20
-1161267.96
 10
-598689.22
 20
-1161270.85
 10
-598691.05
 20
-1161273.46
 10
-598693.3
 20
-1161275.72
 10
-598695.91
 20
-1161277.55
 10
-598698.8
 20
-1161278.89
 10
-598701.89
 20
-1161279.72
 10
-598705.06
 20
-1161280
 10
-598708.24
 20
-1161279.72
 10
-598711.32
 20
-1161278.89
 10
-598714.21
 20
-1161277.55
 10
-598716.83
 20
-1161275.72
 10
-598719.08
 20
-1161273.46
 10
-598720.91
 20
-1161270.85
 10
-598722.26
 20
-1161267.96
 10
-598723.09
 20
-1161264.87
 10
-598723.36
 20
-1161261.7
 10
-598723.09
 20
-1161258.52
 10
-598722.26
 20
-1161255.44
 10
-598720.91
 20
-1161252.55
 10
-598719.08
 20
-1161249.93
 10
-598716.83
 20
-1161247.68
 10
-598714.21
 20
-1161245.85
 10
-598711.32
 20
-1161244.5
 10
-598708.24
 20
-1161243.68
 10
-598705.06
 20
-1161243.4
 97
0
 75
0
 76
1
 98
0
  0
HATCH
  5
2003B
100
AcDbEntity
  8
0
100
AcDbHatch
 10
0
 20
0
 30
0
210
0
220
0
230
1
  2
SOLID
 70
1
 71
0
 91
1
 92
2
 72
0
 73
1
 93
25
 10
-595324.17
 20
-1157761.47
 10
-595340.1
 20
-1157766.44
 10
-595356.15
 20
-1157769.89
 10
-595358.61
 20
-1157759.05
 10
-595362.47
 20
-1157743.12
 10
-595332.42
 20
-1157736.54
 10
-595303.73
 20
-1157728.91
 10
-595296.25
 20
-1157726.33
 10
-595289.58
 20
-1157724.11
 10
-595285.01
 20
-1157722.59
 10
-595252.04
 20
-1157708.99
 10
-595238.19
 20
-1157702.42
 10
-595235.4
 20
-1157708.31
 10
-595228.19
 20
-1157705.22
 10
-595231.11
 20
-1157699.07
 10
-595143.67
 20
-1157657.5
 10
-595114.49
 20
-1157643.82
 10
-595122.15
 20
-1157662.95
 10
-595128.56
 20
-1157677.3
 10
-595132.24
 20
-1157686.76
 10
-595243.15
 20
-1157732.42
 10
-595261.56
 20
-1157740.41
 10
-595281.16
 20
-1157748.06
 10
-595295.56
 20
-1157752.55
 10
-595324.17
 20
-1157761.47
 97
0
 75
0
 76
1
 98
0
  0
HATCH
  5
2003C
100
AcDbEntity
  8
0
100
AcDbHatch
 10
0
 20
0
 30
0
210
0
220
0
230
1
  2
SOLID
 70
1
 71
0
 91
1
 92
2
 72
0
 73
1
 93
25
 10
-595324.17
 20
-1157761.47
 10
-595340.1
 20
-1157766.44
 10
-595356.15
 20
-1157769.89
 10
-595358.61
 20
-1157759.05
 10
-595362.47
 20
-1157743.12
 10
-595332.42
 20
-1157736.54
 10
-595303.73
 20
-1157728.91
 10
-595296.25
 20
-1157726.33
 10
-595289.58
 20
-1157724.11
 10
-595285.01
 20
-1157722.59
 10
-595252.04
 20
-1157708.99
 10
-595238.19
 20
-1157702.42
 10
-595235.4
 20
-1157708.31
 10
-595228.19
 20
-1157705.22
 10
-595231.11
 20
-1157699.07
 10
-595143.67
 20
-1157657.5
 10
-595114.49
 20
-1157643.82
 10
-595122.15
 20
-1157662.95
 10
-595128.56
 20
-1157677.3
 10
-595132.24
 20
-1157686.76
 10
-595243.15
 20
-1157732.42
 10
-595261.56
 20
-1157740.41
 10
-595281.16
 20
-1157748.06
 10
-595295.56
 20
-1157752.55
 10
-595324.17
 20
-1157761.47
 97
0
 75
0
 76
1
 98
0
  0
HATCH
  5
2003D
100
AcDbEntity
  8
0
100
AcDbHatch
 10
0
 20
0
 30
0
210
0
220
0
230
1
  2
SOLID
 70
1
 71
0
 91
1
 92
2
 72
0
 73
1
 93
25
 10
-595324.17
 20
-1157761.47
 10
-595340.1
 20
-1157766.44
 10
-595356.15
 20
-1157769.89
 10
-595358.61
 20
-1157759.05
 10
-595362.47
 20
-1157743.12
 10
-595332.42
 20
-1157736.54
 10
-595303.73
 20
-1157728.91
 10
-595296.25
 20
-1157726.33
 10
-595289.58
 20
-1157724.11
 10
-595285.01
 20
-1157722.59
 10
-595252.04
 20
-1157708.99
 10
-595238.19
 20
-1157702.42
 10
-595235.4
 20
-1157708.31
 10
-595228.19
 20
-1157705.22
 10
-595231.11
 20
-1157699.07
 10
-595143.67
 20
-1157657.5
 10
-595114.49
 20
-1157643.82
 10
-595122.15
 20
-1157662.95
 10
-595128.56
 20
-1157677.3
 10
-595132.24
 20
-1157686.76
 10
-595243.15
 20
-1157732.42
 10
-595261.56
 20
-1157740.41
 10
-595281.16
 20
-1157748.06
 10
-595295.56
 20
-1157752.55
 10
-595324.17
 20
-1157761.47
 97
0
 75
0
 76
1
 98
0
  0
HATCH
  5
2003E
100
AcDbEntity
  8
0
100
AcDbHatch
 10
0
 20
0
 30
0
210
0
220
0
230
1
  2
SOLID
 70
1
 71
0
 91
1
 92
2
 72
0
 73
1
 93
25
 10
-595324.17
 20
-1157761.47
 10
-595340.1
 20
-1157766.44
 10
-595356.15
 20
-1157769.89
 10
-595358.61
 20
-1157759.05
 10
-595362.47
 20
-1157743.12
 10
-595332.42
 20
-1157736.54
 10
-595303.73
 20
-1157728.91
 10
-595296.25
 20
-1157726.33
 10
-595289.58
 20
-1157724.11
 10
-595285.01
 20
-1157722.59
 10
-595252.04
 20
-1157708.99
 10
-595238.19
 20
-1157702.42
 10
-595235.4
 20
-1157708.31
 10
-595228.19
 20
-1157705.22
 10
-595231.11
 20
-1157699.07
 10
-595143.67
 20
-1157657.5
 10
-595114.49
 20
-1157643.82
 10
-595122.15
 20
-1157662.95
 10
-595128.56
 20
-1157677.3
 10
-595132.24
 20
-1157686.76
 10
-595243.15
 20
-1157732.42
 10
-595261.56
 20
-1157740.41
 10
-595281.16
 20
-1157748.06
 10
-595295.56
 20
-1157752.55
 10
-595324.17
 20
-1157761.47
 97
0
 75
0
 76
1
 98
0
  0
HATCH
  5
2003F
100
AcDbEntity
  8
0
100
AcDbHatch
 10
0
 20
0
 30
0
210
0
220
0
230
1
  2
SOLID
 70
1
 71
0
 91
1
 92
2
 72
0
 73
1
 93
25
 10
-595324.17
 20
-1157761.47
 10
-595340.1
 20
-1157766.44
 10
-595356.15
 20
-1157769.89
 10
-595358.61
 20
-1157759.05
 10
-595362.47
 20
-1157743.12
 10
-595332.42
 20
-1157736.54
 10
-595303.73
 20
-1157728.91
 10
-595296.25
 20
-1157726.33
 10
-595289.58
 20
-1157724.11
 10
-595285.01
 20
-1157722.59
 10
-595252.04
 20
-1157708.99
 10
-595238.19
 20
-1157702.42
 10
-595235.4
 20
-1157708.31
 10
-595228.19
 20
-1157705.22
 10
-595231.11
 20
-1157699.07
 10
-595143.67
 20
-1157657.5
 10
-595114.49
 20
-1157643.82
 10
-595122.15
 20
-1157662.95
 10
-595128.56
 20
-1157677.3
 10
-595132.24
 20
-1157686.76
 10
-595243.15
 20
-1157732.42
 10
-595261.56
 20
-1157740.41
 10
-595281.16
 20
-1157748.06
 10
-595295.56
 20
-1157752.55
 10
-595324.17
 20
-1157761.47
 97
0
 75
0
 76
1
 98
0
  0
HATCH
  5
20040
100
AcDbEntity
  8
0
100
AcDbHatch
 10
0
 20
0
 30
0
210
0
220
0
230
1
  2
SOLID
 70
1
 71
0
 91
1
 92
2
 72
0
 73
1
 93
25
 10
-595324.17
 20
-1157761.47
 10
-595340.1
 20
-1157766.44
 10
-595356.15
 20
-1157769.89
 10
-595358.61
 20
-1157759.05
 10
-595362.47
 20
-1157743.12
 10
-595332.42
 20
-1157736.54
 10
-595303.73
 20
-1157728.91
 10
-595296.25
 20
-1157726.33
 10
-595289.58
 20
-1157724.11
 10
-595285.01
 20
-1157722.59
 10
-595252.04
 20
-1157708.99
 10
-595238.19
 20
-1157702.42
 10
-595235.4
 20
-1157708.31
 10
-595228.19
 20
-1157705.22
 10
-595231.11
 20
-1157699.07
 10
-595143.67
 20
-1157657.5
 10
-595114.49
 20
-1157643.82
 10
-595122.15
 20
-1157662.95
 10
-595128.56
 20
-1157677.3
 10
-595132.24
 20
-1157686.76
 10
-595243.15
 20
-1157732.42
 10
-595261.56
 20
-1157740.41
 10
-595281.16
 20
-1157748.06
 10
-595295.56
 20
-1157752.55
 10
-595324.17
 20
-1157761.47
 97
0
 75
0
 76
1
 98
0
  0
HATCH
  5
20041
100
AcDbEntity
  8
0
100
AcDbHatch
 10
0
 20
0
 30
0
210
0
220
0
230
1
  2
SOLID
 70
1
 71
0
 91
1
 92
2
 72
0
 73
1
 93
25
 10
-595324.17
 20
-1157761.47
 10
-595340.1
 20
-1157766.44
 10
-595356.15
 20
-1157769.89
 10
-595358.61
 20
-1157759.05
 10
-595362.47
 20
-1157743.12
 10
-595332.42
 20
-1157736.54
 10
-595303.73
 20
-1157728.91
 10
-595296.25
 20
-1157726.33
 10
-595289.58
 20
-1157724.11
 10
-595285.01
 20
-1157722.59
 10
-595252.04
 20
-1157708.99
 10
-595238.19
 20
-1157702.42
 10
-595235.4
 20
-1157708.31
 10
-595228.19
 20
-1157705.22
 10
-595231.11
 20
-1157699.07
 10
-595143.67
 20
-1157657.5
 10
-595114.49
 20
-1157643.82
 10
-595122.15
 20
-1157662.95
 10
-595128.56
 20
-1157677.3
 10
-595132.24
 20
-1157686.76
 10
-595243.15
 20
-1157732.42
 10
-595261.56
 20
-1157740.41
 10
-595281.16
 20
-1157748.06
 10
-595295.56
 20
-1157752.55
 10
-595324.17
 20
-1157761.47
 97
0
 75
0
 76
1
 98
0
  0
HATCH
  5
20042
100
AcDbEntity
  8
0
100
AcDbHatch
 10
0
 20
0
 30
0
210
0
220
0
230
1
  2
SOLID
 70
1
 71
0
 91
1
 92
2
 72
0
 73
1
 93
25
 10
-595324.17
 20
-1157761.47
 10
-595340.1
 20
-1157766.44
 10
-595356.15
 20
-1157769.89
 10
-595358.61
 20
-1157759.05
 10
-595362.47
 20
-1157743.12
 10
-595332.42
 20
-1157736.54
 10
-595303.73
 20
-1157728.91
 10
-595296.25
 20
-1157726.33
 10
-595289.58
 20
-1157724.11
 10
-595285.01
 20
-1157722.59
 10
-595252.04
 20
-1157708.99
 10
-595238.19
 20
-1157702.42
 10
-595235.4
 20
-1157708.31
 10
-595228.19
 20
-1157705.22
 10
-595231.11
 20
-1157699.07
 10
-595143.67
 20
-1157657.5
 10
-595114.49
 20
-1157643.82
 10
-595122.15
 20
-1157662.95
 10
-595128.56
 20
-1157677.3
 10
-595132.24
 20
-1157686.76
 10
-595243.15
 20
-1157732.42
 10
-595261.56
 20
-1157740.41
 10
-595281.16
 20
-1157748.06
 10
-595295.56
 20
-1157752.55
 10
-595324.17
 20
-1157761.47
 97
0
 75
0
 76
1
 98
0
  0
HATCH
  5
20043
100
AcDbEntity
  8
0
100
AcDbHatch
 10
0
 20
0
 30
0
210
0
220
0
230
1
  2
SOLID
 70
1
 71
0
 91
1
 92
2
 72
0
 73
1
 93
25
 10
-595324.17
 20
-1157761.47
 10
-595340.1
 20
-1157766.44
 10
-595356.15
 20
-1157769.89
 10
-595358.61
 20
-1157759.05
 10
-595362.47
 20
-1157743.12
 10
-595332.42
 20
-1157736.54
 10
-595303.73
 20
-1157728.91
 10
-595296.25
 20
-1157726.33
 10
-595289.58
 20
-1157724.11
 10
-595285.01
 20
-1157722.59
 10
-595252.04
 20
-1157708.99
 10
-595238.19
 20
-1157702.42
 10
-595235.4
 20
-1157708.31
 10
-595228.19
 20
-1157705.22
 10
-595231.11
 20
-1157699.07
 10
-595143.67
 20
-1157657.5
 10
-595114.49
 20
-1157643.82
 10
-595122.15
 20
-1157662.95
 10
-595128.56
 20
-1157677.3
 10
-595132.24
 20
-1157686.76
 10
-595243.15
 20
-1157732.42
 10
-595261.56
 20
-1157740.41
 10
-595281.16
 20
-1157748.06
 10
-595295.56
 20
-1157752.55
 10
-595324.17
 20
-1157761.47
 97
0
 75
0
 76
1
 98
0
  0
HATCH
  5
20044
100
AcDbEntity
  8
0
100
AcDbHatch
 10
0
 20
0
 30
0
210
0
220
0
230
1
  2
SOLID
 70
1
 71
0
 91
1
 92
2
 72
0
 73
1
 93
37
 10
-600874.87
 20
-1159418.66
 10
-600874.79
 20
-1159418.67
 10
-600874.7
 20
-1159418.69
 10
-600874.62
 20
-1159418.73
 10
-600874.55
 20
-1159418.78
 10
-600874.49
 20
-1159418.84
 10
-600874.44
 20
-1159418.91
 10
-600874.4
 20
-1159418.99
 10
-600874.38
 20
-1159419.07
 10
-600874.37
 20
-1159419.16
 10
-600874.38
 20
-1159419.25
 10
-600874.4
 20
-1159419.33
 10
-600874.44
 20
-1159419.41
 10
-600874.49
 20
-1159419.48
 10
-600874.55
 20
-1159419.54
 10
-600874.62
 20
-1159419.59
 10
-600874.7
 20
-1159419.63
 10
-600874.79
 20
-1159419.65
 10
-600874.87
 20
-1159419.66
 10
-600874.96
 20
-1159419.65
 10
-600875.04
 20
-1159419.63
 10
-600875.12
 20
-1159419.59
 10
-600875.19
 20
-1159419.54
 10
-600875.26
 20
-1159419.48
 10
-600875.31
 20
-1159419.41
 10
-600875.34
 20
-1159419.33
 10
-600875.37
 20
-1159419.25
 10
-600875.37
 20
-1159419.16
 10
-600875.37
 20
-1159419.07
 10
-600875.34
 20
-1159418.99
 10
-600875.31
 20
-1159418.91
 10
-600875.26
 20
-1159418.84
 10
-600875.19
 20
-1159418.78
 10
-600875.12
 20
-1159418.73
 10
-600875.04
 20
-1159418.69
 10
-600874.96
 20
-1159418.67
 10
-600874.87
 20
-1159418.66
 97
0
 75
0
 76
1
 98
0
  0
HATCH
  5
20045
100
AcDbEntity
  8
0
100
AcDbHatch
 10
0
 20
0
 30
0
210
0
220
0
230
1
  2
SOLID
 70
1
 71
0
 91
1
 92
2
 72
0
 73
1
 93
25
 10
-595324.17
 20
-1157761.47
 10
-595340.1
 20
-1157766.44
 10
-595356.15
 20
-1157769.89
 10
-595358.61
 20
-1157759.05
 10
-595362.47
 20
-1157743.12
 10
-595332.42
 20
-1157736.54
 10
-595303.73
 20
-1157728.91
 10
-595296.25
 20
-1157726.33
 10
-595289.58
 20
-1157724.11
 10
-595285.01
 20
-1157722.59
 10
-595252.04
 20
-1157708.99
 10
-595238.19
 20
-1157702.42
 10
-595235.4
 20
-1157708.31
 10
-595228.19
 20
-1157705.22
 10
-595231.11
 20
-1157699.07
 10
-595143.67
 20
-1157657.5
 10
-595114.49
 20
-1157643.82
 10
-595122.15
 20
-1157662.95
 10
-595128.56
 20
-1157677.3
 10
-595132.24
 20
-1157686.76
 10
-595243.15
 20
-1157732.42
 10
-595261.56
 20
-1157740.41
 10
-595281.16
 20
-1157748.06
 10
-595295.56
 20
-1157752.55
 10
-595324.17
 20
-1157761.47
 97
0
 75
0
 76
1
 98
0
  0
HATCH
  5
20046
100
AcDbEntity
  8
0
100
AcDbHatch
 10
0
 20
0
 30
0
210
0
220
0
230
1
  2
SOLID
 70
1
 71
0
 91
1
 92
2
 72
0
 73
1
 93
37
 10
-600860.579799999
 20
-1159396.712
 10
-600859.136783642
 20
-1159396.83824757
 10
-600857.737612608
 20
-1159397.21315432
 10
-600856.424799999
 20
-1159397.8253289
 10
-600855.238234963
 20
-1159398.65617068
 10
-600854.213970677
 20
-1159399.68043496
 10
-600853.383128894
 20
-1159400.867
 10
-600852.770954321
 20
-1159402.17981261
 10
-600852.396047572
 20
-1159403.57898364
 10
-600852.2698
 20
-1159405.022
 10
-600852.396047572
 20
-1159406.46501636
 10
-600852.770954321
 20
-1159407.86418739
 10
-600853.383128894
 20
-1159409.177
 10
-600854.213970677
 20
-1159410.36356504
 10
-600855.238234963
 20
-1159411.38782932
 10
-600856.424799999
 20
-1159412.2186711
 10
-600857.737612608
 20
-1159412.83084568
 10
-600859.136783642
 20
-1159413.20575243
 10
-600860.579799999
 20
-1159413.332
 10
-600862.022816355
 20
-1159413.20575243
 10
-600863.421987389
 20
-1159412.83084568
 10
-600864.734799998
 20
-1159412.2186711
 10
-600865.921365034
 20
-1159411.38782932
 10
-600866.94562932
 20
-1159410.36356504
 10
-600867.776471103
 20
-1159409.177
 10
-600868.388645676
 20
-1159407.86418739
 10
-600868.763552425
 20
-1159406.46501636
 10
-600868.889799997
 20
-1159405.022
 10
-600868.763552425
 20
-1159403.57898364
 10
-600868.388645676
 20
-1159402.17981261
 10
-600867.776471103
 20
-1159400.867
 10
-600866.94562932
 20
-1159399.68043496
 10
-600865.921365034
 20
-1159398.65617068
 10
-600864.734799998
 20
-1159397.8253289
 10
-600863.421987389
 20
-1159397.21315432
 10
-600862.022816355
 20
-1159396.83824757
 10
-600860.579799999
 20
-1159396.712
 97
0
 75
0
 76
1
 98
0
  0
HATCH
  5
20047
100
AcDbEntity
  8
0
100
AcDbHatch
 10
0
 20
0
 30
0
210
0
220
0
230
1
  2
SOLID
 70
1
 71
0
 91
1
 92
2
 72
0
 73
1
 93
37
 10
-600790.031399999
 20
-1159334.1611
 10
-600789.94457591
 20
-1159334.16869612
 10
-600789.860389927
 20
-1159334.19125369
 10
-600789.781399999
 20
-1159334.2280873
 10
-600789.710006194
 20
-1159334.27807778
 10
-600789.648377777
 20
-1159334.3397062
 10
-600789.598387297
 20
-1159334.4111
 10
-600789.561553688
 20
-1159334.49008993
 10
-600789.538996122
 20
-1159334.57427591
 10
-600789.531399999
 20
-1159334.6611
 10
-600789.538996122
 20
-1159334.74792409
 10
-600789.561553688
 20
-1159334.83211007
 10
-600789.598387297
 20
-1159334.9111
 10
-600789.648377777
 20
-1159334.98249381
 10
-600789.710006194
 20
-1159335.04412222
 10
-600789.781399999
 20
-1159335.0941127
 10
-600789.860389927
 20
-1159335.13094631
 10
-600789.94457591
 20
-1159335.15350388
 10
-600790.031399999
 20
-1159335.1611
 10
-600790.118224088
 20
-1159335.15350388
 10
-600790.20241007
 20
-1159335.13094631
 10
-600790.281399999
 20
-1159335.0941127
 10
-600790.352793804
 20
-1159335.04412222
 10
-600790.41442222
 20
-1159334.98249381
 10
-600790.464412701
 20
-1159334.9111
 10
-600790.501246309
 20
-1159334.83211007
 10
-600790.523803875
 20
-1159334.74792409
 10
-600790.531399999
 20
-1159334.6611
 10
-600790.523803875
 20
-1159334.57427591
 10
-600790.501246309
 20
-1159334.49008993
 10
-600790.464412701
 20
-1159334.4111
 10
-600790.41442222
 20
-1159334.3397062
 10
-600790.352793804
 20
-1159334.27807778
 10
-600790.281399999
 20
-1159334.2280873
 10
-600790.20241007
 20
-1159334.19125369
 10
-600790.118224088
 20
-1159334.16869612
 10
-600790.031399999
 20
-1159334.1611
 97
0
 75
0
 76
1
 98
0
  0
HATCH
  5
20048
100
AcDbEntity
  8
0
100
AcDbHatch
 10
0
 20
0
 30
0
210
0
220
0
230
1
  2
SOLID
 70
1
 71
0
 91
1
 92
2
 72
0
 73
1
 93
37
 10
-598834.359999999
 20
-1153885.09
 10
-598833.260807034
 20
-1153885.18616692
 10
-598832.195012492
 20
-1153885.47174571
 10
-598831.194999998
 20
-1153885.93805919
 10
-598830.291154429
 20
-1153886.57093868
 10
-598829.510938673
 20
-1153887.35115443
 10
-598828.878059192
 20
-1153888.255
 10
-598828.411745708
 20
-1153889.25501249
 10
-598828.126166921
 20
-1153890.32080704
 10
-598828.029999997
 20
-1153891.42
 10
-598828.126166921
 20
-1153892.51919297
 10
-598828.411745708
 20
-1153893.58498751
 10
-598828.878059192
 20
-1153894.585
 10
-598829.510938673
 20
-1153895.48884557
 10
-598830.291154429
 20
-1153896.26906133
 10
-598831.194999998
 20
-1153896.90194081
 10
-598832.195012492
 20
-1153897.36825429
 10
-598833.260807034
 20
-1153897.65383308
 10
-598834.359999999
 20
-1153897.75
 10
-598835.459192964
 20
-1153897.65383308
 10
-598836.524987507
 20
-1153897.36825429
 10
-598837.525
 20
-1153896.90194081
 10
-598838.42884557
 20
-1153896.26906133
 10
-598839.209061326
 20
-1153895.48884557
 10
-598839.841940807
 20
-1153894.585
 10
-598840.308254291
 20
-1153893.58498751
 10
-598840.593833078
 20
-1153892.51919297
 10
-598840.690000001
 20
-1153891.42
 10
-598840.593833078
 20
-1153890.32080704
 10
-598840.308254291
 20
-1153889.25501249
 10
-598839.841940807
 20
-1153888.255
 10
-598839.209061326
 20
-1153887.35115443
 10
-598838.42884557
 20
-1153886.57093868
 10
-598837.525
 20
-1153885.93805919
 10
-598836.524987507
 20
-1153885.47174571
 10
-598835.459192964
 20
-1153885.18616692
 10
-598834.359999999
 20
-1153885.09
 97
0
 75
0
 76
1
 98
0
  0
HATCH
  5
20049
100
AcDbEntity
  8
0
100
AcDbHatch
 10
0
 20
0
 30
0
210
0
220
0
230
1
  2
SOLID
 70
1
 71
0
 91
1
 92
2
 72
0
 73
1
 93
37
 10
-598846.690000001
 20
-1153886.32
 10
-598845.590807037
 20
-1153886.41616692
 10
-598844.525012495
 20
-1153886.70174571
 10
-598843.525000002
 20
-1153887.16805919
 10
-598842.621154433
 20
-1153887.80093867
 10
-598841.840938678
 20
-1153888.58115443
 10
-598841.208059197
 20
-1153889.485
 10
-598840.741745713
 20
-1153890.48501249
 10
-598840.456166927
 20
-1153891.55080703
 10
-598840.360000003
 20
-1153892.65
 10
-598840.456166927
 20
-1153893.74919296
 10
-598840.741745713
 20
-1153894.81498751
 10
-598841.208059197
 20
-1153895.815
 10
-598841.840938678
 20
-1153896.71884557
 10
-598842.621154433
 20
-1153897.49906132
 10
-598843.525000002
 20
-1153898.1319408
 10
-598844.525012495
 20
-1153898.59825429
 10
-598845.590807037
 20
-1153898.88383307
 10
-598846.690000001
 20
-1153898.98
 10
-598847.789192966
 20
-1153898.88383307
 10
-598848.854987508
 20
-1153898.59825429
 10
-598849.855
 20
-1153898.1319408
 10
-598850.758845569
 20
-1153897.49906132
 10
-598851.539061325
 20
-1153896.71884557
 10
-598852.171940806
 20
-1153895.815
 10
-598852.638254289
 20
-1153894.81498751
 10
-598852.923833076
 20
-1153893.74919296
 10
-598853.02
 20
-1153892.65
 10
-598852.923833076
 20
-1153891.55080703
 10
-598852.638254289
 20
-1153890.48501249
 10
-598852.171940806
 20
-1153889.485
 10
-598851.539061325
 20
-1153888.58115443
 10
-598850.758845569
 20
-1153887.80093867
 10
-598849.855
 20
-1153887.16805919
 10
-598848.854987508
 20
-1153886.70174571
 10
-598847.789192966
 20
-1153886.41616692
 10
-598846.690000001
 20
-1153886.32
 97
0
 75
0
 76
1
 98
0
  0
HATCH
  5
2004A
100
AcDbEntity
  8
0
100
AcDbHatch
 10
0
 20
0
 30
0
210
0
220
0
230
1
  2
SOLID
 70
1
 71
0
 91
1
 92
2
 72
0
 73
1
 93
37
 10
-600804.054000001
 20
-1159338.874
 10
-600802.367876197
 20
-1159339.02151672
 10
-600800.732984411
 20
-1159339.45958465
 10
-600799.199000003
 20
-1159340.17489333
 10
-600797.812532313
 20
-1159341.14570846
 10
-600796.615708461
 20
-1159342.34253231
 10
-600795.644893333
 20
-1159343.729
 10
-600794.929584656
 20
-1159345.26298441
 10
-600794.491516722
 20
-1159346.89787619
 10
-600794.344000004
 20
-1159348.584
 10
-600794.491516722
 20
-1159350.2701238
 10
-600794.929584656
 20
-1159351.90501559
 10
-600795.644893333
 20
-1159353.439
 10
-600796.615708461
 20
-1159354.82546769
 10
-600797.812532313
 20
-1159356.02229154
 10
-600799.199000003
 20
-1159356.99310667
 10
-600800.732984411
 20
-1159357.70841534
 10
-600802.367876197
 20
-1159358.14648328
 10
-600804.054000001
 20
-1159358.294
 10
-600805.740123806
 20
-1159358.14648328
 10
-600807.375015592
 20
-1159357.70841534
 10
-600808.909
 20
-1159356.99310667
 10
-600810.29546769
 20
-1159356.02229154
 10
-600811.492291542
 20
-1159354.82546769
 10
-600812.46310667
 20
-1159353.439
 10
-600813.178415347
 20
-1159351.90501559
 10
-600813.61648328
 20
-1159350.2701238
 10
-600813.763999999
 20
-1159348.584
 10
-600813.61648328
 20
-1159346.89787619
 10
-600813.178415347
 20
-1159345.26298441
 10
-600812.46310667
 20
-1159343.729
 10
-600811.492291542
 20
-1159342.34253231
 10
-600810.29546769
 20
-1159341.14570846
 10
-600808.909
 20
-1159340.17489333
 10
-600807.375015592
 20
-1159339.45958465
 10
-600805.740123806
 20
-1159339.02151672
 10
-600804.054000001
 20
-1159338.874
 97
0
 75
0
 76
1
 98
0
  0
HATCH
  5
2004B
100
AcDbEntity
  8
0
100
AcDbHatch
 10
0
 20
0
 30
0
210
0
220
0
230
1
  2
SOLID
 70
1
 71
0
 91
1
 92
2
 72
0
 73
1
 93
37
 10
-598842.67
 20
-1153887.38
 10
-598840.88
 20
-1153887.54
 10
-598839.14
 20
-1153888
 10
-598837.52
 20
-1153888.76
 10
-598836.04
 20
-1153889.79
 10
-598834.77
 20
-1153891.06
 10
-598833.74
 20
-1153892.53
 10
-598832.98
 20
-1153894.16
 10
-598832.52
 20
-1153895.9
 10
-598832.36
 20
-1153897.69
 10
-598832.52
 20
-1153899.48
 10
-598832.98
 20
-1153901.22
 10
-598833.74
 20
-1153902.84
 10
-598834.77
 20
-1153904.32
 10
-598836.04
 20
-1153905.59
 10
-598837.52
 20
-1153906.62
 10
-598839.14
 20
-1153907.38
 10
-598840.88
 20
-1153907.84
 10
-598842.67
 20
-1153908
 10
-598844.46
 20
-1153907.84
 10
-598846.2
 20
-1153907.38
 10
-598847.83
 20
-1153906.62
 10
-598849.3
 20
-1153905.59
 10
-598850.57
 20
-1153904.32
 10
-598851.6
 20
-1153902.84
 10
-598852.36
 20
-1153901.22
 10
-598852.82
 20
-1153899.48
 10
-598852.98
 20
-1153897.69
 10
-598852.82
 20
-1153895.9
 10
-598852.36
 20
-1153894.16
 10
-598851.6
 20
-1153892.53
 10
-598850.57
 20
-1153891.06
 10
-598849.3
 20
-1153889.79
 10
-598847.83
 20
-1153888.76
 10
-598846.2
 20
-1153888
 10
-598844.46
 20
-1153887.54
 10
-598842.67
 20
-1153887.38
 97
0
 75
0
 76
1
 98
0
  0
HATCH
  5
2004C
100
AcDbEntity
  8
0
100
AcDbHatch
 10
0
 20
0
 30
0
210
0
220
0
230
1
  2
SOLID
 70
1
 71
0
 91
1
 92
2
 72
0
 73
1
 93
37
 10
-598838.3
 20
-1153877.01
 10
-598836.73
 20
-1153877.15
 10
-598835.2
 20
-1153877.56
 10
-598833.77
 20
-1153878.23
 10
-598832.47
 20
-1153879.13
 10
-598831.35
 20
-1153880.25
 10
-598830.45
 20
-1153881.54
 10
-598829.78
 20
-1153882.98
 10
-598829.37
 20
-1153884.51
 10
-598829.23
 20
-1153886.08
 10
-598829.37
 20
-1153887.65
 10
-598829.78
 20
-1153889.18
 10
-598830.45
 20
-1153890.61
 10
-598831.35
 20
-1153891.91
 10
-598832.47
 20
-1153893.03
 10
-598833.77
 20
-1153893.93
 10
-598835.2
 20
-1153894.6
 10
-598836.73
 20
-1153895.01
 10
-598838.3
 20
-1153895.15
 10
-598839.87
 20
-1153895.01
 10
-598841.4
 20
-1153894.6
 10
-598842.83
 20
-1153893.93
 10
-598844.13
 20
-1153893.03
 10
-598845.25
 20
-1153891.91
 10
-598846.15
 20
-1153890.61
 10
-598846.82
 20
-1153889.18
 10
-598847.23
 20
-1153887.65
 10
-598847.37
 20
-1153886.08
 10
-598847.23
 20
-1153884.51
 10
-598846.82
 20
-1153882.98
 10
-598846.15
 20
-1153881.54
 10
-598845.25
 20
-1153880.25
 10
-598844.13
 20
-1153879.13
 10
-598842.83
 20
-1153878.23
 10
-598841.4
 20
-1153877.56
 10
-598839.87
 20
-1153877.15
 10
-598838.3
 20
-1153877.01
 97
0
 75
0
 76
1
 98
0
  0
HATCH
  5
2004D
100
AcDbEntity
  8
0
100
AcDbHatch
 10
0
 20
0
 30
0
210
0
220
0
230
1
  2
SOLID
 70
1
 71
0
 91
1
 92
2
 72
0
 73
1
 93
33
 10
-596992.07
 20
-1163407.82
 10
-596992.28
 20
-1163409.97
 10
-596992.91
 20
-1163412.03
 10
-596993.92
 20
-1163413.93
 10
-596995.29
 20
-1163415.6
 10
-596996.96
 20
-1163416.97
 10
-596998.86
 20
-1163417.98
 10
-597000.92
 20
-1163418.61
 10
-597003.07
 20
-1163418.82
 10
-597005.22
 20
-1163418.61
 10
-597007.28
 20
-1163417.98
 10
-597009.18
 20
-1163416.97
 10
-597010.85
 20
-1163415.6
 10
-597012.22
 20
-1163413.93
 10
-597013.23
 20
-1163412.03
 10
-597013.86
 20
-1163409.97
 10
-597014.07
 20
-1163407.82
 10
-597013.86
 20
-1163405.67
 10
-597013.23
 20
-1163403.61
 10
-597012.22
 20
-1163401.71
 10
-597010.85
 20
-1163400.04
 10
-597009.18
 20
-1163398.67
 10
-597007.28
 20
-1163397.66
 10
-597005.22
 20
-1163397.03
 10
-597003.07
 20
-1163396.82
 10
-597000.92
 20
-1163397.03
 10
-596998.86
 20
-1163397.66
 10
-596996.96
 20
-1163398.67
 10
-596995.29
 20
-1163400.04
 10
-596993.92
 20
-1163401.71
 10
-596992.91
 20
-1163403.61
 10
-596992.28
 20
-1163405.67
 10
-596992.07
 20
-1163407.82
 97
0
 75
0
 76
1
 98
0
  0
HATCH
  5
2004E
100
AcDbEntity
  8
0
100
AcDbHatch
 10
0
 20
0
 30
0
210
0
220
0
230
1
  2
SOLID
 70
1
 71
0
 91
1
 92
2
 72
0
 73
1
 93
33
 10
-609210.44
 20
-1154143.6
 10
-609210.56
 20
-1154144.77
 10
-609210.9
 20
-1154145.9
 10
-609211.45
 20
-1154146.93
 10
-609212.2
 20
-1154147.84
 10
-609213.11
 20
-1154148.59
 10
-609214.14
 20
-1154149.14
 10
-609215.27
 20
-1154149.48
 10
-609216.44
 20
-1154149.6
 10
-609217.61
 20
-1154149.48
 10
-609218.74
 20
-1154149.14
 10
-609219.77
 20
-1154148.59
 10
-609220.68
 20
-1154147.84
 10
-609221.43
 20
-1154146.93
 10
-609221.98
 20
-1154145.9
 10
-609222.32
 20
-1154144.77
 10
-609222.44
 20
-1154143.6
 10
-609222.32
 20
-1154142.43
 10
-609221.98
 20
-1154141.3
 10
-609221.43
 20
-1154140.27
 10
-609220.68
 20
-1154139.36
 10
-609219.77
 20
-1154138.61
 10
-609218.74
 20
-1154138.06
 10
-609217.61
 20
-1154137.72
 10
-609216.44
 20
-1154137.6
 10
-609215.27
 20
-1154137.72
 10
-609214.14
 20
-1154138.06
 10
-609213.11
 20
-1154138.61
 10
-609212.2
 20
-1154139.36
 10
-609211.45
 20
-1154140.27
 10
-609210.9
 20
-1154141.3
 10
-609210.56
 20
-1154142.43
 10
-609210.44
 20
-1154143.6
 97
0
 75
0
 76
1
 98
0
  0
HATCH
  5
2004F
100
AcDbEntity
  8
0
100
AcDbHatch
 10
0
 20
0
 30
0
210
0
220
0
230
1
  2
SOLID
 70
1
 71
0
 91
1
 92
2
 72
0
 73
1
 93
33
 10
-609218.34
 20
-1154143.38
 10
-609218.46
 20
-1154144.55
 10
-609218.8
 20
-1154145.68
 10
-609219.35
 20
-1154146.71
 10
-609220.1
 20
-1154147.62
 10
-609221.01
 20
-1154148.37
 10
-609222.04
 20
-1154148.92
 10
-609223.17
 20
-1154149.26
 10
-609224.34
 20
-1154149.38
 10
-609225.51
 20
-1154149.26
 10
-609226.64
 20
-1154148.92
 10
-609227.67
 20
-1154148.37
 10
-609228.58
 20
-1154147.62
 10
-609229.33
 20
-1154146.71
 10
-609229.88
 20
-1154145.68
 10
-609230.22
 20
-1154144.55
 10
-609230.34
 20
-1154143.38
 10
-609230.22
 20
-1154142.21
 10
-609229.88
 20
-1154141.08
 10
-609229.33
 20
-1154140.05
 10
-609228.58
 20
-1154139.14
 10
-609227.67
 20
-1154138.39
 10
-609226.64
 20
-1154137.84
 10
-609225.51
 20
-1154137.5
 10
-609224.34
 20
-1154137.38
 10
-609223.17
 20
-1154137.5
 10
-609222.04
 20
-1154137.84
 10
-609221.01
 20
-1154138.39
 10
-609220.1
 20
-1154139.14
 10
-609219.35
 20
-1154140.05
 10
-609218.8
 20
-1154141.08
 10
-609218.46
 20
-1154142.21
 10
-609218.34
 20
-1154143.38
 97
0
 75
0
 76
1
 98
0
  0
HATCH
  5
20050
100
AcDbEntity
  8
0
100
AcDbHatch
 10
0
 20
0
 30
0
210
0
220
0
230
1
  2
SOLID
 70
1
 71
0
 91
1
 92
2
 72
0
 73
1
 93
33
 10
-609213.07
 20
-1154150.6
 10
-609213.19
 20
-1154151.77
 10
-609213.53
 20
-1154152.9
 10
-609214.08
 20
-1154153.93
 10
-609214.83
 20
-1154154.84
 10
-609215.74
 20
-1154155.59
 10
-609216.77
 20
-1154156.14
 10
-609217.9
 20
-1154156.48
 10
-609219.07
 20
-1154156.6
 10
-609220.24
 20
-1154156.48
 10
-609221.37
 20
-1154156.14
 10
-609222.4
 20
-1154155.59
 10
-609223.31
 20
-1154154.84
 10
-609224.06
 20
-1154153.93
 10
-609224.61
 20
-1154152.9
 10
-609224.95
 20
-1154151.77
 10
-609225.07
 20
-1154150.6
 10
-609224.95
 20
-1154149.43
 10
-609224.61
 20
-1154148.3
 10
-609224.06
 20
-1154147.27
 10
-609223.31
 20
-1154146.36
 10
-609222.4
 20
-1154145.61
 10
-609221.37
 20
-1154145.06
 10
-609220.24
 20
-1154144.72
 10
-609219.07
 20
-1154144.6
 10
-609217.9
 20
-1154144.72
 10
-609216.77
 20
-1154145.06
 10
-609215.74
 20
-1154145.61
 10
-609214.83
 20
-1154146.36
 10
-609214.08
 20
-1154147.27
 10
-609213.53
 20
-1154148.3
 10
-609213.19
 20
-1154149.43
 10
-609213.07
 20
-1154150.6
 97
0
 75
0
 76
1
 98
0
  0
HATCH
  5
20051
100
AcDbEntity
  8
0
100
AcDbHatch
 10
0
 20
0
 30
0
210
0
220
0
230
1
  2
SOLID
 70
1
 71
0
 91
1
 92
2
 72
0
 73
1
 93
37
 10
-598191.879000001
 20
-1152199.7147
 10
-598190.000126718
 20
-1152199.87908011
 10
-598188.17834205
 20
-1152200.36722584
 10
-598186.469000001
 20
-1152201.16430513
 10
-598184.924038064
 20
-1152202.24609912
 10
-598183.590399126
 20
-1152203.57973806
 10
-598182.508605131
 20
-1152205.1247
 10
-598181.711525843
 20
-1152206.83404205
 10
-598181.223380113
 20
-1152208.65582672
 10
-598181.059
 20
-1152210.5347
 10
-598181.223380113
 20
-1152212.41357328
 10
-598181.711525843
 20
-1152214.23535795
 10
-598182.508605131
 20
-1152215.9447
 10
-598183.590399126
 20
-1152217.48966194
 10
-598184.924038064
 20
-1152218.82330087
 10
-598186.469000001
 20
-1152219.90509487
 10
-598188.17834205
 20
-1152220.70217416
 10
-598190.000126718
 20
-1152221.19031989
 10
-598191.879000001
 20
-1152221.3547
 10
-598193.757873283
 20
-1152221.19031989
 10
-598195.579657951
 20
-1152220.70217416
 10
-598197.289000001
 20
-1152219.90509487
 10
-598198.833961938
 20
-1152218.82330087
 10
-598200.167600875
 20
-1152217.48966194
 10
-598201.24939487
 20
-1152215.9447
 10
-598202.046474158
 20
-1152214.23535795
 10
-598202.534619889
 20
-1152212.41357328
 10
-598202.699000001
 20
-1152210.5347
 10
-598202.534619889
 20
-1152208.65582672
 10
-598202.046474158
 20
-1152206.83404205
 10
-598201.24939487
 20
-1152205.1247
 10
-598200.167600875
 20
-1152203.57973806
 10
-598198.833961938
 20
-1152202.24609912
 10
-598197.289000001
 20
-1152201.16430513
 10
-598195.579657951
 20
-1152200.36722584
 10
-598193.757873283
 20
-1152199.87908011
 10
-598191.879000001
 20
-1152199.7147
 97
0
 75
0
 76
1
 98
0
  0
HATCH
  5
20052
100
AcDbEntity
  8
0
100
AcDbHatch
 10
0
 20
0
 30
0
210
0
220
0
230
1
  2
SOLID
 70
1
 71
0
 91
1
 92
2
 72
0
 73
1
 93
37
 10
-598199.485800002
 20
-1152194.1113
 10
-598197.219691283
 20
-1152194.30955882
 10
-598195.022437131
 20
-1152194.8983113
 10
-598192.960800001
 20
-1152195.85966848
 10
-598191.097421695
 20
-1152197.16442002
 10
-598189.488920019
 20
-1152198.77292169
 10
-598188.184168482
 20
-1152200.6363
 10
-598187.2228113
 20
-1152202.69793713
 10
-598186.634058824
 20
-1152204.89519128
 10
-598186.435800001
 20
-1152207.1613
 10
-598186.634058824
 20
-1152209.42740872
 10
-598187.2228113
 20
-1152211.62466287
 10
-598188.184168482
 20
-1152213.6863
 10
-598189.488920019
 20
-1152215.54967831
 10
-598191.097421695
 20
-1152217.15817998
 10
-598192.960800001
 20
-1152218.46293152
 10
-598195.022437131
 20
-1152219.4242887
 10
-598197.219691283
 20
-1152220.01304118
 10
-598199.485800002
 20
-1152220.2113
 10
-598201.75190872
 20
-1152220.01304118
 10
-598203.949162872
 20
-1152219.4242887
 10
-598206.010800002
 20
-1152218.46293152
 10
-598207.874178309
 20
-1152217.15817998
 10
-598209.482679985
 20
-1152215.54967831
 10
-598210.787431522
 20
-1152213.6863
 10
-598211.748788704
 20
-1152211.62466287
 10
-598212.337541179
 20
-1152209.42740872
 10
-598212.535800003
 20
-1152207.1613
 10
-598212.337541179
 20
-1152204.89519128
 10
-598211.748788704
 20
-1152202.69793713
 10
-598210.787431522
 20
-1152200.6363
 10
-598209.482679985
 20
-1152198.77292169
 10
-598207.874178309
 20
-1152197.16442002
 10
-598206.010800002
 20
-1152195.85966848
 10
-598203.949162872
 20
-1152194.8983113
 10
-598201.75190872
 20
-1152194.30955882
 10
-598199.485800002
 20
-1152194.1113
 97
0
 75
0
 76
1
 98
0
  0
HATCH
  5
20053
100
AcDbEntity
  8
0
100
AcDbHatch
 10
0
 20
0
 30
0
210
0
220
0
230
1
  2
SOLID
 70
1
 71
0
 91
1
 92
2
 72
0
 73
1
 93
33
 10
-609228.73
 20
-1154170.44
 10
-609228.85
 20
-1154171.61
 10
-609229.19
 20
-1154172.74
 10
-609229.74
 20
-1154173.77
 10
-609230.49
 20
-1154174.68
 10
-609231.4
 20
-1154175.43
 10
-609232.43
 20
-1154175.98
 10
-609233.56
 20
-1154176.32
 10
-609234.73
 20
-1154176.44
 10
-609235.9
 20
-1154176.32
 10
-609237.03
 20
-1154175.98
 10
-609238.06
 20
-1154175.43
 10
-609238.97
 20
-1154174.68
 10
-609239.72
 20
-1154173.77
 10
-609240.27
 20
-1154172.74
 10
-609240.61
 20
-1154171.61
 10
-609240.73
 20
-1154170.44
 10
-609240.61
 20
-1154169.27
 10
-609240.27
 20
-1154168.14
 10
-609239.72
 20
-1154167.11
 10
-609238.97
 20
-1154166.2
 10
-609238.06
 20
-1154165.45
 10
-609237.03
 20
-1154164.9
 10
-609235.9
 20
-1154164.56
 10
-609234.73
 20
-1154164.44
 10
-609233.56
 20
-1154164.56
 10
-609232.43
 20
-1154164.9
 10
-609231.4
 20
-1154165.45
 10
-609230.49
 20
-1154166.2
 10
-609229.74
 20
-1154167.11
 10
-609229.19
 20
-1154168.14
 10
-609228.85
 20
-1154169.27
 10
-609228.73
 20
-1154170.44
 97
0
 75
0
 76
1
 98
0
  0
HATCH
  5
20054
100
AcDbEntity
  8
0
100
AcDbHatch
 10
0
 20
0
 30
0
210
0
220
0
230
1
  2
SOLID
 70
1
 71
0
 91
1
 92
2
 72
0
 73
1
 93
37
 10
-608536.378199998
 20
-1152880.9371
 10
-608534.223226113
 20
-1152881.12563579
 10
-608532.13373002
 20
-1152881.68551458
 10
-608530.173199998
 20
-1152882.59972474
 10
-608528.401205762
 20
-1152883.84048846
 10
-608526.871588459
 20
-1152885.37010576
 10
-608525.630824737
 20
-1152887.1421
 10
-608524.716614574
 20
-1152889.10263002
 10
-608524.156735783
 20
-1152891.19212612
 10
-608523.968199998
 20
-1152893.3471
 10
-608524.156735783
 20
-1152895.50207389
 10
-608524.716614574
 20
-1152897.59156998
 10
-608525.630824737
 20
-1152899.5521
 10
-608526.871588459
 20
-1152901.32409424
 10
-608528.401205762
 20
-1152902.85371154
 10
-608530.173199998
 20
-1152904.09447526
 10
-608532.13373002
 20
-1152905.00868542
 10
-608534.223226113
 20
-1152905.56856422
 10
-608536.378199998
 20
-1152905.7571
 10
-608538.533173883
 20
-1152905.56856422
 10
-608540.622669977
 20
-1152905.00868542
 10
-608542.583199998
 20
-1152904.09447526
 10
-608544.355194235
 20
-1152902.85371154
 10
-608545.884811537
 20
-1152901.32409424
 10
-608547.125575259
 20
-1152899.5521
 10
-608548.039785422
 20
-1152897.59156998
 10
-608548.599664213
 20
-1152895.50207389
 10
-608548.788199998
 20
-1152893.3471
 10
-608548.599664213
 20
-1152891.19212612
 10
-608548.039785422
 20
-1152889.10263002
 10
-608547.125575259
 20
-1152887.1421
 10
-608545.884811537
 20
-1152885.37010576
 10
-608544.355194235
 20
-1152883.84048846
 10
-608542.583199998
 20
-1152882.59972474
 10
-608540.622669977
 20
-1152881.68551458
 10
-608538.533173883
 20
-1152881.12563579
 10
-608536.378199998
 20
-1152880.9371
 97
0
 75
0
 76
1
 98
0
  0
HATCH
  5
20055
100
AcDbEntity
  8
0
100
AcDbHatch
 10
0
 20
0
 30
0
210
0
220
0
230
1
  2
SOLID
 70
1
 71
0
 91
1
 92
2
 72
0
 73
1
 93
37
 10
-606690.3079
 20
-1154722.8133
 10
-606688.373459301
 20
-1154722.98254163
 10
-606686.497795603
 20
-1154723.4851242
 10
-606684.7379
 20
-1154724.305777
 10
-606683.147246028
 20
-1154725.4195649
 10
-606681.774164904
 20
-1154726.79264603
 10
-606680.660377002
 20
-1154728.3833
 10
-606679.839724204
 20
-1154730.1431956
 10
-606679.337141631
 20
-1154732.0188593
 10
-606679.1679
 20
-1154733.9533
 10
-606679.337141631
 20
-1154735.8877407
 10
-606679.839724204
 20
-1154737.7634044
 10
-606680.660377002
 20
-1154739.5233
 10
-606681.774164904
 20
-1154741.11395397
 10
-606683.147246028
 20
-1154742.4870351
 10
-606684.7379
 20
-1154743.600823
 10
-606686.497795603
 20
-1154744.4214758
 10
-606688.373459301
 20
-1154744.92405837
 10
-606690.3079
 20
-1154745.0933
 10
-606692.2423407
 20
-1154744.92405837
 10
-606694.118004397
 20
-1154744.4214758
 10
-606695.877900001
 20
-1154743.600823
 10
-606697.468553973
 20
-1154742.4870351
 10
-606698.841635097
 20
-1154741.11395397
 10
-606699.955422999
 20
-1154739.5233
 10
-606700.776075796
 20
-1154737.7634044
 10
-606701.27865837
 20
-1154735.8877407
 10
-606701.447900001
 20
-1154733.9533
 10
-606701.27865837
 20
-1154732.0188593
 10
-606700.776075796
 20
-1154730.1431956
 10
-606699.955422999
 20
-1154728.3833
 10
-606698.841635097
 20
-1154726.79264603
 10
-606697.468553973
 20
-1154725.4195649
 10
-606695.877900001
 20
-1154724.305777
 10
-606694.118004397
 20
-1154723.4851242
 10
-606692.2423407
 20
-1154722.98254163
 10
-606690.3079
 20
-1154722.8133
 97
0
 75
0
 76
1
 98
0
  0
HATCH
  5
20056
100
AcDbEntity
  8
0
100
AcDbHatch
 10
0
 20
0
 30
0
210
0
220
0
230
1
  2
SOLID
 70
1
 71
0
 91
1
 92
2
 72
0
 73
1
 93
17
 10
-603291.58
 20
-1156118.98
 10
-603291.77
 20
-1156118.98
 10
-603298.59
 20
-1156096.86
 10
-603296.35
 20
-1156095.69
 10
-603293.81
 20
-1156094.87
 10
-603290.2
 20
-1156094.8
 10
-603286.59
 20
-1156095.82
 10
-603283.54
 20
-1156097.98
 10
-603281.39
 20
-1156100.33
 10
-603280.06
 20
-1156103.56
 10
-603279.49
 20
-1156106.93
 10
-603280
 20
-1156110.48
 10
-603281.52
 20
-1156113.59
 10
-603284
 20
-1156116.44
 10
-603286.98
 20
-1156118.16
 10
-603289.96
 20
-1156118.92
 10
-603291.58
 20
-1156118.98
 97
0
 75
0
 76
1
 98
0
  0
HATCH
  5
20057
100
AcDbEntity
  8
0
100
AcDbHatch
 10
0
 20
0
 30
0
210
0
220
0
230
1
  2
SOLID
 70
1
 71
0
 91
1
 92
2
 72
0
 73
1
 93
33
 10
-601031.44
 20
-1161252.87
 10
-601031.69
 20
-1161255.41
 10
-601032.43
 20
-1161257.84
 10
-601033.63
 20
-1161260.09
 10
-601035.25
 20
-1161262.06
 10
-601037.22
 20
-1161263.68
 10
-601039.47
 20
-1161264.88
 10
-601041.9
 20
-1161265.62
 10
-601044.44
 20
-1161265.87
 10
-601046.98
 20
-1161265.62
 10
-601049.41
 20
-1161264.88
 10
-601051.66
 20
-1161263.68
 10
-601053.63
 20
-1161262.06
 10
-601055.25
 20
-1161260.09
 10
-601056.45
 20
-1161257.84
 10
-601057.19
 20
-1161255.41
 10
-601057.44
 20
-1161252.87
 10
-601057.19
 20
-1161250.33
 10
-601056.45
 20
-1161247.9
 10
-601055.25
 20
-1161245.65
 10
-601053.63
 20
-1161243.68
 10
-601051.66
 20
-1161242.06
 10
-601049.41
 20
-1161240.86
 10
-601046.98
 20
-1161240.12
 10
-601044.44
 20
-1161239.87
 10
-601041.9
 20
-1161240.12
 10
-601039.47
 20
-1161240.86
 10
-601037.22
 20
-1161242.06
 10
-601035.25
 20
-1161243.68
 10
-601033.63
 20
-1161245.65
 10
-601032.43
 20
-1161247.9
 10
-601031.69
 20
-1161250.33
 10
-601031.44
 20
-1161252.87
 97
0
 75
0
 76
1
 98
0
  0
HATCH
  5
20058
100
AcDbEntity
  8
0
100
AcDbHatch
 10
0
 20
0
 30
0
210
0
220
0
230
1
  2
SOLID
 70
1
 71
0
 91
1
 92
2
 72
0
 73
1
 93
37
 10
-598741.11
 20
-1154118.7
 10
-598739.4
 20
-1154118.85
 10
-598737.74
 20
-1154119.3
 10
-598736.18
 20
-1154120.03
 10
-598734.77
 20
-1154121.01
 10
-598733.55
 20
-1154122.23
 10
-598732.57
 20
-1154123.64
 10
-598731.84
 20
-1154125.2
 10
-598731.39
 20
-1154126.86
 10
-598731.24
 20
-1154128.57
 10
-598731.39
 20
-1154130.29
 10
-598731.84
 20
-1154131.95
 10
-598732.57
 20
-1154133.51
 10
-598733.55
 20
-1154134.92
 10
-598734.77
 20
-1154136.14
 10
-598736.18
 20
-1154137.12
 10
-598737.74
 20
-1154137.85
 10
-598739.4
 20
-1154138.29
 10
-598741.11
 20
-1154138.44
 10
-598742.83
 20
-1154138.29
 10
-598744.49
 20
-1154137.85
 10
-598746.05
 20
-1154137.12
 10
-598747.46
 20
-1154136.14
 10
-598748.67
 20
-1154134.92
 10
-598749.66
 20
-1154133.51
 10
-598750.39
 20
-1154131.95
 10
-598750.83
 20
-1154130.29
 10
-598750.98
 20
-1154128.57
 10
-598750.83
 20
-1154126.86
 10
-598750.39
 20
-1154125.2
 10
-598749.66
 20
-1154123.64
 10
-598748.67
 20
-1154122.23
 10
-598747.46
 20
-1154121.01
 10
-598746.05
 20
-1154120.03
 10
-598744.49
 20
-1154119.3
 10
-598742.83
 20
-1154118.85
 10
-598741.11
 20
-1154118.7
 97
0
 75
0
 76
1
 98
0
  0
HATCH
  5
20059
100
AcDbEntity
  8
0
100
AcDbHatch
 10
0
 20
0
 30
0
210
0
220
0
230
1
  2
SOLID
 70
1
 71
0
 91
1
 92
2
 72
0
 73
1
 93
37
 10
-595627.81
 20
-1168372.92
 10
-595625.89
 20
-1168373.09
 10
-595624.02
 20
-1168373.59
 10
-595622.27
 20
-1168374.4
 10
-595620.69
 20
-1168375.51
 10
-595619.32
 20
-1168376.88
 10
-595618.21
 20
-1168378.46
 10
-595617.4
 20
-1168380.21
 10
-595616.9
 20
-1168382.08
 10
-595616.73
 20
-1168384
 10
-595616.9
 20
-1168385.92
 10
-595617.4
 20
-1168387.79
 10
-595618.21
 20
-1168389.54
 10
-595619.32
 20
-1168391.12
 10
-595620.69
 20
-1168392.49
 10
-595622.27
 20
-1168393.6
 10
-595624.02
 20
-1168394.41
 10
-595625.89
 20
-1168394.91
 10
-595627.81
 20
-1168395.08
 10
-595629.73
 20
-1168394.91
 10
-595631.6
 20
-1168394.41
 10
-595633.35
 20
-1168393.6
 10
-595634.93
 20
-1168392.49
 10
-595636.3
 20
-1168391.12
 10
-595637.41
 20
-1168389.54
 10
-595638.22
 20
-1168387.79
 10
-595638.72
 20
-1168385.92
 10
-595638.89
 20
-1168384
 10
-595638.72
 20
-1168382.08
 10
-595638.22
 20
-1168380.21
 10
-595637.41
 20
-1168378.46
 10
-595636.3
 20
-1168376.88
 10
-595634.93
 20
-1168375.51
 10
-595633.35
 20
-1168374.4
 10
-595631.6
 20
-1168373.59
 10
-595629.73
 20
-1168373.09
 10
-595627.81
 20
-1168372.92
 97
0
 75
0
 76
1
 98
0
  0
HATCH
  5
2005A
100
AcDbEntity
  8
0
100
AcDbHatch
 10
0
 20
0
 30
0
210
0
220
0
230
1
  2
SOLID
 70
1
 71
0
 91
1
 92
2
 72
0
 73
1
 93
37
 10
-596178.239300001
 20
-1166342.5003
 10
-596175.752658097
 20
-1166342.71785298
 10
-596173.341571549
 20
-1166343.36390167
 10
-596171.079300001
 20
-1166344.41881622
 10
-596169.03458143
 20
-1166345.85054358
 10
-596167.269543576
 20
-1166347.61558143
 10
-596165.837816219
 20
-1166349.6603
 10
-596164.782901671
 20
-1166351.92257155
 10
-596164.136852978
 20
-1166354.3336581
 10
-596163.919300001
 20
-1166356.8203
 10
-596164.136852978
 20
-1166359.30694191
 10
-596164.782901671
 20
-1166361.71802845
 10
-596165.837816219
 20
-1166363.9803
 10
-596167.269543576
 20
-1166366.02501857
 10
-596169.03458143
 20
-1166367.79005643
 10
-596171.079300001
 20
-1166369.22178378
 10
-596173.341571549
 20
-1166370.27669833
 10
-596175.752658097
 20
-1166370.92274703
 10
-596178.239300001
 20
-1166371.1403
 10
-596180.725941906
 20
-1166370.92274703
 10
-596183.137028454
 20
-1166370.27669833
 10
-596185.399300002
 20
-1166369.22178378
 10
-596187.444018572
 20
-1166367.79005643
 10
-596189.209056427
 20
-1166366.02501857
 10
-596190.640783784
 20
-1166363.9803
 10
-596191.695698331
 20
-1166361.71802845
 10
-596192.341747025
 20
-1166359.30694191
 10
-596192.559300002
 20
-1166356.8203
 10
-596192.341747025
 20
-1166354.3336581
 10
-596191.695698331
 20
-1166351.92257155
 10
-596190.640783784
 20
-1166349.6603
 10
-596189.209056427
 20
-1166347.61558143
 10
-596187.444018572
 20
-1166345.85054358
 10
-596185.399300002
 20
-1166344.41881622
 10
-596183.137028454
 20
-1166343.36390167
 10
-596180.725941906
 20
-1166342.71785298
 10
-596178.239300001
 20
-1166342.5003
 97
0
 75
0
 76
1
 98
0
  0
HATCH
  5
2005B
100
AcDbEntity
  8
0
100
AcDbHatch
 10
0
 20
0
 30
0
210
0
220
0
230
1
  2
SOLID
 70
1
 71
0
 91
1
 92
2
 72
0
 73
1
 93
37
 10
-603942.49
 20
-1162379.65
 10
-603941.42
 20
-1162379.74
 10
-603940.38
 20
-1162380.02
 10
-603939.4
 20
-1162380.48
 10
-603938.52
 20
-1162381.1
 10
-603937.76
 20
-1162381.86
 10
-603937.14
 20
-1162382.74
 10
-603936.68
 20
-1162383.72
 10
-603936.4
 20
-1162384.76
 10
-603936.31
 20
-1162385.83
 10
-603936.4
 20
-1162386.9
 10
-603936.68
 20
-1162387.94
 10
-603937.14
 20
-1162388.92
 10
-603937.76
 20
-1162389.8
 10
-603938.52
 20
-1162390.56
 10
-603939.4
 20
-1162391.18
 10
-603940.38
 20
-1162391.64
 10
-603941.42
 20
-1162391.92
 10
-603942.49
 20
-1162392.01
 10
-603943.56
 20
-1162391.92
 10
-603944.6
 20
-1162391.64
 10
-603945.58
 20
-1162391.18
 10
-603946.46
 20
-1162390.56
 10
-603947.22
 20
-1162389.8
 10
-603947.84
 20
-1162388.92
 10
-603948.3
 20
-1162387.94
 10
-603948.58
 20
-1162386.9
 10
-603948.67
 20
-1162385.83
 10
-603948.58
 20
-1162384.76
 10
-603948.3
 20
-1162383.72
 10
-603947.84
 20
-1162382.74
 10
-603947.22
 20
-1162381.86
 10
-603946.46
 20
-1162381.1
 10
-603945.58
 20
-1162380.48
 10
-603944.6
 20
-1162380.02
 10
-603943.56
 20
-1162379.74
 10
-603942.49
 20
-1162379.65
 97
0
 75
0
 76
1
 98
0
  0
HATCH
  5
2005C
100
AcDbEntity
  8
0
100
AcDbHatch
 10
0
 20
0
 30
0
210
0
220
0
230
1
  2
SOLID
 70
1
 71
0
 91
1
 92
2
 72
0
 73
1
 93
33
 10
-601057.04
 20
-1161188.31
 10
-601057.31
 20
-1161191.04
 10
-601058.11
 20
-1161193.67
 10
-601059.4
 20
-1161196.09
 10
-601061.14
 20
-1161198.21
 10
-601063.26
 20
-1161199.95
 10
-601065.68
 20
-1161201.24
 10
-601068.31
 20
-1161202.04
 10
-601071.04
 20
-1161202.31
 10
-601073.77
 20
-1161202.04
 10
-601076.4
 20
-1161201.24
 10
-601078.82
 20
-1161199.95
 10
-601080.94
 20
-1161198.21
 10
-601082.68
 20
-1161196.09
 10
-601083.97
 20
-1161193.67
 10
-601084.77
 20
-1161191.04
 10
-601085.04
 20
-1161188.31
 10
-601084.77
 20
-1161185.58
 10
-601083.97
 20
-1161182.95
 10
-601082.68
 20
-1161180.53
 10
-601080.94
 20
-1161178.41
 10
-601078.82
 20
-1161176.67
 10
-601076.4
 20
-1161175.38
 10
-601073.77
 20
-1161174.58
 10
-601071.04
 20
-1161174.31
 10
-601068.31
 20
-1161174.58
 10
-601065.68
 20
-1161175.38
 10
-601063.26
 20
-1161176.67
 10
-601061.14
 20
-1161178.41
 10
-601059.4
 20
-1161180.53
 10
-601058.11
 20
-1161182.95
 10
-601057.31
 20
-1161185.58
 10
-601057.04
 20
-1161188.31
 97
0
 75
0
 76
1
 98
0
  0
HATCH
  5
2005D
100
AcDbEntity
  8
0
100
AcDbHatch
 10
0
 20
0
 30
0
210
0
220
0
230
1
  2
SOLID
 70
1
 71
0
 91
1
 92
2
 72
0
 73
1
 93
37
 10
-594058.370700002
 20
-1160935.1515
 10
-594058.283875913
 20
-1160935.15909613
 10
-594058.19968993
 20
-1160935.18165369
 10
-594058.120700002
 20
-1160935.2184873
 10
-594058.049306197
 20
-1160935.26847778
 10
-594057.98767778
 20
-1160935.3301062
 10
-594057.9376873
 20
-1160935.4015
 10
-594057.900853691
 20
-1160935.48048993
 10
-594057.878296125
 20
-1160935.56467591
 10
-594057.870700002
 20
-1160935.6515
 10
-594057.878296125
 20
-1160935.73832409
 10
-594057.900853691
 20
-1160935.82251007
 10
-594057.9376873
 20
-1160935.9015
 10
-594057.98767778
 20
-1160935.97289381
 10
-594058.049306197
 20
-1160936.03452222
 10
-594058.120700002
 20
-1160936.0845127
 10
-594058.19968993
 20
-1160936.12134631
 10
-594058.283875913
 20
-1160936.14390388
 10
-594058.370700002
 20
-1160936.1515
 10
-594058.457524091
 20
-1160936.14390388
 10
-594058.541710073
 20
-1160936.12134631
 10
-594058.620700002
 20
-1160936.0845127
 10
-594058.692093807
 20
-1160936.03452222
 10
-594058.753722223
 20
-1160935.97289381
 10
-594058.803712704
 20
-1160935.9015
 10
-594058.840546312
 20
-1160935.82251007
 10
-594058.863103878
 20
-1160935.73832409
 10
-594058.870700002
 20
-1160935.6515
 10
-594058.863103878
 20
-1160935.56467591
 10
-594058.840546312
 20
-1160935.48048993
 10
-594058.803712704
 20
-1160935.4015
 10
-594058.753722223
 20
-1160935.3301062
 10
-594058.692093807
 20
-1160935.26847778
 10
-594058.620700002
 20
-1160935.2184873
 10
-594058.541710073
 20
-1160935.18165369
 10
-594058.457524091
 20
-1160935.15909613
 10
-594058.370700002
 20
-1160935.1515
 97
0
 75
0
 76
1
 98
0
  0
HATCH
  5
2005E
100
AcDbEntity
  8
0
100
AcDbHatch
 10
0
 20
0
 30
0
210
0
220
0
230
1
  2
SOLID
 70
1
 71
0
 91
1
 92
2
 72
0
 73
1
 93
37
 10
-594063.291999999
 20
-1160945.9465
 10
-594063.205175911
 20
-1160945.95409612
 10
-594063.120989928
 20
-1160945.97665369
 10
-594063.041999999
 20
-1160946.0134873
 10
-594062.970606195
 20
-1160946.06347778
 10
-594062.908977778
 20
-1160946.12510619
 10
-594062.858987298
 20
-1160946.1965
 10
-594062.822153689
 20
-1160946.27548993
 10
-594062.799596123
 20
-1160946.35967591
 10
-594062.791999999
 20
-1160946.4465
 10
-594062.799596123
 20
-1160946.53332409
 10
-594062.822153689
 20
-1160946.61751007
 10
-594062.858987298
 20
-1160946.6965
 10
-594062.908977778
 20
-1160946.7678938
 10
-594062.970606195
 20
-1160946.82952222
 10
-594063.041999999
 20
-1160946.8795127
 10
-594063.120989928
 20
-1160946.91634631
 10
-594063.205175911
 20
-1160946.93890388
 10
-594063.291999999
 20
-1160946.9465
 10
-594063.378824088
 20
-1160946.93890388
 10
-594063.463010071
 20
-1160946.91634631
 10
-594063.541999999
 20
-1160946.8795127
 10
-594063.613393804
 20
-1160946.82952222
 10
-594063.675022221
 20
-1160946.7678938
 10
-594063.725012701
 20
-1160946.6965
 10
-594063.76184631
 20
-1160946.61751007
 10
-594063.784403876
 20
-1160946.53332409
 10
-594063.791999999
 20
-1160946.4465
 10
-594063.784403876
 20
-1160946.35967591
 10
-594063.76184631
 20
-1160946.27548993
 10
-594063.725012701
 20
-1160946.1965
 10
-594063.675022221
 20
-1160946.12510619
 10
-594063.613393804
 20
-1160946.06347778
 10
-594063.541999999
 20
-1160946.0134873
 10
-594063.463010071
 20
-1160945.97665369
 10
-594063.378824088
 20
-1160945.95409612
 10
-594063.291999999
 20
-1160945.9465
 97
0
 75
0
 76
1
 98
0
  0
HATCH
  5
2005F
100
AcDbEntity
  8
0
100
AcDbHatch
 10
0
 20
0
 30
0
210
0
220
0
230
1
  2
SOLID
 70
1
 71
0
 91
1
 92
2
 72
0
 73
1
 93
33
 10
-601040.43
 20
-1161244.94
 10
-601040.62
 20
-1161246.89
 10
-601041.19
 20
-1161248.77
 10
-601042.12
 20
-1161250.5
 10
-601043.36
 20
-1161252.01
 10
-601044.87
 20
-1161253.25
 10
-601046.6
 20
-1161254.18
 10
-601048.48
 20
-1161254.75
 10
-601050.43
 20
-1161254.94
 10
-601052.38
 20
-1161254.75
 10
-601054.26
 20
-1161254.18
 10
-601055.99
 20
-1161253.25
 10
-601057.5
 20
-1161252.01
 10
-601058.74
 20
-1161250.5
 10
-601059.67
 20
-1161248.77
 10
-601060.24
 20
-1161246.89
 10
-601060.43
 20
-1161244.94
 10
-601060.24
 20
-1161242.99
 10
-601059.67
 20
-1161241.11
 10
-601058.74
 20
-1161239.38
 10
-601057.5
 20
-1161237.87
 10
-601055.99
 20
-1161236.63
 10
-601054.26
 20
-1161235.7
 10
-601052.38
 20
-1161235.13
 10
-601050.43
 20
-1161234.94
 10
-601048.48
 20
-1161235.13
 10
-601046.6
 20
-1161235.7
 10
-601044.87
 20
-1161236.63
 10
-601043.36
 20
-1161237.87
 10
-601042.12
 20
-1161239.38
 10
-601041.19
 20
-1161241.11
 10
-601040.62
 20
-1161242.99
 10
-601040.43
 20
-1161244.94
 97
0
 75
0
 76
1
 98
0
  0
HATCH
  5
20060
100
AcDbEntity
  8
0
100
AcDbHatch
 10
0
 20
0
 30
0
210
0
220
0
230
1
  2
SOLID
 70
1
 71
0
 91
1
 92
2
 72
0
 73
1
 93
25
 10
-595324.17
 20
-1157761.47
 10
-595340.1
 20
-1157766.44
 10
-595356.15
 20
-1157769.89
 10
-595358.61
 20
-1157759.05
 10
-595362.47
 20
-1157743.12
 10
-595332.42
 20
-1157736.54
 10
-595303.73
 20
-1157728.91
 10
-595296.25
 20
-1157726.33
 10
-595289.58
 20
-1157724.11
 10
-595285.01
 20
-1157722.59
 10
-595252.04
 20
-1157708.99
 10
-595238.19
 20
-1157702.42
 10
-595235.4
 20
-1157708.31
 10
-595228.19
 20
-1157705.22
 10
-595231.11
 20
-1157699.07
 10
-595143.67
 20
-1157657.5
 10
-595114.49
 20
-1157643.82
 10
-595122.15
 20
-1157662.95
 10
-595128.56
 20
-1157677.3
 10
-595132.24
 20
-1157686.76
 10
-595243.15
 20
-1157732.42
 10
-595261.56
 20
-1157740.41
 10
-595281.16
 20
-1157748.06
 10
-595295.56
 20
-1157752.55
 10
-595324.17
 20
-1157761.47
 97
0
 75
0
 76
1
 98
0
  0
HATCH
  5
20061
100
AcDbEntity
  8
0
100
AcDbHatch
 10
0
 20
0
 30
0
210
0
220
0
230
1
  2
SOLID
 70
1
 71
0
 91
1
 92
2
 72
0
 73
1
 93
33
 10
-597322.06
 20
-1159071.16
 10
-597322.25
 20
-1159073.11
 10
-597322.82
 20
-1159074.99
 10
-597323.75
 20
-1159076.72
 10
-597324.99
 20
-1159078.23
 10
-597326.5
 20
-1159079.47
 10
-597328.23
 20
-1159080.4
 10
-597330.11
 20
-1159080.97
 10
-597332.06
 20
-1159081.16
 10
-597334.01
 20
-1159080.97
 10
-597335.89
 20
-1159080.4
 10
-597337.62
 20
-1159079.47
 10
-597339.13
 20
-1159078.23
 10
-597340.37
 20
-1159076.72
 10
-597341.3
 20
-1159074.99
 10
-597341.87
 20
-1159073.11
 10
-597342.06
 20
-1159071.16
 10
-597341.87
 20
-1159069.21
 10
-597341.3
 20
-1159067.33
 10
-597340.37
 20
-1159065.6
 10
-597339.13
 20
-1159064.09
 10
-597337.62
 20
-1159062.85
 10
-597335.89
 20
-1159061.92
 10
-597334.01
 20
-1159061.35
 10
-597332.06
 20
-1159061.16
 10
-597330.11
 20
-1159061.35
 10
-597328.23
 20
-1159061.92
 10
-597326.5
 20
-1159062.85
 10
-597324.99
 20
-1159064.09
 10
-597323.75
 20
-1159065.6
 10
-597322.82
 20
-1159067.33
 10
-597322.25
 20
-1159069.21
 10
-597322.06
 20
-1159071.16
 97
0
 75
0
 76
1
 98
0
  0
HATCH
  5
20062
100
AcDbEntity
  8
0
100
AcDbHatch
 10
0
 20
0
 30
0
210
0
220
0
230
1
  2
SOLID
 70
1
 71
0
 91
1
 92
2
 72
0
 73
1
 93
37
 10
-604136.84
 20
-1162148.46
 10
-604135.457760505
 20
-1162148.58093029
 10
-604134.117519659
 20
-1162148.94004674
 10
-604132.859999999
 20
-1162149.52643779
 10
-604131.723410626
 20
-1162150.32228623
 10
-604130.742286232
 20
-1162151.30341063
 10
-604129.946437785
 20
-1162152.44
 10
-604129.360046738
 20
-1162153.69751966
 10
-604129.000930285
 20
-1162155.03776051
 10
-604128.879999999
 20
-1162156.42
 10
-604129.000930285
 20
-1162157.8022395
 10
-604129.360046738
 20
-1162159.14248034
 10
-604129.946437785
 20
-1162160.4
 10
-604130.742286232
 20
-1162161.53658938
 10
-604131.723410626
 20
-1162162.51771377
 10
-604132.859999999
 20
-1162163.31356222
 10
-604134.117519659
 20
-1162163.89995326
 10
-604135.457760505
 20
-1162164.25906972
 10
-604136.84
 20
-1162164.38
 10
-604138.222239494
 20
-1162164.25906972
 10
-604139.562480341
 20
-1162163.89995326
 10
-604140.82
 20
-1162163.31356222
 10
-604141.956589374
 20
-1162162.51771377
 10
-604142.937713768
 20
-1162161.53658938
 10
-604143.733562215
 20
-1162160.4
 10
-604144.319953262
 20
-1162159.14248034
 10
-604144.679069715
 20
-1162157.8022395
 10
-604144.800000001
 20
-1162156.42
 10
-604144.679069715
 20
-1162155.03776051
 10
-604144.319953262
 20
-1162153.69751966
 10
-604143.733562215
 20
-1162152.44
 10
-604142.937713768
 20
-1162151.30341063
 10
-604141.956589374
 20
-1162150.32228623
 10
-604140.82
 20
-1162149.52643779
 10
-604139.562480341
 20
-1162148.94004674
 10
-604138.222239494
 20
-1162148.58093029
 10
-604136.84
 20
-1162148.46
 97
0
 75
0
 76
1
 98
0
  0
HATCH
  5
20063
100
AcDbEntity
  8
0
100
AcDbHatch
 10
0
 20
0
 30
0
210
0
220
0
230
1
  2
SOLID
 70
1
 71
0
 91
1
 92
2
 72
0
 73
1
 93
37
 10
-603929.48
 20
-1162404.1199
 10
-603927.943213628
 20
-1162404.25435139
 10
-603926.453121732
 20
-1162404.65362031
 10
-603925.055
 20
-1162405.30557518
 10
-603923.791329654
 20
-1162406.19040668
 10
-603922.700506678
 20
-1162407.28122965
 10
-603921.815675176
 20
-1162408.5449
 10
-603921.163720305
 20
-1162409.94302173
 10
-603920.764451385
 20
-1162411.43311363
 10
-603920.629999999
 20
-1162412.9699
 10
-603920.764451385
 20
-1162414.50668637
 10
-603921.163720305
 20
-1162415.99677827
 10
-603921.815675176
 20
-1162417.3949
 10
-603922.700506678
 20
-1162418.65857035
 10
-603923.791329654
 20
-1162419.74939332
 10
-603925.055
 20
-1162420.63422483
 10
-603926.453121732
 20
-1162421.2861797
 10
-603927.943213628
 20
-1162421.68544862
 10
-603929.48
 20
-1162421.8199
 10
-603931.016786373
 20
-1162421.68544862
 10
-603932.506878269
 20
-1162421.2861797
 10
-603933.905000001
 20
-1162420.63422483
 10
-603935.168670347
 20
-1162419.74939332
 10
-603936.259493323
 20
-1162418.65857035
 10
-603937.144324825
 20
-1162417.3949
 10
-603937.796279696
 20
-1162415.99677827
 10
-603938.195548616
 20
-1162414.50668637
 10
-603938.330000002
 20
-1162412.9699
 10
-603938.195548616
 20
-1162411.43311363
 10
-603937.796279696
 20
-1162409.94302173
 10
-603937.144324825
 20
-1162408.5449
 10
-603936.259493323
 20
-1162407.28122965
 10
-603935.168670347
 20
-1162406.19040668
 10
-603933.905000001
 20
-1162405.30557518
 10
-603932.506878269
 20
-1162404.65362031
 10
-603931.016786373
 20
-1162404.25435139
 10
-603929.48
 20
-1162404.1199
 97
0
 75
0
 76
1
 98
0
  0
HATCH
  5
20064
100
AcDbEntity
  8
0
100
AcDbHatch
 10
0
 20
0
 30
0
210
0
220
0
230
1
  2
SOLID
 70
1
 71
0
 91
1
 92
2
 72
0
 73
1
 93
25
 10
-595324.17
 20
-1157761.47
 10
-595340.1
 20
-1157766.44
 10
-595356.15
 20
-1157769.89
 10
-595358.61
 20
-1157759.05
 10
-595362.47
 20
-1157743.12
 10
-595332.42
 20
-1157736.54
 10
-595303.73
 20
-1157728.91
 10
-595296.25
 20
-1157726.33
 10
-595289.58
 20
-1157724.11
 10
-595285.01
 20
-1157722.59
 10
-595252.04
 20
-1157708.99
 10
-595238.19
 20
-1157702.42
 10
-595235.4
 20
-1157708.31
 10
-595228.19
 20
-1157705.22
 10
-595231.11
 20
-1157699.07
 10
-595143.67
 20
-1157657.5
 10
-595114.49
 20
-1157643.82
 10
-595122.15
 20
-1157662.95
 10
-595128.56
 20
-1157677.3
 10
-595132.24
 20
-1157686.76
 10
-595243.15
 20
-1157732.42
 10
-595261.56
 20
-1157740.41
 10
-595281.16
 20
-1157748.06
 10
-595295.56
 20
-1157752.55
 10
-595324.17
 20
-1157761.47
 97
0
 75
0
 76
1
 98
0
  0
HATCH
  5
20065
100
AcDbEntity
  8
0
100
AcDbHatch
 10
0
 20
0
 30
0
210
0
220
0
230
1
  2
SOLID
 70
1
 71
0
 91
1
 92
2
 72
0
 73
1
 93
25
 10
-595324.17
 20
-1157761.47
 10
-595340.1
 20
-1157766.44
 10
-595356.15
 20
-1157769.89
 10
-595358.61
 20
-1157759.05
 10
-595362.47
 20
-1157743.12
 10
-595332.42
 20
-1157736.54
 10
-595303.73
 20
-1157728.91
 10
-595296.25
 20
-1157726.33
 10
-595289.58
 20
-1157724.11
 10
-595285.01
 20
-1157722.59
 10
-595252.04
 20
-1157708.99
 10
-595238.19
 20
-1157702.42
 10
-595235.4
 20
-1157708.31
 10
-595228.19
 20
-1157705.22
 10
-595231.11
 20
-1157699.07
 10
-595143.67
 20
-1157657.5
 10
-595114.49
 20
-1157643.82
 10
-595122.15
 20
-1157662.95
 10
-595128.56
 20
-1157677.3
 10
-595132.24
 20
-1157686.76
 10
-595243.15
 20
-1157732.42
 10
-595261.56
 20
-1157740.41
 10
-595281.16
 20
-1157748.06
 10
-595295.56
 20
-1157752.55
 10
-595324.17
 20
-1157761.47
 97
0
 75
0
 76
1
 98
0
  0
HATCH
  5
20066
100
AcDbEntity
  8
0
100
AcDbHatch
 10
0
 20
0
 30
0
210
0
220
0
230
1
  2
SOLID
 70
1
 71
0
 91
1
 92
2
 72
0
 73
1
 93
33
 10
-600866.66
 20
-1160564.38
 10
-600866.91
 20
-1160566.92
 10
-600867.65
 20
-1160569.35
 10
-600868.85
 20
-1160571.6
 10
-600870.47
 20
-1160573.57
 10
-600872.44
 20
-1160575.19
 10
-600874.69
 20
-1160576.39
 10
-600877.12
 20
-1160577.13
 10
-600879.66
 20
-1160577.38
 10
-600882.2
 20
-1160577.13
 10
-600884.63
 20
-1160576.39
 10
-600886.88
 20
-1160575.19
 10
-600888.85
 20
-1160573.57
 10
-600890.47
 20
-1160571.6
 10
-600891.67
 20
-1160569.35
 10
-600892.41
 20
-1160566.92
 10
-600892.66
 20
-1160564.38
 10
-600892.41
 20
-1160561.84
 10
-600891.67
 20
-1160559.41
 10
-600890.47
 20
-1160557.16
 10
-600888.85
 20
-1160555.19
 10
-600886.88
 20
-1160553.57
 10
-600884.63
 20
-1160552.37
 10
-600882.2
 20
-1160551.63
 10
-600879.66
 20
-1160551.38
 10
-600877.12
 20
-1160551.63
 10
-600874.69
 20
-1160552.37
 10
-600872.44
 20
-1160553.57
 10
-600870.47
 20
-1160555.19
 10
-600868.85
 20
-1160557.16
 10
-600867.65
 20
-1160559.41
 10
-600866.91
 20
-1160561.84
 10
-600866.66
 20
-1160564.38
 97
0
 75
0
 76
1
 98
0
  0
HATCH
  5
20067
100
AcDbEntity
  8
0
100
AcDbHatch
 10
0
 20
0
 30
0
210
0
220
0
230
1
  2
SOLID
 70
1
 71
0
 91
1
 92
2
 72
0
 73
1
 93
37
 10
-604101.350000001
 20
-1162183.54
 10
-604099.762855657
 20
-1162183.67885714
 10
-604098.223935891
 20
-1162184.09120945
 10
-604096.780000001
 20
-1162184.76452781
 10
-604095.474921249
 20
-1162185.67835379
 10
-604094.348353791
 20
-1162186.80492125
 10
-604093.43452781
 20
-1162188.11
 10
-604092.761209447
 20
-1162189.55393589
 10
-604092.348857138
 20
-1162191.09285566
 10
-604092.210000001
 20
-1162192.68
 10
-604092.348857138
 20
-1162194.26714434
 10
-604092.761209447
 20
-1162195.80606411
 10
-604093.43452781
 20
-1162197.25
 10
-604094.348353791
 20
-1162198.55507875
 10
-604095.474921249
 20
-1162199.68164621
 10
-604096.780000001
 20
-1162200.59547219
 10
-604098.223935891
 20
-1162201.26879055
 10
-604099.762855657
 20
-1162201.68114286
 10
-604101.350000001
 20
-1162201.82
 10
-604102.937144345
 20
-1162201.68114286
 10
-604104.476064112
 20
-1162201.26879055
 10
-604105.920000002
 20
-1162200.59547219
 10
-604107.225078754
 20
-1162199.68164621
 10
-604108.351646212
 20
-1162198.55507875
 10
-604109.265472193
 20
-1162197.25
 10
-604109.938790556
 20
-1162195.80606411
 10
-604110.351142865
 20
-1162194.26714434
 10
-604110.490000002
 20
-1162192.68
 10
-604110.351142865
 20
-1162191.09285566
 10
-604109.938790556
 20
-1162189.55393589
 10
-604109.265472193
 20
-1162188.11
 10
-604108.351646212
 20
-1162186.80492125
 10
-604107.225078754
 20
-1162185.67835379
 10
-604105.920000002
 20
-1162184.76452781
 10
-604104.476064112
 20
-1162184.09120945
 10
-604102.937144345
 20
-1162183.67885714
 10
-604101.350000001
 20
-1162183.54
 97
0
 75
0
 76
1
 98
0
  0
HATCH
  5
20068
100
AcDbEntity
  8
0
100
AcDbHatch
 10
0
 20
0
 30
0
210
0
220
0
230
1
  2
SOLID
 70
1
 71
0
 91
1
 92
2
 72
0
 73
1
 93
37
 10
-598697.588599999
 20
-1159971.8574
 10
-598695.471828712
 20
-1159972.04259349
 10
-598693.419374451
 20
-1159972.59254695
 10
-598691.493599998
 20
-1159973.49055033
 10
-598689.753019036
 20
-1159974.70931824
 10
-598688.250518236
 20
-1159976.21181904
 10
-598687.031750325
 20
-1159977.9524
 10
-598686.13374695
 20
-1159979.87817445
 10
-598685.583793488
 20
-1159981.93062872
 10
-598685.398599997
 20
-1159984.0474
 10
-598685.583793488
 20
-1159986.16417129
 10
-598686.13374695
 20
-1159988.21662555
 10
-598687.031750325
 20
-1159990.1424
 10
-598688.250518236
 20
-1159991.88298096
 10
-598689.753019036
 20
-1159993.38548176
 10
-598691.493599998
 20
-1159994.60424967
 10
-598693.419374451
 20
-1159995.50225305
 10
-598695.471828712
 20
-1159996.05220651
 10
-598697.588599999
 20
-1159996.2374
 10
-598699.705371285
 20
-1159996.05220651
 10
-598701.757825546
 20
-1159995.50225305
 10
-598703.683599999
 20
-1159994.60424967
 10
-598705.424180961
 20
-1159993.38548176
 10
-598706.926681761
 20
-1159991.88298096
 10
-598708.145449672
 20
-1159990.1424
 10
-598709.043453047
 20
-1159988.21662555
 10
-598709.593406509
 20
-1159986.16417129
 10
-598709.7786
 20
-1159984.0474
 10
-598709.593406509
 20
-1159981.93062872
 10
-598709.043453047
 20
-1159979.87817445
 10
-598708.145449672
 20
-1159977.9524
 10
-598706.926681761
 20
-1159976.21181904
 10
-598705.424180961
 20
-1159974.70931824
 10
-598703.683599999
 20
-1159973.49055033
 10
-598701.757825546
 20
-1159972.59254695
 10
-598699.705371285
 20
-1159972.04259349
 10
-598697.588599999
 20
-1159971.8574
 97
0
 75
0
 76
1
 98
0
  0
HATCH
  5
20069
100
AcDbEntity
  8
0
100
AcDbHatch
 10
0
 20
0
 30
0
210
0
220
0
230
1
  2
SOLID
 70
1
 71
0
 91
1
 92
2
 72
0
 73
1
 93
19
 10
-603291.33
 20
-1156068.49
 10
-603290.6
 20
-1156070.53
 10
-603290.12
 20
-1156073.23
 10
-603290.51
 20
-1156076.21
 10
-603291.4
 20
-1156078.94
 10
-603293.17
 20
-1156081.47
 10
-603295.77
 20
-1156083.89
 10
-603298.75
 20
-1156085.22
 10
-603302.24
 20
-1156085.72
 10
-603310.51
 20
-1156066.61
 10
-603311.11
 20
-1156065.22
 10
-603308.95
 20
-1156063.51
 10
-603306.41
 20
-1156062.24
 10
-603303.37
 20
-1156061.48
 10
-603300.07
 20
-1156061.61
 10
-603297.03
 20
-1156062.69
 10
-603294.37
 20
-1156064.47
 10
-603292.47
 20
-1156066.62
 10
-603291.33
 20
-1156068.49
 97
0
 75
0
 76
1
 98
0
  0
HATCH
  5
2006A
100
AcDbEntity
  8
0
100
AcDbHatch
 10
0
 20
0
 30
0
210
0
220
0
230
1
  2
SOLID
 70
1
 71
0
 91
1
 92
2
 72
0
 73
1
 93
37
 10
-594077.89
 20
-1160931.2
 10
-594076.75
 20
-1160931.3
 10
-594075.65
 20
-1160931.6
 10
-594074.61
 20
-1160932.08
 10
-594073.68
 20
-1160932.74
 10
-594072.87
 20
-1160933.55
 10
-594072.21
 20
-1160934.48
 10
-594071.73
 20
-1160935.52
 10
-594071.43
 20
-1160936.62
 10
-594071.33
 20
-1160937.76
 10
-594071.43
 20
-1160938.9
 10
-594071.73
 20
-1160940.01
 10
-594072.21
 20
-1160941.04
 10
-594072.87
 20
-1160941.98
 10
-594073.68
 20
-1160942.79
 10
-594074.61
 20
-1160943.44
 10
-594075.65
 20
-1160943.93
 10
-594076.75
 20
-1160944.22
 10
-594077.89
 20
-1160944.32
 10
-594079.03
 20
-1160944.22
 10
-594080.14
 20
-1160943.93
 10
-594081.17
 20
-1160943.44
 10
-594082.11
 20
-1160942.79
 10
-594082.92
 20
-1160941.98
 10
-594083.57
 20
-1160941.04
 10
-594084.06
 20
-1160940.01
 10
-594084.35
 20
-1160938.9
 10
-594084.45
 20
-1160937.76
 10
-594084.35
 20
-1160936.62
 10
-594084.06
 20
-1160935.52
 10
-594083.57
 20
-1160934.48
 10
-594082.92
 20
-1160933.55
 10
-594082.11
 20
-1160932.74
 10
-594081.17
 20
-1160932.08
 10
-594080.14
 20
-1160931.6
 10
-594079.03
 20
-1160931.3
 10
-594077.89
 20
-1160931.2
 97
0
 75
0
 76
1
 98
0
  0
HATCH
  5
2006B
100
AcDbEntity
  8
0
100
AcDbHatch
 10
0
 20
0
 30
0
210
0
220
0
230
1
  2
SOLID
 70
1
 71
0
 91
1
 92
2
 72
0
 73
1
 93
33
 10
-599666.92
 20
-1161135.59
 10
-599667.17
 20
-1161138.13
 10
-599667.91
 20
-1161140.56
 10
-599669.11
 20
-1161142.81
 10
-599670.73
 20
-1161144.78
 10
-599672.7
 20
-1161146.4
 10
-599674.95
 20
-1161147.6
 10
-599677.38
 20
-1161148.34
 10
-599679.92
 20
-1161148.59
 10
-599682.46
 20
-1161148.34
 10
-599684.89
 20
-1161147.6
 10
-599687.14
 20
-1161146.4
 10
-599689.11
 20
-1161144.78
 10
-599690.73
 20
-1161142.81
 10
-599691.93
 20
-1161140.56
 10
-599692.67
 20
-1161138.13
 10
-599692.92
 20
-1161135.59
 10
-599692.67
 20
-1161133.05
 10
-599691.93
 20
-1161130.62
 10
-599690.73
 20
-1161128.37
 10
-599689.11
 20
-1161126.4
 10
-599687.14
 20
-1161124.78
 10
-599684.89
 20
-1161123.58
 10
-599682.46
 20
-1161122.84
 10
-599679.92
 20
-1161122.59
 10
-599677.38
 20
-1161122.84
 10
-599674.95
 20
-1161123.58
 10
-599672.7
 20
-1161124.78
 10
-599670.73
 20
-1161126.4
 10
-599669.11
 20
-1161128.37
 10
-599667.91
 20
-1161130.62
 10
-599667.17
 20
-1161133.05
 10
-599666.92
 20
-1161135.59
 97
0
 75
0
 76
1
 98
0
  0
HATCH
  5
2006C
100
AcDbEntity
  8
0
100
AcDbHatch
 10
0
 20
0
 30
0
210
0
220
0
230
1
  2
SOLID
 70
1
 71
0
 91
1
 92
2
 72
0
 73
1
 93
37
 10
-603920.350000001
 20
-1162410.86
 10
-603919.111888495
 20
-1162410.96832072
 10
-603917.91139638
 20
-1162411.28999161
 10
-603916.785000002
 20
-1162411.81523887
 10
-603915.766924345
 20
-1162412.52810312
 10
-603914.888103123
 20
-1162413.40692434
 10
-603914.175238873
 20
-1162414.425
 10
-603913.649991616
 20
-1162415.55139638
 10
-603913.328320723
 20
-1162416.75188849
 10
-603913.220000003
 20
-1162417.99
 10
-603913.328320723
 20
-1162419.22811151
 10
-603913.649991616
 20
-1162420.42860362
 10
-603914.175238873
 20
-1162421.555
 10
-603914.888103123
 20
-1162422.57307565
 10
-603915.766924345
 20
-1162423.45189688
 10
-603916.785000002
 20
-1162424.16476113
 10
-603917.91139638
 20
-1162424.69000838
 10
-603919.111888495
 20
-1162425.01167928
 10
-603920.350000001
 20
-1162425.12
 10
-603921.588111508
 20
-1162425.01167928
 10
-603922.788603623
 20
-1162424.69000838
 10
-603923.915000001
 20
-1162424.16476113
 10
-603924.933075658
 20
-1162423.45189688
 10
-603925.81189688
 20
-1162422.57307565
 10
-603926.52476113
 20
-1162421.555
 10
-603927.050008387
 20
-1162420.42860362
 10
-603927.371679279
 20
-1162419.22811151
 10
-603927.48
 20
-1162417.99
 10
-603927.371679279
 20
-1162416.75188849
 10
-603927.050008387
 20
-1162415.55139638
 10
-603926.52476113
 20
-1162414.425
 10
-603925.81189688
 20
-1162413.40692434
 10
-603924.933075658
 20
-1162412.52810312
 10
-603923.915000001
 20
-1162411.81523887
 10
-603922.788603623
 20
-1162411.28999161
 10
-603921.588111508
 20
-1162410.96832072
 10
-603920.350000001
 20
-1162410.86
 97
0
 75
0
 76
1
 98
0
  0
HATCH
  5
2006D
100
AcDbEntity
  8
0
100
AcDbHatch
 10
0
 20
0
 30
0
210
0
220
0
230
1
  2
SOLID
 70
1
 71
0
 91
1
 92
2
 72
0
 73
1
 93
33
 10
-597683.87
 20
-1160879.9
 10
-597684.081361916
 20
-1160882.04599354
 10
-597684.707325142
 20
-1160884.10951776
 10
-597685.723834265
 20
-1160886.01127256
 10
-597687.091825407
 20
-1160887.67817459
 10
-597688.758727437
 20
-1160889.04616574
 10
-597690.660482244
 20
-1160890.06267486
 10
-597692.724006458
 20
-1160890.68863808
 10
-597694.87
 20
-1160890.9
 10
-597697.015993542
 20
-1160890.68863808
 10
-597699.079517756
 20
-1160890.06267486
 10
-597700.981272563
 20
-1160889.04616574
 10
-597702.648174593
 20
-1160887.67817459
 10
-597704.016165735
 20
-1160886.01127256
 10
-597705.032674858
 20
-1160884.10951776
 10
-597705.658638084
 20
-1160882.04599354
 10
-597705.87
 20
-1160879.9
 10
-597705.658638084
 20
-1160877.75400646
 10
-597705.032674858
 20
-1160875.69048224
 10
-597704.016165735
 20
-1160873.78872744
 10
-597702.648174593
 20
-1160872.12182541
 10
-597700.981272563
 20
-1160870.75383426
 10
-597699.079517756
 20
-1160869.73732514
 10
-597697.015993542
 20
-1160869.11136192
 10
-597694.87
 20
-1160868.9
 10
-597692.724006458
 20
-1160869.11136192
 10
-597690.660482244
 20
-1160869.73732514
 10
-597688.758727437
 20
-1160870.75383426
 10
-597687.091825407
 20
-1160872.12182541
 10
-597685.723834265
 20
-1160873.78872744
 10
-597684.707325142
 20
-1160875.69048224
 10
-597684.081361916
 20
-1160877.75400646
 10
-597683.87
 20
-1160879.9
 97
0
 75
0
 76
1
 98
0
  0
HATCH
  5
2006E
100
AcDbEntity
  8
0
100
AcDbHatch
 10
0
 20
0
 30
0
210
0
220
0
230
1
  2
SOLID
 70
1
 71
0
 91
1
 92
2
 72
0
 73
1
 93
33
 10
-598459.309999999
 20
-1158695.53
 10
-598459.482932475
 20
-1158697.2858129
 10
-598459.995084206
 20
-1158698.97415089
 10
-598460.826773488
 20
-1158700.5301321
 10
-598461.946038968
 20
-1158701.89396103
 10
-598463.309867901
 20
-1158703.01322651
 10
-598464.865849107
 20
-1158703.84491579
 10
-598466.5541871
 20
-1158704.35706752
 10
-598468.309999999
 20
-1158704.53
 10
-598470.065812897
 20
-1158704.35706752
 10
-598471.75415089
 20
-1158703.84491579
 10
-598473.310132096
 20
-1158703.01322651
 10
-598474.673961029
 20
-1158701.89396103
 10
-598475.793226509
 20
-1158700.5301321
 10
-598476.624915791
 20
-1158698.97415089
 10
-598477.137067522
 20
-1158697.2858129
 10
-598477.309999999
 20
-1158695.53
 10
-598477.137067522
 20
-1158693.7741871
 10
-598476.624915791
 20
-1158692.08584911
 10
-598475.793226509
 20
-1158690.5298679
 10
-598474.673961029
 20
-1158689.16603897
 10
-598473.310132096
 20
-1158688.04677349
 10
-598471.75415089
 20
-1158687.21508421
 10
-598470.065812897
 20
-1158686.70293248
 10
-598468.309999999
 20
-1158686.53
 10
-598466.5541871
 20
-1158686.70293248
 10
-598464.865849107
 20
-1158687.21508421
 10
-598463.309867901
 20
-1158688.04677349
 10
-598461.946038968
 20
-1158689.16603897
 10
-598460.826773488
 20
-1158690.5298679
 10
-598459.995084206
 20
-1158692.08584911
 10
-598459.482932475
 20
-1158693.7741871
 10
-598459.309999999
 20
-1158695.53
 97
0
 75
0
 76
1
 98
0
  0
HATCH
  5
2006F
100
AcDbEntity
  8
0
100
AcDbHatch
 10
0
 20
0
 30
0
210
0
220
0
230
1
  2
SOLID
 70
1
 71
0
 91
1
 92
2
 72
0
 73
1
 93
33
 10
-608115.74
 20
-1152976.46
 10
-608116.03
 20
-1152979.39
 10
-608116.88
 20
-1152982.2
 10
-608118.27
 20
-1152984.79
 10
-608120.13
 20
-1152987.07
 10
-608122.41
 20
-1152988.93
 10
-608125
 20
-1152990.32
 10
-608127.81
 20
-1152991.17
 10
-608130.74
 20
-1152991.46
 10
-608133.67
 20
-1152991.17
 10
-608136.48
 20
-1152990.32
 10
-608139.07
 20
-1152988.93
 10
-608141.35
 20
-1152987.07
 10
-608143.21
 20
-1152984.79
 10
-608144.6
 20
-1152982.2
 10
-608145.45
 20
-1152979.39
 10
-608145.74
 20
-1152976.46
 10
-608145.45
 20
-1152973.53
 10
-608144.6
 20
-1152970.72
 10
-608143.21
 20
-1152968.13
 10
-608141.35
 20
-1152965.85
 10
-608139.07
 20
-1152963.99
 10
-608136.48
 20
-1152962.6
 10
-608133.67
 20
-1152961.75
 10
-608130.74
 20
-1152961.46
 10
-608127.81
 20
-1152961.75
 10
-608125
 20
-1152962.6
 10
-608122.41
 20
-1152963.99
 10
-608120.13
 20
-1152965.85
 10
-608118.27
 20
-1152968.13
 10
-608116.88
 20
-1152970.72
 10
-608116.03
 20
-1152973.53
 10
-608115.74
 20
-1152976.46
 97
0
 75
0
 76
1
 98
0
  0
HATCH
  5
20070
100
AcDbEntity
  8
0
100
AcDbHatch
 10
0
 20
0
 30
0
210
0
220
0
230
1
  2
SOLID
 70
1
 71
0
 91
1
 92
2
 72
0
 73
1
 93
33
 10
-609218.57
 20
-1154160.4
 10
-609218.69
 20
-1154161.57
 10
-609219.03
 20
-1154162.7
 10
-609219.58
 20
-1154163.73
 10
-609220.33
 20
-1154164.64
 10
-609221.24
 20
-1154165.39
 10
-609222.27
 20
-1154165.94
 10
-609223.4
 20
-1154166.28
 10
-609224.57
 20
-1154166.4
 10
-609225.74
 20
-1154166.28
 10
-609226.87
 20
-1154165.94
 10
-609227.9
 20
-1154165.39
 10
-609228.81
 20
-1154164.64
 10
-609229.56
 20
-1154163.73
 10
-609230.11
 20
-1154162.7
 10
-609230.45
 20
-1154161.57
 10
-609230.57
 20
-1154160.4
 10
-609230.45
 20
-1154159.23
 10
-609230.11
 20
-1154158.1
 10
-609229.56
 20
-1154157.07
 10
-609228.81
 20
-1154156.16
 10
-609227.9
 20
-1154155.41
 10
-609226.87
 20
-1154154.86
 10
-609225.74
 20
-1154154.52
 10
-609224.57
 20
-1154154.4
 10
-609223.4
 20
-1154154.52
 10
-609222.27
 20
-1154154.86
 10
-609221.24
 20
-1154155.41
 10
-609220.33
 20
-1154156.16
 10
-609219.58
 20
-1154157.07
 10
-609219.03
 20
-1154158.1
 10
-609218.69
 20
-1154159.23
 10
-609218.57
 20
-1154160.4
 97
0
 75
0
 76
1
 98
0
  0
HATCH
  5
20071
100
AcDbEntity
  8
0
100
AcDbHatch
 10
0
 20
0
 30
0
210
0
220
0
230
1
  2
SOLID
 70
1
 71
0
 91
1
 92
2
 72
0
 73
1
 93
33
 10
-601060.87
 20
-1161200.71
 10
-601061.12
 20
-1161203.25
 10
-601061.86
 20
-1161205.68
 10
-601063.06
 20
-1161207.93
 10
-601064.68
 20
-1161209.9
 10
-601066.65
 20
-1161211.52
 10
-601068.9
 20
-1161212.72
 10
-601071.33
 20
-1161213.46
 10
-601073.87
 20
-1161213.71
 10
-601076.41
 20
-1161213.46
 10
-601078.84
 20
-1161212.72
 10
-601081.09
 20
-1161211.52
 10
-601083.06
 20
-1161209.9
 10
-601084.68
 20
-1161207.93
 10
-601085.88
 20
-1161205.68
 10
-601086.62
 20
-1161203.25
 10
-601086.87
 20
-1161200.71
 10
-601086.62
 20
-1161198.17
 10
-601085.88
 20
-1161195.74
 10
-601084.68
 20
-1161193.49
 10
-601083.06
 20
-1161191.52
 10
-601081.09
 20
-1161189.9
 10
-601078.84
 20
-1161188.7
 10
-601076.41
 20
-1161187.96
 10
-601073.87
 20
-1161187.71
 10
-601071.33
 20
-1161187.96
 10
-601068.9
 20
-1161188.7
 10
-601066.65
 20
-1161189.9
 10
-601064.68
 20
-1161191.52
 10
-601063.06
 20
-1161193.49
 10
-601061.86
 20
-1161195.74
 10
-601061.12
 20
-1161198.17
 10
-601060.87
 20
-1161200.71
 97
0
 75
0
 76
1
 98
0
  0
HATCH
  5
20072
100
AcDbEntity
  8
0
100
AcDbHatch
 10
0
 20
0
 30
0
210
0
220
0
230
1
  2
SOLID
 70
1
 71
0
 91
1
 92
2
 72
0
 73
1
 93
33
 10
-601064.18
 20
-1161190.95
 10
-601064.43
 20
-1161193.49
 10
-601065.17
 20
-1161195.92
 10
-601066.37
 20
-1161198.17
 10
-601067.99
 20
-1161200.14
 10
-601069.96
 20
-1161201.76
 10
-601072.21
 20
-1161202.96
 10
-601074.64
 20
-1161203.7
 10
-601077.18
 20
-1161203.95
 10
-601079.72
 20
-1161203.7
 10
-601082.15
 20
-1161202.96
 10
-601084.4
 20
-1161201.76
 10
-601086.37
 20
-1161200.14
 10
-601087.99
 20
-1161198.17
 10
-601089.19
 20
-1161195.92
 10
-601089.93
 20
-1161193.49
 10
-601090.18
 20
-1161190.95
 10
-601089.93
 20
-1161188.41
 10
-601089.19
 20
-1161185.98
 10
-601087.99
 20
-1161183.73
 10
-601086.37
 20
-1161181.76
 10
-601084.4
 20
-1161180.14
 10
-601082.15
 20
-1161178.94
 10
-601079.72
 20
-1161178.2
 10
-601077.18
 20
-1161177.95
 10
-601074.64
 20
-1161178.2
 10
-601072.21
 20
-1161178.94
 10
-601069.96
 20
-1161180.14
 10
-601067.99
 20
-1161181.76
 10
-601066.37
 20
-1161183.73
 10
-601065.17
 20
-1161185.98
 10
-601064.43
 20
-1161188.41
 10
-601064.18
 20
-1161190.95
 97
0
 75
0
 76
1
 98
0
  0
HATCH
  5
20073
100
AcDbEntity
  8
0
100
AcDbHatch
 10
0
 20
0
 30
0
210
0
220
0
230
1
  2
SOLID
 70
1
 71
0
 91
1
 92
2
 72
0
 73
1
 93
33
 10
-601055.12
 20
-1161197.52
 10
-601055.37
 20
-1161200.06
 10
-601056.11
 20
-1161202.49
 10
-601057.31
 20
-1161204.74
 10
-601058.93
 20
-1161206.71
 10
-601060.9
 20
-1161208.33
 10
-601063.15
 20
-1161209.53
 10
-601065.58
 20
-1161210.27
 10
-601068.12
 20
-1161210.52
 10
-601070.66
 20
-1161210.27
 10
-601073.09
 20
-1161209.53
 10
-601075.34
 20
-1161208.33
 10
-601077.31
 20
-1161206.71
 10
-601078.93
 20
-1161204.74
 10
-601080.13
 20
-1161202.49
 10
-601080.87
 20
-1161200.06
 10
-601081.12
 20
-1161197.52
 10
-601080.87
 20
-1161194.98
 10
-601080.13
 20
-1161192.55
 10
-601078.93
 20
-1161190.3
 10
-601077.31
 20
-1161188.33
 10
-601075.34
 20
-1161186.71
 10
-601073.09
 20
-1161185.51
 10
-601070.66
 20
-1161184.77
 10
-601068.12
 20
-1161184.52
 10
-601065.58
 20
-1161184.77
 10
-601063.15
 20
-1161185.51
 10
-601060.9
 20
-1161186.71
 10
-601058.93
 20
-1161188.33
 10
-601057.31
 20
-1161190.3
 10
-601056.11
 20
-1161192.55
 10
-601055.37
 20
-1161194.98
 10
-601055.12
 20
-1161197.52
 97
0
 75
0
 76
1
 98
0
  0
HATCH
  5
20074
100
AcDbEntity
  8
0
100
AcDbHatch
 10
0
 20
0
 30
0
210
0
220
0
230
1
  2
SOLID
 70
1
 71
0
 91
1
 92
2
 72
0
 73
1
 93
33
 10
-596775.35
 20
-1158459.52
 10
-596775.41
 20
-1158460.11
 10
-596775.58
 20
-1158460.67
 10
-596775.86
 20
-1158461.19
 10
-596776.23
 20
-1158461.64
 10
-596776.68
 20
-1158462.01
 10
-596777.2
 20
-1158462.29
 10
-596777.76
 20
-1158462.46
 10
-596778.35
 20
-1158462.52
 10
-596778.94
 20
-1158462.46
 10
-596779.5
 20
-1158462.29
 10
-596780.02
 20
-1158462.01
 10
-596780.47
 20
-1158461.64
 10
-596780.84
 20
-1158461.19
 10
-596781.12
 20
-1158460.67
 10
-596781.29
 20
-1158460.11
 10
-596781.35
 20
-1158459.52
 10
-596781.29
 20
-1158458.93
 10
-596781.12
 20
-1158458.37
 10
-596780.84
 20
-1158457.85
 10
-596780.47
 20
-1158457.4
 10
-596780.02
 20
-1158457.03
 10
-596779.5
 20
-1158456.75
 10
-596778.94
 20
-1158456.58
 10
-596778.35
 20
-1158456.52
 10
-596777.76
 20
-1158456.58
 10
-596777.2
 20
-1158456.75
 10
-596776.68
 20
-1158457.03
 10
-596776.23
 20
-1158457.4
 10
-596775.86
 20
-1158457.85
 10
-596775.58
 20
-1158458.37
 10
-596775.41
 20
-1158458.93
 10
-596775.35
 20
-1158459.52
 97
0
 75
0
 76
1
 98
0
  0
HATCH
  5
20075
100
AcDbEntity
  8
0
100
AcDbHatch
 10
0
 20
0
 30
0
210
0
220
0
230
1
  2
SOLID
 70
1
 71
0
 91
1
 92
2
 72
0
 73
1
 93
33
 10
-604891.47
 20
-1160266.33
 10
-604891.681361916
 20
-1160268.47599354
 10
-604892.307325142
 20
-1160270.53951776
 10
-604893.323834265
 20
-1160272.44127256
 10
-604894.691825407
 20
-1160274.10817459
 10
-604896.358727437
 20
-1160275.47616574
 10
-604898.260482244
 20
-1160276.49267486
 10
-604900.324006458
 20
-1160277.11863808
 10
-604902.47
 20
-1160277.33
 10
-604904.615993542
 20
-1160277.11863808
 10
-604906.679517756
 20
-1160276.49267486
 10
-604908.581272563
 20
-1160275.47616574
 10
-604910.248174593
 20
-1160274.10817459
 10
-604911.616165735
 20
-1160272.44127256
 10
-604912.632674858
 20
-1160270.53951776
 10
-604913.258638084
 20
-1160268.47599354
 10
-604913.47
 20
-1160266.33
 10
-604913.258638084
 20
-1160264.18400646
 10
-604912.632674858
 20
-1160262.12048224
 10
-604911.616165735
 20
-1160260.21872744
 10
-604910.248174593
 20
-1160258.55182541
 10
-604908.581272563
 20
-1160257.18383426
 10
-604906.679517756
 20
-1160256.16732514
 10
-604904.615993542
 20
-1160255.54136192
 10
-604902.47
 20
-1160255.33
 10
-604900.324006458
 20
-1160255.54136192
 10
-604898.260482244
 20
-1160256.16732514
 10
-604896.358727437
 20
-1160257.18383426
 10
-604894.691825407
 20
-1160258.55182541
 10
-604893.323834265
 20
-1160260.21872744
 10
-604892.307325142
 20
-1160262.12048224
 10
-604891.681361916
 20
-1160264.18400646
 10
-604891.47
 20
-1160266.33
 97
0
 75
0
 76
1
 98
0
  0
HATCH
  5
20076
100
AcDbEntity
  8
0
100
AcDbHatch
 10
0
 20
0
 30
0
210
0
220
0
230
1
  2
SOLID
 70
1
 71
0
 91
1
 92
2
 72
0
 73
1
 93
33
 10
-609196.79
 20
-1154130.28
 10
-609197.08
 20
-1154133.21
 10
-609197.93
 20
-1154136.02
 10
-609199.32
 20
-1154138.61
 10
-609201.18
 20
-1154140.89
 10
-609203.46
 20
-1154142.75
 10
-609206.05
 20
-1154144.14
 10
-609208.86
 20
-1154144.99
 10
-609211.79
 20
-1154145.28
 10
-609214.72
 20
-1154144.99
 10
-609217.53
 20
-1154144.14
 10
-609220.12
 20
-1154142.75
 10
-609222.4
 20
-1154140.89
 10
-609224.26
 20
-1154138.61
 10
-609225.65
 20
-1154136.02
 10
-609226.5
 20
-1154133.21
 10
-609226.79
 20
-1154130.28
 10
-609226.5
 20
-1154127.35
 10
-609225.65
 20
-1154124.54
 10
-609224.26
 20
-1154121.95
 10
-609222.4
 20
-1154119.67
 10
-609220.12
 20
-1154117.81
 10
-609217.53
 20
-1154116.42
 10
-609214.72
 20
-1154115.57
 10
-609211.79
 20
-1154115.28
 10
-609208.86
 20
-1154115.57
 10
-609206.05
 20
-1154116.42
 10
-609203.46
 20
-1154117.81
 10
-609201.18
 20
-1154119.67
 10
-609199.32
 20
-1154121.95
 10
-609197.93
 20
-1154124.54
 10
-609197.08
 20
-1154127.35
 10
-609196.79
 20
-1154130.28
 97
0
 75
0
 76
1
 98
0
  0
HATCH
  5
20077
100
AcDbEntity
  8
0
100
AcDbHatch
 10
0
 20
0
 30
0
210
0
220
0
230
1
  2
SOLID
 70
1
 71
0
 91
1
 92
2
 72
0
 73
1
 93
37
 10
-603665.26
 20
-1156755.05
 10
-603662.71
 20
-1156755.27
 10
-603660.25
 20
-1156755.94
 10
-603657.94
 20
-1156757.01
 10
-603655.85
 20
-1156758.48
 10
-603654.04
 20
-1156760.28
 10
-603652.58
 20
-1156762.37
 10
-603651.5
 20
-1156764.69
 10
-603650.84
 20
-1156767.15
 10
-603650.62
 20
-1156769.69
 10
-603650.84
 20
-1156772.23
 10
-603651.5
 20
-1156774.7
 10
-603652.58
 20
-1156777.01
 10
-603654.04
 20
-1156779.1
 10
-603655.85
 20
-1156780.91
 10
-603657.94
 20
-1156782.37
 10
-603660.25
 20
-1156783.45
 10
-603662.71
 20
-1156784.11
 10
-603665.26
 20
-1156784.33
 10
-603667.8
 20
-1156784.11
 10
-603670.26
 20
-1156783.45
 10
-603672.58
 20
-1156782.37
 10
-603674.67
 20
-1156780.91
 10
-603676.47
 20
-1156779.1
 10
-603677.93
 20
-1156777.01
 10
-603679.01
 20
-1156774.7
 10
-603679.67
 20
-1156772.23
 10
-603679.9
 20
-1156769.69
 10
-603679.67
 20
-1156767.15
 10
-603679.01
 20
-1156764.69
 10
-603677.93
 20
-1156762.37
 10
-603676.47
 20
-1156760.28
 10
-603674.67
 20
-1156758.48
 10
-603672.58
 20
-1156757.01
 10
-603670.26
 20
-1156755.94
 10
-603667.8
 20
-1156755.27
 10
-603665.26
 20
-1156755.05
 97
0
 75
0
 76
1
 98
0
  0
HATCH
  5
20078
100
AcDbEntity
  8
0
100
AcDbHatch
 10
0
 20
0
 30
0
210
0
220
0
230
1
  2
SOLID
 70
1
 71
0
 91
1
 92
2
 72
0
 73
1
 93
37
 10
-608249.671399999
 20
-1152069.3181
 10
-608247.681391884
 20
-1152069.49220315
 10
-608245.751849158
 20
-1152070.00922257
 10
-608243.941400001
 20
-1152070.85344887
 10
-608242.305053994
 20
-1152071.99923068
 10
-608240.892530683
 20
-1152073.41175399
 10
-608239.746748875
 20
-1152075.0481
 10
-608238.902522568
 20
-1152076.85854916
 10
-608238.385503153
 20
-1152078.78809188
 10
-608238.211400002
 20
-1152080.7781
 10
-608238.385503153
 20
-1152082.76810811
 10
-608238.902522568
 20
-1152084.69765084
 10
-608239.746748875
 20
-1152086.5081
 10
-608240.892530683
 20
-1152088.144446
 10
-608242.305053994
 20
-1152089.55696931
 10
-608243.941400001
 20
-1152090.70275112
 10
-608245.751849158
 20
-1152091.54697743
 10
-608247.681391884
 20
-1152092.06399685
 10
-608249.671399999
 20
-1152092.2381
 10
-608251.661408115
 20
-1152092.06399685
 10
-608253.590950841
 20
-1152091.54697743
 10
-608255.401399998
 20
-1152090.70275112
 10
-608257.037746005
 20
-1152089.55696931
 10
-608258.450269315
 20
-1152088.144446
 10
-608259.596051124
 20
-1152086.5081
 10
-608260.440277431
 20
-1152084.69765084
 10
-608260.957296846
 20
-1152082.76810811
 10
-608261.131399997
 20
-1152080.7781
 10
-608260.957296846
 20
-1152078.78809188
 10
-608260.440277431
 20
-1152076.85854916
 10
-608259.596051124
 20
-1152075.0481
 10
-608258.450269315
 20
-1152073.41175399
 10
-608257.037746005
 20
-1152071.99923068
 10
-608255.401399998
 20
-1152070.85344887
 10
-608253.590950841
 20
-1152070.00922257
 10
-608251.661408115
 20
-1152069.49220315
 10
-608249.671399999
 20
-1152069.3181
 97
0
 75
0
 76
1
 98
0
  0
HATCH
  5
20079
100
AcDbEntity
  8
0
100
AcDbHatch
 10
0
 20
0
 30
0
210
0
220
0
230
1
  2
SOLID
 70
1
 71
0
 91
1
 92
2
 72
0
 73
1
 93
37
 10
-600889.541099999
 20
-1159426.5848
 10
-600888.335981647
 20
-1159426.6902342
 10
-600887.167480205
 20
-1159427.00333321
 10
-600886.0711
 20
-1159427.5145837
 10
-600885.080153989
 20
-1159428.20845157
 10
-600884.224751566
 20
-1159429.06385399
 10
-600883.530883699
 20
-1159430.0548
 10
-600883.019633213
 20
-1159431.1511802
 10
-600882.706534196
 20
-1159432.31968165
 10
-600882.601100001
 20
-1159433.5248
 10
-600882.706534196
 20
-1159434.72991835
 10
-600883.019633213
 20
-1159435.89841979
 10
-600883.530883699
 20
-1159436.9948
 10
-600884.224751566
 20
-1159437.98574601
 10
-600885.080153989
 20
-1159438.84114843
 10
-600886.0711
 20
-1159439.5350163
 10
-600887.167480205
 20
-1159440.04626678
 10
-600888.335981647
 20
-1159440.3593658
 10
-600889.541099999
 20
-1159440.4648
 10
-600890.746218352
 20
-1159440.3593658
 10
-600891.914719793
 20
-1159440.04626678
 10
-600893.011099998
 20
-1159439.5350163
 10
-600894.002046009
 20
-1159438.84114843
 10
-600894.857448432
 20
-1159437.98574601
 10
-600895.551316299
 20
-1159436.9948
 10
-600896.062566785
 20
-1159435.89841979
 10
-600896.375665803
 20
-1159434.72991835
 10
-600896.481099997
 20
-1159433.5248
 10
-600896.375665803
 20
-1159432.31968165
 10
-600896.062566785
 20
-1159431.1511802
 10
-600895.551316299
 20
-1159430.0548
 10
-600894.857448432
 20
-1159429.06385399
 10
-600894.002046009
 20
-1159428.20845157
 10
-600893.011099998
 20
-1159427.5145837
 10
-600891.914719793
 20
-1159427.00333321
 10
-600890.746218352
 20
-1159426.6902342
 10
-600889.541099999
 20
-1159426.5848
 97
0
 75
0
 76
1
 98
0
  0
HATCH
  5
2007A
100
AcDbEntity
  8
0
100
AcDbHatch
 10
0
 20
0
 30
0
210
0
220
0
230
1
  2
SOLID
 70
1
 71
0
 91
1
 92
2
 72
0
 73
1
 93
37
 10
-597262.45
 20
-1161688.09
 10
-597258.44
 20
-1161688.44
 10
-597254.56
 20
-1161689.48
 10
-597250.91
 20
-1161691.18
 10
-597247.61
 20
-1161693.49
 10
-597244.77
 20
-1161696.33
 10
-597242.46
 20
-1161699.63
 10
-597240.76
 20
-1161703.28
 10
-597239.72
 20
-1161707.16
 10
-597239.37
 20
-1161711.17
 10
-597239.72
 20
-1161715.18
 10
-597240.76
 20
-1161719.06
 10
-597242.46
 20
-1161722.71
 10
-597244.77
 20
-1161726.01
 10
-597247.61
 20
-1161728.85
 10
-597250.91
 20
-1161731.16
 10
-597254.56
 20
-1161732.86
 10
-597258.44
 20
-1161733.9
 10
-597262.45
 20
-1161734.25
 10
-597266.46
 20
-1161733.9
 10
-597270.34
 20
-1161732.86
 10
-597273.99
 20
-1161731.16
 10
-597277.29
 20
-1161728.85
 10
-597280.13
 20
-1161726.01
 10
-597282.44
 20
-1161722.71
 10
-597284.14
 20
-1161719.06
 10
-597285.18
 20
-1161715.18
 10
-597285.53
 20
-1161711.17
 10
-597285.18
 20
-1161707.16
 10
-597284.14
 20
-1161703.28
 10
-597282.44
 20
-1161699.63
 10
-597280.13
 20
-1161696.33
 10
-597277.29
 20
-1161693.49
 10
-597273.99
 20
-1161691.18
 10
-597270.34
 20
-1161689.48
 10
-597266.46
 20
-1161688.44
 10
-597262.45
 20
-1161688.09
 97
0
 75
0
 76
1
 98
0
  0
HATCH
  5
2007B
100
AcDbEntity
  8
0
100
AcDbHatch
 10
0
 20
0
 30
0
210
0
220
0
230
1
  2
SOLID
 70
1
 71
0
 91
1
 92
2
 72
0
 73
1
 93
37
 10
-594197.52
 20
-1160942.71
 10
-594196.49
 20
-1160942.8
 10
-594195.5
 20
-1160943.07
 10
-594194.56
 20
-1160943.5
 10
-594193.71
 20
-1160944.1
 10
-594192.99
 20
-1160944.82
 10
-594192.39
 20
-1160945.67
 10
-594191.96
 20
-1160946.61
 10
-594191.69
 20
-1160947.6
 10
-594191.6
 20
-1160948.63
 10
-594191.69
 20
-1160949.66
 10
-594191.96
 20
-1160950.65
 10
-594192.39
 20
-1160951.59
 10
-594192.99
 20
-1160952.44
 10
-594193.71
 20
-1160953.16
 10
-594194.56
 20
-1160953.76
 10
-594195.5
 20
-1160954.19
 10
-594196.49
 20
-1160954.46
 10
-594197.52
 20
-1160954.55
 10
-594198.55
 20
-1160954.46
 10
-594199.54
 20
-1160954.19
 10
-594200.48
 20
-1160953.76
 10
-594201.33
 20
-1160953.16
 10
-594202.05
 20
-1160952.44
 10
-594202.65
 20
-1160951.59
 10
-594203.08
 20
-1160950.65
 10
-594203.35
 20
-1160949.66
 10
-594203.44
 20
-1160948.63
 10
-594203.35
 20
-1160947.6
 10
-594203.08
 20
-1160946.61
 10
-594202.65
 20
-1160945.67
 10
-594202.05
 20
-1160944.82
 10
-594201.33
 20
-1160944.1
 10
-594200.48
 20
-1160943.5
 10
-594199.54
 20
-1160943.07
 10
-594198.55
 20
-1160942.8
 10
-594197.52
 20
-1160942.71
 97
0
 75
0
 76
1
 98
0
  0
HATCH
  5
2007C
100
AcDbEntity
  8
0
100
AcDbHatch
 10
0
 20
0
 30
0
210
0
220
0
230
1
  2
SOLID
 70
1
 71
0
 91
1
 92
2
 72
0
 73
1
 93
37
 10
-594157.65
 20
-1160938.42
 10
-594156.5
 20
-1160938.52
 10
-594155.38
 20
-1160938.82
 10
-594154.32
 20
-1160939.31
 10
-594153.38
 20
-1160939.98
 10
-594152.56
 20
-1160940.8
 10
-594151.89
 20
-1160941.75
 10
-594151.4
 20
-1160942.8
 10
-594151.1
 20
-1160943.92
 10
-594151
 20
-1160945.07
 10
-594151.1
 20
-1160946.22
 10
-594151.4
 20
-1160947.34
 10
-594151.89
 20
-1160948.39
 10
-594152.56
 20
-1160949.34
 10
-594153.38
 20
-1160950.16
 10
-594154.32
 20
-1160950.83
 10
-594155.38
 20
-1160951.32
 10
-594156.5
 20
-1160951.62
 10
-594157.65
 20
-1160951.72
 10
-594158.8
 20
-1160951.62
 10
-594159.92
 20
-1160951.32
 10
-594160.97
 20
-1160950.83
 10
-594161.92
 20
-1160950.16
 10
-594162.74
 20
-1160949.34
 10
-594163.41
 20
-1160948.39
 10
-594163.9
 20
-1160947.34
 10
-594164.2
 20
-1160946.22
 10
-594164.3
 20
-1160945.07
 10
-594164.2
 20
-1160943.92
 10
-594163.9
 20
-1160942.8
 10
-594163.41
 20
-1160941.75
 10
-594162.74
 20
-1160940.8
 10
-594161.92
 20
-1160939.98
 10
-594160.97
 20
-1160939.31
 10
-594159.92
 20
-1160938.82
 10
-594158.8
 20
-1160938.52
 10
-594157.65
 20
-1160938.42
 97
0
 75
0
 76
1
 98
0
  0
HATCH
  5
2007D
100
AcDbEntity
  8
0
100
AcDbHatch
 10
0
 20
0
 30
0
210
0
220
0
230
1
  2
SOLID
 70
1
 71
0
 91
1
 92
2
 72
0
 73
1
 93
37
 10
-594137.89
 20
-1160936.12
 10
-594136.68
 20
-1160936.23
 10
-594135.51
 20
-1160936.54
 10
-594134.41
 20
-1160937.05
 10
-594133.41
 20
-1160937.75
 10
-594132.55
 20
-1160938.61
 10
-594131.85
 20
-1160939.6
 10
-594131.34
 20
-1160940.71
 10
-594131.03
 20
-1160941.88
 10
-594130.92
 20
-1160943.09
 10
-594131.03
 20
-1160944.3
 10
-594131.34
 20
-1160945.47
 10
-594131.85
 20
-1160946.57
 10
-594132.55
 20
-1160947.57
 10
-594133.41
 20
-1160948.43
 10
-594134.41
 20
-1160949.13
 10
-594135.51
 20
-1160949.64
 10
-594136.68
 20
-1160949.95
 10
-594137.89
 20
-1160950.06
 10
-594139.1
 20
-1160949.95
 10
-594140.27
 20
-1160949.64
 10
-594141.37
 20
-1160949.13
 10
-594142.37
 20
-1160948.43
 10
-594143.23
 20
-1160947.57
 10
-594143.93
 20
-1160946.57
 10
-594144.44
 20
-1160945.47
 10
-594144.75
 20
-1160944.3
 10
-594144.86
 20
-1160943.09
 10
-594144.75
 20
-1160941.88
 10
-594144.44
 20
-1160940.71
 10
-594143.93
 20
-1160939.6
 10
-594143.23
 20
-1160938.61
 10
-594142.37
 20
-1160937.75
 10
-594141.37
 20
-1160937.05
 10
-594140.27
 20
-1160936.54
 10
-594139.1
 20
-1160936.23
 10
-594137.89
 20
-1160936.12
 97
0
 75
0
 76
1
 98
0
  0
HATCH
  5
2007E
100
AcDbEntity
  8
0
100
AcDbHatch
 10
0
 20
0
 30
0
210
0
220
0
230
1
  2
SOLID
 70
1
 71
0
 91
1
 92
2
 72
0
 73
1
 93
37
 10
-594117.74
 20
-1160934.89
 10
-594116.52
 20
-1160935
 10
-594115.34
 20
-1160935.31
 10
-594114.24
 20
-1160935.83
 10
-594113.24
 20
-1160936.53
 10
-594112.38
 20
-1160937.39
 10
-594111.68
 20
-1160938.39
 10
-594111.16
 20
-1160939.5
 10
-594110.84
 20
-1160940.67
 10
-594110.74
 20
-1160941.89
 10
-594110.84
 20
-1160943.11
 10
-594111.16
 20
-1160944.28
 10
-594111.68
 20
-1160945.39
 10
-594112.38
 20
-1160946.39
 10
-594113.24
 20
-1160947.25
 10
-594114.24
 20
-1160947.95
 10
-594115.34
 20
-1160948.47
 10
-594116.52
 20
-1160948.78
 10
-594117.74
 20
-1160948.89
 10
-594118.95
 20
-1160948.78
 10
-594120.13
 20
-1160948.47
 10
-594121.24
 20
-1160947.95
 10
-594122.24
 20
-1160947.25
 10
-594123.1
 20
-1160946.39
 10
-594123.8
 20
-1160945.39
 10
-594124.32
 20
-1160944.28
 10
-594124.63
 20
-1160943.11
 10
-594124.74
 20
-1160941.89
 10
-594124.63
 20
-1160940.67
 10
-594124.32
 20
-1160939.5
 10
-594123.8
 20
-1160938.39
 10
-594123.1
 20
-1160937.39
 10
-594122.24
 20
-1160936.53
 10
-594121.24
 20
-1160935.83
 10
-594120.13
 20
-1160935.31
 10
-594118.95
 20
-1160935
 10
-594117.74
 20
-1160934.89
 97
0
 75
0
 76
1
 98
0
  0
HATCH
  5
2007F
100
AcDbEntity
  8
0
100
AcDbHatch
 10
0
 20
0
 30
0
210
0
220
0
230
1
  2
SOLID
 70
1
 71
0
 91
1
 92
2
 72
0
 73
1
 93
37
 10
-594098.052999999
 20
-1160931.8353
 10
-594096.637767351
 20
-1160931.95911681
 10
-594095.265535831
 20
-1160932.32680514
 10
-594093.977999998
 20
-1160932.92719296
 10
-594092.814280979
 20
-1160933.74203779
 10
-594091.809737786
 20
-1160934.74658098
 10
-594090.994892957
 20
-1160935.9103
 10
-594090.394505138
 20
-1160937.19783583
 10
-594090.02681681
 20
-1160938.57006735
 10
-594089.902999997
 20
-1160939.9853
 10
-594090.02681681
 20
-1160941.40053265
 10
-594090.394505138
 20
-1160942.77276417
 10
-594090.994892957
 20
-1160944.0603
 10
-594091.809737786
 20
-1160945.22401902
 10
-594092.814280979
 20
-1160946.22856221
 10
-594093.977999998
 20
-1160947.04340704
 10
-594095.265535831
 20
-1160947.64379486
 10
-594096.637767351
 20
-1160948.01148319
 10
-594098.052999999
 20
-1160948.1353
 10
-594099.468232648
 20
-1160948.01148319
 10
-594100.840464168
 20
-1160947.64379486
 10
-594102.128
 20
-1160947.04340704
 10
-594103.29171902
 20
-1160946.22856221
 10
-594104.296262213
 20
-1160945.22401902
 10
-594105.111107042
 20
-1160944.0603
 10
-594105.711494861
 20
-1160942.77276417
 10
-594106.079183189
 20
-1160941.40053265
 10
-594106.203000002
 20
-1160939.9853
 10
-594106.079183189
 20
-1160938.57006735
 10
-594105.711494861
 20
-1160937.19783583
 10
-594105.111107042
 20
-1160935.9103
 10
-594104.296262213
 20
-1160934.74658098
 10
-594103.29171902
 20
-1160933.74203779
 10
-594102.128
 20
-1160932.92719296
 10
-594100.840464168
 20
-1160932.32680514
 10
-594099.468232648
 20
-1160931.95911681
 10
-594098.052999999
 20
-1160931.8353
 97
0
 75
0
 76
1
 98
0
  0
HATCH
  5
20080
100
AcDbEntity
  8
0
100
AcDbHatch
 10
0
 20
0
 30
0
210
0
220
0
230
1
  2
SOLID
 70
1
 71
0
 91
1
 92
2
 72
0
 73
1
 93
37
 10
-594246.14
 20
-1160952.86
 10
-594244.92
 20
-1160952.97
 10
-594243.75
 20
-1160953.28
 10
-594242.64
 20
-1160953.8
 10
-594241.64
 20
-1160954.5
 10
-594240.78
 20
-1160955.36
 10
-594240.08
 20
-1160956.36
 10
-594239.56
 20
-1160957.47
 10
-594239.25
 20
-1160958.64
 10
-594239.14
 20
-1160959.86
 10
-594239.25
 20
-1160961.08
 10
-594239.56
 20
-1160962.25
 10
-594240.08
 20
-1160963.36
 10
-594240.78
 20
-1160964.36
 10
-594241.64
 20
-1160965.22
 10
-594242.64
 20
-1160965.92
 10
-594243.75
 20
-1160966.44
 10
-594244.92
 20
-1160966.75
 10
-594246.14
 20
-1160966.86
 10
-594247.36
 20
-1160966.75
 10
-594248.53
 20
-1160966.44
 10
-594249.64
 20
-1160965.92
 10
-594250.64
 20
-1160965.22
 10
-594251.5
 20
-1160964.36
 10
-594252.2
 20
-1160963.36
 10
-594252.72
 20
-1160962.25
 10
-594253.03
 20
-1160961.08
 10
-594253.14
 20
-1160959.86
 10
-594253.03
 20
-1160958.64
 10
-594252.72
 20
-1160957.47
 10
-594252.2
 20
-1160956.36
 10
-594251.5
 20
-1160955.36
 10
-594250.64
 20
-1160954.5
 10
-594249.64
 20
-1160953.8
 10
-594248.53
 20
-1160953.28
 10
-594247.36
 20
-1160952.97
 10
-594246.14
 20
-1160952.86
 97
0
 75
0
 76
1
 98
0
  0
HATCH
  5
20081
100
AcDbEntity
  8
0
100
AcDbHatch
 10
0
 20
0
 30
0
210
0
220
0
230
1
  2
SOLID
 70
1
 71
0
 91
1
 92
2
 72
0
 73
1
 93
37
 10
-594226.19
 20
-1160951.32
 10
-594225
 20
-1160951.42
 10
-594223.85
 20
-1160951.73
 10
-594222.77
 20
-1160952.24
 10
-594221.79
 20
-1160952.92
 10
-594220.95
 20
-1160953.76
 10
-594220.27
 20
-1160954.74
 10
-594219.76
 20
-1160955.82
 10
-594219.45
 20
-1160956.97
 10
-594219.35
 20
-1160958.16
 10
-594219.45
 20
-1160959.35
 10
-594219.76
 20
-1160960.5
 10
-594220.27
 20
-1160961.58
 10
-594220.95
 20
-1160962.56
 10
-594221.79
 20
-1160963.4
 10
-594222.77
 20
-1160964.08
 10
-594223.85
 20
-1160964.59
 10
-594225
 20
-1160964.9
 10
-594226.19
 20
-1160965
 10
-594227.38
 20
-1160964.9
 10
-594228.53
 20
-1160964.59
 10
-594229.61
 20
-1160964.08
 10
-594230.59
 20
-1160963.4
 10
-594231.43
 20
-1160962.56
 10
-594232.11
 20
-1160961.58
 10
-594232.62
 20
-1160960.5
 10
-594232.93
 20
-1160959.35
 10
-594233.03
 20
-1160958.16
 10
-594232.93
 20
-1160956.97
 10
-594232.62
 20
-1160955.82
 10
-594232.11
 20
-1160954.74
 10
-594231.43
 20
-1160953.76
 10
-594230.59
 20
-1160952.92
 10
-594229.61
 20
-1160952.24
 10
-594228.53
 20
-1160951.73
 10
-594227.38
 20
-1160951.42
 10
-594226.19
 20
-1160951.32
 97
0
 75
0
 76
1
 98
0
  0
HATCH
  5
20082
100
AcDbEntity
  8
0
100
AcDbHatch
 10
0
 20
0
 30
0
210
0
220
0
230
1
  2
SOLID
 70
1
 71
0
 91
1
 92
2
 72
0
 73
1
 93
37
 10
-594146.49
 20
-1160944.39
 10
-594145.35
 20
-1160944.49
 10
-594144.25
 20
-1160944.79
 10
-594143.21
 20
-1160945.27
 10
-594142.27
 20
-1160945.92
 10
-594141.46
 20
-1160946.73
 10
-594140.81
 20
-1160947.67
 10
-594140.33
 20
-1160948.71
 10
-594140.03
 20
-1160949.81
 10
-594139.93
 20
-1160950.95
 10
-594140.03
 20
-1160952.09
 10
-594140.33
 20
-1160953.19
 10
-594140.81
 20
-1160954.23
 10
-594141.46
 20
-1160955.17
 10
-594142.27
 20
-1160955.98
 10
-594143.21
 20
-1160956.63
 10
-594144.25
 20
-1160957.11
 10
-594145.35
 20
-1160957.41
 10
-594146.49
 20
-1160957.51
 10
-594147.63
 20
-1160957.41
 10
-594148.73
 20
-1160957.11
 10
-594149.77
 20
-1160956.63
 10
-594150.71
 20
-1160955.98
 10
-594151.52
 20
-1160955.17
 10
-594152.17
 20
-1160954.23
 10
-594152.65
 20
-1160953.19
 10
-594152.95
 20
-1160952.09
 10
-594153.05
 20
-1160950.95
 10
-594152.95
 20
-1160949.81
 10
-594152.65
 20
-1160948.71
 10
-594152.17
 20
-1160947.67
 10
-594151.52
 20
-1160946.73
 10
-594150.71
 20
-1160945.92
 10
-594149.77
 20
-1160945.27
 10
-594148.73
 20
-1160944.79
 10
-594147.63
 20
-1160944.49
 10
-594146.49
 20
-1160944.39
 97
0
 75
0
 76
1
 98
0
  0
HATCH
  5
20083
100
AcDbEntity
  8
0
100
AcDbHatch
 10
0
 20
0
 30
0
210
0
220
0
230
1
  2
SOLID
 70
1
 71
0
 91
1
 92
2
 72
0
 73
1
 93
37
 10
-594106.63
 20
-1160940.63
 10
-594105.39
 20
-1160940.74
 10
-594104.19
 20
-1160941.06
 10
-594103.06
 20
-1160941.59
 10
-594102.04
 20
-1160942.3
 10
-594101.16
 20
-1160943.18
 10
-594100.45
 20
-1160944.2
 10
-594099.93
 20
-1160945.33
 10
-594099.6
 20
-1160946.53
 10
-594099.5
 20
-1160947.76
 10
-594099.6
 20
-1160949
 10
-594099.93
 20
-1160950.2
 10
-594100.45
 20
-1160951.33
 10
-594101.16
 20
-1160952.35
 10
-594102.04
 20
-1160953.23
 10
-594103.06
 20
-1160953.94
 10
-594104.19
 20
-1160954.46
 10
-594105.39
 20
-1160954.79
 10
-594106.63
 20
-1160954.89
 10
-594107.86
 20
-1160954.79
 10
-594109.06
 20
-1160954.46
 10
-594110.19
 20
-1160953.94
 10
-594111.21
 20
-1160953.23
 10
-594112.09
 20
-1160952.35
 10
-594112.8
 20
-1160951.33
 10
-594113.33
 20
-1160950.2
 10
-594113.65
 20
-1160949
 10
-594113.76
 20
-1160947.76
 10
-594113.65
 20
-1160946.53
 10
-594113.33
 20
-1160945.33
 10
-594112.8
 20
-1160944.2
 10
-594112.09
 20
-1160943.18
 10
-594111.21
 20
-1160942.3
 10
-594110.19
 20
-1160941.59
 10
-594109.06
 20
-1160941.06
 10
-594107.86
 20
-1160940.74
 10
-594106.63
 20
-1160940.63
 97
0
 75
0
 76
1
 98
0
  0
HATCH
  5
20084
100
AcDbEntity
  8
0
100
AcDbHatch
 10
0
 20
0
 30
0
210
0
220
0
230
1
  2
SOLID
 70
1
 71
0
 91
1
 92
2
 72
0
 73
1
 93
37
 10
-594086.78
 20
-1160939.24
 10
-594085.66
 20
-1160939.34
 10
-594084.57
 20
-1160939.63
 10
-594083.55
 20
-1160940.11
 10
-594082.63
 20
-1160940.75
 10
-594081.83
 20
-1160941.55
 10
-594081.19
 20
-1160942.47
 10
-594080.71
 20
-1160943.49
 10
-594080.42
 20
-1160944.58
 10
-594080.32
 20
-1160945.7
 10
-594080.42
 20
-1160946.82
 10
-594080.71
 20
-1160947.91
 10
-594081.19
 20
-1160948.93
 10
-594081.83
 20
-1160949.85
 10
-594082.63
 20
-1160950.65
 10
-594083.55
 20
-1160951.29
 10
-594084.57
 20
-1160951.77
 10
-594085.66
 20
-1160952.06
 10
-594086.78
 20
-1160952.16
 10
-594087.9
 20
-1160952.06
 10
-594088.99
 20
-1160951.77
 10
-594090.01
 20
-1160951.29
 10
-594090.93
 20
-1160950.65
 10
-594091.73
 20
-1160949.85
 10
-594092.38
 20
-1160948.93
 10
-594092.85
 20
-1160947.91
 10
-594093.14
 20
-1160946.82
 10
-594093.24
 20
-1160945.7
 10
-594093.14
 20
-1160944.58
 10
-594092.85
 20
-1160943.49
 10
-594092.38
 20
-1160942.47
 10
-594091.73
 20
-1160941.55
 10
-594090.93
 20
-1160940.75
 10
-594090.01
 20
-1160940.11
 10
-594088.99
 20
-1160939.63
 10
-594087.9
 20
-1160939.34
 10
-594086.78
 20
-1160939.24
 97
0
 75
0
 76
1
 98
0
  0
HATCH
  5
20085
100
AcDbEntity
  8
0
100
AcDbHatch
 10
0
 20
0
 30
0
210
0
220
0
230
1
  2
SOLID
 70
1
 71
0
 91
1
 92
2
 72
0
 73
1
 93
37
 10
-600790.109000001
 20
-1159338.24
 10
-600788.716341616
 20
-1159338.36184182
 10
-600787.365998451
 20
-1159338.72366518
 10
-600786.098999999
 20
-1159339.31447626
 10
-600784.953843369
 20
-1159340.11632357
 10
-600783.965323565
 20
-1159341.10484337
 10
-600783.16347626
 20
-1159342.25
 10
-600782.572665179
 20
-1159343.51699845
 10
-600782.210841819
 20
-1159344.86734162
 10
-600782.088999998
 20
-1159346.26
 10
-600782.210841819
 20
-1159347.65265839
 10
-600782.572665179
 20
-1159349.00300155
 10
-600783.16347626
 20
-1159350.27
 10
-600783.965323565
 20
-1159351.41515663
 10
-600784.953843369
 20
-1159352.40367644
 10
-600786.098999999
 20
-1159353.20552374
 10
-600787.365998451
 20
-1159353.79633482
 10
-600788.716341616
 20
-1159354.15815818
 10
-600790.109000001
 20
-1159354.28
 10
-600791.501658387
 20
-1159354.15815818
 10
-600792.852001552
 20
-1159353.79633482
 10
-600794.119000003
 20
-1159353.20552374
 10
-600795.264156633
 20
-1159352.40367644
 10
-600796.252676437
 20
-1159351.41515663
 10
-600797.054523742
 20
-1159350.27
 10
-600797.645334823
 20
-1159349.00300155
 10
-600798.007158183
 20
-1159347.65265839
 10
-600798.129000004
 20
-1159346.26
 10
-600798.007158183
 20
-1159344.86734162
 10
-600797.645334823
 20
-1159343.51699845
 10
-600797.054523742
 20
-1159342.25
 10
-600796.252676437
 20
-1159341.10484337
 10
-600795.264156633
 20
-1159340.11632357
 10
-600794.119000003
 20
-1159339.31447626
 10
-600792.852001552
 20
-1159338.72366518
 10
-600791.501658387
 20
-1159338.36184182
 10
-600790.109000001
 20
-1159338.24
 97
0
 75
0
 76
1
 98
0
  0
HATCH
  5
20086
100
AcDbEntity
  8
0
100
AcDbHatch
 10
0
 20
0
 30
0
210
0
220
0
230
1
  2
SOLID
 70
1
 71
0
 91
1
 92
2
 72
0
 73
1
 93
37
 10
-600697.44
 20
-1159158.89
 10
-600695.63
 20
-1159159.05
 10
-600693.88
 20
-1159159.52
 10
-600692.23
 20
-1159160.29
 10
-600690.75
 20
-1159161.33
 10
-600689.46
 20
-1159162.61
 10
-600688.42
 20
-1159164.1
 10
-600687.65
 20
-1159165.74
 10
-600687.19
 20
-1159167.49
 10
-600687.03
 20
-1159169.3
 10
-600687.19
 20
-1159171.11
 10
-600687.65
 20
-1159172.86
 10
-600688.42
 20
-1159174.51
 10
-600689.46
 20
-1159175.99
 10
-600690.75
 20
-1159177.28
 10
-600692.23
 20
-1159178.32
 10
-600693.88
 20
-1159179.08
 10
-600695.63
 20
-1159179.55
 10
-600697.44
 20
-1159179.71
 10
-600699.24
 20
-1159179.55
 10
-600701
 20
-1159179.08
 10
-600702.64
 20
-1159178.32
 10
-600704.13
 20
-1159177.28
 10
-600705.41
 20
-1159175.99
 10
-600706.45
 20
-1159174.51
 10
-600707.22
 20
-1159172.86
 10
-600707.69
 20
-1159171.11
 10
-600707.85
 20
-1159169.3
 10
-600707.69
 20
-1159167.49
 10
-600707.22
 20
-1159165.74
 10
-600706.45
 20
-1159164.1
 10
-600705.41
 20
-1159162.61
 10
-600704.13
 20
-1159161.33
 10
-600702.64
 20
-1159160.29
 10
-600701
 20
-1159159.52
 10
-600699.24
 20
-1159159.05
 10
-600697.44
 20
-1159158.89
 97
0
 75
0
 76
1
 98
0
  0
HATCH
  5
20087
100
AcDbEntity
  8
0
100
AcDbHatch
 10
0
 20
0
 30
0
210
0
220
0
230
1
  2
SOLID
 70
1
 71
0
 91
1
 92
2
 72
0
 73
1
 93
37
 10
-600681.98
 20
-1159127.29
 10
-600680.764462757
 20
-1159127.39634573
 10
-600679.585858997
 20
-1159127.71215165
 10
-600678.48
 20
-1159128.22782217
 10
-600677.480486733
 20
-1159128.9276889
 10
-600676.617688899
 20
-1159129.79048673
 10
-600675.917822174
 20
-1159130.79
 10
-600675.402151655
 20
-1159131.895859
 10
-600675.086345729
 20
-1159133.07446276
 10
-600674.98
 20
-1159134.29
 10
-600675.086345729
 20
-1159135.50553724
 10
-600675.402151655
 20
-1159136.684141
 10
-600675.917822174
 20
-1159137.79
 10
-600676.617688899
 20
-1159138.78951327
 10
-600677.480486733
 20
-1159139.6523111
 10
-600678.48
 20
-1159140.35217783
 10
-600679.585858997
 20
-1159140.86784834
 10
-600680.764462757
 20
-1159141.18365427
 10
-600681.98
 20
-1159141.29
 10
-600683.195537244
 20
-1159141.18365427
 10
-600684.374141004
 20
-1159140.86784834
 10
-600685.48
 20
-1159140.35217783
 10
-600686.479513268
 20
-1159139.6523111
 10
-600687.342311102
 20
-1159138.78951327
 10
-600688.042177827
 20
-1159137.79
 10
-600688.557848346
 20
-1159136.684141
 10
-600688.873654271
 20
-1159135.50553724
 10
-600688.98
 20
-1159134.29
 10
-600688.873654271
 20
-1159133.07446276
 10
-600688.557848346
 20
-1159131.895859
 10
-600688.042177827
 20
-1159130.79
 10
-600687.342311102
 20
-1159129.79048673
 10
-600686.479513268
 20
-1159128.9276889
 10
-600685.48
 20
-1159128.22782217
 10
-600684.374141004
 20
-1159127.71215165
 10
-600683.195537244
 20
-1159127.39634573
 10
-600681.98
 20
-1159127.29
 97
0
 75
0
 76
1
 98
0
  0
HATCH
  5
20088
100
AcDbEntity
  8
0
100
AcDbHatch
 10
0
 20
0
 30
0
210
0
220
0
230
1
  2
SOLID
 70
1
 71
0
 91
1
 92
2
 72
0
 73
1
 93
37
 10
-600690.358800001
 20
-1159144.5809
 10
-600688.900155309
 20
-1159144.70851487
 10
-600687.485830797
 20
-1159145.08748198
 10
-600686.1588
 20
-1159145.70628661
 10
-600684.959384079
 20
-1159146.54612668
 10
-600683.924026678
 20
-1159147.58148408
 10
-600683.084186608
 20
-1159148.7809
 10
-600682.465381985
 20
-1159150.1079308
 10
-600682.086414874
 20
-1159151.52225531
 10
-600681.958799999
 20
-1159152.9809
 10
-600682.086414874
 20
-1159154.43954469
 10
-600682.465381985
 20
-1159155.85386921
 10
-600683.084186608
 20
-1159157.1809
 10
-600683.924026678
 20
-1159158.38031592
 10
-600684.959384079
 20
-1159159.41567332
 10
-600686.1588
 20
-1159160.25551339
 10
-600687.485830797
 20
-1159160.87431802
 10
-600688.900155309
 20
-1159161.25328513
 10
-600690.358800001
 20
-1159161.3809
 10
-600691.817444694
 20
-1159161.25328513
 10
-600693.231769206
 20
-1159160.87431802
 10
-600694.558800003
 20
-1159160.25551339
 10
-600695.758215924
 20
-1159159.41567332
 10
-600696.793573325
 20
-1159158.38031592
 10
-600697.633413395
 20
-1159157.1809
 10
-600698.252218018
 20
-1159155.85386921
 10
-600698.631185129
 20
-1159154.43954469
 10
-600698.758800004
 20
-1159152.9809
 10
-600698.631185129
 20
-1159151.52225531
 10
-600698.252218018
 20
-1159150.1079308
 10
-600697.633413395
 20
-1159148.7809
 10
-600696.793573325
 20
-1159147.58148408
 10
-600695.758215924
 20
-1159146.54612668
 10
-600694.558800003
 20
-1159145.70628661
 10
-600693.231769206
 20
-1159145.08748198
 10
-600691.817444694
 20
-1159144.70851487
 10
-600690.358800001
 20
-1159144.5809
 97
0
 75
0
 76
1
 98
0
  0
HATCH
  5
20089
100
AcDbEntity
  8
0
100
AcDbHatch
 10
0
 20
0
 30
0
210
0
220
0
230
1
  2
SOLID
 70
1
 71
0
 91
1
 92
2
 72
0
 73
1
 93
37
 10
-600703.781199999
 20
-1159174.4661
 10
-600702.133278793
 20
-1159174.61027442
 10
-600700.53542884
 20
-1159175.03841703
 10
-600699.0362
 20
-1159175.73751892
 10
-600697.681145584
 20
-1159176.68633823
 10
-600696.511438235
 20
-1159177.85604558
 10
-600695.562618919
 20
-1159179.2111
 10
-600694.863517029
 20
-1159180.71032884
 10
-600694.435374425
 20
-1159182.30817879
 10
-600694.291200001
 20
-1159183.9561
 10
-600694.435374425
 20
-1159185.6040212
 10
-600694.863517029
 20
-1159187.20187116
 10
-600695.562618919
 20
-1159188.7011
 10
-600696.511438235
 20
-1159190.05615441
 10
-600697.681145584
 20
-1159191.22586176
 10
-600699.0362
 20
-1159192.17468108
 10
-600700.53542884
 20
-1159192.87378297
 10
-600702.133278793
 20
-1159193.30192557
 10
-600703.781199999
 20
-1159193.4461
 10
-600705.429121205
 20
-1159193.30192557
 10
-600707.026971159
 20
-1159192.87378297
 10
-600708.526199998
 20
-1159192.17468108
 10
-600709.881254414
 20
-1159191.22586176
 10
-600711.050961763
 20
-1159190.05615441
 10
-600711.99978108
 20
-1159188.7011
 10
-600712.698882969
 20
-1159187.20187116
 10
-600713.127025574
 20
-1159185.6040212
 10
-600713.271199998
 20
-1159183.9561
 10
-600713.127025574
 20
-1159182.30817879
 10
-600712.698882969
 20
-1159180.71032884
 10
-600711.99978108
 20
-1159179.2111
 10
-600711.050961763
 20
-1159177.85604558
 10
-600709.881254414
 20
-1159176.68633823
 10
-600708.526199998
 20
-1159175.73751892
 10
-600707.026971159
 20
-1159175.03841703
 10
-600705.429121205
 20
-1159174.61027442
 10
-600703.781199999
 20
-1159174.4661
 97
0
 75
0
 76
1
 98
0
  0
HATCH
  5
2008A
100
AcDbEntity
  8
0
100
AcDbHatch
 10
0
 20
0
 30
0
210
0
220
0
230
1
  2
SOLID
 70
1
 71
0
 91
1
 92
2
 72
0
 73
1
 93
37
 10
-600713.226100001
 20
-1159202.3536
 10
-600712.701682505
 20
-1159202.39948059
 10
-600712.193199169
 20
-1159202.53572828
 10
-600711.716100002
 20
-1159202.75820328
 10
-600711.284881421
 20
-1159203.06014578
 10
-600710.912645784
 20
-1159203.43238142
 10
-600710.610703282
 20
-1159203.8636
 10
-600710.388228287
 20
-1159204.34069917
 10
-600710.251980588
 20
-1159204.8491825
 10
-600710.206100002
 20
-1159205.3736
 10
-600710.251980588
 20
-1159205.8980175
 10
-600710.388228287
 20
-1159206.40650083
 10
-600710.610703282
 20
-1159206.8836
 10
-600710.912645784
 20
-1159207.31481858
 10
-600711.284881421
 20
-1159207.68705422
 10
-600711.716100002
 20
-1159207.98899672
 10
-600712.193199169
 20
-1159208.21147171
 10
-600712.701682505
 20
-1159208.34771941
 10
-600713.226100001
 20
-1159208.3936
 10
-600713.750517498
 20
-1159208.34771941
 10
-600714.259000834
 20
-1159208.21147171
 10
-600714.736100001
 20
-1159207.98899672
 10
-600715.167318582
 20
-1159207.68705422
 10
-600715.539554219
 20
-1159207.31481858
 10
-600715.841496721
 20
-1159206.8836
 10
-600716.063971716
 20
-1159206.40650083
 10
-600716.200219415
 20
-1159205.8980175
 10
-600716.246100001
 20
-1159205.3736
 10
-600716.200219415
 20
-1159204.8491825
 10
-600716.063971716
 20
-1159204.34069917
 10
-600715.841496721
 20
-1159203.8636
 10
-600715.539554219
 20
-1159203.43238142
 10
-600715.167318582
 20
-1159203.06014578
 10
-600714.736100001
 20
-1159202.75820328
 10
-600714.259000834
 20
-1159202.53572828
 10
-600713.750517498
 20
-1159202.39948059
 10
-600713.226100001
 20
-1159202.3536
 97
0
 75
0
 76
1
 98
0
  0
HATCH
  5
2008B
100
AcDbEntity
  8
0
100
AcDbHatch
 10
0
 20
0
 30
0
210
0
220
0
230
1
  2
SOLID
 70
1
 71
0
 91
1
 92
2
 72
0
 73
1
 93
37
 10
-600730.178399999
 20
-1159236.762
 10
-600729.001065354
 20
-1159236.86500343
 10
-600727.859503427
 20
-1159237.17088403
 10
-600726.788399998
 20
-1159237.67034776
 10
-600725.820300004
 20
-1159238.34821867
 10
-600724.984618673
 20
-1159239.1839
 10
-600724.30674776
 20
-1159240.152
 10
-600723.807284029
 20
-1159241.22310343
 10
-600723.501403432
 20
-1159242.36466535
 10
-600723.398399998
 20
-1159243.542
 10
-600723.501403432
 20
-1159244.71933464
 10
-600723.807284029
 20
-1159245.86089657
 10
-600724.30674776
 20
-1159246.932
 10
-600724.984618673
 20
-1159247.90009999
 10
-600725.820300004
 20
-1159248.73578132
 10
-600726.788399998
 20
-1159249.41365224
 10
-600727.859503427
 20
-1159249.91311597
 10
-600729.001065354
 20
-1159250.21899657
 10
-600730.178399999
 20
-1159250.322
 10
-600731.355734644
 20
-1159250.21899657
 10
-600732.497296571
 20
-1159249.91311597
 10
-600733.568399999
 20
-1159249.41365224
 10
-600734.536499993
 20
-1159248.73578132
 10
-600735.372181324
 20
-1159247.90009999
 10
-600736.050052237
 20
-1159246.932
 10
-600736.549515969
 20
-1159245.86089657
 10
-600736.855396565
 20
-1159244.71933464
 10
-600736.9584
 20
-1159243.542
 10
-600736.855396565
 20
-1159242.36466535
 10
-600736.549515969
 20
-1159241.22310343
 10
-600736.050052237
 20
-1159240.152
 10
-600735.372181324
 20
-1159239.1839
 10
-600734.536499993
 20
-1159238.34821867
 10
-600733.568399999
 20
-1159237.67034776
 10
-600732.497296571
 20
-1159237.17088403
 10
-600731.355734644
 20
-1159236.86500343
 10
-600730.178399999
 20
-1159236.762
 97
0
 75
0
 76
1
 98
0
  0
HATCH
  5
2008C
100
AcDbEntity
  8
0
100
AcDbHatch
 10
0
 20
0
 30
0
210
0
220
0
230
1
  2
SOLID
 70
1
 71
0
 91
1
 92
2
 72
0
 73
1
 93
37
 10
-600737.833900001
 20
-1159252.8754
 10
-600736.413457908
 20
-1159252.99967258
 10
-600735.036175229
 20
-1159253.36871436
 10
-600733.743900001
 20
-1159253.9713122
 10
-600732.575897354
 20
-1159254.78915645
 10
-600731.567656456
 20
-1159255.79739735
 10
-600730.749812198
 20
-1159256.9654
 10
-600730.147214363
 20
-1159258.25767523
 10
-600729.778172582
 20
-1159259.63495791
 10
-600729.653900001
 20
-1159261.0554
 10
-600729.778172582
 20
-1159262.47584209
 10
-600730.147214363
 20
-1159263.85312477
 10
-600730.749812198
 20
-1159265.1454
 10
-600731.567656456
 20
-1159266.31340265
 10
-600732.575897354
 20
-1159267.32164354
 10
-600733.743900001
 20
-1159268.1394878
 10
-600735.036175229
 20
-1159268.74208564
 10
-600736.413457908
 20
-1159269.11112742
 10
-600737.833900001
 20
-1159269.2354
 10
-600739.254342094
 20
-1159269.11112742
 10
-600740.631624773
 20
-1159268.74208564
 10
-600741.923900001
 20
-1159268.1394878
 10
-600743.091902648
 20
-1159267.32164354
 10
-600744.100143545
 20
-1159266.31340265
 10
-600744.917987804
 20
-1159265.1454
 10
-600745.520585639
 20
-1159263.85312477
 10
-600745.88962742
 20
-1159262.47584209
 10
-600746.013900001
 20
-1159261.0554
 10
-600745.88962742
 20
-1159259.63495791
 10
-600745.520585639
 20
-1159258.25767523
 10
-600744.917987804
 20
-1159256.9654
 10
-600744.100143545
 20
-1159255.79739735
 10
-600743.091902648
 20
-1159254.78915645
 10
-600741.923900001
 20
-1159253.9713122
 10
-600740.631624773
 20
-1159253.36871436
 10
-600739.254342094
 20
-1159252.99967258
 10
-600737.833900001
 20
-1159252.8754
 97
0
 75
0
 76
1
 98
0
  0
HATCH
  5
2008D
100
AcDbEntity
  8
0
100
AcDbHatch
 10
0
 20
0
 30
0
210
0
220
0
230
1
  2
SOLID
 70
1
 71
0
 91
1
 92
2
 72
0
 73
1
 93
37
 10
-600753.541000001
 20
-1159291.501
 10
-600752.130976798
 20
-1159291.62436104
 10
-600750.763796437
 20
-1159291.99069592
 10
-600749.481000001
 20
-1159292.58887372
 10
-600748.32156461
 20
-1159293.40071912
 10
-600747.320719122
 20
-1159294.40156461
 10
-600746.508873721
 20
-1159295.561
 10
-600745.910695919
 20
-1159296.84379644
 10
-600745.544361046
 20
-1159298.2109768
 10
-600745.421
 20
-1159299.621
 10
-600745.544361046
 20
-1159301.0310232
 10
-600745.910695919
 20
-1159302.39820356
 10
-600746.508873721
 20
-1159303.681
 10
-600747.320719122
 20
-1159304.84043539
 10
-600748.32156461
 20
-1159305.84128088
 10
-600749.481000001
 20
-1159306.65312628
 10
-600750.763796437
 20
-1159307.25130408
 10
-600752.130976798
 20
-1159307.61763895
 10
-600753.541000001
 20
-1159307.741
 10
-600754.951023204
 20
-1159307.61763895
 10
-600756.318203565
 20
-1159307.25130408
 10
-600757.601000002
 20
-1159306.65312628
 10
-600758.760435392
 20
-1159305.84128088
 10
-600759.76128088
 20
-1159304.84043539
 10
-600760.573126281
 20
-1159303.681
 10
-600761.171304083
 20
-1159302.39820356
 10
-600761.537638957
 20
-1159301.0310232
 10
-600761.661000002
 20
-1159299.621
 10
-600761.537638957
 20
-1159298.2109768
 10
-600761.171304083
 20
-1159296.84379644
 10
-600760.573126281
 20
-1159295.561
 10
-600759.76128088
 20
-1159294.40156461
 10
-600758.760435392
 20
-1159293.40071912
 10
-600757.601000002
 20
-1159292.58887372
 10
-600756.318203565
 20
-1159291.99069592
 10
-600754.951023204
 20
-1159291.62436104
 10
-600753.541000001
 20
-1159291.501
 97
0
 75
0
 76
1
 98
0
  0
HATCH
  5
2008E
100
AcDbEntity
  8
0
100
AcDbHatch
 10
0
 20
0
 30
0
210
0
220
0
230
1
  2
SOLID
 70
1
 71
0
 91
1
 92
2
 72
0
 73
1
 93
37
 10
-600763.225000001
 20
-1159307.765
 10
-600761.57186935
 20
-1159307.90963019
 10
-600759.968968237
 20
-1159308.33912625
 10
-600758.465000002
 20
-1159309.04043816
 10
-600757.105661958
 20
-1159309.9922569
 10
-600755.932256903
 20
-1159311.16566196
 10
-600754.980438158
 20
-1159312.525
 10
-600754.279126252
 20
-1159314.02896824
 10
-600753.849630193
 20
-1159315.63186935
 10
-600753.705000002
 20
-1159317.285
 10
-600753.849630193
 20
-1159318.93813065
 10
-600754.279126252
 20
-1159320.54103176
 10
-600754.980438158
 20
-1159322.045
 10
-600755.932256903
 20
-1159323.40433804
 10
-600757.105661958
 20
-1159324.5777431
 10
-600758.465000002
 20
-1159325.52956184
 10
-600759.968968237
 20
-1159326.23087375
 10
-600761.57186935
 20
-1159326.66036981
 10
-600763.225000001
 20
-1159326.805
 10
-600764.878130653
 20
-1159326.66036981
 10
-600766.481031766
 20
-1159326.23087375
 10
-600767.985000001
 20
-1159325.52956184
 10
-600769.344338045
 20
-1159324.5777431
 10
-600770.5177431
 20
-1159323.40433804
 10
-600771.469561845
 20
-1159322.045
 10
-600772.170873751
 20
-1159320.54103176
 10
-600772.60036981
 20
-1159318.93813065
 10
-600772.745000001
 20
-1159317.285
 10
-600772.60036981
 20
-1159315.63186935
 10
-600772.170873751
 20
-1159314.02896824
 10
-600771.469561845
 20
-1159312.525
 10
-600770.5177431
 20
-1159311.16566196
 10
-600769.344338045
 20
-1159309.9922569
 10
-600767.985000001
 20
-1159309.04043816
 10
-600766.481031766
 20
-1159308.33912625
 10
-600764.878130653
 20
-1159307.90963019
 10
-600763.225000001
 20
-1159307.765
 97
0
 75
0
 76
1
 98
0
  0
HATCH
  5
2008F
100
AcDbEntity
  8
0
100
AcDbHatch
 10
0
 20
0
 30
0
210
0
220
0
230
1
  2
SOLID
 70
1
 71
0
 91
1
 92
2
 72
0
 73
1
 93
37
 10
-600775.234000001
 20
-1159323.498
 10
-600773.823976798
 20
-1159323.62136105
 10
-600772.456796437
 20
-1159323.98769592
 10
-600771.174000001
 20
-1159324.58587372
 10
-600770.01456461
 20
-1159325.39771912
 10
-600769.013719122
 20
-1159326.39856461
 10
-600768.201873721
 20
-1159327.558
 10
-600767.603695919
 20
-1159328.84079644
 10
-600767.237361046
 20
-1159330.2079768
 10
-600767.114
 20
-1159331.618
 10
-600767.237361046
 20
-1159333.0280232
 10
-600767.603695919
 20
-1159334.39520356
 10
-600768.201873721
 20
-1159335.678
 10
-600769.013719122
 20
-1159336.83743539
 10
-600770.01456461
 20
-1159337.83828088
 10
-600771.174000001
 20
-1159338.65012628
 10
-600772.456796437
 20
-1159339.24830408
 10
-600773.823976798
 20
-1159339.61463896
 10
-600775.234000001
 20
-1159339.738
 10
-600776.644023204
 20
-1159339.61463896
 10
-600778.011203565
 20
-1159339.24830408
 10
-600779.294000002
 20
-1159338.65012628
 10
-600780.453435392
 20
-1159337.83828088
 10
-600781.45428088
 20
-1159336.83743539
 10
-600782.266126281
 20
-1159335.678
 10
-600782.864304083
 20
-1159334.39520356
 10
-600783.230638957
 20
-1159333.0280232
 10
-600783.354000002
 20
-1159331.618
 10
-600783.230638957
 20
-1159330.2079768
 10
-600782.864304083
 20
-1159328.84079644
 10
-600782.266126281
 20
-1159327.558
 10
-600781.45428088
 20
-1159326.39856461
 10
-600780.453435392
 20
-1159325.39771912
 10
-600779.294000002
 20
-1159324.58587372
 10
-600778.011203565
 20
-1159323.98769592
 10
-600776.644023204
 20
-1159323.62136105
 10
-600775.234000001
 20
-1159323.498
 97
0
 75
0
 76
1
 98
0
  0
HATCH
  5
20090
100
AcDbEntity
  8
0
100
AcDbHatch
 10
0
 20
0
 30
0
210
0
220
0
230
1
  2
SOLID
 70
1
 71
0
 91
1
 92
2
 72
0
 73
1
 93
37
 10
-600804.984000001
 20
-1159353.01
 10
-600803.492362155
 20
-1159353.1405014
 10
-600802.04604697
 20
-1159353.52804039
 10
-600800.689000001
 20
-1159354.16084178
 10
-600799.462454434
 20
-1159355.01967824
 10
-600798.403678235
 20
-1159356.07845443
 10
-600797.544841783
 20
-1159357.305
 10
-600796.912040389
 20
-1159358.66204697
 10
-600796.524501403
 20
-1159360.10836216
 10
-600796.394000001
 20
-1159361.6
 10
-600796.524501403
 20
-1159363.09163785
 10
-600796.912040389
 20
-1159364.53795303
 10
-600797.544841783
 20
-1159365.895
 10
-600798.403678235
 20
-1159367.12154557
 10
-600799.462454434
 20
-1159368.18032177
 10
-600800.689000001
 20
-1159369.03915822
 10
-600802.04604697
 20
-1159369.67195961
 10
-600803.492362155
 20
-1159370.0594986
 10
-600804.984000001
 20
-1159370.19
 10
-600806.475637847
 20
-1159370.0594986
 10
-600807.921953032
 20
-1159369.67195961
 10
-600809.279000001
 20
-1159369.03915822
 10
-600810.505545568
 20
-1159368.18032177
 10
-600811.564321767
 20
-1159367.12154557
 10
-600812.423158219
 20
-1159365.895
 10
-600813.055959614
 20
-1159364.53795303
 10
-600813.443498599
 20
-1159363.09163785
 10
-600813.574000001
 20
-1159361.6
 10
-600813.443498599
 20
-1159360.10836216
 10
-600813.055959614
 20
-1159358.66204697
 10
-600812.423158219
 20
-1159357.305
 10
-600811.564321767
 20
-1159356.07845443
 10
-600810.505545568
 20
-1159355.01967824
 10
-600809.279000001
 20
-1159354.16084178
 10
-600807.921953032
 20
-1159353.52804039
 10
-600806.475637847
 20
-1159353.1405014
 10
-600804.984000001
 20
-1159353.01
 97
0
 75
0
 76
1
 98
0
  0
HATCH
  5
20091
100
AcDbEntity
  8
0
100
AcDbHatch
 10
0
 20
0
 30
0
210
0
220
0
230
1
  2
SOLID
 70
1
 71
0
 91
1
 92
2
 72
0
 73
1
 93
37
 10
-600819.859000001
 20
-1159366.253
 10
-600818.124254706
 20
-1159366.40477055
 10
-600816.442218769
 20
-1159366.85547072
 10
-600814.864
 20
-1159367.59140622
 10
-600813.437551779
 20
-1159368.59021601
 10
-600812.206216013
 20
-1159369.82155178
 10
-600811.207406215
 20
-1159371.248
 10
-600810.471470717
 20
-1159372.82621877
 10
-600810.020770546
 20
-1159374.50825471
 10
-600809.868999999
 20
-1159376.243
 10
-600810.020770546
 20
-1159377.9777453
 10
-600810.471470717
 20
-1159379.65978123
 10
-600811.207406215
 20
-1159381.238
 10
-600812.206216013
 20
-1159382.66444822
 10
-600813.437551779
 20
-1159383.89578399
 10
-600814.864
 20
-1159384.89459379
 10
-600816.442218769
 20
-1159385.63052928
 10
-600818.124254706
 20
-1159386.08122946
 10
-600819.859000001
 20
-1159386.233
 10
-600821.593745296
 20
-1159386.08122946
 10
-600823.275781234
 20
-1159385.63052928
 10
-600824.854000002
 20
-1159384.89459379
 10
-600826.280448223
 20
-1159383.89578399
 10
-600827.511783989
 20
-1159382.66444822
 10
-600828.510593787
 20
-1159381.238
 10
-600829.246529285
 20
-1159379.65978123
 10
-600829.697229456
 20
-1159377.9777453
 10
-600829.849000003
 20
-1159376.243
 10
-600829.697229456
 20
-1159374.50825471
 10
-600829.246529285
 20
-1159372.82621877
 10
-600828.510593787
 20
-1159371.248
 10
-600827.511783989
 20
-1159369.82155178
 10
-600826.280448223
 20
-1159368.59021601
 10
-600824.854000002
 20
-1159367.59140622
 10
-600823.275781234
 20
-1159366.85547072
 10
-600821.593745296
 20
-1159366.40477055
 10
-600819.859000001
 20
-1159366.253
 97
0
 75
0
 76
1
 98
0
  0
HATCH
  5
20092
100
AcDbEntity
  8
0
100
AcDbHatch
 10
0
 20
0
 30
0
210
0
220
0
230
1
  2
SOLID
 70
1
 71
0
 91
1
 92
2
 72
0
 73
1
 93
37
 10
-600832.565000001
 20
-1159380.033
 10
-600830.99001103
 20
-1159380.17079368
 10
-600829.462877301
 20
-1159380.57998793
 10
-600828.030000001
 20
-1159381.24814959
 10
-600826.734916381
 20
-1159382.1549769
 10
-600825.616976902
 20
-1159383.27291638
 10
-600824.710149589
 20
-1159384.568
 10
-600824.041987931
 20
-1159386.0008773
 10
-600823.632793681
 20
-1159387.52801103
 10
-600823.495000001
 20
-1159389.103
 10
-600823.632793681
 20
-1159390.67798897
 10
-600824.041987931
 20
-1159392.2051227
 10
-600824.710149589
 20
-1159393.638
 10
-600825.616976902
 20
-1159394.93308362
 10
-600826.734916381
 20
-1159396.0510231
 10
-600828.030000001
 20
-1159396.95785041
 10
-600829.462877301
 20
-1159397.62601207
 10
-600830.99001103
 20
-1159398.03520632
 10
-600832.565000001
 20
-1159398.173
 10
-600834.139988973
 20
-1159398.03520632
 10
-600835.667122701
 20
-1159397.62601207
 10
-600837.100000001
 20
-1159396.95785041
 10
-600838.395083621
 20
-1159396.0510231
 10
-600839.513023101
 20
-1159394.93308362
 10
-600840.419850414
 20
-1159393.638
 10
-600841.088012072
 20
-1159392.2051227
 10
-600841.497206321
 20
-1159390.67798897
 10
-600841.635000002
 20
-1159389.103
 10
-600841.497206321
 20
-1159387.52801103
 10
-600841.088012072
 20
-1159386.0008773
 10
-600840.419850414
 20
-1159384.568
 10
-600839.513023101
 20
-1159383.27291638
 10
-600838.395083621
 20
-1159382.1549769
 10
-600837.100000001
 20
-1159381.24814959
 10
-600835.667122701
 20
-1159380.57998793
 10
-600834.139988973
 20
-1159380.17079368
 10
-600832.565000001
 20
-1159380.033
 97
0
 75
0
 76
1
 98
0
  0
HATCH
  5
20093
100
AcDbEntity
  8
0
100
AcDbHatch
 10
0
 20
0
 30
0
210
0
220
0
230
1
  2
SOLID
 70
1
 71
0
 91
1
 92
2
 72
0
 73
1
 93
37
 10
-600846.625999998
 20
-1159401.69
 10
-600846.289122534
 20
-1159401.71947296
 10
-600845.962480921
 20
-1159401.80699632
 10
-600845.655999999
 20
-1159401.94991072
 10
-600845.378992037
 20
-1159402.14387378
 10
-600845.13987378
 20
-1159402.38299204
 10
-600844.945910717
 20
-1159402.66
 10
-600844.802996316
 20
-1159402.96648092
 10
-600844.71547296
 20
-1159403.29312253
 10
-600844.686000001
 20
-1159403.63
 10
-600844.71547296
 20
-1159403.96687746
 10
-600844.802996316
 20
-1159404.29351908
 10
-600844.945910717
 20
-1159404.6
 10
-600845.13987378
 20
-1159404.87700796
 10
-600845.378992037
 20
-1159405.11612622
 10
-600845.655999999
 20
-1159405.31008928
 10
-600845.962480921
 20
-1159405.45300368
 10
-600846.289122534
 20
-1159405.54052704
 10
-600846.625999998
 20
-1159405.57
 10
-600846.962877463
 20
-1159405.54052704
 10
-600847.289519076
 20
-1159405.45300368
 10
-600847.595999997
 20
-1159405.31008928
 10
-600847.87300796
 20
-1159405.11612622
 10
-600848.112126216
 20
-1159404.87700796
 10
-600848.30608928
 20
-1159404.6
 10
-600848.44900368
 20
-1159404.29351908
 10
-600848.536527037
 20
-1159403.96687746
 10
-600848.565999996
 20
-1159403.63
 10
-600848.536527037
 20
-1159403.29312253
 10
-600848.44900368
 20
-1159402.96648092
 10
-600848.30608928
 20
-1159402.66
 10
-600848.112126216
 20
-1159402.38299204
 10
-600847.87300796
 20
-1159402.14387378
 10
-600847.595999997
 20
-1159401.94991072
 10
-600847.289519076
 20
-1159401.80699632
 10
-600846.962877463
 20
-1159401.71947296
 10
-600846.625999998
 20
-1159401.69
 97
0
 75
0
 76
1
 98
0
  0
HATCH
  5
20094
100
AcDbEntity
  8
0
100
AcDbHatch
 10
0
 20
0
 30
0
210
0
220
0
230
1
  2
SOLID
 70
1
 71
0
 91
1
 92
2
 72
0
 73
1
 93
37
 10
-600846.471000001
 20
-1159382.903
 10
-600845.017564754
 20
-1159383.03015911
 10
-600843.608291402
 20
-1159383.40777276
 10
-600842.286000002
 20
-1159384.02436737
 10
-600841.090867709
 20
-1159384.86120801
 10
-600840.059208014
 20
-1159385.89286771
 10
-600839.222367374
 20
-1159387.088
 10
-600838.605772767
 20
-1159388.4102914
 10
-600838.228159111
 20
-1159389.81956475
 10
-600838.101000004
 20
-1159391.273
 10
-600838.228159111
 20
-1159392.72643524
 10
-600838.605772767
 20
-1159394.1357086
 10
-600839.222367374
 20
-1159395.458
 10
-600840.059208014
 20
-1159396.65313229
 10
-600841.090867709
 20
-1159397.68479198
 10
-600842.286000002
 20
-1159398.52163263
 10
-600843.608291402
 20
-1159399.13822723
 10
-600845.017564754
 20
-1159399.51584089
 10
-600846.471000001
 20
-1159399.643
 10
-600847.924435247
 20
-1159399.51584089
 10
-600849.3337086
 20
-1159399.13822723
 10
-600850.655999999
 20
-1159398.52163263
 10
-600851.851132292
 20
-1159397.68479198
 10
-600852.882791988
 20
-1159396.65313229
 10
-600853.719632628
 20
-1159395.458
 10
-600854.336227234
 20
-1159394.1357086
 10
-600854.713840891
 20
-1159392.72643524
 10
-600854.840999998
 20
-1159391.273
 10
-600854.713840891
 20
-1159389.81956475
 10
-600854.336227234
 20
-1159388.4102914
 10
-600853.719632628
 20
-1159387.088
 10
-600852.882791988
 20
-1159385.89286771
 10
-600851.851132292
 20
-1159384.86120801
 10
-600850.655999999
 20
-1159384.02436737
 10
-600849.3337086
 20
-1159383.40777276
 10
-600847.924435247
 20
-1159383.03015911
 10
-600846.471000001
 20
-1159382.903
 97
0
 75
0
 76
1
 98
0
  0
HATCH
  5
20095
100
AcDbEntity
  8
0
100
AcDbHatch
 10
0
 20
0
 30
0
210
0
220
0
230
1
  2
SOLID
 70
1
 71
0
 91
1
 92
2
 72
0
 73
1
 93
37
 10
-600861.579
 20
-1159409.307
 10
-600860.10299049
 20
-1159409.4361341
 10
-600858.671828782
 20
-1159409.81961272
 10
-600857.329
 20
-1159410.44578407
 10
-600856.115305318
 20
-1159411.29562223
 10
-600855.067622233
 20
-1159412.34330532
 10
-600854.217784068
 20
-1159413.557
 10
-600853.591612723
 20
-1159414.89982878
 10
-600853.208134099
 20
-1159416.33099049
 10
-600853.079
 20
-1159417.807
 10
-600853.208134099
 20
-1159419.28300951
 10
-600853.591612723
 20
-1159420.71417122
 10
-600854.217784068
 20
-1159422.057
 10
-600855.067622233
 20
-1159423.27069468
 10
-600856.115305318
 20
-1159424.31837777
 10
-600857.329
 20
-1159425.16821593
 10
-600858.671828782
 20
-1159425.79438728
 10
-600860.10299049
 20
-1159426.1778659
 10
-600861.579
 20
-1159426.307
 10
-600863.05500951
 20
-1159426.1778659
 10
-600864.486171218
 20
-1159425.79438728
 10
-600865.829
 20
-1159425.16821593
 10
-600867.042694682
 20
-1159424.31837777
 10
-600868.090377766
 20
-1159423.27069468
 10
-600868.940215932
 20
-1159422.057
 10
-600869.566387277
 20
-1159420.71417122
 10
-600869.949865901
 20
-1159419.28300951
 10
-600870.079
 20
-1159417.807
 10
-600869.949865901
 20
-1159416.33099049
 10
-600869.566387277
 20
-1159414.89982878
 10
-600868.940215932
 20
-1159413.557
 10
-600868.090377766
 20
-1159412.34330532
 10
-600867.042694682
 20
-1159411.29562223
 10
-600865.829
 20
-1159410.44578407
 10
-600864.486171218
 20
-1159409.81961272
 10
-600863.05500951
 20
-1159409.4361341
 10
-600861.579
 20
-1159409.307
 97
0
 75
0
 76
1
 98
0
  0
HATCH
  5
20096
100
AcDbEntity
  8
0
100
AcDbHatch
 10
0
 20
0
 30
0
210
0
220
0
230
1
  2
SOLID
 70
1
 71
0
 91
1
 92
2
 72
0
 73
1
 93
37
 10
-600875.214000002
 20
-1159423.21
 10
-600873.770983645
 20
-1159423.33624757
 10
-600872.371812611
 20
-1159423.71115432
 10
-600871.059000002
 20
-1159424.3233289
 10
-600869.872434966
 20
-1159425.15417068
 10
-600868.84817068
 20
-1159426.17843496
 10
-600868.017328897
 20
-1159427.365
 10
-600867.405154324
 20
-1159428.67781261
 10
-600867.030247575
 20
-1159430.07698364
 10
-600866.904000003
 20
-1159431.52
 10
-600867.030247575
 20
-1159432.96301636
 10
-600867.405154324
 20
-1159434.36218739
 10
-600868.017328897
 20
-1159435.675
 10
-600868.84817068
 20
-1159436.86156504
 10
-600869.872434966
 20
-1159437.88582932
 10
-600871.059000002
 20
-1159438.7166711
 10
-600872.371812611
 20
-1159439.32884568
 10
-600873.770983645
 20
-1159439.70375243
 10
-600875.214000002
 20
-1159439.83
 10
-600876.657016358
 20
-1159439.70375243
 10
-600878.056187392
 20
-1159439.32884568
 10
-600879.369000001
 20
-1159438.7166711
 10
-600880.555565037
 20
-1159437.88582932
 10
-600881.579829323
 20
-1159436.86156504
 10
-600882.410671106
 20
-1159435.675
 10
-600883.022845679
 20
-1159434.36218739
 10
-600883.397752428
 20
-1159432.96301636
 10
-600883.524
 20
-1159431.52
 10
-600883.397752428
 20
-1159430.07698364
 10
-600883.022845679
 20
-1159428.67781261
 10
-600882.410671106
 20
-1159427.365
 10
-600881.579829323
 20
-1159426.17843496
 10
-600880.555565037
 20
-1159425.15417068
 10
-600879.369000001
 20
-1159424.3233289
 10
-600878.056187392
 20
-1159423.71115432
 10
-600876.657016358
 20
-1159423.33624757
 10
-600875.214000002
 20
-1159423.21
 97
0
 75
0
 76
1
 98
0
  0
HATCH
  5
20097
100
AcDbEntity
  8
0
100
AcDbHatch
 10
0
 20
0
 30
0
210
0
220
0
230
1
  2
SOLID
 70
1
 71
0
 91
1
 92
2
 72
0
 73
1
 93
37
 10
-600890.011999998
 20
-1159438.158
 10
-600888.702692739
 20
-1159438.27254954
 10
-600887.433168118
 20
-1159438.61271764
 10
-600886.241999999
 20
-1159439.16816846
 10
-600885.165381422
 20
-1159439.9220249
 10
-600884.236024898
 20
-1159440.85138142
 10
-600883.482168454
 20
-1159441.928
 10
-600882.926717638
 20
-1159443.11916812
 10
-600882.586549541
 20
-1159444.38869274
 10
-600882.471999999
 20
-1159445.698
 10
-600882.586549541
 20
-1159447.00730726
 10
-600882.926717638
 20
-1159448.27683188
 10
-600883.482168454
 20
-1159449.468
 10
-600884.236024898
 20
-1159450.54461858
 10
-600885.165381422
 20
-1159451.4739751
 10
-600886.241999999
 20
-1159452.22783154
 10
-600887.433168118
 20
-1159452.78328236
 10
-600888.702692739
 20
-1159453.12345046
 10
-600890.011999998
 20
-1159453.238
 10
-600891.321307258
 20
-1159453.12345046
 10
-600892.590831879
 20
-1159452.78328236
 10
-600893.781999998
 20
-1159452.22783154
 10
-600894.858618575
 20
-1159451.4739751
 10
-600895.787975099
 20
-1159450.54461858
 10
-600896.541831542
 20
-1159449.468
 10
-600897.097282358
 20
-1159448.27683188
 10
-600897.437450455
 20
-1159447.00730726
 10
-600897.551999997
 20
-1159445.698
 10
-600897.437450455
 20
-1159444.38869274
 10
-600897.097282358
 20
-1159443.11916812
 10
-600896.541831542
 20
-1159441.928
 10
-600895.787975099
 20
-1159440.85138142
 10
-600894.858618575
 20
-1159439.9220249
 10
-600893.781999998
 20
-1159439.16816846
 10
-600892.590831879
 20
-1159438.61271764
 10
-600891.321307258
 20
-1159438.27254954
 10
-600890.011999998
 20
-1159438.158
 97
0
 75
0
 76
1
 98
0
  0
HATCH
  5
20098
100
AcDbEntity
  8
0
100
AcDbHatch
 10
0
 20
0
 30
0
210
0
220
0
230
1
  2
SOLID
 70
1
 71
0
 91
1
 92
2
 72
0
 73
1
 93
37
 10
-600775.699000001
 20
-1159311.204
 10
-600774.2125716
 20
-1159311.33404563
 10
-600772.771307575
 20
-1159311.72023117
 10
-600771.419000002
 20
-1159312.35082254
 10
-600770.196738063
 20
-1159313.20665957
 10
-600769.141659569
 20
-1159314.26173806
 10
-600768.285822546
 20
-1159315.484
 10
-600767.655231168
 20
-1159316.83630757
 10
-600767.269045637
 20
-1159318.2775716
 10
-600767.139000002
 20
-1159319.764
 10
-600767.269045637
 20
-1159321.2504284
 10
-600767.655231168
 20
-1159322.69169242
 10
-600768.285822546
 20
-1159324.044
 10
-600769.141659569
 20
-1159325.26626194
 10
-600770.196738063
 20
-1159326.32134043
 10
-600771.419000002
 20
-1159327.17717745
 10
-600772.771307575
 20
-1159327.80776883
 10
-600774.2125716
 20
-1159328.19395436
 10
-600775.699000001
 20
-1159328.324
 10
-600777.185428402
 20
-1159328.19395436
 10
-600778.626692427
 20
-1159327.80776883
 10
-600779.979
 20
-1159327.17717745
 10
-600781.201261939
 20
-1159326.32134043
 10
-600782.256340433
 20
-1159325.26626194
 10
-600783.112177456
 20
-1159324.044
 10
-600783.742768834
 20
-1159322.69169242
 10
-600784.128954365
 20
-1159321.2504284
 10
-600784.259
 20
-1159319.764
 10
-600784.128954365
 20
-1159318.2775716
 10
-600783.742768834
 20
-1159316.83630757
 10
-600783.112177456
 20
-1159315.484
 10
-600782.256340433
 20
-1159314.26173806
 10
-600781.201261939
 20
-1159313.20665957
 10
-600779.979
 20
-1159312.35082254
 10
-600778.626692427
 20
-1159311.72023117
 10
-600777.185428402
 20
-1159311.33404563
 10
-600775.699000001
 20
-1159311.204
 97
0
 75
0
 76
1
 98
0
  0
HATCH
  5
20099
100
AcDbEntity
  8
0
100
AcDbHatch
 10
0
 20
0
 30
0
210
0
220
0
230
1
  2
SOLID
 70
1
 71
0
 91
1
 92
2
 72
0
 73
1
 93
37
 10
-600764.541999999
 20
-1159291.637
 10
-600762.711748206
 20
-1159291.79712628
 10
-600760.937107688
 20
-1159292.27263978
 10
-600759.271999998
 20
-1159293.04909224
 10
-600757.767018592
 20
-1159294.10289157
 10
-600756.467891567
 20
-1159295.40201859
 10
-600755.414092241
 20
-1159296.907
 10
-600754.637639774
 20
-1159298.57210769
 10
-600754.16212628
 20
-1159300.34674821
 10
-600754.001999997
 20
-1159302.177
 10
-600754.16212628
 20
-1159304.00725179
 10
-600754.637639774
 20
-1159305.78189231
 10
-600755.414092241
 20
-1159307.447
 10
-600756.467891567
 20
-1159308.95198141
 10
-600757.767018592
 20
-1159310.25110843
 10
-600759.271999998
 20
-1159311.30490776
 10
-600760.937107688
 20
-1159312.08136023
 10
-600762.711748206
 20
-1159312.55687372
 10
-600764.541999999
 20
-1159312.717
 10
-600766.372251793
 20
-1159312.55687372
 10
-600768.146892311
 20
-1159312.08136023
 10
-600769.812000001
 20
-1159311.30490776
 10
-600771.316981407
 20
-1159310.25110843
 10
-600772.616108432
 20
-1159308.95198141
 10
-600773.669907758
 20
-1159307.447
 10
-600774.446360225
 20
-1159305.78189231
 10
-600774.921873719
 20
-1159304.00725179
 10
-600775.082000002
 20
-1159302.177
 10
-600774.921873719
 20
-1159300.34674821
 10
-600774.446360225
 20
-1159298.57210769
 10
-600773.669907758
 20
-1159296.907
 10
-600772.616108432
 20
-1159295.40201859
 10
-600771.316981407
 20
-1159294.10289157
 10
-600769.812000001
 20
-1159293.04909224
 10
-600768.146892311
 20
-1159292.27263978
 10
-600766.372251793
 20
-1159291.79712628
 10
-600764.541999999
 20
-1159291.637
 97
0
 75
0
 76
1
 98
0
  0
HATCH
  5
2009A
100
AcDbEntity
  8
0
100
AcDbHatch
 10
0
 20
0
 30
0
210
0
220
0
230
1
  2
SOLID
 70
1
 71
0
 91
1
 92
2
 72
0
 73
1
 93
37
 10
-600756.252999999
 20
-1159277.903
 10
-600754.997523674
 20
-1159278.01283995
 10
-600753.780194362
 20
-1159278.33902235
 10
-600752.637999998
 20
-1159278.87163633
 10
-600751.60564558
 20
-1159279.59449868
 10
-600750.714498674
 20
-1159280.48564558
 10
-600749.991636329
 20
-1159281.518
 10
-600749.45902235
 20
-1159282.66019436
 10
-600749.132839944
 20
-1159283.87752368
 10
-600749.022999998
 20
-1159285.133
 10
-600749.132839944
 20
-1159286.38847633
 10
-600749.45902235
 20
-1159287.60580564
 10
-600749.991636329
 20
-1159288.748
 10
-600750.714498674
 20
-1159289.78035442
 10
-600751.60564558
 20
-1159290.67150133
 10
-600752.637999998
 20
-1159291.39436367
 10
-600753.780194362
 20
-1159291.92697765
 10
-600754.997523674
 20
-1159292.25316006
 10
-600756.252999999
 20
-1159292.363
 10
-600757.508476323
 20
-1159292.25316006
 10
-600758.725805635
 20
-1159291.92697765
 10
-600759.867999999
 20
-1159291.39436367
 10
-600760.900354417
 20
-1159290.67150133
 10
-600761.791501323
 20
-1159289.78035442
 10
-600762.514363668
 20
-1159288.748
 10
-600763.046977647
 20
-1159287.60580564
 10
-600763.373160053
 20
-1159286.38847633
 10
-600763.482999999
 20
-1159285.133
 10
-600763.373160053
 20
-1159283.87752368
 10
-600763.046977647
 20
-1159282.66019436
 10
-600762.514363668
 20
-1159281.518
 10
-600761.791501323
 20
-1159280.48564558
 10
-600760.900354417
 20
-1159279.59449868
 10
-600759.867999999
 20
-1159278.87163633
 10
-600758.725805635
 20
-1159278.33902235
 10
-600757.508476323
 20
-1159278.01283995
 10
-600756.252999999
 20
-1159277.903
 97
0
 75
0
 76
1
 98
0
  0
HATCH
  5
2009B
100
AcDbEntity
  8
0
100
AcDbHatch
 10
0
 20
0
 30
0
210
0
220
0
230
1
  2
SOLID
 70
1
 71
0
 91
1
 92
2
 72
0
 73
1
 93
37
 10
-600732.662
 20
-1159218.646
 10
-600730.560857051
 20
-1159218.82982619
 10
-600728.523556267
 20
-1159219.37571929
 10
-600726.612000002
 20
-1159220.26709262
 10
-600724.884269925
 20
-1159221.47686224
 10
-600723.39286224
 20
-1159222.96826992
 10
-600722.183092617
 20
-1159224.696
 10
-600721.291719291
 20
-1159226.60755627
 10
-600720.745826191
 20
-1159228.64485705
 10
-600720.562000003
 20
-1159230.746
 10
-600720.745826191
 20
-1159232.84714295
 10
-600721.291719291
 20
-1159234.88444373
 10
-600722.183092617
 20
-1159236.796
 10
-600723.39286224
 20
-1159238.52373008
 10
-600724.884269925
 20
-1159240.01513776
 10
-600726.612000002
 20
-1159241.22490738
 10
-600728.523556267
 20
-1159242.11628071
 10
-600730.560857051
 20
-1159242.66217381
 10
-600732.662
 20
-1159242.846
 10
-600734.76314295
 20
-1159242.66217381
 10
-600736.800443734
 20
-1159242.11628071
 10
-600738.711999999
 20
-1159241.22490738
 10
-600740.439730076
 20
-1159240.01513776
 10
-600741.931137761
 20
-1159238.52373008
 10
-600743.140907384
 20
-1159236.796
 10
-600744.03228071
 20
-1159234.88444373
 10
-600744.57817381
 20
-1159232.84714295
 10
-600744.761999998
 20
-1159230.746
 10
-600744.57817381
 20
-1159228.64485705
 10
-600744.03228071
 20
-1159226.60755627
 10
-600743.140907384
 20
-1159224.696
 10
-600741.931137761
 20
-1159222.96826992
 10
-600740.439730076
 20
-1159221.47686224
 10
-600738.711999999
 20
-1159220.26709262
 10
-600736.800443734
 20
-1159219.37571929
 10
-600734.76314295
 20
-1159218.82982619
 10
-600732.662
 20
-1159218.646
 97
0
 75
0
 76
1
 98
0
  0
HATCH
  5
2009C
100
AcDbEntity
  8
0
100
AcDbHatch
 10
0
 20
0
 30
0
210
0
220
0
230
1
  2
SOLID
 70
1
 71
0
 91
1
 92
2
 72
0
 73
1
 93
37
 10
-600725.030000001
 20
-1159205.032
 10
-600723.632132172
 20
-1159205.15429759
 10
-600722.276737848
 20
-1159205.5174744
 10
-600721.005000003
 20
-1159206.1104955
 10
-600719.855559745
 20
-1159206.91534223
 10
-600718.863342236
 20
-1159207.90755974
 10
-600718.058495503
 20
-1159209.057
 10
-600717.465474407
 20
-1159210.32873785
 10
-600717.102297592
 20
-1159211.68413217
 10
-600716.980000004
 20
-1159213.082
 10
-600717.102297592
 20
-1159214.47986783
 10
-600717.465474407
 20
-1159215.83526215
 10
-600718.058495503
 20
-1159217.107
 10
-600718.863342236
 20
-1159218.25644025
 10
-600719.855559745
 20
-1159219.24865776
 10
-600721.005000003
 20
-1159220.0535045
 10
-600722.276737848
 20
-1159220.64652559
 10
-600723.632132172
 20
-1159221.00970241
 10
-600725.030000001
 20
-1159221.132
 10
-600726.427867831
 20
-1159221.00970241
 10
-600727.783262154
 20
-1159220.64652559
 10
-600729.055
 20
-1159220.0535045
 10
-600730.204440257
 20
-1159219.24865776
 10
-600731.196657766
 20
-1159218.25644025
 10
-600732.001504499
 20
-1159217.107
 10
-600732.594525596
 20
-1159215.83526215
 10
-600732.95770241
 20
-1159214.47986783
 10
-600733.079999998
 20
-1159213.082
 10
-600732.95770241
 20
-1159211.68413217
 10
-600732.594525596
 20
-1159210.32873785
 10
-600732.001504499
 20
-1159209.057
 10
-600731.196657766
 20
-1159207.90755974
 10
-600730.204440257
 20
-1159206.91534223
 10
-600729.055
 20
-1159206.1104955
 10
-600727.783262154
 20
-1159205.5174744
 10
-600726.427867831
 20
-1159205.15429759
 10
-600725.030000001
 20
-1159205.032
 97
0
 75
0
 76
1
 98
0
  0
HATCH
  5
2009D
100
AcDbEntity
  8
0
100
AcDbHatch
 10
0
 20
0
 30
0
210
0
220
0
230
1
  2
SOLID
 70
1
 71
0
 91
1
 92
2
 72
0
 73
1
 93
37
 10
-600707.072500002
 20
-1159164.7349
 10
-600705.39853157
 20
-1159164.88135326
 10
-600703.775425821
 20
-1159165.31626314
 10
-600702.252500003
 20
-1159166.02641511
 10
-600700.876027446
 20
-1159166.99023157
 10
-600699.687831572
 20
-1159168.17842744
 10
-600698.724015112
 20
-1159169.5549
 10
-600698.01386314
 20
-1159171.07782582
 10
-600697.578953266
 20
-1159172.70093157
 10
-600697.432500005
 20
-1159174.3749
 10
-600697.578953266
 20
-1159176.04886843
 10
-600698.01386314
 20
-1159177.67197418
 10
-600698.724015112
 20
-1159179.1949
 10
-600699.687831572
 20
-1159180.57137255
 10
-600700.876027446
 20
-1159181.75956843
 10
-600702.252500003
 20
-1159182.72338489
 10
-600703.775425821
 20
-1159183.43353686
 10
-600705.39853157
 20
-1159183.86844673
 10
-600707.072500002
 20
-1159184.0149
 10
-600708.746468434
 20
-1159183.86844673
 10
-600710.369574182
 20
-1159183.43353686
 10
-600711.8925
 20
-1159182.72338489
 10
-600713.268972557
 20
-1159181.75956843
 10
-600714.457168431
 20
-1159180.57137255
 10
-600715.420984891
 20
-1159179.1949
 10
-600716.131136863
 20
-1159177.67197418
 10
-600716.566046738
 20
-1159176.04886843
 10
-600716.712499999
 20
-1159174.3749
 10
-600716.566046738
 20
-1159172.70093157
 10
-600716.131136863
 20
-1159171.07782582
 10
-600715.420984891
 20
-1159169.5549
 10
-600714.457168431
 20
-1159168.17842744
 10
-600713.268972557
 20
-1159166.99023157
 10
-600711.8925
 20
-1159166.02641511
 10
-600710.369574182
 20
-1159165.31626314
 10
-600708.746468434
 20
-1159164.88135326
 10
-600707.072500002
 20
-1159164.7349
 97
0
 75
0
 76
1
 98
0
  0
HATCH
  5
2009E
100
AcDbEntity
  8
0
100
AcDbHatch
 10
0
 20
0
 30
0
210
0
220
0
230
1
  2
SOLID
 70
1
 71
0
 91
1
 92
2
 72
0
 73
1
 93
37
 10
-600700.625999998
 20
-1159147.666
 10
-600698.929457303
 20
-1159147.81442825
 10
-600697.284463198
 20
-1159148.2552031
 10
-600695.740999999
 20
-1159148.97493181
 10
-600694.345965052
 20
-1159149.95174579
 10
-600693.141745789
 20
-1159151.15596505
 10
-600692.164931804
 20
-1159152.551
 10
-600691.445203094
 20
-1159154.0944632
 10
-600691.004428252
 20
-1159155.73945731
 10
-600690.855999999
 20
-1159157.436
 10
-600691.004428252
 20
-1159159.1325427
 10
-600691.445203094
 20
-1159160.7775368
 10
-600692.164931804
 20
-1159162.321
 10
-600693.141745789
 20
-1159163.71603495
 10
-600694.345965052
 20
-1159164.92025421
 10
-600695.740999999
 20
-1159165.8970682
 10
-600697.284463198
 20
-1159166.61679691
 10
-600698.929457303
 20
-1159167.05757175
 10
-600700.625999998
 20
-1159167.206
 10
-600702.322542694
 20
-1159167.05757175
 10
-600703.967536798
 20
-1159166.61679691
 10
-600705.510999998
 20
-1159165.8970682
 10
-600706.906034945
 20
-1159164.92025421
 10
-600708.110254207
 20
-1159163.71603495
 10
-600709.087068193
 20
-1159162.321
 10
-600709.806796903
 20
-1159160.7775368
 10
-600710.247571745
 20
-1159159.1325427
 10
-600710.395999998
 20
-1159157.436
 10
-600710.247571745
 20
-1159155.73945731
 10
-600709.806796903
 20
-1159154.0944632
 10
-600709.087068193
 20
-1159152.551
 10
-600708.110254207
 20
-1159151.15596505
 10
-600706.906034945
 20
-1159149.95174579
 10
-600705.510999998
 20
-1159148.97493181
 10
-600703.967536798
 20
-1159148.2552031
 10
-600702.322542694
 20
-1159147.81442825
 10
-600700.625999998
 20
-1159147.666
 97
0
 75
0
 76
1
 98
0
  0
HATCH
  5
2009F
100
AcDbEntity
  8
0
100
AcDbHatch
 10
0
 20
0
 30
0
210
0
220
0
230
1
  2
SOLID
 70
1
 71
0
 91
1
 92
2
 72
0
 73
1
 93
37
 10
-600692.646000002
 20
-1159129.365
 10
-600690.744552456
 20
-1159129.5313551
 10
-600688.900879431
 20
-1159130.0253658
 10
-600687.171
 20
-1159130.83202183
 10
-600685.607475674
 20
-1159131.92681335
 10
-600684.257813347
 20
-1159133.27647567
 10
-600683.163021828
 20
-1159134.84
 10
-600682.356365801
 20
-1159136.56987943
 10
-600681.862355103
 20
-1159138.41355246
 10
-600681.695999999
 20
-1159140.315
 10
-600681.862355103
 20
-1159142.21644755
 10
-600682.356365801
 20
-1159144.06012057
 10
-600683.163021828
 20
-1159145.79
 10
-600684.257813347
 20
-1159147.35352433
 10
-600685.607475674
 20
-1159148.70318666
 10
-600687.171
 20
-1159149.79797818
 10
-600688.900879431
 20
-1159150.6046342
 10
-600690.744552456
 20
-1159151.0986449
 10
-600692.646000002
 20
-1159151.265
 10
-600694.547447548
 20
-1159151.0986449
 10
-600696.391120572
 20
-1159150.6046342
 10
-600698.121000003
 20
-1159149.79797818
 10
-600699.68452433
 20
-1159148.70318666
 10
-600701.034186656
 20
-1159147.35352433
 10
-600702.128978176
 20
-1159145.79
 10
-600702.935634202
 20
-1159144.06012057
 10
-600703.4296449
 20
-1159142.21644755
 10
-600703.596000005
 20
-1159140.315
 10
-600703.4296449
 20
-1159138.41355246
 10
-600702.935634202
 20
-1159136.56987943
 10
-600702.128978176
 20
-1159134.84
 10
-600701.034186656
 20
-1159133.27647567
 10
-600699.68452433
 20
-1159131.92681335
 10
-600698.121000003
 20
-1159130.83202183
 10
-600696.391120572
 20
-1159130.0253658
 10
-600694.547447548
 20
-1159129.5313551
 10
-600692.646000002
 20
-1159129.365
 97
0
 75
0
 76
1
 98
0
  0
HATCH
  5
200A0
100
AcDbEntity
  8
0
100
AcDbHatch
 10
0
 20
0
 30
0
210
0
220
0
230
1
  2
SOLID
 70
1
 71
0
 91
1
 92
2
 72
0
 73
1
 93
37
 10
-600684.23
 20
-1159112.96
 10
-600682.604653058
 20
-1159113.10219943
 10
-600681.028691459
 20
-1159113.52447707
 10
-600679.550000001
 20
-1159114.21400222
 10
-600678.213507974
 20
-1159115.14982401
 10
-600677.059824013
 20
-1159116.30350797
 10
-600676.124002222
 20
-1159117.64
 10
-600675.43447707
 20
-1159119.11869146
 10
-600675.012199433
 20
-1159120.69465306
 10
-600674.870000001
 20
-1159122.32
 10
-600675.012199433
 20
-1159123.94534694
 10
-600675.43447707
 20
-1159125.52130854
 10
-600676.124002222
 20
-1159127
 10
-600677.059824013
 20
-1159128.33649203
 10
-600678.213507974
 20
-1159129.49017599
 10
-600679.550000001
 20
-1159130.42599778
 10
-600681.028691459
 20
-1159131.11552293
 10
-600682.604653058
 20
-1159131.53780057
 10
-600684.23
 20
-1159131.68
 10
-600685.855346943
 20
-1159131.53780057
 10
-600687.431308542
 20
-1159131.11552293
 10
-600688.91
 20
-1159130.42599778
 10
-600690.246492027
 20
-1159129.49017599
 10
-600691.400175988
 20
-1159128.33649203
 10
-600692.335997779
 20
-1159127
 10
-600693.02552293
 20
-1159125.52130854
 10
-600693.447800568
 20
-1159123.94534694
 10
-600693.59
 20
-1159122.32
 10
-600693.447800568
 20
-1159120.69465306
 10
-600693.02552293
 20
-1159119.11869146
 10
-600692.335997779
 20
-1159117.64
 10
-600691.400175988
 20
-1159116.30350797
 10
-600690.246492027
 20
-1159115.14982401
 10
-600688.91
 20
-1159114.21400222
 10
-600687.431308542
 20
-1159113.52447707
 10
-600685.855346943
 20
-1159113.10219943
 10
-600684.23
 20
-1159112.96
 97
0
 75
0
 76
1
 98
0
  0
HATCH
  5
200A1
100
AcDbEntity
  8
0
100
AcDbHatch
 10
0
 20
0
 30
0
210
0
220
0
230
1
  2
SOLID
 70
1
 71
0
 91
1
 92
2
 72
0
 73
1
 93
37
 10
-600831.866999999
 20
-1159366.793
 10
-600830.22602472
 20
-1159366.93656674
 10
-600828.634909644
 20
-1159367.36290473
 10
-600827.141999999
 20
-1159368.05905994
 10
-600825.792657088
 20
-1159369.00388001
 10
-600824.627880012
 20
-1159370.16865709
 10
-600823.683059934
 20
-1159371.518
 10
-600822.986904733
 20
-1159373.01090965
 10
-600822.560566733
 20
-1159374.60202472
 10
-600822.416999999
 20
-1159376.243
 10
-600822.560566733
 20
-1159377.88397528
 10
-600822.986904733
 20
-1159379.47509035
 10
-600823.683059934
 20
-1159380.968
 10
-600824.627880012
 20
-1159382.31734291
 10
-600825.792657088
 20
-1159383.48211999
 10
-600827.141999999
 20
-1159384.42694007
 10
-600828.634909644
 20
-1159385.12309527
 10
-600830.22602472
 20
-1159385.54943327
 10
-600831.866999999
 20
-1159385.693
 10
-600833.507975277
 20
-1159385.54943327
 10
-600835.099090353
 20
-1159385.12309527
 10
-600836.591999998
 20
-1159384.42694007
 10
-600837.94134291
 20
-1159383.48211999
 10
-600839.106119986
 20
-1159382.31734291
 10
-600840.050940064
 20
-1159380.968
 10
-600840.747095264
 20
-1159379.47509035
 10
-600841.173433264
 20
-1159377.88397528
 10
-600841.316999998
 20
-1159376.243
 10
-600841.173433264
 20
-1159374.60202472
 10
-600840.747095264
 20
-1159373.01090965
 10
-600840.050940064
 20
-1159371.518
 10
-600839.106119986
 20
-1159370.16865709
 10
-600837.94134291
 20
-1159369.00388001
 10
-600836.591999998
 20
-1159368.05905994
 10
-600835.099090353
 20
-1159367.36290473
 10
-600833.507975277
 20
-1159366.93656674
 10
-600831.866999999
 20
-1159366.793
 97
0
 75
0
 76
1
 98
0
  0
HATCH
  5
200A2
100
AcDbEntity
  8
0
100
AcDbHatch
 10
0
 20
0
 30
0
210
0
220
0
230
1
  2
SOLID
 70
1
 71
0
 91
1
 92
2
 72
0
 73
1
 93
37
 10
-600665.949999999
 20
-1159087.1799
 10
-600664.119748207
 20
-1159087.34002629
 10
-600662.345107689
 20
-1159087.81553978
 10
-600660.68
 20
-1159088.59199225
 10
-600659.175018594
 20
-1159089.64579157
 10
-600657.875891569
 20
-1159090.9449186
 10
-600656.822092244
 20
-1159092.4499
 10
-600656.045639777
 20
-1159094.11500769
 10
-600655.570126283
 20
-1159095.88964821
 10
-600655.41
 20
-1159097.7199
 10
-600655.570126283
 20
-1159099.55015179
 10
-600656.045639777
 20
-1159101.32479231
 10
-600656.822092244
 20
-1159102.9899
 10
-600657.875891569
 20
-1159104.49488141
 10
-600659.175018594
 20
-1159105.79400843
 10
-600660.68
 20
-1159106.84780776
 10
-600662.345107689
 20
-1159107.62426022
 10
-600664.119748207
 20
-1159108.09977372
 10
-600665.949999999
 20
-1159108.2599
 10
-600667.780251792
 20
-1159108.09977372
 10
-600669.55489231
 20
-1159107.62426022
 10
-600671.219999999
 20
-1159106.84780776
 10
-600672.724981405
 20
-1159105.79400843
 10
-600674.024108429
 20
-1159104.49488141
 10
-600675.077907754
 20
-1159102.9899
 10
-600675.854360222
 20
-1159101.32479231
 10
-600676.329873715
 20
-1159099.55015179
 10
-600676.489999998
 20
-1159097.7199
 10
-600676.329873715
 20
-1159095.88964821
 10
-600675.854360222
 20
-1159094.11500769
 10
-600675.077907754
 20
-1159092.4499
 10
-600674.024108429
 20
-1159090.9449186
 10
-600672.724981405
 20
-1159089.64579157
 10
-600671.219999999
 20
-1159088.59199225
 10
-600669.55489231
 20
-1159087.81553978
 10
-600667.780251792
 20
-1159087.34002629
 10
-600665.949999999
 20
-1159087.1799
 97
0
 75
0
 76
1
 98
0
  0
HATCH
  5
200A3
100
AcDbEntity
  8
0
100
AcDbHatch
 10
0
 20
0
 30
0
210
0
220
0
230
1
  2
SOLID
 70
1
 71
0
 91
1
 92
2
 72
0
 73
1
 93
37
 10
-600904.5
 20
-1159450.41
 10
-600902.87
 20
-1159450.55
 10
-600901.29
 20
-1159450.97
 10
-600899.8
 20
-1159451.67
 10
-600898.46
 20
-1159452.6
 10
-600897.31
 20
-1159453.76
 10
-600896.37
 20
-1159455.1
 10
-600895.68
 20
-1159456.59
 10
-600895.25
 20
-1159458.17
 10
-600895.11
 20
-1159459.8
 10
-600895.25
 20
-1159461.43
 10
-600895.68
 20
-1159463.01
 10
-600896.37
 20
-1159464.49
 10
-600897.31
 20
-1159465.83
 10
-600898.46
 20
-1159466.99
 10
-600899.8
 20
-1159467.93
 10
-600901.29
 20
-1159468.62
 10
-600902.87
 20
-1159469.05
 10
-600904.5
 20
-1159469.19
 10
-600906.13
 20
-1159469.05
 10
-600907.71
 20
-1159468.62
 10
-600909.19
 20
-1159467.93
 10
-600910.53
 20
-1159466.99
 10
-600911.69
 20
-1159465.83
 10
-600912.63
 20
-1159464.49
 10
-600913.32
 20
-1159463.01
 10
-600913.75
 20
-1159461.43
 10
-600913.89
 20
-1159459.8
 10
-600913.75
 20
-1159458.17
 10
-600913.32
 20
-1159456.59
 10
-600912.63
 20
-1159455.1
 10
-600911.69
 20
-1159453.76
 10
-600910.53
 20
-1159452.6
 10
-600909.19
 20
-1159451.67
 10
-600907.71
 20
-1159450.97
 10
-600906.13
 20
-1159450.55
 10
-600904.5
 20
-1159450.41
 97
0
 75
0
 76
1
 98
0
  0
HATCH
  5
200A4
100
AcDbEntity
  8
0
100
AcDbHatch
 10
0
 20
0
 30
0
210
0
220
0
230
1
  2
SOLID
 70
1
 71
0
 91
1
 92
2
 72
0
 73
1
 93
37
 10
-599356.208999999
 20
-1154201.94
 10
-599353.666790678
 20
-1154202.1624145
 10
-599351.201825102
 20
-1154202.82290003
 10
-599348.889
 20
-1154203.90138809
 10
-599346.798589395
 20
-1154205.36510935
 10
-599344.994109354
 20
-1154207.16958939
 10
-599343.53038809
 20
-1154209.26
 10
-599342.451900034
 20
-1154211.5728251
 10
-599341.791414498
 20
-1154214.03779068
 10
-599341.569000002
 20
-1154216.58
 10
-599341.791414498
 20
-1154219.12220932
 10
-599342.451900034
 20
-1154221.5871749
 10
-599343.53038809
 20
-1154223.9
 10
-599344.994109354
 20
-1154225.9904106
 10
-599346.798589395
 20
-1154227.79489064
 10
-599348.889
 20
-1154229.25861191
 10
-599351.201825102
 20
-1154230.33709996
 10
-599353.666790678
 20
-1154230.9975855
 10
-599356.208999999
 20
-1154231.22
 10
-599358.751209319
 20
-1154230.9975855
 10
-599361.216174896
 20
-1154230.33709996
 10
-599363.528999997
 20
-1154229.25861191
 10
-599365.619410603
 20
-1154227.79489064
 10
-599367.423890644
 20
-1154225.9904106
 10
-599368.887611908
 20
-1154223.9
 10
-599369.966099964
 20
-1154221.5871749
 10
-599370.6265855
 20
-1154219.12220932
 10
-599370.848999996
 20
-1154216.58
 10
-599370.6265855
 20
-1154214.03779068
 10
-599369.966099964
 20
-1154211.5728251
 10
-599368.887611908
 20
-1154209.26
 10
-599367.423890644
 20
-1154207.16958939
 10
-599365.619410603
 20
-1154205.36510935
 10
-599363.528999997
 20
-1154203.90138809
 10
-599361.216174896
 20
-1154202.82290003
 10
-599358.751209319
 20
-1154202.1624145
 10
-599356.208999999
 20
-1154201.94
 97
0
 75
0
 76
1
 98
0
  0
HATCH
  5
200A5
100
AcDbEntity
  8
0
100
AcDbHatch
 10
0
 20
0
 30
0
210
0
220
0
230
1
  2
SOLID
 70
1
 71
0
 91
1
 92
2
 72
0
 73
1
 93
33
 10
-598143.51
 20
-1160263.27
 10
-598143.76
 20
-1160265.81
 10
-598144.5
 20
-1160268.25
 10
-598145.7
 20
-1160270.5
 10
-598147.32
 20
-1160272.46
 10
-598149.29
 20
-1160274.08
 10
-598151.54
 20
-1160275.28
 10
-598153.97
 20
-1160276.02
 10
-598156.51
 20
-1160276.27
 10
-598159.05
 20
-1160276.02
 10
-598161.48
 20
-1160275.28
 10
-598163.73
 20
-1160274.08
 10
-598165.7
 20
-1160272.46
 10
-598167.32
 20
-1160270.5
 10
-598168.52
 20
-1160268.25
 10
-598169.26
 20
-1160265.81
 10
-598169.51
 20
-1160263.27
 10
-598169.26
 20
-1160260.74
 10
-598168.52
 20
-1160258.3
 10
-598167.32
 20
-1160256.05
 10
-598165.7
 20
-1160254.08
 10
-598163.73
 20
-1160252.46
 10
-598161.48
 20
-1160251.26
 10
-598159.05
 20
-1160250.52
 10
-598156.51
 20
-1160250.27
 10
-598153.97
 20
-1160250.52
 10
-598151.54
 20
-1160251.26
 10
-598149.29
 20
-1160252.46
 10
-598147.32
 20
-1160254.08
 10
-598145.7
 20
-1160256.05
 10
-598144.5
 20
-1160258.3
 10
-598143.76
 20
-1160260.74
 10
-598143.51
 20
-1160263.27
 97
0
 75
0
 76
1
 98
0
  0
HATCH
  5
200A6
100
AcDbEntity
  8
0
100
AcDbHatch
 10
0
 20
0
 30
0
210
0
220
0
230
1
  2
SOLID
 70
1
 71
0
 91
1
 92
2
 72
0
 73
1
 93
37
 10
-608143.84
 20
-1152847.47
 10
-608140.91
 20
-1152847.73
 10
-608138.07
 20
-1152848.49
 10
-608135.41
 20
-1152849.73
 10
-608133
 20
-1152851.42
 10
-608130.92
 20
-1152853.5
 10
-608129.23
 20
-1152855.9
 10
-608127.99
 20
-1152858.57
 10
-608127.23
 20
-1152861.41
 10
-608126.97
 20
-1152864.34
 10
-608127.23
 20
-1152867.27
 10
-608127.99
 20
-1152870.11
 10
-608129.23
 20
-1152872.77
 10
-608130.92
 20
-1152875.18
 10
-608133
 20
-1152877.26
 10
-608135.41
 20
-1152878.95
 10
-608138.07
 20
-1152880.19
 10
-608140.91
 20
-1152880.95
 10
-608143.84
 20
-1152881.21
 10
-608146.77
 20
-1152880.95
 10
-608149.61
 20
-1152880.19
 10
-608152.28
 20
-1152878.95
 10
-608154.69
 20
-1152877.26
 10
-608156.77
 20
-1152875.18
 10
-608158.45
 20
-1152872.77
 10
-608159.7
 20
-1152870.11
 10
-608160.46
 20
-1152867.27
 10
-608160.71
 20
-1152864.34
 10
-608160.46
 20
-1152861.41
 10
-608159.7
 20
-1152858.57
 10
-608158.45
 20
-1152855.9
 10
-608156.77
 20
-1152853.5
 10
-608154.69
 20
-1152851.42
 10
-608152.28
 20
-1152849.73
 10
-608149.61
 20
-1152848.49
 10
-608146.77
 20
-1152847.73
 10
-608143.84
 20
-1152847.47
 97
0
 75
0
 76
1
 98
0
  0
HATCH
  5
200A7
100
AcDbEntity
  8
0
100
AcDbHatch
 10
0
 20
0
 30
0
210
0
220
0
230
1
  2
SOLID
 70
1
 71
0
 91
1
 92
2
 72
0
 73
1
 93
33
 10
-601671.2
 20
-1157377.87
 10
-601671.39
 20
-1157379.82
 10
-601671.96
 20
-1157381.7
 10
-601672.89
 20
-1157383.43
 10
-601674.13
 20
-1157384.94
 10
-601675.64
 20
-1157386.18
 10
-601677.37
 20
-1157387.11
 10
-601679.25
 20
-1157387.68
 10
-601681.2
 20
-1157387.87
 10
-601683.15
 20
-1157387.68
 10
-601685.03
 20
-1157387.11
 10
-601686.76
 20
-1157386.18
 10
-601688.27
 20
-1157384.94
 10
-601689.51
 20
-1157383.43
 10
-601690.44
 20
-1157381.7
 10
-601691.01
 20
-1157379.82
 10
-601691.2
 20
-1157377.87
 10
-601691.01
 20
-1157375.92
 10
-601690.44
 20
-1157374.04
 10
-601689.51
 20
-1157372.31
 10
-601688.27
 20
-1157370.8
 10
-601686.76
 20
-1157369.56
 10
-601685.03
 20
-1157368.63
 10
-601683.15
 20
-1157368.06
 10
-601681.2
 20
-1157367.87
 10
-601679.25
 20
-1157368.06
 10
-601677.37
 20
-1157368.63
 10
-601675.64
 20
-1157369.56
 10
-601674.13
 20
-1157370.8
 10
-601672.89
 20
-1157372.31
 10
-601671.96
 20
-1157374.04
 10
-601671.39
 20
-1157375.92
 10
-601671.2
 20
-1157377.87
 97
0
 75
0
 76
1
 98
0
  0
HATCH
  5
200A8
100
AcDbEntity
  8
0
100
AcDbHatch
 10
0
 20
0
 30
0
210
0
220
0
230
1
  2
SOLID
 70
1
 71
0
 91
1
 92
2
 72
0
 73
1
 93
37
 10
-597990.65
 20
-1160472.6
 10
-597989.45
 20
-1160472.71
 10
-597988.29
 20
-1160473.02
 10
-597987.2
 20
-1160473.53
 10
-597986.21
 20
-1160474.22
 10
-597985.36
 20
-1160475.07
 10
-597984.67
 20
-1160476.05
 10
-597984.16
 20
-1160477.14
 10
-597983.85
 20
-1160478.31
 10
-597983.75
 20
-1160479.5
 10
-597983.85
 20
-1160480.7
 10
-597984.16
 20
-1160481.86
 10
-597984.67
 20
-1160482.95
 10
-597985.36
 20
-1160483.94
 10
-597986.21
 20
-1160484.79
 10
-597987.2
 20
-1160485.48
 10
-597988.29
 20
-1160485.99
 10
-597989.45
 20
-1160486.3
 10
-597990.65
 20
-1160486.4
 10
-597991.85
 20
-1160486.3
 10
-597993.01
 20
-1160485.99
 10
-597994.1
 20
-1160485.48
 10
-597995.08
 20
-1160484.79
 10
-597995.93
 20
-1160483.94
 10
-597996.62
 20
-1160482.95
 10
-597997.13
 20
-1160481.86
 10
-597997.44
 20
-1160480.7
 10
-597997.55
 20
-1160479.5
 10
-597997.44
 20
-1160478.31
 10
-597997.13
 20
-1160477.14
 10
-597996.62
 20
-1160476.05
 10
-597995.93
 20
-1160475.07
 10
-597995.08
 20
-1160474.22
 10
-597994.1
 20
-1160473.53
 10
-597993.01
 20
-1160473.02
 10
-597991.85
 20
-1160472.71
 10
-597990.65
 20
-1160472.6
 97
0
 75
0
 76
1
 98
0
  0
HATCH
  5
200A9
100
AcDbEntity
  8
0
100
AcDbHatch
 10
0
 20
0
 30
0
210
0
220
0
230
1
  2
SOLID
 70
1
 71
0
 91
1
 92
2
 72
0
 73
1
 93
37
 10
-603936.57
 20
-1162388.93
 10
-603935.646191695
 20
-1162389.01082275
 10
-603934.750452838
 20
-1162389.25083526
 10
-603933.91
 20
-1162389.64274485
 10
-603933.150369917
 20
-1162390.17464356
 10
-603932.494643563
 20
-1162390.83036992
 10
-603931.962744852
 20
-1162391.59
 10
-603931.570835257
 20
-1162392.43045284
 10
-603931.330822754
 20
-1162393.32619169
 10
-603931.25
 20
-1162394.25
 10
-603931.330822754
 20
-1162395.17380831
 10
-603931.570835257
 20
-1162396.06954716
 10
-603931.962744852
 20
-1162396.91
 10
-603932.494643563
 20
-1162397.66963008
 10
-603933.150369917
 20
-1162398.32535644
 10
-603933.91
 20
-1162398.85725515
 10
-603934.750452838
 20
-1162399.24916474
 10
-603935.646191695
 20
-1162399.48917725
 10
-603936.57
 20
-1162399.57
 10
-603937.493808306
 20
-1162399.48917725
 10
-603938.389547163
 20
-1162399.24916474
 10
-603939.23
 20
-1162398.85725515
 10
-603939.989630084
 20
-1162398.32535644
 10
-603940.645356438
 20
-1162397.66963008
 10
-603941.177255149
 20
-1162396.91
 10
-603941.569164743
 20
-1162396.06954716
 10
-603941.809177247
 20
-1162395.17380831
 10
-603941.890000001
 20
-1162394.25
 10
-603941.809177247
 20
-1162393.32619169
 10
-603941.569164743
 20
-1162392.43045284
 10
-603941.177255149
 20
-1162391.59
 10
-603940.645356438
 20
-1162390.83036992
 10
-603939.989630084
 20
-1162390.17464356
 10
-603939.23
 20
-1162389.64274485
 10
-603938.389547163
 20
-1162389.25083526
 10
-603937.493808306
 20
-1162389.01082275
 10
-603936.57
 20
-1162388.93
 97
0
 75
0
 76
1
 98
0
  0
HATCH
  5
200AA
100
AcDbEntity
  8
0
100
AcDbHatch
 10
0
 20
0
 30
0
210
0
220
0
230
1
  2
SOLID
 70
1
 71
0
 91
1
 92
2
 72
0
 73
1
 93
37
 10
-603999.420000002
 20
-1162298.26
 10
-603998.414577053
 20
-1162298.34796311
 10
-603997.439703372
 20
-1162298.60917973
 10
-603996.525000002
 20
-1162299.03571291
 10
-603995.698259742
 20
-1162299.61460268
 10
-603994.984602677
 20
-1162300.32825974
 10
-603994.405712915
 20
-1162301.155
 10
-603993.979179728
 20
-1162302.06970337
 10
-603993.717963113
 20
-1162303.04457705
 10
-603993.630000003
 20
-1162304.05
 10
-603993.717963113
 20
-1162305.05542295
 10
-603993.979179728
 20
-1162306.03029663
 10
-603994.405712915
 20
-1162306.945
 10
-603994.984602677
 20
-1162307.77174026
 10
-603995.698259742
 20
-1162308.48539733
 10
-603996.525000002
 20
-1162309.06428709
 10
-603997.439703372
 20
-1162309.49082027
 10
-603998.414577053
 20
-1162309.75203689
 10
-603999.420000002
 20
-1162309.84
 10
-604000.42542295
 20
-1162309.75203689
 10
-604001.400296631
 20
-1162309.49082027
 10
-604002.315000001
 20
-1162309.06428709
 10
-604003.141740261
 20
-1162308.48539733
 10
-604003.855397327
 20
-1162307.77174026
 10
-604004.434287089
 20
-1162306.945
 10
-604004.860820275
 20
-1162306.03029663
 10
-604005.122036891
 20
-1162305.05542295
 10
-604005.210000001
 20
-1162304.05
 10
-604005.122036891
 20
-1162303.04457705
 10
-604004.860820275
 20
-1162302.06970337
 10
-604004.434287089
 20
-1162301.155
 10
-604003.855397327
 20
-1162300.32825974
 10
-604003.141740261
 20
-1162299.61460268
 10
-604002.315000001
 20
-1162299.03571291
 10
-604001.400296631
 20
-1162298.60917973
 10
-604000.42542295
 20
-1162298.34796311
 10
-603999.420000002
 20
-1162298.26
 97
0
 75
0
 76
1
 98
0
  0
HATCH
  5
200AB
100
AcDbEntity
  8
0
100
AcDbHatch
 10
0
 20
0
 30
0
210
0
220
0
230
1
  2
SOLID
 70
1
 71
0
 91
1
 92
2
 72
0
 73
1
 93
37
 10
-603954.100000001
 20
-1162362.69
 10
-603952.900091094
 20
-1162362.79497843
 10
-603951.736640811
 20
-1162363.10672399
 10
-603950.645000001
 20
-1162363.61576446
 10
-603949.658337618
 20
-1162364.3066329
 10
-603948.806632899
 20
-1162365.15833762
 10
-603948.115764461
 20
-1162366.145
 10
-603947.606723992
 20
-1162367.23664081
 10
-603947.294978428
 20
-1162368.40009109
 10
-603947.190000001
 20
-1162369.6
 10
-603947.294978428
 20
-1162370.79990891
 10
-603947.606723992
 20
-1162371.96335919
 10
-603948.115764461
 20
-1162373.055
 10
-603948.806632899
 20
-1162374.04166238
 10
-603949.658337618
 20
-1162374.8933671
 10
-603950.645000001
 20
-1162375.58423554
 10
-603951.736640811
 20
-1162376.09327601
 10
-603952.900091094
 20
-1162376.40502158
 10
-603954.100000001
 20
-1162376.51
 10
-603955.299908909
 20
-1162376.40502158
 10
-603956.463359192
 20
-1162376.09327601
 10
-603957.555000002
 20
-1162375.58423554
 10
-603958.541662385
 20
-1162374.8933671
 10
-603959.393367104
 20
-1162374.04166238
 10
-603960.084235542
 20
-1162373.055
 10
-603960.593276011
 20
-1162371.96335919
 10
-603960.905021575
 20
-1162370.79990891
 10
-603961.010000002
 20
-1162369.6
 10
-603960.905021575
 20
-1162368.40009109
 10
-603960.593276011
 20
-1162367.23664081
 10
-603960.084235542
 20
-1162366.145
 10
-603959.393367104
 20
-1162365.15833762
 10
-603958.541662385
 20
-1162364.3066329
 10
-603957.555000002
 20
-1162363.61576446
 10
-603956.463359192
 20
-1162363.10672399
 10
-603955.299908909
 20
-1162362.79497843
 10
-603954.100000001
 20
-1162362.69
 97
0
 75
0
 76
1
 98
0
  0
HATCH
  5
200AC
100
AcDbEntity
  8
0
100
AcDbHatch
 10
0
 20
0
 30
0
210
0
220
0
230
1
  2
SOLID
 70
1
 71
0
 91
1
 92
2
 72
0
 73
1
 93
37
 10
-603959.27
 20
-1162357.74
 10
-603958.57
 20
-1162357.8
 10
-603957.9
 20
-1162357.98
 10
-603957.26
 20
-1162358.28
 10
-603956.69
 20
-1162358.68
 10
-603956.2
 20
-1162359.17
 10
-603955.8
 20
-1162359.75
 10
-603955.5
 20
-1162360.38
 10
-603955.32
 20
-1162361.05
 10
-603955.26
 20
-1162361.75
 10
-603955.32
 20
-1162362.45
 10
-603955.5
 20
-1162363.12
 10
-603955.8
 20
-1162363.75
 10
-603956.2
 20
-1162364.33
 10
-603956.69
 20
-1162364.82
 10
-603957.26
 20
-1162365.22
 10
-603957.9
 20
-1162365.52
 10
-603958.57
 20
-1162365.7
 10
-603959.27
 20
-1162365.76
 10
-603959.97
 20
-1162365.7
 10
-603960.64
 20
-1162365.52
 10
-603961.27
 20
-1162365.22
 10
-603961.85
 20
-1162364.82
 10
-603962.34
 20
-1162364.33
 10
-603962.74
 20
-1162363.75
 10
-603963.04
 20
-1162363.12
 10
-603963.22
 20
-1162362.45
 10
-603963.28
 20
-1162361.75
 10
-603963.22
 20
-1162361.05
 10
-603963.04
 20
-1162360.38
 10
-603962.74
 20
-1162359.75
 10
-603962.34
 20
-1162359.17
 10
-603961.85
 20
-1162358.68
 10
-603961.27
 20
-1162358.28
 10
-603960.64
 20
-1162357.98
 10
-603959.97
 20
-1162357.8
 10
-603959.27
 20
-1162357.74
 97
0
 75
0
 76
1
 98
0
  0
HATCH
  5
200AD
100
AcDbEntity
  8
0
100
AcDbHatch
 10
0
 20
0
 30
0
210
0
220
0
230
1
  2
SOLID
 70
1
 71
0
 91
1
 92
2
 72
0
 73
1
 93
37
 10
-603949.559999999
 20
-1162381.82
 10
-603948.648347066
 20
-1162381.8997593
 10
-603947.764394246
 20
-1162382.13661374
 10
-603946.934999999
 20
-1162382.52336663
 10
-603946.185365048
 20
-1162383.04826667
 10
-603945.538266672
 20
-1162383.69536505
 10
-603945.013366629
 20
-1162384.445
 10
-603944.62661374
 20
-1162385.27439425
 10
-603944.389759295
 20
-1162386.15834707
 10
-603944.309999999
 20
-1162387.07
 10
-603944.389759295
 20
-1162387.98165293
 10
-603944.62661374
 20
-1162388.86560575
 10
-603945.013366629
 20
-1162389.695
 10
-603945.538266672
 20
-1162390.44463495
 10
-603946.185365048
 20
-1162391.09173333
 10
-603946.934999999
 20
-1162391.61663337
 10
-603947.764394246
 20
-1162392.00338626
 10
-603948.648347066
 20
-1162392.2402407
 10
-603949.559999999
 20
-1162392.32
 10
-603950.471652931
 20
-1162392.2402407
 10
-603951.355605751
 20
-1162392.00338626
 10
-603952.184999999
 20
-1162391.61663337
 10
-603952.93463495
 20
-1162391.09173333
 10
-603953.581733325
 20
-1162390.44463495
 10
-603954.106633369
 20
-1162389.695
 10
-603954.493386258
 20
-1162388.86560575
 10
-603954.730240702
 20
-1162387.98165293
 10
-603954.809999999
 20
-1162387.07
 10
-603954.730240702
 20
-1162386.15834707
 10
-603954.493386258
 20
-1162385.27439425
 10
-603954.106633369
 20
-1162384.445
 10
-603953.581733325
 20
-1162383.69536505
 10
-603952.93463495
 20
-1162383.04826667
 10
-603952.184999999
 20
-1162382.52336663
 10
-603951.355605751
 20
-1162382.13661374
 10
-603950.471652931
 20
-1162381.8997593
 10
-603949.559999999
 20
-1162381.82
 97
0
 75
0
 76
1
 98
0
  0
HATCH
  5
200AE
100
AcDbEntity
  8
0
100
AcDbHatch
 10
0
 20
0
 30
0
210
0
220
0
230
1
  2
SOLID
 70
1
 71
0
 91
1
 92
2
 72
0
 73
1
 93
37
 10
-603942.18
 20
-1162389.47
 10
-603940.980091092
 20
-1162389.57497843
 10
-603939.816640809
 20
-1162389.88672399
 10
-603938.725
 20
-1162390.39576446
 10
-603937.738337617
 20
-1162391.0866329
 10
-603936.886632898
 20
-1162391.93833762
 10
-603936.195764459
 20
-1162392.925
 10
-603935.68672399
 20
-1162394.01664081
 10
-603935.374978426
 20
-1162395.18009109
 10
-603935.27
 20
-1162396.38
 10
-603935.374978426
 20
-1162397.57990891
 10
-603935.68672399
 20
-1162398.74335919
 10
-603936.195764459
 20
-1162399.835
 10
-603936.886632898
 20
-1162400.82166238
 10
-603937.738337617
 20
-1162401.6733671
 10
-603938.725
 20
-1162402.36423554
 10
-603939.816640809
 20
-1162402.87327601
 10
-603940.980091092
 20
-1162403.18502157
 10
-603942.18
 20
-1162403.29
 10
-603943.379908907
 20
-1162403.18502157
 10
-603944.54335919
 20
-1162402.87327601
 10
-603945.635
 20
-1162402.36423554
 10
-603946.621662383
 20
-1162401.6733671
 10
-603947.473367102
 20
-1162400.82166238
 10
-603948.16423554
 20
-1162399.835
 10
-603948.67327601
 20
-1162398.74335919
 10
-603948.985021573
 20
-1162397.57990891
 10
-603949.09
 20
-1162396.38
 10
-603948.985021573
 20
-1162395.18009109
 10
-603948.67327601
 20
-1162394.01664081
 10
-603948.16423554
 20
-1162392.925
 10
-603947.473367102
 20
-1162391.93833762
 10
-603946.621662383
 20
-1162391.0866329
 10
-603945.635
 20
-1162390.39576446
 10
-603944.54335919
 20
-1162389.88672399
 10
-603943.379908907
 20
-1162389.57497843
 10
-603942.18
 20
-1162389.47
 97
0
 75
0
 76
1
 98
0
  0
HATCH
  5
200AF
100
AcDbEntity
  8
0
100
AcDbHatch
 10
0
 20
0
 30
0
210
0
220
0
230
1
  2
SOLID
 70
1
 71
0
 91
1
 92
2
 72
0
 73
1
 93
37
 10
-604108.199999999
 20
-1162174.42
 10
-604106.260349855
 20
-1162174.5896974
 10
-604104.379634999
 20
-1162175.09363343
 10
-604102.615
 20
-1162175.91649624
 10
-604101.0200624
 20
-1162177.03328357
 10
-604099.643283571
 20
-1162178.4100624
 10
-604098.526496241
 20
-1162180.005
 10
-604097.703633427
 20
-1162181.769635
 10
-604097.1996974
 20
-1162183.65034986
 10
-604097.030000001
 20
-1162185.59
 10
-604097.1996974
 20
-1162187.52965014
 10
-604097.703633427
 20
-1162189.410365
 10
-604098.526496241
 20
-1162191.175
 10
-604099.643283571
 20
-1162192.7699376
 10
-604101.0200624
 20
-1162194.14671643
 10
-604102.615
 20
-1162195.26350376
 10
-604104.379634999
 20
-1162196.08636657
 10
-604106.260349855
 20
-1162196.5903026
 10
-604108.199999999
 20
-1162196.76
 10
-604110.139650143
 20
-1162196.5903026
 10
-604112.020365
 20
-1162196.08636657
 10
-604113.784999998
 20
-1162195.26350376
 10
-604115.379937598
 20
-1162194.14671643
 10
-604116.756716427
 20
-1162192.7699376
 10
-604117.873503758
 20
-1162191.175
 10
-604118.696366572
 20
-1162189.410365
 10
-604119.200302599
 20
-1162187.52965014
 10
-604119.369999997
 20
-1162185.59
 10
-604119.200302599
 20
-1162183.65034986
 10
-604118.696366572
 20
-1162181.769635
 10
-604117.873503758
 20
-1162180.005
 10
-604116.756716427
 20
-1162178.4100624
 10
-604115.379937598
 20
-1162177.03328357
 10
-604113.784999998
 20
-1162175.91649624
 10
-604112.020365
 20
-1162175.09363343
 10
-604110.139650143
 20
-1162174.5896974
 10
-604108.199999999
 20
-1162174.42
 97
0
 75
0
 76
1
 98
0
  0
HATCH
  5
200B0
100
AcDbEntity
  8
0
100
AcDbHatch
 10
0
 20
0
 30
0
210
0
220
0
230
1
  2
SOLID
 70
1
 71
0
 91
1
 92
2
 72
0
 73
1
 93
37
 10
-604094.329999998
 20
-1162192.8
 10
-604093.102307382
 20
-1162192.90740919
 10
-604091.911917585
 20
-1162193.22637317
 10
-604090.794999998
 20
-1162193.7472004
 10
-604089.785491597
 20
-1162194.45406579
 10
-604088.914065785
 20
-1162195.3254916
 10
-604088.207200393
 20
-1162196.335
 10
-604087.686373169
 20
-1162197.45191759
 10
-604087.367409184
 20
-1162198.64230738
 10
-604087.259999998
 20
-1162199.87
 10
-604087.367409184
 20
-1162201.09769262
 10
-604087.686373169
 20
-1162202.28808241
 10
-604088.207200393
 20
-1162203.405
 10
-604088.914065785
 20
-1162204.4145084
 10
-604089.785491597
 20
-1162205.28593421
 10
-604090.794999998
 20
-1162205.99279961
 10
-604091.911917585
 20
-1162206.51362683
 10
-604093.102307382
 20
-1162206.83259082
 10
-604094.329999998
 20
-1162206.94
 10
-604095.557692614
 20
-1162206.83259082
 10
-604096.748082412
 20
-1162206.51362683
 10
-604097.864999998
 20
-1162205.99279961
 10
-604098.874508399
 20
-1162205.28593421
 10
-604099.745934211
 20
-1162204.4145084
 10
-604100.452799603
 20
-1162203.405
 10
-604100.973626827
 20
-1162202.28808241
 10
-604101.292590812
 20
-1162201.09769262
 10
-604101.399999999
 20
-1162199.87
 10
-604101.292590812
 20
-1162198.64230738
 10
-604100.973626827
 20
-1162197.45191759
 10
-604100.452799603
 20
-1162196.335
 10
-604099.745934211
 20
-1162195.3254916
 10
-604098.874508399
 20
-1162194.45406579
 10
-604097.864999998
 20
-1162193.7472004
 10
-604096.748082412
 20
-1162193.22637317
 10
-604095.557692614
 20
-1162192.90740919
 10
-604094.329999998
 20
-1162192.8
 97
0
 75
0
 76
1
 98
0
  0
HATCH
  5
200B1
100
AcDbEntity
  8
0
100
AcDbHatch
 10
0
 20
0
 30
0
210
0
220
0
230
1
  2
SOLID
 70
1
 71
0
 91
1
 92
2
 72
0
 73
1
 93
37
 10
-604087.25
 20
-1162198.68
 10
-604085.758362154
 20
-1162198.8105014
 10
-604084.312046969
 20
-1162199.19804039
 10
-604082.955
 20
-1162199.83084178
 10
-604081.728454433
 20
-1162200.68967823
 10
-604080.669678234
 20
-1162201.74845443
 10
-604079.810841782
 20
-1162202.975
 10
-604079.178040388
 20
-1162204.33204697
 10
-604078.790501402
 20
-1162205.77836215
 10
-604078.66
 20
-1162207.27
 10
-604078.790501402
 20
-1162208.76163785
 10
-604079.178040388
 20
-1162210.20795303
 10
-604079.810841782
 20
-1162211.565
 10
-604080.669678234
 20
-1162212.79154557
 10
-604081.728454433
 20
-1162213.85032177
 10
-604082.955
 20
-1162214.70915822
 10
-604084.312046969
 20
-1162215.34195961
 10
-604085.758362154
 20
-1162215.7294986
 10
-604087.25
 20
-1162215.86
 10
-604088.741637846
 20
-1162215.7294986
 10
-604090.187953031
 20
-1162215.34195961
 10
-604091.545
 20
-1162214.70915822
 10
-604092.771545567
 20
-1162213.85032177
 10
-604093.830321766
 20
-1162212.79154557
 10
-604094.689158218
 20
-1162211.565
 10
-604095.321959612
 20
-1162210.20795303
 10
-604095.709498598
 20
-1162208.76163785
 10
-604095.84
 20
-1162207.27
 10
-604095.709498598
 20
-1162205.77836215
 10
-604095.321959612
 20
-1162204.33204697
 10
-604094.689158218
 20
-1162202.975
 10
-604093.830321766
 20
-1162201.74845443
 10
-604092.771545567
 20
-1162200.68967823
 10
-604091.545
 20
-1162199.83084178
 10
-604090.187953031
 20
-1162199.19804039
 10
-604088.741637846
 20
-1162198.8105014
 10
-604087.25
 20
-1162198.68
 97
0
 75
0
 76
1
 98
0
  0
HATCH
  5
200B2
100
AcDbEntity
  8
0
100
AcDbHatch
 10
0
 20
0
 30
0
210
0
220
0
230
1
  2
SOLID
 70
1
 71
0
 91
1
 92
2
 72
0
 73
1
 93
37
 10
-604004.829999998
 20
-1162301.14
 10
-604004.16666396
 20
-1162301.19803438
 10
-604003.523483051
 20
-1162301.37037419
 10
-604002.919999998
 20
-1162301.65178296
 10
-604002.374551329
 20
-1162302.03371023
 10
-604001.903710225
 20
-1162302.50455133
 10
-604001.521782956
 20
-1162303.05
 10
-604001.240374187
 20
-1162303.65348305
 10
-604001.068034381
 20
-1162304.29666396
 10
-604001.009999998
 20
-1162304.96
 10
-604001.068034381
 20
-1162305.62333604
 10
-604001.240374187
 20
-1162306.26651695
 10
-604001.521782956
 20
-1162306.87
 10
-604001.903710225
 20
-1162307.41544867
 10
-604002.374551329
 20
-1162307.88628977
 10
-604002.919999998
 20
-1162308.26821704
 10
-604003.523483051
 20
-1162308.54962581
 10
-604004.16666396
 20
-1162308.72196562
 10
-604004.829999998
 20
-1162308.78
 10
-604005.493336037
 20
-1162308.72196562
 10
-604006.136516946
 20
-1162308.54962581
 10
-604006.739999998
 20
-1162308.26821704
 10
-604007.285448667
 20
-1162307.88628977
 10
-604007.756289771
 20
-1162307.41544867
 10
-604008.138217041
 20
-1162306.87
 10
-604008.41962581
 20
-1162306.26651695
 10
-604008.591965615
 20
-1162305.62333604
 10
-604008.649999999
 20
-1162304.96
 10
-604008.591965615
 20
-1162304.29666396
 10
-604008.41962581
 20
-1162303.65348305
 10
-604008.138217041
 20
-1162303.05
 10
-604007.756289771
 20
-1162302.50455133
 10
-604007.285448667
 20
-1162302.03371023
 10
-604006.739999998
 20
-1162301.65178296
 10
-604006.136516946
 20
-1162301.37037419
 10
-604005.493336037
 20
-1162301.19803438
 10
-604004.829999998
 20
-1162301.14
 97
0
 75
0
 76
1
 98
0
  0
HATCH
  5
200B3
100
AcDbEntity
  8
0
100
AcDbHatch
 10
0
 20
0
 30
0
210
0
220
0
230
1
  2
SOLID
 70
1
 71
0
 91
1
 92
2
 72
0
 73
1
 93
37
 10
-604080.170000002
 20
-1162208.22
 10
-604079.048232774
 20
-1162208.31814191
 10
-604077.960549876
 20
-1162208.60958567
 10
-604076.940000001
 20
-1162209.08547589
 10
-604076.017592043
 20
-1162209.7313529
 10
-604075.221352899
 20
-1162210.52759204
 10
-604074.575475893
 20
-1162211.45
 10
-604074.099585671
 20
-1162212.47054987
 10
-604073.808141916
 20
-1162213.55823277
 10
-604073.710000001
 20
-1162214.68
 10
-604073.808141916
 20
-1162215.80176723
 10
-604074.099585671
 20
-1162216.88945013
 10
-604074.575475893
 20
-1162217.91
 10
-604075.221352899
 20
-1162218.83240796
 10
-604076.017592043
 20
-1162219.6286471
 10
-604076.940000001
 20
-1162220.27452411
 10
-604077.960549876
 20
-1162220.75041433
 10
-604079.048232774
 20
-1162221.04185808
 10
-604080.170000002
 20
-1162221.14
 10
-604081.29176723
 20
-1162221.04185808
 10
-604082.379450128
 20
-1162220.75041433
 10
-604083.400000002
 20
-1162220.27452411
 10
-604084.322407961
 20
-1162219.6286471
 10
-604085.118647105
 20
-1162218.83240796
 10
-604085.764524111
 20
-1162217.91
 10
-604086.240414333
 20
-1162216.88945013
 10
-604086.531858087
 20
-1162215.80176723
 10
-604086.630000003
 20
-1162214.68
 10
-604086.531858087
 20
-1162213.55823277
 10
-604086.240414333
 20
-1162212.47054987
 10
-604085.764524111
 20
-1162211.45
 10
-604085.118647105
 20
-1162210.52759204
 10
-604084.322407961
 20
-1162209.7313529
 10
-604083.400000002
 20
-1162209.08547589
 10
-604082.379450128
 20
-1162208.60958567
 10
-604081.29176723
 20
-1162208.31814191
 10
-604080.170000002
 20
-1162208.22
 97
0
 75
0
 76
1
 98
0
  0
HATCH
  5
200B4
100
AcDbEntity
  8
0
100
AcDbHatch
 10
0
 20
0
 30
0
210
0
220
0
230
1
  2
SOLID
 70
1
 71
0
 91
1
 92
2
 72
0
 73
1
 93
37
 10
-604065.780000001
 20
-1162222.57
 10
-604064.580091093
 20
-1162222.67497843
 10
-604063.416640811
 20
-1162222.98672399
 10
-604062.325000001
 20
-1162223.49576446
 10
-604061.338337618
 20
-1162224.1866329
 10
-604060.486632899
 20
-1162225.03833762
 10
-604059.795764461
 20
-1162226.025
 10
-604059.286723991
 20
-1162227.11664081
 10
-604058.974978428
 20
-1162228.28009109
 10
-604058.870000001
 20
-1162229.48
 10
-604058.974978428
 20
-1162230.67990891
 10
-604059.286723991
 20
-1162231.84335919
 10
-604059.795764461
 20
-1162232.935
 10
-604060.486632899
 20
-1162233.92166238
 10
-604061.338337618
 20
-1162234.7733671
 10
-604062.325000001
 20
-1162235.46423554
 10
-604063.416640811
 20
-1162235.97327601
 10
-604064.580091093
 20
-1162236.28502157
 10
-604065.780000001
 20
-1162236.39
 10
-604066.979908909
 20
-1162236.28502157
 10
-604068.143359192
 20
-1162235.97327601
 10
-604069.235000001
 20
-1162235.46423554
 10
-604070.221662384
 20
-1162234.7733671
 10
-604071.073367103
 20
-1162233.92166238
 10
-604071.764235541
 20
-1162232.935
 10
-604072.273276011
 20
-1162231.84335919
 10
-604072.585021575
 20
-1162230.67990891
 10
-604072.690000001
 20
-1162229.48
 10
-604072.585021575
 20
-1162228.28009109
 10
-604072.273276011
 20
-1162227.11664081
 10
-604071.764235541
 20
-1162226.025
 10
-604071.073367103
 20
-1162225.03833762
 10
-604070.221662384
 20
-1162224.1866329
 10
-604069.235000001
 20
-1162223.49576446
 10
-604068.143359192
 20
-1162222.98672399
 10
-604066.979908909
 20
-1162222.67497843
 10
-604065.780000001
 20
-1162222.57
 97
0
 75
0
 76
1
 98
0
  0
HATCH
  5
200B5
100
AcDbEntity
  8
0
100
AcDbHatch
 10
0
 20
0
 30
0
210
0
220
0
230
1
  2
SOLID
 70
1
 71
0
 91
1
 92
2
 72
0
 73
1
 93
37
 10
-604089.75
 20
-1162221.46
 10
-604088.638651663
 20
-1162221.55723038
 10
-604087.561071083
 20
-1162221.84596723
 10
-604086.550000001
 20
-1162222.31743742
 10
-604085.636159299
 20
-1162222.95731556
 10
-604084.847315565
 20
-1162223.7461593
 10
-604084.207437417
 20
-1162224.66
 10
-604083.735967228
 20
-1162225.67107108
 10
-604083.447230382
 20
-1162226.74865166
 10
-604083.350000001
 20
-1162227.86
 10
-604083.447230382
 20
-1162228.97134834
 10
-604083.735967228
 20
-1162230.04892892
 10
-604084.207437417
 20
-1162231.06
 10
-604084.847315565
 20
-1162231.9738407
 10
-604085.636159299
 20
-1162232.76268443
 10
-604086.550000001
 20
-1162233.40256258
 10
-604087.561071083
 20
-1162233.87403277
 10
-604088.638651663
 20
-1162234.16276962
 10
-604089.75
 20
-1162234.26
 10
-604090.861348337
 20
-1162234.16276962
 10
-604091.938928917
 20
-1162233.87403277
 10
-604092.949999999
 20
-1162233.40256258
 10
-604093.863840701
 20
-1162232.76268443
 10
-604094.652684435
 20
-1162231.9738407
 10
-604095.292562583
 20
-1162231.06
 10
-604095.764032772
 20
-1162230.04892892
 10
-604096.052769618
 20
-1162228.97134834
 10
-604096.149999999
 20
-1162227.86
 10
-604096.052769618
 20
-1162226.74865166
 10
-604095.764032772
 20
-1162225.67107108
 10
-604095.292562583
 20
-1162224.66
 10
-604094.652684435
 20
-1162223.7461593
 10
-604093.863840701
 20
-1162222.95731556
 10
-604092.949999999
 20
-1162222.31743742
 10
-604091.938928917
 20
-1162221.84596723
 10
-604090.861348337
 20
-1162221.55723038
 10
-604089.75
 20
-1162221.46
 97
0
 75
0
 76
1
 98
0
  0
HATCH
  5
200B6
100
AcDbEntity
  8
0
100
AcDbHatch
 10
0
 20
0
 30
0
210
0
220
0
230
1
  2
SOLID
 70
1
 71
0
 91
1
 92
2
 72
0
 73
1
 93
37
 10
-604082.780000001
 20
-1162229.75
 10
-604081.458537369
 20
-1162229.865613
 10
-604080.177226711
 20
-1162230.20893916
 10
-604078.975000001
 20
-1162230.76954668
 10
-604077.888386292
 20
-1162231.53040179
 10
-604076.95040179
 20
-1162232.46838629
 10
-604076.189546679
 20
-1162233.555
 10
-604075.628939158
 20
-1162234.75722671
 10
-604075.285613001
 20
-1162236.03853737
 10
-604075.170000002
 20
-1162237.36
 10
-604075.285613001
 20
-1162238.68146263
 10
-604075.628939158
 20
-1162239.96277329
 10
-604076.189546679
 20
-1162241.165
 10
-604076.95040179
 20
-1162242.25161371
 10
-604077.888386292
 20
-1162243.18959821
 10
-604078.975000001
 20
-1162243.95045332
 10
-604080.177226711
 20
-1162244.51106084
 10
-604081.458537369
 20
-1162244.854387
 10
-604082.780000001
 20
-1162244.97
 10
-604084.101462633
 20
-1162244.854387
 10
-604085.382773292
 20
-1162244.51106084
 10
-604086.585000001
 20
-1162243.95045332
 10
-604087.67161371
 20
-1162243.18959821
 10
-604088.609598213
 20
-1162242.25161371
 10
-604089.370453323
 20
-1162241.165
 10
-604089.931060845
 20
-1162239.96277329
 10
-604090.274387001
 20
-1162238.68146263
 10
-604090.390000001
 20
-1162237.36
 10
-604090.274387001
 20
-1162236.03853737
 10
-604089.931060845
 20
-1162234.75722671
 10
-604089.370453323
 20
-1162233.555
 10
-604088.609598213
 20
-1162232.46838629
 10
-604087.67161371
 20
-1162231.53040179
 10
-604086.585000001
 20
-1162230.76954668
 10
-604085.382773292
 20
-1162230.20893916
 10
-604084.101462633
 20
-1162229.865613
 10
-604082.780000001
 20
-1162229.75
 97
0
 75
0
 76
1
 98
0
  0
HATCH
  5
200B7
100
AcDbEntity
  8
0
100
AcDbHatch
 10
0
 20
0
 30
0
210
0
220
0
230
1
  2
SOLID
 70
1
 71
0
 91
1
 92
2
 72
0
 73
1
 93
37
 10
-604017.170000002
 20
-1162272.58
 10
-604015.904104786
 20
-1162272.69075148
 10
-604014.676673156
 20
-1162273.01964079
 10
-604013.525
 20
-1162273.55667481
 10
-604012.484078325
 20
-1162274.28553601
 10
-604011.585536009
 20
-1162275.18407832
 10
-604010.856674806
 20
-1162276.225
 10
-604010.319640794
 20
-1162277.37667316
 10
-604009.99075148
 20
-1162278.60410479
 10
-604009.879999999
 20
-1162279.87
 10
-604009.99075148
 20
-1162281.13589522
 10
-604010.319640794
 20
-1162282.36332685
 10
-604010.856674806
 20
-1162283.515
 10
-604011.585536009
 20
-1162284.55592168
 10
-604012.484078325
 20
-1162285.45446399
 10
-604013.525
 20
-1162286.1833252
 10
-604014.676673156
 20
-1162286.72035921
 10
-604015.904104786
 20
-1162287.04924852
 10
-604017.170000002
 20
-1162287.16
 10
-604018.435895217
 20
-1162287.04924852
 10
-604019.663326848
 20
-1162286.72035921
 10
-604020.815000003
 20
-1162286.1833252
 10
-604021.855921678
 20
-1162285.45446399
 10
-604022.754463994
 20
-1162284.55592168
 10
-604023.483325198
 20
-1162283.515
 10
-604024.02035921
 20
-1162282.36332685
 10
-604024.349248524
 20
-1162281.13589522
 10
-604024.460000005
 20
-1162279.87
 10
-604024.349248524
 20
-1162278.60410479
 10
-604024.02035921
 20
-1162277.37667316
 10
-604023.483325198
 20
-1162276.225
 10
-604022.754463994
 20
-1162275.18407832
 10
-604021.855921678
 20
-1162274.28553601
 10
-604020.815000003
 20
-1162273.55667481
 10
-604019.663326848
 20
-1162273.01964079
 10
-604018.435895217
 20
-1162272.69075148
 10
-604017.170000002
 20
-1162272.58
 97
0
 75
0
 76
1
 98
0
  0
HATCH
  5
200B8
100
AcDbEntity
  8
0
100
AcDbHatch
 10
0
 20
0
 30
0
210
0
220
0
230
1
  2
SOLID
 70
1
 71
0
 91
1
 92
2
 72
0
 73
1
 93
37
 10
-604011.050000001
 20
-1162282.22
 10
-604010.044577052
 20
-1162282.30796311
 10
-604009.06970337
 20
-1162282.56917972
 10
-604008.154999999
 20
-1162282.99571291
 10
-604007.328259739
 20
-1162283.57460267
 10
-604006.614602673
 20
-1162284.28825974
 10
-604006.03571291
 20
-1162285.115
 10
-604005.609179724
 20
-1162286.02970337
 10
-604005.347963108
 20
-1162287.00457705
 10
-604005.259999998
 20
-1162288.01
 10
-604005.347963108
 20
-1162289.01542295
 10
-604005.609179724
 20
-1162289.99029663
 10
-604006.03571291
 20
-1162290.905
 10
-604006.614602673
 20
-1162291.73174026
 10
-604007.328259739
 20
-1162292.44539733
 10
-604008.154999999
 20
-1162293.02428709
 10
-604009.06970337
 20
-1162293.45082028
 10
-604010.044577052
 20
-1162293.71203689
 10
-604011.050000001
 20
-1162293.8
 10
-604012.05542295
 20
-1162293.71203689
 10
-604013.030296632
 20
-1162293.45082028
 10
-604013.945000002
 20
-1162293.02428709
 10
-604014.771740263
 20
-1162292.44539733
 10
-604015.485397329
 20
-1162291.73174026
 10
-604016.064287091
 20
-1162290.905
 10
-604016.490820278
 20
-1162289.99029663
 10
-604016.752036894
 20
-1162289.01542295
 10
-604016.840000004
 20
-1162288.01
 10
-604016.752036894
 20
-1162287.00457705
 10
-604016.490820278
 20
-1162286.02970337
 10
-604016.064287091
 20
-1162285.115
 10
-604015.485397329
 20
-1162284.28825974
 10
-604014.771740263
 20
-1162283.57460267
 10
-604013.945000002
 20
-1162282.99571291
 10
-604013.030296632
 20
-1162282.56917972
 10
-604012.05542295
 20
-1162282.30796311
 10
-604011.050000001
 20
-1162282.22
 97
0
 75
0
 76
1
 98
0
  0
HATCH
  5
200B9
100
AcDbEntity
  8
0
100
AcDbHatch
 10
0
 20
0
 30
0
210
0
220
0
230
1
  2
SOLID
 70
1
 71
0
 91
1
 92
2
 72
0
 73
1
 93
37
 10
-604005.030000001
 20
-1162289.78
 10
-604003.974219081
 20
-1162289.87236886
 10
-604002.95051753
 20
-1162290.14666887
 10
-604001.990000002
 20
-1162290.59456555
 10
-604001.121851335
 20
-1162291.20244979
 10
-604000.372449788
 20
-1162291.95185133
 10
-603999.764565548
 20
-1162292.82
 10
-603999.316668869
 20
-1162293.78051753
 10
-603999.042368865
 20
-1162294.80421908
 10
-603998.950000003
 20
-1162295.86
 10
-603999.042368865
 20
-1162296.91578092
 10
-603999.316668869
 20
-1162297.93948247
 10
-603999.764565548
 20
-1162298.9
 10
-604000.372449788
 20
-1162299.76814867
 10
-604001.121851335
 20
-1162300.51755021
 10
-604001.990000002
 20
-1162301.12543445
 10
-604002.95051753
 20
-1162301.57333113
 10
-604003.974219081
 20
-1162301.84763114
 10
-604005.030000001
 20
-1162301.94
 10
-604006.085780921
 20
-1162301.84763114
 10
-604007.109482472
 20
-1162301.57333113
 10
-604008.07
 20
-1162301.12543445
 10
-604008.938148667
 20
-1162300.51755021
 10
-604009.687550214
 20
-1162299.76814867
 10
-604010.295434455
 20
-1162298.9
 10
-604010.743331134
 20
-1162297.93948247
 10
-604011.017631138
 20
-1162296.91578092
 10
-604011.109999999
 20
-1162295.86
 10
-604011.017631138
 20
-1162294.80421908
 10
-604010.743331134
 20
-1162293.78051753
 10
-604010.295434455
 20
-1162292.82
 10
-604009.687550214
 20
-1162291.95185133
 10
-604008.938148667
 20
-1162291.20244979
 10
-604008.07
 20
-1162290.59456555
 10
-604007.109482472
 20
-1162290.14666887
 10
-604006.085780921
 20
-1162289.87236886
 10
-604005.030000001
 20
-1162289.78
 97
0
 75
0
 76
1
 98
0
  0
HATCH
  5
200BA
100
AcDbEntity
  8
0
100
AcDbHatch
 10
0
 20
0
 30
0
210
0
220
0
230
1
  2
SOLID
 70
1
 71
0
 91
1
 92
2
 72
0
 73
1
 93
37
 10
-604007.469900001
 20
-1162297.49
 10
-604006.884705642
 20
-1162297.54119787
 10
-604006.317292118
 20
-1162297.69323587
 10
-604005.7849
 20
-1162297.94149439
 10
-604005.303705756
 20
-1162298.27843023
 10
-604004.888330227
 20
-1162298.69380575
 10
-604004.551394389
 20
-1162299.175
 10
-604004.303135868
 20
-1162299.70739212
 10
-604004.151097872
 20
-1162300.27480564
 10
-604004.0999
 20
-1162300.86
 10
-604004.151097872
 20
-1162301.44519436
 10
-604004.303135868
 20
-1162302.01260788
 10
-604004.551394389
 20
-1162302.545
 10
-604004.888330227
 20
-1162303.02619424
 10
-604005.303705756
 20
-1162303.44156977
 10
-604005.7849
 20
-1162303.77850561
 10
-604006.317292118
 20
-1162304.02676413
 10
-604006.884705642
 20
-1162304.17880213
 10
-604007.469900001
 20
-1162304.23
 10
-604008.05509436
 20
-1162304.17880213
 10
-604008.622507884
 20
-1162304.02676413
 10
-604009.154900001
 20
-1162303.77850561
 10
-604009.636094246
 20
-1162303.44156977
 10
-604010.051469775
 20
-1162303.02619424
 10
-604010.388405613
 20
-1162302.545
 10
-604010.636664134
 20
-1162302.01260788
 10
-604010.78870213
 20
-1162301.44519436
 10
-604010.839900002
 20
-1162300.86
 10
-604010.78870213
 20
-1162300.27480564
 10
-604010.636664134
 20
-1162299.70739212
 10
-604010.388405613
 20
-1162299.175
 10
-604010.051469775
 20
-1162298.69380575
 10
-604009.636094246
 20
-1162298.27843023
 10
-604009.154900001
 20
-1162297.94149439
 10
-604008.622507884
 20
-1162297.69323587
 10
-604008.05509436
 20
-1162297.54119787
 10
-604007.469900001
 20
-1162297.49
 97
0
 75
0
 76
1
 98
0
  0
HATCH
  5
200BB
100
AcDbEntity
  8
0
100
AcDbHatch
 10
0
 20
0
 30
0
210
0
220
0
230
1
  2
SOLID
 70
1
 71
0
 91
1
 92
2
 72
0
 73
1
 93
37
 10
-604029.43
 20
-1162272.08
 10
-604028.467989095
 20
-1162272.16416505
 10
-604027.535208405
 20
-1162272.41410288
 10
-604026.659999998
 20
-1162272.82221926
 10
-604025.86895664
 20
-1162273.37611378
 10
-604025.186113783
 20
-1162274.05895664
 10
-604024.63221926
 20
-1162274.85
 10
-604024.224102878
 20
-1162275.72520841
 10
-604023.974165045
 20
-1162276.6579891
 10
-604023.889999997
 20
-1162277.62
 10
-604023.974165045
 20
-1162278.58201091
 10
-604024.224102878
 20
-1162279.5147916
 10
-604024.63221926
 20
-1162280.39
 10
-604025.186113783
 20
-1162281.18104336
 10
-604025.86895664
 20
-1162281.86388622
 10
-604026.659999998
 20
-1162282.41778074
 10
-604027.535208405
 20
-1162282.82589712
 10
-604028.467989095
 20
-1162283.07583496
 10
-604029.43
 20
-1162283.16
 10
-604030.392010904
 20
-1162283.07583496
 10
-604031.324791595
 20
-1162282.82589712
 10
-604032.200000001
 20
-1162282.41778074
 10
-604032.991043359
 20
-1162281.86388622
 10
-604033.673886217
 20
-1162281.18104336
 10
-604034.227780739
 20
-1162280.39
 10
-604034.635897122
 20
-1162279.5147916
 10
-604034.885834954
 20
-1162278.58201091
 10
-604034.970000003
 20
-1162277.62
 10
-604034.885834954
 20
-1162276.6579891
 10
-604034.635897122
 20
-1162275.72520841
 10
-604034.227780739
 20
-1162274.85
 10
-604033.673886217
 20
-1162274.05895664
 10
-604032.991043359
 20
-1162273.37611378
 10
-604032.200000001
 20
-1162272.82221926
 10
-604031.324791595
 20
-1162272.41410288
 10
-604030.392010904
 20
-1162272.16416505
 10
-604029.43
 20
-1162272.08
 97
0
 75
0
 76
1
 98
0
  0
HATCH
  5
200BC
100
AcDbEntity
  8
0
100
AcDbHatch
 10
0
 20
0
 30
0
210
0
220
0
230
1
  2
SOLID
 70
1
 71
0
 91
1
 92
2
 72
0
 73
1
 93
37
 10
-604016.68
 20
-1162283.69
 10
-604015.348118477
 20
-1162283.80652454
 10
-604014.056705501
 20
-1162284.1525576
 10
-604012.845000001
 20
-1162284.71758515
 10
-604011.749819035
 20
-1162285.48443912
 10
-604010.804439122
 20
-1162286.42981903
 10
-604010.037585154
 20
-1162287.525
 10
-604009.4725576
 20
-1162288.7367055
 10
-604009.126524536
 20
-1162290.02811848
 10
-604009.010000002
 20
-1162291.36
 10
-604009.126524536
 20
-1162292.69188152
 10
-604009.4725576
 20
-1162293.9832945
 10
-604010.037585154
 20
-1162295.195
 10
-604010.804439122
 20
-1162296.29018096
 10
-604011.749819035
 20
-1162297.23556088
 10
-604012.845000001
 20
-1162298.00241484
 10
-604014.056705501
 20
-1162298.5674424
 10
-604015.348118477
 20
-1162298.91347546
 10
-604016.68
 20
-1162299.03
 10
-604018.011881522
 20
-1162298.91347546
 10
-604019.303294498
 20
-1162298.5674424
 10
-604020.514999999
 20
-1162298.00241484
 10
-604021.610180965
 20
-1162297.23556088
 10
-604022.555560877
 20
-1162296.29018096
 10
-604023.322414845
 20
-1162295.195
 10
-604023.887442399
 20
-1162293.9832945
 10
-604024.233475463
 20
-1162292.69188152
 10
-604024.349999998
 20
-1162291.36
 10
-604024.233475463
 20
-1162290.02811848
 10
-604023.887442399
 20
-1162288.7367055
 10
-604023.322414845
 20
-1162287.525
 10
-604022.555560877
 20
-1162286.42981903
 10
-604021.610180965
 20
-1162285.48443912
 10
-604020.514999999
 20
-1162284.71758515
 10
-604019.303294498
 20
-1162284.1525576
 10
-604018.011881522
 20
-1162283.80652454
 10
-604016.68
 20
-1162283.69
 97
0
 75
0
 76
1
 98
0
  0
HATCH
  5
200BD
100
AcDbEntity
  8
0
100
AcDbHatch
 10
0
 20
0
 30
0
210
0
220
0
230
1
  2
SOLID
 70
1
 71
0
 91
1
 92
2
 72
0
 73
1
 93
37
 10
-604012.800000001
 20
-1162296.2
 10
-604011.739009635
 20
-1162296.29282463
 10
-604010.710256925
 20
-1162296.56847809
 10
-604009.745000001
 20
-1162297.01858478
 10
-604008.872567706
 20
-1162297.62946845
 10
-604008.119468454
 20
-1162298.3825677
 10
-604007.508584784
 20
-1162299.255
 10
-604007.058478088
 20
-1162300.22025692
 10
-604006.78282463
 20
-1162301.24900963
 10
-604006.690000001
 20
-1162302.31
 10
-604006.78282463
 20
-1162303.37099036
 10
-604007.058478088
 20
-1162304.39974307
 10
-604007.508584784
 20
-1162305.365
 10
-604008.119468454
 20
-1162306.23743229
 10
-604008.872567706
 20
-1162306.99053155
 10
-604009.745000001
 20
-1162307.60141522
 10
-604010.710256925
 20
-1162308.05152191
 10
-604011.739009635
 20
-1162308.32717537
 10
-604012.800000001
 20
-1162308.42
 10
-604013.860990366
 20
-1162308.32717537
 10
-604014.889743076
 20
-1162308.05152191
 10
-604015.855
 20
-1162307.60141522
 10
-604016.727432296
 20
-1162306.99053155
 10
-604017.480531548
 20
-1162306.23743229
 10
-604018.091415217
 20
-1162305.365
 10
-604018.541521913
 20
-1162304.39974307
 10
-604018.817175371
 20
-1162303.37099036
 10
-604018.91
 20
-1162302.31
 10
-604018.817175371
 20
-1162301.24900963
 10
-604018.541521913
 20
-1162300.22025692
 10
-604018.091415217
 20
-1162299.255
 10
-604017.480531548
 20
-1162298.3825677
 10
-604016.727432296
 20
-1162297.62946845
 10
-604015.855
 20
-1162297.01858478
 10
-604014.889743076
 20
-1162296.56847809
 10
-604013.860990366
 20
-1162296.29282463
 10
-604012.800000001
 20
-1162296.2
 97
0
 75
0
 76
1
 98
0
  0
HATCH
  5
200BE
100
AcDbEntity
  8
0
100
AcDbHatch
 10
0
 20
0
 30
0
210
0
220
0
230
1
  2
SOLID
 70
1
 71
0
 91
1
 92
2
 72
0
 73
1
 93
37
 10
-604007.34
 20
-1162303.3399
 10
-604006.145300537
 20
-1162303.44442266
 10
-604004.986901413
 20
-1162303.75481477
 10
-604003.899999999
 20
-1162304.26164522
 10
-604002.917621244
 20
-1162304.94951423
 10
-604002.069614229
 20
-1162305.79752124
 10
-604001.381745219
 20
-1162306.7799
 10
-604000.874914766
 20
-1162307.86680141
 10
-604000.564522656
 20
-1162309.02520054
 10
-604000.459999997
 20
-1162310.2199
 10
-604000.564522656
 20
-1162311.41459946
 10
-604000.874914766
 20
-1162312.57299859
 10
-604001.381745219
 20
-1162313.6599
 10
-604002.069614229
 20
-1162314.64227876
 10
-604002.917621244
 20
-1162315.49028577
 10
-604003.899999999
 20
-1162316.17815478
 10
-604004.986901413
 20
-1162316.68498523
 10
-604006.145300537
 20
-1162316.99537734
 10
-604007.34
 20
-1162317.0999
 10
-604008.534699463
 20
-1162316.99537734
 10
-604009.693098587
 20
-1162316.68498523
 10
-604010.780000001
 20
-1162316.17815478
 10
-604011.762378756
 20
-1162315.49028577
 10
-604012.610385771
 20
-1162314.64227876
 10
-604013.29825478
 20
-1162313.6599
 10
-604013.805085233
 20
-1162312.57299859
 10
-604014.115477343
 20
-1162311.41459946
 10
-604014.220000003
 20
-1162310.2199
 10
-604014.115477343
 20
-1162309.02520054
 10
-604013.805085233
 20
-1162307.86680141
 10
-604013.29825478
 20
-1162306.7799
 10
-604012.610385771
 20
-1162305.79752124
 10
-604011.762378756
 20
-1162304.94951423
 10
-604010.780000001
 20
-1162304.26164522
 10
-604009.693098587
 20
-1162303.75481477
 10
-604008.534699463
 20
-1162303.44442266
 10
-604007.34
 20
-1162303.3399
 97
0
 75
0
 76
1
 98
0
  0
HATCH
  5
200BF
100
AcDbEntity
  8
0
100
AcDbHatch
 10
0
 20
0
 30
0
210
0
220
0
230
1
  2
SOLID
 70
1
 71
0
 91
1
 92
2
 72
0
 73
1
 93
37
 10
-604038.440000001
 20
-1162279.87
 10
-604037.455414834
 20
-1162279.95614004
 10
-604036.500745789
 20
-1162280.21194284
 10
-604035.605000002
 20
-1162280.62963596
 10
-604034.795394256
 20
-1162281.19652801
 10
-604034.09652801
 20
-1162281.89539425
 10
-604033.529635964
 20
-1162282.705
 10
-604033.111942843
 20
-1162283.60074579
 10
-604032.856140044
 20
-1162284.55541483
 10
-604032.770000003
 20
-1162285.54
 10
-604032.856140044
 20
-1162286.52458517
 10
-604033.111942843
 20
-1162287.47925421
 10
-604033.529635964
 20
-1162288.375
 10
-604034.09652801
 20
-1162289.18460574
 10
-604034.795394256
 20
-1162289.88347199
 10
-604035.605000002
 20
-1162290.45036404
 10
-604036.500745789
 20
-1162290.86805716
 10
-604037.455414834
 20
-1162291.12385996
 10
-604038.440000001
 20
-1162291.21
 10
-604039.424585168
 20
-1162291.12385996
 10
-604040.379254213
 20
-1162290.86805716
 10
-604041.275
 20
-1162290.45036404
 10
-604042.084605747
 20
-1162289.88347199
 10
-604042.783471992
 20
-1162289.18460574
 10
-604043.350364039
 20
-1162288.375
 10
-604043.768057159
 20
-1162287.47925421
 10
-604044.023859959
 20
-1162286.52458517
 10
-604044.109999999
 20
-1162285.54
 10
-604044.023859959
 20
-1162284.55541483
 10
-604043.768057159
 20
-1162283.60074579
 10
-604043.350364039
 20
-1162282.705
 10
-604042.783471992
 20
-1162281.89539425
 10
-604042.084605747
 20
-1162281.19652801
 10
-604041.275
 20
-1162280.62963596
 10
-604040.379254213
 20
-1162280.21194284
 10
-604039.424585168
 20
-1162279.95614004
 10
-604038.440000001
 20
-1162279.87
 97
0
 75
0
 76
1
 98
0
  0
HATCH
  5
200C0
100
AcDbEntity
  8
0
100
AcDbHatch
 10
0
 20
0
 30
0
210
0
220
0
230
1
  2
SOLID
 70
1
 71
0
 91
1
 92
2
 72
0
 73
1
 93
37
 10
-603996.23
 20
-1162300.64
 10
-603994.771355308
 20
-1162300.76761488
 10
-603993.357030797
 20
-1162301.14658199
 10
-603992.030000001
 20
-1162301.76538661
 10
-603990.83058408
 20
-1162302.60522668
 10
-603989.795226679
 20
-1162303.64058408
 10
-603988.95538661
 20
-1162304.84
 10
-603988.336581987
 20
-1162306.1670308
 10
-603987.957614877
 20
-1162307.58135531
 10
-603987.830000002
 20
-1162309.04
 10
-603987.957614877
 20
-1162310.49864469
 10
-603988.336581987
 20
-1162311.9129692
 10
-603988.95538661
 20
-1162313.24
 10
-603989.795226679
 20
-1162314.43941592
 10
-603990.83058408
 20
-1162315.47477332
 10
-603992.030000001
 20
-1162316.31461339
 10
-603993.357030797
 20
-1162316.93341801
 10
-603994.771355308
 20
-1162317.31238512
 10
-603996.23
 20
-1162317.44
 10
-603997.688644693
 20
-1162317.31238512
 10
-603999.102969204
 20
-1162316.93341801
 10
-604000.43
 20
-1162316.31461339
 10
-604001.629415921
 20
-1162315.47477332
 10
-604002.664773321
 20
-1162314.43941592
 10
-604003.504613391
 20
-1162313.24
 10
-604004.123418014
 20
-1162311.9129692
 10
-604004.502385124
 20
-1162310.49864469
 10
-604004.629999999
 20
-1162309.04
 10
-604004.502385124
 20
-1162307.58135531
 10
-604004.123418014
 20
-1162306.1670308
 10
-604003.504613391
 20
-1162304.84
 10
-604002.664773321
 20
-1162303.64058408
 10
-604001.629415921
 20
-1162302.60522668
 10
-604000.43
 20
-1162301.76538661
 10
-603999.102969204
 20
-1162301.14658199
 10
-603997.688644693
 20
-1162300.76761488
 10
-603996.23
 20
-1162300.64
 97
0
 75
0
 76
1
 98
0
  0
HATCH
  5
200C1
100
AcDbEntity
  8
0
100
AcDbHatch
 10
0
 20
0
 30
0
210
0
220
0
230
1
  2
SOLID
 70
1
 71
0
 91
1
 92
2
 72
0
 73
1
 93
37
 10
-603968.754099999
 20
-1162341.3326
 10
-603967.741731123
 20
-1162341.4211708
 10
-603966.760122564
 20
-1162341.68419202
 10
-603965.8391
 20
-1162342.1136719
 10
-603965.006648235
 20
-1162342.6965609
 10
-603964.288060897
 20
-1162343.41514824
 10
-603963.705171896
 20
-1162344.2476
 10
-603963.275692021
 20
-1162345.16862256
 10
-603963.0126708
 20
-1162346.15023112
 10
-603962.9241
 20
-1162347.1626
 10
-603963.0126708
 20
-1162348.17496888
 10
-603963.275692021
 20
-1162349.15657743
 10
-603963.705171896
 20
-1162350.0776
 10
-603964.288060897
 20
-1162350.91005176
 10
-603965.006648235
 20
-1162351.6286391
 10
-603965.8391
 20
-1162352.2115281
 10
-603966.760122564
 20
-1162352.64100798
 10
-603967.741731123
 20
-1162352.9040292
 10
-603968.754099999
 20
-1162352.9926
 10
-603969.766468874
 20
-1162352.9040292
 10
-603970.748077434
 20
-1162352.64100798
 10
-603971.669099998
 20
-1162352.2115281
 10
-603972.501551762
 20
-1162351.6286391
 10
-603973.220139101
 20
-1162350.91005176
 10
-603973.803028101
 20
-1162350.0776
 10
-603974.232507976
 20
-1162349.15657743
 10
-603974.495529197
 20
-1162348.17496888
 10
-603974.584099997
 20
-1162347.1626
 10
-603974.495529197
 20
-1162346.15023112
 10
-603974.232507976
 20
-1162345.16862256
 10
-603973.803028101
 20
-1162344.2476
 10
-603973.220139101
 20
-1162343.41514824
 10
-603972.501551762
 20
-1162342.6965609
 10
-603971.669099998
 20
-1162342.1136719
 10
-603970.748077434
 20
-1162341.68419202
 10
-603969.766468874
 20
-1162341.4211708
 10
-603968.754099999
 20
-1162341.3326
 97
0
 75
0
 76
1
 98
0
  0
HATCH
  5
200C2
100
AcDbEntity
  8
0
100
AcDbHatch
 10
0
 20
0
 30
0
210
0
220
0
230
1
  2
SOLID
 70
1
 71
0
 91
1
 92
2
 72
0
 73
1
 93
37
 10
-603968.82
 20
-1162355.56
 10
-603967.349199935
 20
-1162355.68867833
 10
-603965.923089385
 20
-1162356.0708035
 10
-603964.584999999
 20
-1162356.69476483
 10
-603963.375588945
 20
-1162357.54160357
 10
-603962.331603565
 20
-1162358.58558895
 10
-603961.484764828
 20
-1162359.795
 10
-603960.8608035
 20
-1162361.13308939
 10
-603960.47867833
 20
-1162362.55919994
 10
-603960.349999998
 20
-1162364.03
 10
-603960.47867833
 20
-1162365.50080007
 10
-603960.8608035
 20
-1162366.92691062
 10
-603961.484764828
 20
-1162368.265
 10
-603962.331603565
 20
-1162369.47441106
 10
-603963.375588945
 20
-1162370.51839644
 10
-603964.584999999
 20
-1162371.36523517
 10
-603965.923089385
 20
-1162371.9891965
 10
-603967.349199935
 20
-1162372.37132167
 10
-603968.82
 20
-1162372.5
 10
-603970.290800066
 20
-1162372.37132167
 10
-603971.716910615
 20
-1162371.9891965
 10
-603973.055000002
 20
-1162371.36523517
 10
-603974.264411056
 20
-1162370.51839644
 10
-603975.308396435
 20
-1162369.47441106
 10
-603976.155235173
 20
-1162368.265
 10
-603976.779196501
 20
-1162366.92691062
 10
-603977.161321671
 20
-1162365.50080007
 10
-603977.290000003
 20
-1162364.03
 10
-603977.161321671
 20
-1162362.55919994
 10
-603976.779196501
 20
-1162361.13308939
 10
-603976.155235173
 20
-1162359.795
 10
-603975.308396435
 20
-1162358.58558895
 10
-603974.264411056
 20
-1162357.54160357
 10
-603973.055000002
 20
-1162356.69476483
 10
-603971.716910615
 20
-1162356.0708035
 10
-603970.290800066
 20
-1162355.68867833
 10
-603968.82
 20
-1162355.56
 97
0
 75
0
 76
1
 98
0
  0
HATCH
  5
200C3
100
AcDbEntity
  8
0
100
AcDbHatch
 10
0
 20
0
 30
0
210
0
220
0
230
1
  2
SOLID
 70
1
 71
0
 91
1
 92
2
 72
0
 73
1
 93
37
 10
-604024.850000001
 20
-1162297.03
 10
-604023.257646213
 20
-1162297.16931291
 10
-604021.713675288
 20
-1162297.58301867
 10
-604020.265000002
 20
-1162298.25854705
 10
-604018.955637622
 20
-1162299.17537246
 10
-604017.82537246
 20
-1162300.30563762
 10
-604016.90854705
 20
-1162301.615
 10
-604016.233018671
 20
-1162303.06367529
 10
-604015.819312908
 20
-1162304.60764621
 10
-604015.680000003
 20
-1162306.2
 10
-604015.819312908
 20
-1162307.79235379
 10
-604016.233018671
 20
-1162309.33632471
 10
-604016.90854705
 20
-1162310.785
 10
-604017.82537246
 20
-1162312.09436238
 10
-604018.955637622
 20
-1162313.22462754
 10
-604020.265000002
 20
-1162314.14145295
 10
-604021.713675288
 20
-1162314.81698133
 10
-604023.257646213
 20
-1162315.23068709
 10
-604024.850000001
 20
-1162315.37
 10
-604026.44235379
 20
-1162315.23068709
 10
-604027.986324715
 20
-1162314.81698133
 10
-604029.435000001
 20
-1162314.14145295
 10
-604030.744362381
 20
-1162313.22462754
 10
-604031.874627543
 20
-1162312.09436238
 10
-604032.791452953
 20
-1162310.785
 10
-604033.466981332
 20
-1162309.33632471
 10
-604033.880687095
 20
-1162307.79235379
 10
-604034.02
 20
-1162306.2
 10
-604033.880687095
 20
-1162304.60764621
 10
-604033.466981332
 20
-1162303.06367529
 10
-604032.791452953
 20
-1162301.615
 10
-604031.874627543
 20
-1162300.30563762
 10
-604030.744362381
 20
-1162299.17537246
 10
-604029.435000001
 20
-1162298.25854705
 10
-604027.986324715
 20
-1162297.58301867
 10
-604026.44235379
 20
-1162297.16931291
 10
-604024.850000001
 20
-1162297.03
 97
0
 75
0
 76
1
 98
0
  0
HATCH
  5
200C4
100
AcDbEntity
  8
0
100
AcDbHatch
 10
0
 20
0
 30
0
210
0
220
0
230
1
  2
SOLID
 70
1
 71
0
 91
1
 92
2
 72
0
 73
1
 93
37
 10
-604058.420000002
 20
-1162228.5
 10
-604056.999557909
 20
-1162228.62427258
 10
-604055.62227523
 20
-1162228.99331436
 10
-604054.330000002
 20
-1162229.5959122
 10
-604053.161997355
 20
-1162230.41375646
 10
-604052.153756457
 20
-1162231.42199735
 10
-604051.335912199
 20
-1162232.59
 10
-604050.733314364
 20
-1162233.88227523
 10
-604050.364272582
 20
-1162235.25955791
 10
-604050.240000002
 20
-1162236.68
 10
-604050.364272582
 20
-1162238.10044209
 10
-604050.733314364
 20
-1162239.47772477
 10
-604051.335912199
 20
-1162240.77
 10
-604052.153756457
 20
-1162241.93800265
 10
-604053.161997355
 20
-1162242.94624354
 10
-604054.330000002
 20
-1162243.7640878
 10
-604055.62227523
 20
-1162244.36668564
 10
-604056.999557909
 20
-1162244.73572742
 10
-604058.420000002
 20
-1162244.86
 10
-604059.840442095
 20
-1162244.73572742
 10
-604061.217724774
 20
-1162244.36668564
 10
-604062.510000002
 20
-1162243.7640878
 10
-604063.678002649
 20
-1162242.94624354
 10
-604064.686243546
 20
-1162241.93800265
 10
-604065.504087804
 20
-1162240.77
 10
-604066.10668564
 20
-1162239.47772477
 10
-604066.475727421
 20
-1162238.10044209
 10
-604066.600000001
 20
-1162236.68
 10
-604066.475727421
 20
-1162235.25955791
 10
-604066.10668564
 20
-1162233.88227523
 10
-604065.504087804
 20
-1162232.59
 10
-604064.686243546
 20
-1162231.42199735
 10
-604063.678002649
 20
-1162230.41375646
 10
-604062.510000002
 20
-1162229.5959122
 10
-604061.217724774
 20
-1162228.99331436
 10
-604059.840442095
 20
-1162228.62427258
 10
-604058.420000002
 20
-1162228.5
 97
0
 75
0
 76
1
 98
0
  0
HATCH
  5
200C5
100
AcDbEntity
  8
0
100
AcDbHatch
 10
0
 20
0
 30
0
210
0
220
0
230
1
  2
SOLID
 70
1
 71
0
 91
1
 92
2
 72
0
 73
1
 93
33
 10
-601716.85
 20
-1160801.35
 10
-601717
 20
-1160802.91
 10
-601717.46
 20
-1160804.41
 10
-601718.2
 20
-1160805.79
 10
-601719.19
 20
-1160807.01
 10
-601720.41
 20
-1160808
 10
-601721.79
 20
-1160808.74
 10
-601723.29
 20
-1160809.2
 10
-601724.85
 20
-1160809.35
 10
-601726.41
 20
-1160809.2
 10
-601727.91
 20
-1160808.74
 10
-601729.29
 20
-1160808
 10
-601730.51
 20
-1160807.01
 10
-601731.5
 20
-1160805.79
 10
-601732.24
 20
-1160804.41
 10
-601732.7
 20
-1160802.91
 10
-601732.85
 20
-1160801.35
 10
-601732.7
 20
-1160799.79
 10
-601732.24
 20
-1160798.29
 10
-601731.5
 20
-1160796.91
 10
-601730.51
 20
-1160795.69
 10
-601729.29
 20
-1160794.7
 10
-601727.91
 20
-1160793.96
 10
-601726.41
 20
-1160793.5
 10
-601724.85
 20
-1160793.35
 10
-601723.29
 20
-1160793.5
 10
-601721.79
 20
-1160793.96
 10
-601720.41
 20
-1160794.7
 10
-601719.19
 20
-1160795.69
 10
-601718.2
 20
-1160796.91
 10
-601717.46
 20
-1160798.29
 10
-601717
 20
-1160799.79
 10
-601716.85
 20
-1160801.35
 97
0
 75
0
 76
1
 98
0
  0
ENDSEC
  0
SECTION
  2
OBJECTS
  0
DICTIONARY
  5
C
330
0
100
AcDbDictionary
281
     1
  3
ACAD_GROUP
350
D
  3
ACAD_LAYOUT
350
1A
  3
ACAD_MLEADERSTYLE
350
43
  3
ACAD_PLOTSETTINGS
350
19
  3
ACAD_PLOTSTYLENAME
350
E
  3
ACAD_TABLESTYLE
350
42
  0
DICTIONARY
  5
D
102
{ACAD_REACTORS
330
C
102
}
330
C
100
AcDbDictionary
281
     1
  0
DICTIONARY
  5
1A
102
{ACAD_REACTORS
330
C
102
}
330
C
100
AcDbDictionary
281
     1
  3
Layout1
350
1E
  3
Model
350
22
  0
DICTIONARY
  5
43
102
{ACAD_REACTORS
330
C
102
}
330
C
100
AcDbDictionary
281
     1
  0
DICTIONARY
  5
19
102
{ACAD_REACTORS
330
C
102
}
330
C
100
AcDbDictionary
281
     1
  0
ACDBDICTIONARYWDFLT
  5
E
102
{ACAD_REACTORS
330
C
102
}
330
C
100
AcDbDictionary
281
     1
  3
Normal
350
F
100
AcDbDictionaryWithDefault
340
F
  0
DICTIONARY
  5
42
102
{ACAD_REACTORS
330
C
102
}
330
C
100
AcDbDictionary
281
     1
  0
LAYOUT
  5
1E
102
{ACAD_REACTORS
330
1A
102
}
330
1A
100
AcDbPlotSettings
  1

  2
none_device
  4

  6

 40
0.0
 41
0.0
 42
0.0
 43
0.0
 44
0.0
 45
0.0
 46
0.0
 47
0.0
 48
0.0
 49
0.0
140
0.0
141
0.0
142
1.0
143
1.0
 70
   688
 72
     0
 73
     0
 74
     5
  7

 75
    16
 76
     0
 77
     2
 78
   300
147
1.0
148
0.0
149
0.0
100
AcDbLayout
  1
Layout1
 70
     1
 71
     1
 10
0.0
 20
0.0
 11
12.0
 21
9.0
 12
0.0
 22
0.0
 32
0.0
 14
1.000000000000000E+20
 24
1.000000000000000E+20
 34
1.000000000000000E+20
 15
-1.000000000000000E+20
 25
-1.000000000000000E+20
 35
-1.000000000000000E+20
146
0.0
 13
0.0
 23
0.0
 33
0.0
 16
1.0
 26
0.0
 36
0.0
 17
0.0
 27
1.0
 37
0.0
 76
     0
330
1B
  0
LAYOUT
  5
22
102
{ACAD_REACTORS
330
1A
102
}
330
1A
100
AcDbPlotSettings
  1

  2
none_device
  4

  6

 40
0.0
 41
0.0
 42
0.0
 43
0.0
 44
0.0
 45
0.0
 46
0.0
 47
0.0
 48
0.0
 49
0.0
140
0.0
141
0.0
142
1.0
143
1.0
 70
  1712
 72
     0
 73
     0
 74
     0
  7

 75
     0
 76
     0
 77
     2
 78
   300
147
1.0
148
0.0
149
0.0
100
AcDbLayout
  1
Model
 70
     1
 71
     0
 10
0.0
 20
0.0
 11
12.0
 21
9.0
 12
0.0
 22
0.0
 32
0.0
 14
30.0
 24
49.75
 34
0.0
 15
130.5
 25
163.1318914119703
 35
0.0
146
0.0
 13
0.0
 23
0.0
 33
0.0
 16
1.0
 26
0.0
 36
0.0
 17
0.0
 27
1.0
 37
0.0
 76
     0
330
1F
331
29
  0
ENDSEC
  0
EOF
