  0
SECTION
  2
HEADER
  9
$ACADVER
  1
AC1018
  9
$ACADMAINTVER
 70
     0
  9
$DWGCODEPAGE
  3
ANSI_1252
  9
$EXTMIN
 10
16.4354929072105
 20
49.1292255116551
 30
0.0
  9
$EXTMAX
 10
16.6954510748722
 20
49.2715929738059
 30
0.0
  9
$LIMMIN
 10
0.0
 20
0.0
  9
$LIMMAX
 10
12.0
 20
9.0
  9
$ORTHOMODE
 70
     0
  9
$REGENMODE
 70
     1
  9
$FILLMODE
 70
     1
  9
$QTEXTMODE
 70
     0
  9
$MIRRTEXT
 70
     1
  9
$LTSCALE
 40
1.0
  9
$ATTMODE
 70
     1
  9
$TEXTSIZE
 40
0.2
  9
$TRACEWID
 40
0.05
  9
$TEXTSTYLE
  7
Standard
  9
$CLAYER
  8
0
  9
$CELTYPE
  6
ByLayer
  9
$CECOLOR
 62
   256
  9
$CELTSCALE
 40
1.0
  9
$DISPSILH
 70
     0
  9
$LUNITS
 70
     2
  9
$LUPREC
 70
     4
  9
$SKETCHINC
 40
0.1
  9
$FILLETRAD
 40
0.5
  9
$AUNITS
 70
     0
  9
$AUPREC
 70
     0
  9
$MENU
  1
.
  9
$ELEVATION
 40
0.0
  9
$PELEVATION
 40
0.0
  9
$THICKNESS
 40
0.0
  9
$LIMCHECK
 70
     0
  9
$CHAMFERA
 40
0.5
  9
$CHAMFERB
 40
0.5
  9
$CHAMFERC
 40
1.0
  9
$CHAMFERD
 40
0.0
  9
$SKPOLY
 70
     0
  9
$ANGBASE
 50
0.0
  9
$ANGDIR
 70
     0
  9
$PDMODE
 70
     0
  9
$PDSIZE
 40
0.0
  9
$PLINEWID
 40
0.0
  9
$SPLFRAME
 70
     0
  9
$SPLINETYPE
 70
     6
  9
$SPLINESEGS
 70
     8
  9
$HANDSEED
  5
000200C6
  9
$SURFTAB1
 70
     6
  9
$SURFTAB2
 70
     6
  9
$SURFTYPE
 70
     6
  9
$SURFU
 70
     6
  9
$SURFV
 70
     6
  9
$UCSBASE
  2

  9
$UCSNAME
  2

  9
$UCSORG
 10
0.0
 20
0.0
 30
0.0
  9
$UCSXDIR
 10
1.0
 20
0.0
 30
0.0
  9
$UCSYDIR
 10
0.0
 20
1.0
 30
0.0
  9
$UCSORTHOREF
  2

  9
$UCSORTHOVIEW
 70
     0
  9
$UCSORGTOP
 10
0.0
 20
0.0
 30
0.0
  9
$UCSORGBOTTOM
 10
0.0
 20
0.0
 30
0.0
  9
$UCSORGLEFT
 10
0.0
 20
0.0
 30
0.0
  9
$UCSORGRIGHT
 10
0.0
 20
0.0
 30
0.0
  9
$UCSORGFRONT
 10
0.0
 20
0.0
 30
0.0
  9
$UCSORGBACK
 10
0.0
 20
0.0
 30
0.0
  9
$PUCSBASE
  2

  9
$PUCSNAME
  2

  9
$PUCSORG
 10
0.0
 20
0.0
 30
0.0
  9
$PUCSXDIR
 10
1.0
 20
0.0
 30
0.0
  9
$PUCSYDIR
 10
0.0
 20
1.0
 30
0.0
  9
$PUCSORTHOREF
  2

  9
$PUCSORTHOVIEW
 70
     0
  9
$PUCSORGTOP
 10
0.0
 20
0.0
 30
0.0
  9
$PUCSORGBOTTOM
 10
0.0
 20
0.0
 30
0.0
  9
$PUCSORGLEFT
 10
0.0
 20
0.0
 30
0.0
  9
$PUCSORGRIGHT
 10
0.0
 20
0.0
 30
0.0
  9
$PUCSORGFRONT
 10
0.0
 20
0.0
 30
0.0
  9
$PUCSORGBACK
 10
0.0
 20
0.0
 30
0.0
  9
$WORLDVIEW
 70
     1
  9
$SHADEDGE
 70
     3
  9
$SHADEDIF
 70
    70
  9
$TILEMODE
 70
     1
  9
$MAXACTVP
 70
    64
  9
$PINSBASE
 10
0.0
 20
0.0
 30
0.0
  9
$PLIMCHECK
 70
     0
  9
$PEXTMIN
 10
1.000000000000000E+20
 20
1.000000000000000E+20
 30
1.000000000000000E+20
  9
$PEXTMAX
 10
-1.000000000000000E+20
 20
-1.000000000000000E+20
 30
-1.000000000000000E+20
  9
$PLIMMIN
 10
0.0
 20
0.0
  9
$PLIMMAX
 10
12.0
 20
9.0
  9
$UNITMODE
 70
     0
  9
$VISRETAIN
 70
     1
  9
$PLINEGEN
 70
     0
  9
$PSLTSCALE
 70
     1
  9
$TREEDEPTH
 70
  3020
  9
$CMLSTYLE
  2
Standard
  9
$CMLJUST
 70
     0
  9
$CMLSCALE
 40
1.0
  9
$PROXYGRAPHICS
 70
     1
  9
$MEASUREMENT
 70
     0
  9
$CELWEIGHT
370
    -1
  9
$ENDCAPS
280
     0
  9
$JOINSTYLE
280
     0
  9
$LWDISPLAY
290
     0
  9
$INSUNITS
 70
     1
  9
$HYPERLINKBASE
  1

  9
$STYLESHEET
  1

  9
$XEDIT
290
     1
  9
$CEPSNTYPE
380
     0
  9
$PSTYLEMODE
290
     1
  9
$EXTNAMES
290
     1
  9
$PSVPSCALE
 40
0.0
  9
$OLESTARTUP
290
     0
  9
$SORTENTS
280
   127
  9
$INDEXCTL
280
     0
  9
$HIDETEXT
280
     1
  9
$XCLIPFRAME
290
     0
  9
$HALOGAP
280
     0
  9
$OBSCOLOR
 70
   257
  9
$OBSLTYPE
280
     0
  9
$INTERSECTIONDISPLAY
280
     0
  9
$INTERSECTIONCOLOR
 70
   257
  9
$DIMASSOC
280
     2
  9
$PROJECTNAME
  1

  0
ENDSEC
  0
SECTION
  2
CLASSES
  0
CLASS
  1
ACDBDICTIONARYWDFLT
  2
AcDbDictionaryWithDefault
  3
ObjectDBX Classes
 90
        0
 91
        4
280
     0
281
     0
  0
ENDSEC
  0
SECTION
  2
TABLES
  0
TABLE
  2
VPORT
  5
8
330
0
100
AcDbSymbolTable
 70
     1
  0
VPORT
  5
29
330
8
100
AcDbSymbolTableRecord
100
AcDbViewportTableRecord
  2
*Active
 70
     0
 10
0.0
 20
0.0
 11
1.0
 21
1.0
 12
80.25
 22
106.4409457059851
 13
0.0
 23
0.0
 14
0.5
 24
0.5
 15
0.5
 25
0.5
 16
0.0
 26
0.0
 36
1.0
 17
0.0
 27
0.0
 37
0.0
 40
113.3818914119703
 41
0.8863849310366128
 42
50.0
 43
0.0
 44
0.0
 50
0.0
 51
0.0
 71
     0
 72
  1000
 73
     1
 74
     3
 75
     0
 76
     0
 77
     0
 78
     0
281
     0
 65
     1
110
0.0
120
0.0
130
0.0
111
1.0
121
0.0
131
0.0
112
0.0
122
1.0
132
0.0
 79
     0
146
0.0
  0
ENDTAB
  0
TABLE
  2
LTYPE
  5
5
330
0
100
AcDbSymbolTable
 70
     1
  0
LTYPE
  5
14
330
5
100
AcDbSymbolTableRecord
100
AcDbLinetypeTableRecord
  2
ByBlock
 70
     0
  3

 72
    65
 73
     0
 40
0.0
  0
LTYPE
  5
15
330
5
100
AcDbSymbolTableRecord
100
AcDbLinetypeTableRecord
  2
ByLayer
 70
     0
  3

 72
    65
 73
     0
 40
0.0
  0
LTYPE
  5
16
330
5
100
AcDbSymbolTableRecord
100
AcDbLinetypeTableRecord
  2
Continuous
 70
     0
  3
Solid line
 72
    65
 73
     0
 40
0.0
  0
ENDTAB
  0
TABLE
  2
LAYER
  5
2
330
0
100
AcDbSymbolTable
 70
     1
  0
LAYER
  5
10
330
2
100
AcDbSymbolTableRecord
100
AcDbLayerTableRecord
  2
0
 70
     0
 62
     7
  6
Continuous
370
    -3
390
F
  0
ENDTAB
  0
TABLE
  2
STYLE
  5
3
330
0
100
AcDbSymbolTable
 70
     1
  0
STYLE
  5
11
330
3
100
AcDbSymbolTableRecord
100
AcDbTextStyleTableRecord
  2
Standard
 70
     0
 40
0.0
 41
1.0
 50
0.0
 71
     0
 42
0.2
  3
txt
  4

  0
ENDTAB
  0
TABLE
  2
VIEW
  5
6
330
0
100
AcDbSymbolTable
 70
     0
  0
ENDTAB
  0
TABLE
  2
UCS
  5
7
330
0
100
AcDbSymbolTable
 70
     0
  0
ENDTAB
  0
TABLE
  2
APPID
  5
9
330
0
100
AcDbSymbolTable
 70
     1
  0
APPID
  5
12
330
9
100
AcDbSymbolTableRecord
100
AcDbRegAppTableRecord
  2
ACAD
 70
     0
  0
ENDTAB
  0
TABLE
  2
DIMSTYLE
  5
A
330
0
100
AcDbSymbolTable
 70
     1
100
AcDbDimStyleTable
  0
DIMSTYLE
105
27
330
A
100
AcDbSymbolTableRecord
100
AcDbDimStyleTableRecord
  2
Standard
 70
     0
340
11
  0
ENDTAB
  0
TABLE
  2
BLOCK_RECORD
  5
1
330
0
100
AcDbSymbolTable
 70
     1
  0
BLOCK_RECORD
  5
1F
330
1
100
AcDbSymbolTableRecord
100
AcDbBlockTableRecord
  2
*Model_Space
340
22
  0
BLOCK_RECORD
  5
1B
330
1
100
AcDbSymbolTableRecord
100
AcDbBlockTableRecord
  2
*Paper_Space
340
1E
  0
ENDTAB
  0
ENDSEC
  0
SECTION
  2
BLOCKS
  0
BLOCK
  5
20
330
1F
100
AcDbEntity
  8
0
100
AcDbBlockBegin
  2
*Model_Space
 70
     0
 10
0.0
 20
0.0
 30
0.0
  3
*Model_Space
  1

  0
ENDBLK
  5
21
330
1F
100
AcDbEntity
  8
0
100
AcDbBlockEnd
  0
BLOCK
  5
1C
330
1B
100
AcDbEntity
 67
     1
  8
0
100
AcDbBlockBegin
  2
*Paper_Space
 70
     0
 10
0.0
 20
0.0
 30
0.0
  3
*Paper_Space
  1

  0
ENDBLK
  5
1D
330
1B
100
AcDbEntity
 67
     1
  8
0
100
AcDbBlockEnd
  0
ENDSEC
  0
SECTION
  2
ENTITIES
  0
HATCH
  5
20000
100
AcDbEntity
  8
0
100
AcDbHatch
 10
0
 20
0
 30
0
210
0
220
0
230
1
  2
SOLID
 70
1
 71
0
 91
1
 92
2
 72
0
 73
1
 93
37
 10
16.6051589332971
 20
49.2023680715683
 10
16.6051755313919
 20
49.2023682942275
 10
16.6051919363288
 20
49.2023666248656
 10
16.6052076496504
 20
49.2023631142056
 10
16.6052221939138
 20
49.2023578689176
 10
16.605235127198
 20
49.2023510483774
 10
16.6052460565312
 20
49.2023428598244
 10
16.6052546498314
 20
49.2023335520641
 10
16.6052606459964
 20
49.2023234079086
 10
16.6052638628373
 20
49.2023127355835
 10
16.6052642026135
 20
49.2023018593622
 10
16.6052616550032
 20
49.2022911097131
 10
16.6052562974158
 20
49.2022808132587
 10
16.6052482926406
 20
49.2022712828513
 10
16.6052378838995
 20
49.2022628080668
 10
16.6052253874573
 20
49.2022556464068
 10
16.6052111830117
 20
49.2022500154741
 10
16.6051957021569
 20
49.2022460863611
 10
16.6051794152694
 20
49.2022439784515
 10
16.6051628172162
 20
49.202243755793
 10
16.605146412319
 20
49.2022454251507
 10
16.6051306990304
 20
49.2022489358024
 10
16.6051161547893
 20
49.202254181079
 10
16.6051032215141
 20
49.2022610016059
 10
16.6050922921754
 20
49.2022691901456
 10
16.6050836988558
 20
49.2022784978939
 10
16.60507770266
 20
49.2022886420402
 10
16.6050744857807
 20
49.2022993143602
 10
16.6050741459628
 20
49.2023101905809
 10
16.6050766935334
 20
49.2023209402341
 10
16.6050820510878
 20
49.2023312366968
 10
16.6050900558407
 20
49.2023407671156
 10
16.6051004645729
 20
49.2023492419133
 10
16.6051129610206
 20
49.2023564035867
 10
16.6051271654855
 20
49.2023620345315
 10
16.6051426463711
 20
49.2023659636536
 10
16.6051589332971
 20
49.2023680715683
 97
0
 75
0
 76
1
 98
0
  0
HATCH
  5
20001
100
AcDbEntity
  8
0
100
AcDbHatch
 10
0
 20
0
 30
0
210
0
220
0
230
1
  2
SOLID
 70
1
 71
0
 91
1
 92
2
 72
0
 73
1
 93
37
 10
16.5357777536262
 20
49.1740388810004
 10
16.5358243633585
 20
49.1740395346575
 10
16.5358704380993
 20
49.1740348717614
 10
16.5359145778767
 20
49.1740250339929
 10
16.5359554415142
 20
49.1740103202708
 10
16.535991787383
 20
49.1739911776681
 10
16.5360225111289
 20
49.1739681878278
 10
16.5360466792285
 20
49.1739420492893
 10
16.536063557353
 20
49.1739135562632
 10
16.5360726326803
 20
49.173883574499
 10
16.5360736294746
 20
49.1738530149793
 10
16.5360665174639
 20
49.1738228062396
 10
16.5360515127569
 20
49.1737938661559
 10
16.536029071276
 20
49.1737670740551
 10
16.5359998749021
 20
49.1737432439976
 10
16.5359648107555
 20
49.1737231000428
 10
16.5359249442406
 20
49.1737072542497
 10
16.5358814866745
 20
49.1736961880807
 10
16.5358357584822
 20
49.1736902377723
 10
16.5357891490782
 20
49.1736895841198
 10
16.5357430746508
 20
49.1736942469838
 10
16.535698935134
 20
49.1737040846872
 10
16.535658071673
 20
49.1737187983191
 10
16.5356217258753
 20
49.1737379408174
 10
16.5355910020864
 20
49.1737609305517
 10
16.535566833835
 20
49.1737870689953
 10
16.5355499554681
 20
49.1738155619491
 10
16.5355408798373
 20
49.1738455436724
 10
16.5355398827146
 20
49.1738761031874
 10
16.5355469944121
 20
49.1739063119592
 10
16.5355619988584
 20
49.1739352521079
 10
16.5355844401628
 20
49.1739620442989
 10
16.5356136364657
 20
49.1739858744609
 10
16.5356487006552
 20
49.1740060185217
 10
16.5356885673219
 20
49.1740218644097
 10
16.5357320251304
 20
49.174032930651
 10
16.5357777536262
 20
49.1740388810004
 97
0
 75
0
 76
1
 98
0
  0
HATCH
  5
20002
100
AcDbEntity
  8
0
100
AcDbHatch
 10
0
 20
0
 30
0
210
0
220
0
230
1
  2
SOLID
 70
1
 71
0
 91
1
 92
2
 72
0
 73
1
 93
37
 10
16.5983133155423
 20
49.2174691004876
 10
16.5983426222088
 20
49.2174694952472
 10
16.5983715882832
 20
49.217466550329
 10
16.5983993336404
 20
49.2174603552136
 10
16.5984250152472
 20
49.2174510981374
 10
16.5984478527778
 20
49.2174390603737
 10
16.5984671523241
 20
49.2174246076857
 10
16.5984823274801
 20
49.2174081792128
 10
16.5984929171588
 20
49.2173902741277
 10
16.5984985996027
 20
49.2173714364685
 10
16.598499202159
 20
49.2173522386088
 10
16.5984947065252
 20
49.2173332638657
 10
16.5984852493043
 20
49.2173150887768
 10
16.598471117854
 20
49.2172982655818
 10
16.5984527415544
 20
49.2172833054433
 10
16.5984306787611
 20
49.2172706629157
 10
16.5984055998404
 20
49.2172607221338
 10
16.5983782667997
 20
49.2172537851418
 10
16.5983495101354
 20
49.2172500627152
 10
16.5983202035988
 20
49.2172496679573
 10
16.5982912376482
 20
49.2172526128627
 10
16.5982634923938
 20
49.2172588079525
 10
16.5982378108565
 20
49.217268064993
 10
16.5982149733538
 20
49.2172801027155
 10
16.5981956737902
 20
49.2172945553617
 10
16.5981804985741
 20
49.2173109837971
 10
16.5981699087993
 20
49.2173288888538
 10
16.5981642262353
 20
49.2173477264969
 10
16.5981636235492
 20
49.2173669243549
 10
16.5981681190593
 20
49.2173858991107
 10
16.5981775761773
 20
49.2174040742253
 10
16.598191707558
 20
49.217420897456
 10
16.5982100838299
 20
49.2174358576357
 10
16.5982321466403
 20
49.2174485002052
 10
16.5982572256213
 20
49.2174584410244
 10
16.5982845587579
 20
49.2174653780449
 10
16.5983133155423
 20
49.2174691004876
 97
0
 75
0
 76
1
 98
0
  0
HATCH
  5
20003
100
AcDbEntity
  8
0
100
AcDbHatch
 10
0
 20
0
 30
0
210
0
220
0
230
1
  2
SOLID
 70
1
 71
0
 91
1
 92
2
 72
0
 73
1
 93
37
 10
16.6069860621808
 20
49.2058275359147
 10
16.6070136159991
 20
49.2058279050787
 10
16.6070408490472
 20
49.2058251336011
 10
16.6070669338578
 20
49.2058193056924
 10
16.607091077853
 20
49.2058105984316
 10
16.6071125474269
 20
49.2057992763859
 10
16.6071306902363
 20
49.2057856835715
 10
16.6071449550218
 20
49.205770233001
 10
16.6071549083575
 20
49.2057533941335
 10
16.6071602478201
 20
49.2057356786106
 10
16.6071608111777
 20
49.2057176247103
 10
16.6071565813179
 20
49.2056997809912
 10
16.607147686768
 20
49.2056826896251
 10
16.6071343977884
 20
49.2056668699236
 10
16.6071171181608
 20
49.2056528025589
 10
16.607096372919
 20
49.205640914959
 10
16.6070727923961
 20
49.205631568321
 10
16.6070470930719
 20
49.2056250466363
 10
16.6070200558035
 20
49.2056215480618
 10
16.6069925020998
 20
49.2056211788993
 10
16.6069652691611
 20
49.2056239503656
 10
16.6069391844415
 20
49.2056297782516
 10
16.6069150405077
 20
49.2056384854808
 10
16.6068935709584
 20
49.2056498074901
 10
16.6068754281338
 20
49.2056634002675
 10
16.606861163295
 20
49.2056788508049
 10
16.6068512098745
 20
49.2056956896473
 10
16.6068458703057
 20
49.2057134051559
 10
16.6068453068334
 20
49.2057314590547
 10
16.6068495365837
 20
49.2057493027851
 10
16.6068584310428
 20
49.2057663941739
 10
16.6068717199609
 20
49.2057822139069
 10
16.6068889995639
 20
49.2057962813082
 10
16.606909744821
 20
49.205808168945
 10
16.6069333253971
 20
49.2058175156161
 10
16.6069590248062
 20
49.205824037326
 10
16.6069860621808
 20
49.2058275359147
 97
0
 75
0
 76
1
 98
0
  0
HATCH
  5
20004
100
AcDbEntity
  8
0
100
AcDbHatch
 10
0
 20
0
 30
0
210
0
220
0
230
1
  2
SOLID
 70
1
 71
0
 91
1
 92
2
 72
0
 73
1
 93
33
 10
16.6954287244317
 20
49.2013176094828
 10
16.6954289731464
 20
49.2013017097375
 10
16.6954243292398
 20
49.2012861906216
 10
16.6954152801571
 20
49.2012714480487
 10
16.695401982062
 20
49.2012582164695
 10
16.6953850588501
 20
49.20124690136
 10
16.6953649833686
 20
49.2012379880488
 10
16.6953428180563
 20
49.2012317318687
 10
16.6953190503501
 20
49.2012285287333
 10
16.6952947864663
 20
49.2012283657291
 10
16.6952711034339
 20
49.2012314087752
 10
16.6952486054366
 20
49.201237338461
 10
16.6952284132853
 20
49.2012460524595
 10
16.6952111457602
 20
49.2012571419453
 10
16.6951975435031
 20
49.2012702970718
 10
16.6951879961722
 20
49.2012848216405
 10
16.6951831079597
 20
49.2013003962414
 10
16.6951828591662
 20
49.2013162959862
 10
16.695187503
 20
49.2013318151117
 10
16.6951965520259
 20
49.2013465577024
 10
16.6952098500899
 20
49.2013597893049
 10
16.6952267733003
 20
49.2013711044399
 10
16.6952468488109
 20
49.201380017775
 10
16.6952690141773
 20
49.2013862739734
 10
16.6952927819559
 20
49.2013894771191
 10
16.6953170459186
 20
49.2013896401237
 10
16.6953407290237
 20
49.2013865970682
 10
16.6953632270779
 20
49.2013806673647
 10
16.6953834192603
 20
49.2013719533428
 10
16.6954006867868
 20
49.2013608638314
 10
16.6954142890149
 20
49.2013477086811
 10
16.6954238362916
 20
49.2013331840939
 10
16.6954287244317
 20
49.2013176094828
 97
0
 75
0
 76
1
 98
0
  0
HATCH
  5
20005
100
AcDbEntity
  8
0
100
AcDbHatch
 10
0
 20
0
 30
0
210
0
220
0
230
1
  2
SOLID
 70
1
 71
0
 91
1
 92
2
 72
0
 73
1
 93
25
 10
16.6423172852232
 20
49.224593109612
 10
16.6421071330566
 20
49.2245333398353
 10
16.6418931093998
 20
49.2244870442767
 10
16.6418435972333
 20
49.2245815952299
 10
16.6417674930025
 20
49.2247203074877
 10
16.6421680286369
 20
49.2248080643269
 10
16.6425484575057
 20
49.2249038986582
 10
16.6426467743102
 20
49.2249341657552
 10
16.6427345630774
 20
49.2249604344264
 10
16.6427947137987
 20
49.2249784231797
 10
16.643224798361
 20
49.2251317517756
 10
16.6434042093942
 20
49.2252038230865
 10
16.6434509503882
 20
49.2251538464428
 10
16.6435448330936
 20
49.2251884127712
 10
16.6434959354914
 20
49.2252405889686
 10
16.6446285011493
 20
49.2256964093405
 10
16.6450067422574
 20
49.2258467995039
 10
16.6449302797805
 20
49.2256683893065
 10
16.6448638590062
 20
49.2255339193727
 10
16.6448275215881
 20
49.2254457973621
 10
16.643380583748
 20
49.2249308229829
 10
16.643141012576
 20
49.2248416668028
 10
16.6428846981817
 20
49.2247544046659
 10
16.6426947249595
 20
49.2247004001818
 10
16.6423172852232
 20
49.224593109612
 97
0
 75
0
 76
1
 98
0
  0
HATCH
  5
20006
100
AcDbEntity
  8
0
100
AcDbHatch
 10
0
 20
0
 30
0
210
0
220
0
230
1
  2
SOLID
 70
1
 71
0
 91
1
 92
2
 72
0
 73
1
 93
37
 10
16.6239696462567
 20
49.1763318356444
 10
16.6239967296325
 20
49.1763321947294
 10
16.624023496657
 20
49.1763294650041
 10
16.624049134023
 20
49.1763237294101
 10
16.6240728627482
 20
49.1763151622217
 10
16.6240939618445
 20
49.1763040237498
 10
16.6241117902255
 20
49.1762906524329
 10
16.6241258061856
 20
49.1762754545533
 10
16.6241355838591
 20
49.1762588918923
 10
16.6241408261603
 20
49.1762414676991
 10
16.6241413738089
 20
49.1762237113996
 10
16.62413721017
 20
49.17620616251
 10
16.6241284617584
 20
49.176189354244
 10
16.6241153943941
 20
49.1761737973113
 10
16.6240984051251
 20
49.1761599644
 10
16.6240780101628
 20
49.1761482758145
 10
16.624054829197
 20
49.1761390867049
 10
16.6240295665675
 20
49.1761326762763
 10
16.6240029898627
 20
49.1761292393052
 10
16.6239759065977
 20
49.1761288802216
 10
16.6239491396789
 20
49.176131609936
 10
16.6239235024007
 20
49.176137345508
 10
16.6238997737348
 20
49.176145912666
 10
16.6238786746622
 20
49.1761570511026
 10
16.6238608462664
 20
49.1761704223838
 10
16.6238468302549
 20
49.1761856202314
 10
16.6238370524994
 20
49.1762021828681
 10
16.6238318100957
 20
49.1762196070475
 10
16.6238312623362
 20
49.1762373633455
 10
16.6238354258695
 20
49.1762549122461
 10
16.6238441741932
 20
49.176271720534
 10
16.6238572414982
 20
49.1762872774972
 10
16.6238742307435
 20
49.1763011104438
 10
16.6238946257206
 20
49.1763127990651
 10
16.6239178067378
 20
49.1763219882066
 10
16.6239430694493
 20
49.1763283986595
 10
16.6239696462567
 20
49.1763318356444
 97
0
 75
0
 76
1
 98
0
  0
HATCH
  5
20007
100
AcDbEntity
  8
0
100
AcDbHatch
 10
0
 20
0
 30
0
210
0
220
0
230
1
  2
SOLID
 70
1
 71
0
 91
1
 92
2
 72
0
 73
1
 93
37
 10
16.600068855737
 20
49.1986666334678
 10
16.600103866921
 20
49.1986671047107
 10
16.6001384710742
 20
49.1986635846907
 10
16.6001716167589
 20
49.1986561803626
 10
16.6002022968537
 20
49.1986451167047
 10
16.6002295791549
 20
49.1986307298831
 10
16.6002526347019
 20
49.1986134570367
 10
16.6002707629646
 20
49.198593822995
 10
16.6002834131287
 20
49.1985724243306
 10
16.6002902008318
 20
49.198549911233
 10
16.6002909198404
 20
49.1985269677525
 10
16.6002855483164
 20
49.1985042910151
 10
16.6002742494787
 20
49.1984825700411
 10
16.6002573666433
 20
49.1984624648098
 10
16.6002354127913
 20
49.1984445862061
 10
16.600209054981
 20
49.1984294774597
 10
16.6001790940801
 20
49.1984175976395
 10
16.6001464404315
 20
49.1984093077054
 10
16.6001120861936
 20
49.1984048595411
 10
16.6000770751948
 20
49.1984043883006
 10
16.6000424712183
 20
49.1984079083025
 10
16.6000093256804
 20
49.1984153125939
 10
16.5999786456849
 20
49.1984263762008
 10
16.5999513634234
 20
49.1984407629635
 10
16.5999283078518
 20
49.1984580357502
 10
16.5999101795032
 20
49.1984776697385
 10
16.5998975292021
 20
49.1984990683623
 10
16.5998907413276
 20
49.1985215814369
 10
16.5998900221337
 20
49.1985445249149
 10
16.5998953934811
 20
49.1985672016705
 10
16.599906692172
 20
49.1985889226812
 10
16.5999235749081
 20
49.1986090279635
 10
16.5999455287205
 20
49.198626906626
 10
16.5999718865553
 20
49.1986420154321
 10
16.6000018475422
 20
49.1986538953058
 10
16.6000345013278
 20
49.1986621852805
 10
16.600068855737
 20
49.1986666334678
 97
0
 75
0
 76
1
 98
0
  0
HATCH
  5
20008
100
AcDbEntity
  8
0
100
AcDbHatch
 10
0
 20
0
 30
0
210
0
220
0
230
1
  2
SOLID
 70
1
 71
0
 91
1
 92
2
 72
0
 73
1
 93
37
 10
16.5979366466532
 20
49.1778527508354
 10
16.5979608621026
 20
49.1778530773541
 10
16.5979847961485
 20
49.1778506421471
 10
16.5980077215631
 20
49.1778455192072
 10
16.5980289417663
 20
49.1778378641934
 10
16.5980478119907
 20
49.1778279097003
 10
16.5980637588733
 20
49.1778159581916
 10
16.5980762978765
 20
49.1778023728089
 10
16.598085048011
 20
49.1777875663385
 10
16.5980897434115
 20
49.1777719886683
 10
16.598090241414
 20
49.1777561131185
 10
16.5980865268912
 20
49.1777404220596
 10
16.5980787127107
 20
49.1777253922562
 10
16.5980670363057
 20
49.1777114803804
 10
16.5980518524598
 20
49.1776991091364
 10
16.5980336225276
 20
49.177688654417
 10
16.5980129004156
 20
49.1776804338823
 10
16.5979903157529
 20
49.1776746973077
 10
16.5979665547601
 20
49.1776716189955
 10
16.5979423393993
 20
49.177671292478
 10
16.5979184054379
 20
49.1776737276763
 10
16.5978954800935
 20
49.1776788505985
 10
16.5978742599378
 20
49.177686505588
 10
16.5978553897324
 20
49.1776964600529
 10
16.5978394428381
 20
49.1777084115331
 10
16.5978269037938
 20
49.1777219968902
 10
16.5978181535937
 20
49.1777368033411
 10
16.5978134581114
 20
49.1777523810004
 10
16.5978129600202
 20
49.1777682565489
 10
16.5978166744585
 20
49.1777839476165
 10
16.5978244885687
 20
49.1777989774375
 10
16.5978361649263
 20
49.1778128893377
 10
16.5978513487531
 20
49.1778252606098
 10
16.5978695786971
 20
49.1778357153578
 10
16.5978903008502
 20
49.1778439359182
 10
16.5979128855784
 20
49.1778496725121
 10
16.5979366466532
 20
49.1778527508354
 97
0
 75
0
 76
1
 98
0
  0
HATCH
  5
20009
100
AcDbEntity
  8
0
100
AcDbHatch
 10
0
 20
0
 30
0
210
0
220
0
230
1
  2
SOLID
 70
1
 71
0
 91
1
 92
2
 72
0
 73
1
 93
37
 10
16.5936635803954
 20
49.2254088058454
 10
16.5936895418567
 20
49.2254091565359
 10
16.5937152018807
 20
49.2254065492186
 10
16.5937397807962
 20
49.2254010631158
 10
16.5937625317815
 20
49.2253928649209
 10
16.5937827635571
 20
49.2253822037332
 10
16.5937998613897
 20
49.225369403489
 10
16.5938133057709
 20
49.2253548531186
 10
16.5938226882021
 20
49.2253389947292
 10
16.5938277236063
 20
49.2253223101707
 10
16.5938282589896
 20
49.2253053063956
 10
16.5938242780892
 20
49.2252885000552
 10
16.5938159018671
 20
49.225272401801
 10
16.5938033848342
 20
49.2252575007695
 10
16.5937871073168
 20
49.2252442497197
 10
16.5937675638998
 20
49.2252330512767
 10
16.5937453483996
 20
49.2252242456978
 10
16.5937211358208
 20
49.225218100535
 10
16.5936956618468
 20
49.2252148025049
 10
16.5936697004873
 20
49.2252144518157
 10
16.5936440405605
 20
49.2252170591231
 10
16.5936194617258
 20
49.2252225452057
 10
16.593596710795
 20
49.2252307433726
 10
16.5935764790413
 20
49.2252414045279
 10
16.5935593811952
 20
49.2252542047393
 10
16.5935459367667
 20
49.2252687550803
 10
16.5935365542602
 20
49.2252846134474
 10
16.5935315187617
 20
49.2253012979933
 10
16.5935309832766
 20
49.225318301767
 10
16.5935349640799
 20
49.2253351081175
 10
16.5935433402212
 20
49.2253512063919
 10
16.5935558571995
 20
49.2253661074513
 10
16.5935721346951
 20
49.2253793585334
 10
16.5935916781256
 20
49.2253905570093
 10
16.593613893673
 20
49.2253993626175
 10
16.5936381063272
 20
49.2254055078026
 10
16.5936635803954
 20
49.2254088058454
 97
0
 75
0
 76
1
 98
0
  0
HATCH
  5
2000A
100
AcDbEntity
  8
0
100
AcDbHatch
 10
0
 20
0
 30
0
210
0
220
0
230
1
  2
SOLID
 70
1
 71
0
 91
1
 92
2
 72
0
 73
1
 93
25
 10
16.6423172852232
 20
49.224593109612
 10
16.6421071330566
 20
49.2245333398353
 10
16.6418931093998
 20
49.2244870442767
 10
16.6418435972333
 20
49.2245815952299
 10
16.6417674930025
 20
49.2247203074877
 10
16.6421680286369
 20
49.2248080643269
 10
16.6425484575057
 20
49.2249038986582
 10
16.6426467743102
 20
49.2249341657552
 10
16.6427345630774
 20
49.2249604344264
 10
16.6427947137987
 20
49.2249784231797
 10
16.643224798361
 20
49.2251317517756
 10
16.6434042093942
 20
49.2252038230865
 10
16.6434509503882
 20
49.2251538464428
 10
16.6435448330936
 20
49.2251884127712
 10
16.6434959354914
 20
49.2252405889686
 10
16.6446285011493
 20
49.2256964093405
 10
16.6450067422574
 20
49.2258467995039
 10
16.6449302797805
 20
49.2256683893065
 10
16.6448638590062
 20
49.2255339193727
 10
16.6448275215881
 20
49.2254457973621
 10
16.643380583748
 20
49.2249308229829
 10
16.643141012576
 20
49.2248416668028
 10
16.6428846981817
 20
49.2247544046659
 10
16.6426947249595
 20
49.2247004001818
 10
16.6423172852232
 20
49.224593109612
 97
0
 75
0
 76
1
 98
0
  0
HATCH
  5
2000B
100
AcDbEntity
  8
0
100
AcDbHatch
 10
0
 20
0
 30
0
210
0
220
0
230
1
  2
SOLID
 70
1
 71
0
 91
1
 92
2
 72
0
 73
1
 93
33
 10
16.5696675708233
 20
49.1878968576757
 10
16.5696679330555
 20
49.1878721892955
 10
16.5696609183477
 20
49.1878479002069
 10
16.5696469093002
 20
49.1878250126533
 10
16.569626318143
 20
49.1878043700773
 10
16.5695999810941
 20
49.1877867556551
 10
16.569568885575
 20
49.1877728728745
 10
16.5695341998431
 20
49.1877631667359
 10
16.569497364935
 20
49.1877581016635
 10
16.5694597299421
 20
49.1877578641723
 10
16.5694226735876
 20
49.1877624619791
 10
16.5693877554367
 20
49.1877716443144
 10
16.5693562622741
 20
49.1877851409874
 10
16.5693293889465
 20
49.1878024038966
 10
16.5693082087305
 20
49.1878227858296
 10
16.5692934005486
 20
49.1878455210384
 10
16.5692856729611
 20
49.1878696649748
 10
16.5692853105387
 20
49.1878943333538
 10
16.5692923250689
 20
49.187918622465
 10
16.569306333979
 20
49.1879415100612
 10
16.5693269250599
 20
49.187962152694
 10
16.5693532621048
 20
49.187979767178
 10
16.5693843576933
 20
49.1879936500163
 10
16.5694190435571
 20
49.1880033561997
 10
16.5694558786394
 20
49.1880084212969
 10
16.5694935138225
 20
49.1880086587895
 10
16.5695305703546
 20
49.1880040609602
 10
16.5695654886429
 20
49.187994878582
 10
16.5695969818819
 20
49.1879813818523
 10
16.5696238552134
 20
49.1879641188813
 10
16.56964503536
 20
49.1879437368907
 10
16.5696598434101
 20
49.187921001637
 10
16.5696675708233
 20
49.1878968576757
 97
0
 75
0
 76
1
 98
0
  0
HATCH
  5
2000C
100
AcDbEntity
  8
0
100
AcDbHatch
 10
0
 20
0
 30
0
210
0
220
0
230
1
  2
SOLID
 70
1
 71
0
 91
1
 92
2
 72
0
 73
1
 93
33
 10
16.6954508261652
 20
49.2012075572836
 10
16.6954510748722
 20
49.201191657538
 10
16.695446430969
 20
49.2011761384227
 10
16.6954373818999
 20
49.2011613958512
 10
16.6954240838283
 20
49.2011481642744
 10
16.695407160649
 20
49.201136849168
 10
16.695387085208
 20
49.2011279358604
 10
16.6953649199422
 20
49.2011216796845
 10
16.6953411522873
 20
49.2011184765535
 10
16.6953168884573
 20
49.2011183135539
 10
16.6952932054789
 20
49.2011213566047
 10
16.6952707075341
 20
49.2011272862949
 10
16.6952505154315
 20
49.2011360002974
 10
16.6952332479498
 20
49.2011470897867
 10
16.6952196457287
 20
49.2011602449161
 10
16.6952100984255
 20
49.2011747694868
 10
16.6952052102308
 20
49.201190344089
 10
16.695204961445
 20
49.201206243834
 10
16.6952096052754
 20
49.201221762959
 10
16.6952186542878
 20
49.2012365055482
 10
16.6952319523282
 20
49.2012497371485
 10
16.695248875506
 20
49.2012610522804
 10
16.695268950976
 20
49.2012699656118
 10
16.6952911162961
 20
49.201276221806
 10
16.6953148840233
 20
49.2012794249472
 10
16.6953391479322
 20
49.2012795879472
 10
16.6953628309834
 20
49.2012765448871
 10
16.6953853289849
 20
49.2012706151792
 10
16.6954055211186
 20
49.2012619011532
 10
16.6954227886019
 20
49.2012508116383
 10
16.6954363907939
 20
49.2012376564852
 10
16.6954459380429
 20
49.2012231318959
 10
16.6954508261652
 20
49.2012075572836
 97
0
 75
0
 76
1
 98
0
  0
HATCH
  5
2000D
100
AcDbEntity
  8
0
100
AcDbHatch
 10
0
 20
0
 30
0
210
0
220
0
230
1
  2
SOLID
 70
1
 71
0
 91
1
 92
2
 72
0
 73
1
 93
37
 10
16.5732935754389
 20
49.2396976112586
 10
16.5733222248977
 20
49.2396980032035
 10
16.5733505430499
 20
49.2396951317461
 10
16.5733776694574
 20
49.2396890841351
 10
16.5734027798937
 20
49.2396800441249
 10
16.5734251113877
 20
49.2396682863934
 10
16.5734439854073
 20
49.239654168195
 10
16.5734588284755
 20
49.2396381185057
 10
16.5734691895959
 20
49.239620624989
 10
16.5734747539552
 20
49.2396022191777
 10
16.5734753524883
 20
49.2395834603237
 10
16.5734709670147
 20
49.2395649184055
 10
16.5734617307902
 20
49.2395471568092
 10
16.5734479244571
 20
49.2395307152109
 10
16.573429967517
 20
49.2395160931787
 10
16.5734084055835
 20
49.2395037349938
 10
16.5733838938044
 20
49.2394940161517
 10
16.5733571769551
 20
49.2394872319528
 10
16.5733290668093
 20
49.2394835885305
 10
16.5733004174746
 20
49.2394831965873
 10
16.5732720994407
 20
49.2394860680324
 10
16.5732449731315
 20
49.2394921156189
 10
16.5732198627618
 20
49.239501155595
 10
16.5731975312944
 20
49.2395129132872
 10
16.5731786572584
 20
49.2395270314457
 10
16.5731638141327
 20
49.2395430810991
 10
16.5731534529207
 20
49.2395605745887
 10
16.5731478884466
 20
49.2395789803846
 10
16.5731472897895
 20
49.2395977392369
 10
16.5731516751447
 20
49.2396162811673
 10
16.5731609112709
 20
49.2396340427882
 10
16.5731747175374
 20
49.2396504844205
 10
16.5731926744509
 20
49.2396651064921
 10
16.5732142364008
 20
49.2396774647169
 10
16.5732387482374
 20
49.2396871835948
 10
16.5732654651784
 20
49.2396939678208
 10
16.5732935754389
 20
49.2396976112586
 97
0
 75
0
 76
1
 98
0
  0
HATCH
  5
2000E
100
AcDbEntity
  8
0
100
AcDbHatch
 10
0
 20
0
 30
0
210
0
220
0
230
1
  2
SOLID
 70
1
 71
0
 91
1
 92
2
 72
0
 73
1
 93
37
 10
16.6085906217641
 20
49.2071475404637
 10
16.6086327190157
 20
49.2071481038765
 10
16.6086743260309
 20
49.2071438690894
 10
16.6087141785899
 20
49.2071349647755
 10
16.6087510657834
 20
49.2071216614904
 10
16.6087838668063
 20
49.2071043634508
 10
16.6088115850134
 20
49.2070835962527
 10
16.6088333782026
 20
49.207059990901
 10
16.6088485842045
 20
49.2070342646357
 10
16.6088567410015
 20
49.2070071991391
 10
16.6088576007644
 20
49.206979616784
 10
16.608851137382
 20
49.2069523556466
 10
16.6088375472524
 20
49.2069262440414
 10
16.6088172433143
 20
49.2069020753541
 10
16.6087908424991
 20
49.2068805839346
 10
16.6087591469849
 20
49.206862422785
 10
16.6087231198221
 20
49.2068481437187
 10
16.6086838556722
 20
49.2068381805946
 10
16.6086425475477
 20
49.2068328361342
 10
16.6086004505638
 20
49.2068322727251
 10
16.6085588438041
 20
49.2068365074858
 10
16.6085189914572
 20
49.2068454117464
 10
16.6084821044071
 20
49.2068587149581
 10
16.6084493034416
 20
49.2068760129126
 10
16.608421585199
 20
49.2068967800243
 10
16.6083997918854
 20
49.2069203852988
 10
16.6083845856854
 20
49.2069461115054
 10
16.6083764286406
 20
49.2069731769688
 10
16.6083755686099
 20
49.2070007593203
 10
16.6083820317369
 20
49.2070280204842
 10
16.6083956216544
 20
49.2070541321425
 10
16.608415925449
 20
49.2070783009033
 10
16.6084423262068
 20
49.2070997924079
 10
16.6084740217567
 20
49.2071179536439
 10
16.6085100490439
 20
49.2071322327873
 10
16.6085493133917
 20
49.2071421959702
 10
16.6085906217641
 20
49.2071475404637
 97
0
 75
0
 76
1
 98
0
  0
HATCH
  5
2000F
100
AcDbEntity
  8
0
100
AcDbHatch
 10
0
 20
0
 30
0
210
0
220
0
230
1
  2
SOLID
 70
1
 71
0
 91
1
 92
2
 72
0
 73
1
 93
37
 10
16.5955764379471
 20
49.1840279072674
 10
16.5956023060252
 20
49.1840282565565
 10
16.5956278736352
 20
49.1840256560025
 10
16.5956523639138
 20
49.1840201846224
 10
16.5956750327328
 20
49.1840120086623
 10
16.5956951913091
 20
49.1840013765458
 10
16.5957122271336
 20
49.1839886113259
 10
16.595725622582
 20
49.1839741008687
 10
16.5957349706424
 20
49.1839582860683
 10
16.5957399872822
 20
49.1839416474508
 10
16.5957405200775
 20
49.1839246905724
 10
16.5957365528442
 20
49.1839079306595
 10
16.5957282061289
 20
49.183891876953
 10
16.5957157335461
 20
49.1838770172358
 10
16.5956995140713
 20
49.1838638030117
 10
16.595680040526
 20
49.1838526357867
 10
16.5956579046034
 20
49.1838438548698
 10
16.5956337788902
 20
49.1838377270634
 10
16.5956083964307
 20
49.1838344385569
 10
16.5955825284537
 20
49.1838340892692
 10
16.5955569609402
 20
49.1838366898132
 10
16.5955324707417
 20
49.1838421611731
 10
16.5955098019769
 20
49.1838503371055
 10
16.5954896434223
 20
49.1838609691899
 10
16.5954726075844
 20
49.1838737343772
 10
16.5954592120891
 20
49.1838882448053
 10
16.595449863954
 20
49.1839040595833
 10
16.5954448472206
 20
49.1839206981883
 10
16.5954443143242
 20
49.1839376550653
 10
16.5954482814611
 20
49.1839544149882
 10
16.5954566280962
 20
49.1839704687148
 10
16.5954691006248
 20
49.1839853284597
 10
16.5954853200779
 20
49.183998542716
 10
16.5955047936366
 20
49.1840097099736
 10
16.5955269296061
 20
49.1840184909197
 10
16.595551055394
 20
49.1840246187482
 10
16.5955764379471
 20
49.1840279072674
 97
0
 75
0
 76
1
 98
0
  0
HATCH
  5
20010
100
AcDbEntity
  8
0
100
AcDbHatch
 10
0
 20
0
 30
0
210
0
220
0
230
1
  2
SOLID
 70
1
 71
0
 91
1
 92
2
 72
0
 73
1
 93
25
 10
16.6423172852232
 20
49.224593109612
 10
16.6421071330566
 20
49.2245333398353
 10
16.6418931093998
 20
49.2244870442767
 10
16.6418435972333
 20
49.2245815952299
 10
16.6417674930025
 20
49.2247203074877
 10
16.6421680286369
 20
49.2248080643269
 10
16.6425484575057
 20
49.2249038986582
 10
16.6426467743102
 20
49.2249341657552
 10
16.6427345630774
 20
49.2249604344264
 10
16.6427947137987
 20
49.2249784231797
 10
16.643224798361
 20
49.2251317517756
 10
16.6434042093942
 20
49.2252038230865
 10
16.6434509503882
 20
49.2251538464428
 10
16.6435448330936
 20
49.2251884127712
 10
16.6434959354914
 20
49.2252405889686
 10
16.6446285011493
 20
49.2256964093405
 10
16.6450067422574
 20
49.2258467995039
 10
16.6449302797805
 20
49.2256683893065
 10
16.6448638590062
 20
49.2255339193727
 10
16.6448275215881
 20
49.2254457973621
 10
16.643380583748
 20
49.2249308229829
 10
16.643141012576
 20
49.2248416668028
 10
16.6428846981817
 20
49.2247544046659
 10
16.6426947249595
 20
49.2247004001818
 10
16.6423172852232
 20
49.224593109612
 97
0
 75
0
 76
1
 98
0
  0
HATCH
  5
20011
100
AcDbEntity
  8
0
100
AcDbHatch
 10
0
 20
0
 30
0
210
0
220
0
230
1
  2
SOLID
 70
1
 71
0
 91
1
 92
2
 72
0
 73
1
 93
33
 10
16.5701285863827
 20
49.1945615521536
 10
16.5701289074931
 20
49.1945421272542
 10
16.5701233660061
 20
49.1945230990953
 10
16.5701124038486
 20
49.194505132319
 10
16.5700961901248
 20
49.1944888721446
 10
16.5700754395782
 20
49.1944750026346
 10
16.570051018177
 20
49.1944641281627
 10
16.5700238511563
 20
49.1944564955037
 10
16.5699948341136
 20
49.1944525302322
 10
16.5699651947353
 20
49.1944523197469
 10
16.5699361607072
 20
49.1944559514473
 10
16.5699087461656
 20
49.1944631357129
 10
16.5698839356131
 20
49.1944737617233
 10
16.5698627728254
 20
49.1944873610599
 10
16.5698461799892
 20
49.1945033661932
 10
16.5698345336524
 20
49.194521170749
 10
16.5698284831865
 20
49.194540187775
 10
16.5698281619584
 20
49.1945596126736
 10
16.5698337033361
 20
49.1945786408465
 10
16.5698446654087
 20
49.1945966076491
 10
16.5698608790852
 20
49.1946128678587
 10
16.5698816296294
 20
49.1946267374069
 10
16.5699060510735
 20
49.1946376119143
 10
16.5699332181753
 20
49.194645244601
 10
16.569962235326
 20
49.1946492098878
 10
16.569991874822
 20
49.194649420374
 10
16.5700209089594
 20
49.1946457886596
 10
16.5700483235858
 20
49.1946386043677
 10
16.5700731341857
 20
49.1946279783221
 10
16.5700942969757
 20
49.1946143789472
 10
16.570110889769
 20
49.1945983737785
 10
16.5701225360247
 20
49.194580569195
 10
16.5701285863827
 20
49.1945615521536
 97
0
 75
0
 76
1
 98
0
  0
HATCH
  5
20012
100
AcDbEntity
  8
0
100
AcDbHatch
 10
0
 20
0
 30
0
210
0
220
0
230
1
  2
SOLID
 70
1
 71
0
 91
1
 92
2
 72
0
 73
1
 93
25
 10
16.6423172852232
 20
49.224593109612
 10
16.6421071330566
 20
49.2245333398353
 10
16.6418931093998
 20
49.2244870442767
 10
16.6418435972333
 20
49.2245815952299
 10
16.6417674930025
 20
49.2247203074877
 10
16.6421680286369
 20
49.2248080643269
 10
16.6425484575057
 20
49.2249038986582
 10
16.6426467743102
 20
49.2249341657552
 10
16.6427345630774
 20
49.2249604344264
 10
16.6427947137987
 20
49.2249784231797
 10
16.643224798361
 20
49.2251317517756
 10
16.6434042093942
 20
49.2252038230865
 10
16.6434509503882
 20
49.2251538464428
 10
16.6435448330936
 20
49.2251884127712
 10
16.6434959354914
 20
49.2252405889686
 10
16.6446285011493
 20
49.2256964093405
 10
16.6450067422574
 20
49.2258467995039
 10
16.6449302797805
 20
49.2256683893065
 10
16.6448638590062
 20
49.2255339193727
 10
16.6448275215881
 20
49.2254457973621
 10
16.643380583748
 20
49.2249308229829
 10
16.643141012576
 20
49.2248416668028
 10
16.6428846981817
 20
49.2247544046659
 10
16.6426947249595
 20
49.2247004001818
 10
16.6423172852232
 20
49.224593109612
 97
0
 75
0
 76
1
 98
0
  0
HATCH
  5
20013
100
AcDbEntity
  8
0
100
AcDbHatch
 10
0
 20
0
 30
0
210
0
220
0
230
1
  2
SOLID
 70
1
 71
0
 91
1
 92
2
 72
0
 73
1
 93
25
 10
16.6423172852232
 20
49.224593109612
 10
16.6421071330566
 20
49.2245333398353
 10
16.6418931093998
 20
49.2244870442767
 10
16.6418435972333
 20
49.2245815952299
 10
16.6417674930025
 20
49.2247203074877
 10
16.6421680286369
 20
49.2248080643269
 10
16.6425484575057
 20
49.2249038986582
 10
16.6426467743102
 20
49.2249341657552
 10
16.6427345630774
 20
49.2249604344264
 10
16.6427947137987
 20
49.2249784231797
 10
16.643224798361
 20
49.2251317517756
 10
16.6434042093942
 20
49.2252038230865
 10
16.6434509503882
 20
49.2251538464428
 10
16.6435448330936
 20
49.2251884127712
 10
16.6434959354914
 20
49.2252405889686
 10
16.6446285011493
 20
49.2256964093405
 10
16.6450067422574
 20
49.2258467995039
 10
16.6449302797805
 20
49.2256683893065
 10
16.6448638590062
 20
49.2255339193727
 10
16.6448275215881
 20
49.2254457973621
 10
16.643380583748
 20
49.2249308229829
 10
16.643141012576
 20
49.2248416668028
 10
16.6428846981817
 20
49.2247544046659
 10
16.6426947249595
 20
49.2247004001818
 10
16.6423172852232
 20
49.224593109612
 97
0
 75
0
 76
1
 98
0
  0
HATCH
  5
20014
100
AcDbEntity
  8
0
100
AcDbHatch
 10
0
 20
0
 30
0
210
0
220
0
230
1
  2
SOLID
 70
1
 71
0
 91
1
 92
2
 72
0
 73
1
 93
37
 10
16.4356248435676
 20
49.223288811027
 10
16.4356507309449
 20
49.223289196198
 10
16.4356763271478
 20
49.2232866311361
 10
16.4357008544441
 20
49.2232811937798
 10
16.4357235675809
 20
49.2232730493413
 10
16.4357437764283
 20
49.2232624452865
 10
16.4357608669499
 20
49.2232497038157
 10
16.4357743198594
 20
49.2232352120735
 10
16.435783726399
 20
49.2232194103856
 10
16.4357888007591
 20
49.2232027788791
 10
16.4357893887622
 20
49.2231858228946
 10
16.4357854725465
 20
49.2231690576311
 10
16.4357771711087
 20
49.2231529924923
 10
16.4357647366875
 20
49.2231381156084
 10
16.4357485470988
 20
49.2231248790046
 10
16.4357290942562
 20
49.2231136848672
 10
16.4357069692238
 20
49.2231048733227
 10
16.4356828442575
 20
49.2230987121042
 10
16.4356574523787
 20
49.2230953884162
 10
16.4356315651027
 20
49.2230950032467
 10
16.4356059689966
 20
49.2230975682988
 10
16.4355814417808
 20
49.2231030056351
 10
16.4355587286987
 20
49.2231111500459
 10
16.4355385198735
 20
49.2231217540685
 10
16.4355214293388
 20
49.2231344955066
 10
16.4355079763828
 20
49.2231489872195
 10
16.4354985697686
 20
49.2231647888851
 10
16.4354934953148
 20
49.2231814203789
 10
16.4354929072105
 20
49.2231983763619
 10
16.4354968233293
 20
49.2232151416352
 10
16.4355051246865
 20
49.223231206794
 10
16.4355175590531
 20
49.2232460837057
 10
16.4355337486196
 20
49.2232593203416
 10
16.4355532014752
 20
49.2232705145117
 10
16.4355753265542
 20
49.2232793260855
 10
16.4355994515952
 20
49.2232854873263
 10
16.4356248435676
 20
49.223288811027
 97
0
 75
0
 76
1
 98
0
  0
HATCH
  5
20015
100
AcDbEntity
  8
0
100
AcDbHatch
 10
0
 20
0
 30
0
210
0
220
0
230
1
  2
SOLID
 70
1
 71
0
 91
1
 92
2
 72
0
 73
1
 93
33
 10
16.607331165878
 20
49.1983369745851
 10
16.6073315020204
 20
49.1983140241449
 10
16.607324990917
 20
49.198291583476
 10
16.6073119386016
 20
49.1982703074104
 10
16.6072927432795
 20
49.1982511286596
 10
16.6072682566914
 20
49.1982347407216
 10
16.6072393305735
 20
49.1982218370943
 10
16.6072072701961
 20
49.1982128720634
 10
16.607172986294
 20
49.1982081815097
 10
16.607137964814
 20
49.1982079611745
 10
16.6071037212054
 20
49.1982122279916
 10
16.6070712547101
 20
49.1982207814184
 10
16.6070419886077
 20
49.1982333605109
 10
16.6070169811527
 20
49.1982494071106
 10
16.6069972906042
 20
49.1982683630595
 10
16.606983610197
 20
49.1982893729842
 10
16.6069764524857
 20
49.1983118400568
 10
16.6069761161789
 20
49.198334790496
 10
16.6069826271299
 20
49.1983572311843
 10
16.6069956793268
 20
49.1983785072868
 10
16.6070148745832
 20
49.1983976860867
 10
16.607039361168
 20
49.1984140740781
 10
16.607068287346
 20
49.1984269777551
 10
16.6071003478366
 20
49.1984359428244
 10
16.6071346318895
 20
49.1984406333995
 10
16.6071696535339
 20
49.1984408537358
 10
16.6072038972948
 20
49.1984365868994
 10
16.6072363639086
 20
49.1984280334355
 10
16.6072656300768
 20
49.1984154542941
 10
16.6072906375351
 20
49.1983994076409
 10
16.6073103280235
 20
49.1983804516423
 10
16.6073240083174
 20
49.1983594416792
 10
16.607331165878
 20
49.1983369745851
 97
0
 75
0
 76
1
 98
0
  0
HATCH
  5
20016
100
AcDbEntity
  8
0
100
AcDbHatch
 10
0
 20
0
 30
0
210
0
220
0
230
1
  2
SOLID
 70
1
 71
0
 91
1
 92
2
 72
0
 73
1
 93
37
 10
16.587538445001
 20
49.2280866880973
 10
16.5875623738685
 20
49.2280870125842
 10
16.587586025236
 20
49.2280846107835
 10
16.5876086804651
 20
49.228079555673
 10
16.5876296511848
 20
49.2280720008504
 10
16.5876483002084
 20
49.2280621758664
 10
16.587664060894
 20
49.2280503792493
 10
16.5876764543615
 20
49.2280369694346
 10
16.5876851040436
 20
49.2280223538739
 10
16.5876897471269
 20
49.2280069766545
 10
16.5876902425373
 20
49.2279913050058
 10
16.587686575226
 20
49.2279758151031
 10
16.5876788566259
 20
49.2279609775987
 10
16.5876673212661
 20
49.227947243322
 10
16.5876523196446
 20
49.2279350295811
 10
16.587634307579
 20
49.2279247074829
 10
16.5876138323562
 20
49.2279165906579
 10
16.5875915161038
 20
49.2279109257307
 10
16.5875680368868
 20
49.2279078848263
 10
16.5875441081058
 20
49.2279075603406
 10
16.5875204568208
 20
49.2279099621328
 10
16.5874978016604
 20
49.2279150172262
 10
16.587476830987
 20
49.227922572025
 10
16.587458181982
 20
49.2279323969815
 10
16.587442421285
 20
49.2279441935707
 10
16.5874300277773
 20
49.2279576033605
 10
16.5874213780312
 20
49.2279722189022
 10
16.5874167348678
 20
49.2279875961109
 10
16.5874162393709
 20
49.2280032677585
 10
16.5874199065997
 20
49.2280187576697
 10
16.5874276251312
 20
49.2280335951912
 10
16.5874391604446
 20
49.2280473294916
 10
16.5874541620475
 20
49.22805954326
 10
16.5874721741246
 20
49.2280698653861
 10
16.5874926493875
 20
49.228077982236
 10
16.5875149657039
 20
49.2280836471822
 10
16.587538445001
 20
49.2280866880973
 97
0
 75
0
 76
1
 98
0
  0
HATCH
  5
20017
100
AcDbEntity
  8
0
100
AcDbHatch
 10
0
 20
0
 30
0
210
0
220
0
230
1
  2
SOLID
 70
1
 71
0
 91
1
 92
2
 72
0
 73
1
 93
33
 10
16.6014765129889
 20
49.1888748324687
 10
16.6014770094007
 20
49.1888325367377
 10
16.6014651152291
 20
49.1887908999012
 10
16.6014409592837
 20
49.1887516496525
 10
16.6014056694496
 20
49.1887163131868
 10
16.6013604326366
 20
49.1886860600812
 10
16.6013070882254
 20
49.1886622870903
 10
16.6012477300569
 20
49.1886456854124
 10
16.6011845736011
 20
49.1886370453272
 10
16.6011199228763
 20
49.1886366206949
 10
16.601056520618
 20
49.1886445155958
 10
16.6009966525211
 20
49.1886602589955
 10
16.6009425895283
 20
49.1886834692673
 10
16.6008965842729
 20
49.1887130398828
 10
16.6008601778803
 20
49.1887479947506
 10
16.6008349705303
 20
49.1887870001633
 10
16.6008217882919
 20
49.1888283961527
 10
16.6008211549201
 20
49.1888706822062
 10
16.60083306333
 20
49.1889122297045
 10
16.6008572188721
 20
49.1889514800794
 10
16.6008924937223
 20
49.1889869061155
 10
16.6009377452841
 20
49.1890170699992
 10
16.6009910751397
 20
49.1890409325636
 10
16.6010504336954
 20
49.1890575343727
 10
16.6011137270651
 20
49.1890661842052
 10
16.6011782419486
 20
49.189066599167
 10
16.6012416447275
 20
49.1890587041997
 10
16.6013015279875
 20
49.18904287127
 10
16.6013555764452
 20
49.1890197502353
 10
16.6014015964709
 20
49.1889900900341
 10
16.6014380026597
 20
49.1889551349968
 10
16.6014631948616
 20
49.1889162188572
 10
16.6014765129889
 20
49.1888748324687
 97
0
 75
0
 76
1
 98
0
  0
HATCH
  5
20018
100
AcDbEntity
  8
0
100
AcDbHatch
 10
0
 20
0
 30
0
210
0
220
0
230
1
  2
SOLID
 70
1
 71
0
 91
1
 92
2
 72
0
 73
1
 93
37
 10
16.5394825599759
 20
49.1993350931398
 10
16.5395137686025
 20
49.1993355295911
 10
16.5395446187509
 20
49.1993324080699
 10
16.5395741730485
 20
49.1993258234228
 10
16.5396015334977
 20
49.1993159757221
 10
16.5396258687615
 20
49.1993031641872
 10
16.5396464394239
 20
49.1992877780922
 10
16.5396626204564
 20
49.1992702849379
 10
16.5396739202097
 20
49.1992512162469
 10
16.5396799953514
 20
49.1992311514131
 10
16.5396806612976
 20
49.1992107000973
 10
16.5396758978204
 20
49.1991904837023
 10
16.5396658496621
 20
49.1991711164925
 10
16.539650822136
 20
49.1991531869295
 10
16.5396312718497
 20
49.199137239792
 10
16.5396077928299
 20
49.1991237596237
 10
16.539581098474
 20
49.1991131560106
 10
16.5395519998735
 20
49.1991057511361
 10
16.5395213811697
 20
49.1991017699922
 10
16.5394901726902
 20
49.199101333543
 10
16.5394593226823
 20
49.1991044550498
 10
16.5394297685015
 20
49.1991110396678
 10
16.5394024081314
 20
49.199120887328
 10
16.5393780728994
 20
49.1991336988161
 10
16.5393575022178
 20
49.1991490848636
 10
16.5393413211172
 20
49.1991665779754
 10
16.5393300212552
 20
49.1991856466341
 10
16.5393239459773
 20
49.1992057114495
 10
16.539323279884
 20
49.1992261627632
 10
16.5393280432207
 20
49.1992463791726
 10
16.5393380912622
 20
49.1992657464116
 10
16.5393531187091
 20
49.1992836760151
 10
16.5393726689637
 20
49.1992996231993
 10
16.5393961480028
 20
49.1993131034151
 10
16.5394228424267
 20
49.1993237070707
 10
16.5394519411359
 20
49.1993311119775
 10
16.5394825599759
 20
49.1993350931398
 97
0
 75
0
 76
1
 98
0
  0
HATCH
  5
20019
100
AcDbEntity
  8
0
100
AcDbHatch
 10
0
 20
0
 30
0
210
0
220
0
230
1
  2
SOLID
 70
1
 71
0
 91
1
 92
2
 72
0
 73
1
 93
25
 10
16.6423172852232
 20
49.224593109612
 10
16.6421071330566
 20
49.2245333398353
 10
16.6418931093998
 20
49.2244870442767
 10
16.6418435972333
 20
49.2245815952299
 10
16.6417674930025
 20
49.2247203074877
 10
16.6421680286369
 20
49.2248080643269
 10
16.6425484575057
 20
49.2249038986582
 10
16.6426467743102
 20
49.2249341657552
 10
16.6427345630774
 20
49.2249604344264
 10
16.6427947137987
 20
49.2249784231797
 10
16.643224798361
 20
49.2251317517756
 10
16.6434042093942
 20
49.2252038230865
 10
16.6434509503882
 20
49.2251538464428
 10
16.6435448330936
 20
49.2251884127712
 10
16.6434959354914
 20
49.2252405889686
 10
16.6446285011493
 20
49.2256964093405
 10
16.6450067422574
 20
49.2258467995039
 10
16.6449302797805
 20
49.2256683893065
 10
16.6448638590062
 20
49.2255339193727
 10
16.6448275215881
 20
49.2254457973621
 10
16.643380583748
 20
49.2249308229829
 10
16.643141012576
 20
49.2248416668028
 10
16.6428846981817
 20
49.2247544046659
 10
16.6426947249595
 20
49.2247004001818
 10
16.6423172852232
 20
49.224593109612
 97
0
 75
0
 76
1
 98
0
  0
HATCH
  5
2001A
100
AcDbEntity
  8
0
100
AcDbHatch
 10
0
 20
0
 30
0
210
0
220
0
230
1
  2
SOLID
 70
1
 71
0
 91
1
 92
2
 72
0
 73
1
 93
33
 10
16.594392539316
 20
49.1909357799003
 10
16.5943928892644
 20
49.1909111114514
 10
16.594385862009
 20
49.190886823875
 10
16.5943718406835
 20
49.1908639393322
 10
16.594351237964
 20
49.1908433011766
 10
16.5943248905106
 20
49.1908256924052
 10
16.5942937861563
 20
49.1908118162938
 10
16.5942590934521
 20
49.1908021175922
 10
16.5942222537552
 20
49.1907970604159
 10
16.5941846163325
 20
49.1907968309903
 10
16.5941475599958
 20
49.190801436737
 10
16.594112644281
 20
49.1908106265524
 10
16.5940811559172
 20
49.1908241299698
 10
16.5940542895509
 20
49.190841398632
 10
16.5940331182018
 20
49.1908617850967
 10
16.594018320452
 20
49.1908845234708
 10
16.5940106044344
 20
49.1909086690546
 10
16.5940102542957
 20
49.1909333375023
 10
16.5940172813736
 20
49.1909576251013
 10
16.5940313025618
 20
49.1909805096869
 10
16.5940519052051
 20
49.1910011478992
 10
16.5940782526547
 20
49.1910187567325
 10
16.5941093570785
 20
49.1910326329016
 10
16.5941440499146
 20
49.1910423316479
 10
16.5941808897858
 20
49.1910473888491
 10
16.5942185273988
 20
49.1910476182758
 10
16.594255583913
 20
49.1910430125066
 10
16.594290499765
 20
49.1910338226483
 10
16.5943219882051
 20
49.1910203191742
 10
16.5943488545752
 20
49.1910030504501
 10
16.5943700258549
 20
49.1909826639279
 10
16.5943848234726
 20
49.190959925509
 10
16.594392539316
 20
49.1909357799003
 97
0
 75
0
 76
1
 98
0
  0
HATCH
  5
2001B
100
AcDbEntity
  8
0
100
AcDbHatch
 10
0
 20
0
 30
0
210
0
220
0
230
1
  2
SOLID
 70
1
 71
0
 91
1
 92
2
 72
0
 73
1
 93
37
 10
16.6074957476455
 20
49.1905525811927
 10
16.6075261861919
 20
49.1905529889955
 10
16.6075562703487
 20
49.190549926273
 10
16.6075850860179
 20
49.190543486085
 10
16.6076117576451
 20
49.1905338641146
 10
16.6076354748229
 20
49.1905213527223
 10
16.6076555169155
 20
49.1905063320624
 10
16.607671274955
 20
49.190489258532
 10
16.6076822701442
 20
49.1904706509036
 10
16.6076881684045
 20
49.190451074562
 10
16.6076887905261
 20
49.1904311243251
 10
16.6076841176125
 20
49.1904114063708
 10
16.6076742916538
 20
49.1903925198188
 10
16.6076596112119
 20
49.1903750385259
 10
16.6076405223478
 20
49.1903594936507
 10
16.6076176050684
 20
49.1903463575145
 10
16.6075915557028
 20
49.1903360292498
 10
16.607563165745
 20
49.1903288226742
 10
16.6075332978046
 20
49.1903249567542
 10
16.6075028593982
 20
49.1903245489533
 10
16.6074727753749
 20
49.190327611662
 10
16.6074439598166
 20
49.1903340518222
 10
16.6074172882644
 20
49.1903436737541
 10
16.6073935711166
 20
49.1903561851019
 10
16.6073735290054
 20
49.1903712057167
 10
16.6073577709009
 20
49.1903882792067
 10
16.6073467756082
 20
49.1904068868043
 10
16.6073408772184
 20
49.1904264631286
 10
16.6073402549568
 20
49.1904464133636
 10
16.6073449277368
 20
49.1904661313316
 10
16.6073547535846
 20
49.1904850179115
 10
16.6073694339515
 20
49.1905024992429
 10
16.6073885227856
 20
49.1905180441625
 10
16.6074114400836
 20
49.190531180344
 10
16.6074374895142
 20
49.190541508649
 10
16.6074658795755
 20
49.1905487152553
 10
16.6074957476455
 20
49.1905525811927
 97
0
 75
0
 76
1
 98
0
  0
HATCH
  5
2001C
100
AcDbEntity
  8
0
100
AcDbHatch
 10
0
 20
0
 30
0
210
0
220
0
230
1
  2
SOLID
 70
1
 71
0
 91
1
 92
2
 72
0
 73
1
 93
37
 10
16.6615308166002
 20
49.1971317726382
 10
16.6615434434036
 20
49.1971319358708
 10
16.6615559216295
 20
49.1971306597118
 10
16.6615678721322
 20
49.1971279829367
 10
16.6615789318011
 20
49.1971239868783
 10
16.6615887645929
 20
49.197118792955
 10
16.6615970717432
 20
49.1971125589821
 10
16.6616036008434
 20
49.1971054743757
 10
16.6616081535107
 20
49.1970977543986
 10
16.6616105914154
 20
49.1970896336184
 10
16.661610840484
 20
49.1970813587813
 10
16.6616088931497
 20
49.1970731813138
 10
16.6616048085824
 20
49.1970653496842
 10
16.6615987108905
 20
49.1970581018522
 10
16.6615907853497
 20
49.1970516580393
 10
16.661581272774
 20
49.1970462140372
 10
16.6615704621978
 20
49.1970419352588
 10
16.6615586820947
 20
49.1970389517121
 10
16.6615462903962
 20
49.1970373540507
 10
16.6615336636169
 20
49.1970371908185
 10
16.661521185414
 20
49.1970384669751
 10
16.6615092349303
 20
49.1970411437453
 10
16.6614981752743
 20
49.1970451397971
 10
16.6614883424876
 20
49.1970503337127
 10
16.6614800353341
 20
49.197056567678
 10
16.6614735062227
 20
49.1970636522774
 10
16.6614689535375
 20
49.1970713722492
 10
16.6614665156105
 20
49.1970794930264
 10
16.6614662665179
 20
49.1970877678632
 10
16.6614682138291
 20
49.1970959453331
 10
16.6614722983774
 20
49.1971037769676
 10
16.6614783960564
 20
49.1971110248062
 10
16.6614863215921
 20
49.1971174686266
 10
16.6614958341711
 20
49.1971229126365
 10
16.6615066447584
 20
49.1971271914219
 10
16.6615184248794
 20
49.1971301749738
 10
16.6615308166002
 20
49.1971317726382
 97
0
 75
0
 76
1
 98
0
  0
HATCH
  5
2001D
100
AcDbEntity
  8
0
100
AcDbHatch
 10
0
 20
0
 30
0
210
0
220
0
230
1
  2
SOLID
 70
1
 71
0
 91
1
 92
2
 72
0
 73
1
 93
25
 10
16.6423172852232
 20
49.224593109612
 10
16.6421071330566
 20
49.2245333398353
 10
16.6418931093998
 20
49.2244870442767
 10
16.6418435972333
 20
49.2245815952299
 10
16.6417674930025
 20
49.2247203074877
 10
16.6421680286369
 20
49.2248080643269
 10
16.6425484575057
 20
49.2249038986582
 10
16.6426467743102
 20
49.2249341657552
 10
16.6427345630774
 20
49.2249604344264
 10
16.6427947137987
 20
49.2249784231797
 10
16.643224798361
 20
49.2251317517756
 10
16.6434042093942
 20
49.2252038230865
 10
16.6434509503882
 20
49.2251538464428
 10
16.6435448330936
 20
49.2251884127712
 10
16.6434959354914
 20
49.2252405889686
 10
16.6446285011493
 20
49.2256964093405
 10
16.6450067422574
 20
49.2258467995039
 10
16.6449302797805
 20
49.2256683893065
 10
16.6448638590062
 20
49.2255339193727
 10
16.6448275215881
 20
49.2254457973621
 10
16.643380583748
 20
49.2249308229829
 10
16.643141012576
 20
49.2248416668028
 10
16.6428846981817
 20
49.2247544046659
 10
16.6426947249595
 20
49.2247004001818
 10
16.6423172852232
 20
49.224593109612
 97
0
 75
0
 76
1
 98
0
  0
HATCH
  5
2001E
100
AcDbEntity
  8
0
100
AcDbHatch
 10
0
 20
0
 30
0
210
0
220
0
230
1
  2
SOLID
 70
1
 71
0
 91
1
 92
2
 72
0
 73
1
 93
25
 10
16.6423172852232
 20
49.224593109612
 10
16.6421071330566
 20
49.2245333398353
 10
16.6418931093998
 20
49.2244870442767
 10
16.6418435972333
 20
49.2245815952299
 10
16.6417674930025
 20
49.2247203074877
 10
16.6421680286369
 20
49.2248080643269
 10
16.6425484575057
 20
49.2249038986582
 10
16.6426467743102
 20
49.2249341657552
 10
16.6427345630774
 20
49.2249604344264
 10
16.6427947137987
 20
49.2249784231797
 10
16.643224798361
 20
49.2251317517756
 10
16.6434042093942
 20
49.2252038230865
 10
16.6434509503882
 20
49.2251538464428
 10
16.6435448330936
 20
49.2251884127712
 10
16.6434959354914
 20
49.2252405889686
 10
16.6446285011493
 20
49.2256964093405
 10
16.6450067422574
 20
49.2258467995039
 10
16.6449302797805
 20
49.2256683893065
 10
16.6448638590062
 20
49.2255339193727
 10
16.6448275215881
 20
49.2254457973621
 10
16.643380583748
 20
49.2249308229829
 10
16.643141012576
 20
49.2248416668028
 10
16.6428846981817
 20
49.2247544046659
 10
16.6426947249595
 20
49.2247004001818
 10
16.6423172852232
 20
49.224593109612
 97
0
 75
0
 76
1
 98
0
  0
HATCH
  5
2001F
100
AcDbEntity
  8
0
100
AcDbHatch
 10
0
 20
0
 30
0
210
0
220
0
230
1
  2
SOLID
 70
1
 71
0
 91
1
 92
2
 72
0
 73
1
 93
37
 10
16.6626289333927
 20
49.1972719208861
 10
16.6626442386567
 20
49.1972721185979
 10
16.6626593637874
 20
49.1972705715941
 10
16.6626738492138
 20
49.1972673268797
 10
16.6626872548025
 20
49.1972624830441
 10
16.6626991732304
 20
49.197256187265
 10
16.6627092423618
 20
49.1972486308373
 10
16.6627171562515
 20
49.1972400433595
 10
16.6627226744408
 20
49.1972306857583
 10
16.6627256292632
 20
49.1972208423601
 10
16.6627259309397
 20
49.1972108122517
 10
16.6627235703055
 20
49.1972009001929
 10
16.6627186190888
 20
49.1971914073564
 10
16.662711227731
 20
49.1971826221769
 10
16.6627016208157
 20
49.1971748115873
 10
16.6626900902445
 20
49.1971682129078
 10
16.6626769863677
 20
49.1971630266356
 10
16.6626627073393
 20
49.1971594103523
 10
16.6626476870192
 20
49.1971574739365
 10
16.6626323817906
 20
49.1971572762251
 10
16.6626172566936
 20
49.1971588232254
 10
16.6626027712952
 20
49.1971620679327
 10
16.6625893657255
 20
49.1971669117587
 10
16.6625774473051
 20
49.1971732075264
 10
16.6625673781689
 20
49.1971807639428
 10
16.6625594642627
 20
49.1971893514104
 10
16.6625539460473
 20
49.1971987090038
 10
16.662550991192
 20
49.1972085523976
 10
16.6625506894801
 20
49.1972185825056
 10
16.6625530500806
 20
49.1972284945679
 10
16.6625580012693
 20
49.1972379874114
 10
16.6625653926082
 20
49.1972467726006
 10
16.662574999516
 20
49.1972545832015
 10
16.6625865300919
 20
49.1972611818923
 10
16.6625996339852
 20
49.1972663681748
 10
16.6626139130398
 20
49.1972699844659
 10
16.6626289333927
 20
49.1972719208861
 97
0
 75
0
 76
1
 98
0
  0
HATCH
  5
20020
100
AcDbEntity
  8
0
100
AcDbHatch
 10
0
 20
0
 30
0
210
0
220
0
230
1
  2
SOLID
 70
1
 71
0
 91
1
 92
2
 72
0
 73
1
 93
25
 10
16.6423172852232
 20
49.224593109612
 10
16.6421071330566
 20
49.2245333398353
 10
16.6418931093998
 20
49.2244870442767
 10
16.6418435972333
 20
49.2245815952299
 10
16.6417674930025
 20
49.2247203074877
 10
16.6421680286369
 20
49.2248080643269
 10
16.6425484575057
 20
49.2249038986582
 10
16.6426467743102
 20
49.2249341657552
 10
16.6427345630774
 20
49.2249604344264
 10
16.6427947137987
 20
49.2249784231797
 10
16.643224798361
 20
49.2251317517756
 10
16.6434042093942
 20
49.2252038230865
 10
16.6434509503882
 20
49.2251538464428
 10
16.6435448330936
 20
49.2251884127712
 10
16.6434959354914
 20
49.2252405889686
 10
16.6446285011493
 20
49.2256964093405
 10
16.6450067422574
 20
49.2258467995039
 10
16.6449302797805
 20
49.2256683893065
 10
16.6448638590062
 20
49.2255339193727
 10
16.6448275215881
 20
49.2254457973621
 10
16.643380583748
 20
49.2249308229829
 10
16.643141012576
 20
49.2248416668028
 10
16.6428846981817
 20
49.2247544046659
 10
16.6426947249595
 20
49.2247004001818
 10
16.6423172852232
 20
49.224593109612
 97
0
 75
0
 76
1
 98
0
  0
HATCH
  5
20021
100
AcDbEntity
  8
0
100
AcDbHatch
 10
0
 20
0
 30
0
210
0
220
0
230
1
  2
SOLID
 70
1
 71
0
 91
1
 92
2
 72
0
 73
1
 93
25
 10
16.6423172852232
 20
49.224593109612
 10
16.6421071330566
 20
49.2245333398353
 10
16.6418931093998
 20
49.2244870442767
 10
16.6418435972333
 20
49.2245815952299
 10
16.6417674930025
 20
49.2247203074877
 10
16.6421680286369
 20
49.2248080643269
 10
16.6425484575057
 20
49.2249038986582
 10
16.6426467743102
 20
49.2249341657552
 10
16.6427345630774
 20
49.2249604344264
 10
16.6427947137987
 20
49.2249784231797
 10
16.643224798361
 20
49.2251317517756
 10
16.6434042093942
 20
49.2252038230865
 10
16.6434509503882
 20
49.2251538464428
 10
16.6435448330936
 20
49.2251884127712
 10
16.6434959354914
 20
49.2252405889686
 10
16.6446285011493
 20
49.2256964093405
 10
16.6450067422574
 20
49.2258467995039
 10
16.6449302797805
 20
49.2256683893065
 10
16.6448638590062
 20
49.2255339193727
 10
16.6448275215881
 20
49.2254457973621
 10
16.643380583748
 20
49.2249308229829
 10
16.643141012576
 20
49.2248416668028
 10
16.6428846981817
 20
49.2247544046659
 10
16.6426947249595
 20
49.2247004001818
 10
16.6423172852232
 20
49.224593109612
 97
0
 75
0
 76
1
 98
0
  0
HATCH
  5
20022
100
AcDbEntity
  8
0
100
AcDbHatch
 10
0
 20
0
 30
0
210
0
220
0
230
1
  2
SOLID
 70
1
 71
0
 91
1
 92
2
 72
0
 73
1
 93
37
 10
16.6620932431137
 20
49.1971915319894
 10
16.662106321735
 20
49.1971917289027
 10
16.6621192401362
 20
49.1971903770105
 10
16.6621316961404
 20
49.1971876359321
 10
16.6621431440031
 20
49.197183467259
 10
16.6621532668957
 20
49.1971781200222
 10
16.66216191373
 20
49.1971716740315
 10
16.6621686458945
 20
49.1971642793042
 10
16.6621734047813
 20
49.1971562934873
 10
16.6621758882155
 20
49.1971478761999
 10
16.6621761886778
 20
49.1971393052793
 10
16.6621741257773
 20
49.197130839358
 10
16.6621699284303
 20
49.1971227658753
 10
16.6621635819855
 20
49.1971151742422
 10
16.6621554224901
 20
49.1971085403231
 10
16.6621455863799
 20
49.1971028737194
 10
16.6621343025697
 20
49.1970984618701
 10
16.6621221168012
 20
49.1970953431831
 10
16.6621092726403
 20
49.1970937156859
 10
16.6620961940449
 20
49.197093518773
 10
16.6620832756682
 20
49.1970948706625
 10
16.6620709561203
 20
49.1970976213379
 10
16.6620593718358
 20
49.1971017804017
 10
16.6620492489486
 20
49.1971071276304
 10
16.6620405874586
 20
49.1971136630243
 10
16.6620338699343
 20
49.1971209683325
 10
16.6620291110284
 20
49.1971289541437
 10
16.6620266275702
 20
49.197137371428
 10
16.662026327082
 20
49.1971459423483
 10
16.6620283899579
 20
49.1971544082721
 10
16.6620325726322
 20
49.1971625711716
 10
16.6620389337153
 20
49.1971700734002
 10
16.6620470932052
 20
49.1971767073276
 10
16.6620570657546
 20
49.1971823835417
 10
16.6620682131412
 20
49.1971867857963
 10
16.6620803989289
 20
49.1971899044889
 10
16.6620932431137
 20
49.1971915319894
 97
0
 75
0
 76
1
 98
0
  0
HATCH
  5
20023
100
AcDbEntity
  8
0
100
AcDbHatch
 10
0
 20
0
 30
0
210
0
220
0
230
1
  2
SOLID
 70
1
 71
0
 91
1
 92
2
 72
0
 73
1
 93
25
 10
16.6423172852232
 20
49.224593109612
 10
16.6421071330566
 20
49.2245333398353
 10
16.6418931093998
 20
49.2244870442767
 10
16.6418435972333
 20
49.2245815952299
 10
16.6417674930025
 20
49.2247203074877
 10
16.6421680286369
 20
49.2248080643269
 10
16.6425484575057
 20
49.2249038986582
 10
16.6426467743102
 20
49.2249341657552
 10
16.6427345630774
 20
49.2249604344264
 10
16.6427947137987
 20
49.2249784231797
 10
16.643224798361
 20
49.2251317517756
 10
16.6434042093942
 20
49.2252038230865
 10
16.6434509503882
 20
49.2251538464428
 10
16.6435448330936
 20
49.2251884127712
 10
16.6434959354914
 20
49.2252405889686
 10
16.6446285011493
 20
49.2256964093405
 10
16.6450067422574
 20
49.2258467995039
 10
16.6449302797805
 20
49.2256683893065
 10
16.6448638590062
 20
49.2255339193727
 10
16.6448275215881
 20
49.2254457973621
 10
16.643380583748
 20
49.2249308229829
 10
16.643141012576
 20
49.2248416668028
 10
16.6428846981817
 20
49.2247544046659
 10
16.6426947249595
 20
49.2247004001818
 10
16.6423172852232
 20
49.224593109612
 97
0
 75
0
 76
1
 98
0
  0
HATCH
  5
20024
100
AcDbEntity
  8
0
100
AcDbHatch
 10
0
 20
0
 30
0
210
0
220
0
230
1
  2
SOLID
 70
1
 71
0
 91
1
 92
2
 72
0
 73
1
 93
25
 10
16.6423172852232
 20
49.224593109612
 10
16.6421071330566
 20
49.2245333398353
 10
16.6418931093998
 20
49.2244870442767
 10
16.6418435972333
 20
49.2245815952299
 10
16.6417674930025
 20
49.2247203074877
 10
16.6421680286369
 20
49.2248080643269
 10
16.6425484575057
 20
49.2249038986582
 10
16.6426467743102
 20
49.2249341657552
 10
16.6427345630774
 20
49.2249604344264
 10
16.6427947137987
 20
49.2249784231797
 10
16.643224798361
 20
49.2251317517756
 10
16.6434042093942
 20
49.2252038230865
 10
16.6434509503882
 20
49.2251538464428
 10
16.6435448330936
 20
49.2251884127712
 10
16.6434959354914
 20
49.2252405889686
 10
16.6446285011493
 20
49.2256964093405
 10
16.6450067422574
 20
49.2258467995039
 10
16.6449302797805
 20
49.2256683893065
 10
16.6448638590062
 20
49.2255339193727
 10
16.6448275215881
 20
49.2254457973621
 10
16.643380583748
 20
49.2249308229829
 10
16.643141012576
 20
49.2248416668028
 10
16.6428846981817
 20
49.2247544046659
 10
16.6426947249595
 20
49.2247004001818
 10
16.6423172852232
 20
49.224593109612
 97
0
 75
0
 76
1
 98
0
  0
HATCH
  5
20025
100
AcDbEntity
  8
0
100
AcDbHatch
 10
0
 20
0
 30
0
210
0
220
0
230
1
  2
SOLID
 70
1
 71
0
 91
1
 92
2
 72
0
 73
1
 93
25
 10
16.6423172852232
 20
49.224593109612
 10
16.6421071330566
 20
49.2245333398353
 10
16.6418931093998
 20
49.2244870442767
 10
16.6418435972333
 20
49.2245815952299
 10
16.6417674930025
 20
49.2247203074877
 10
16.6421680286369
 20
49.2248080643269
 10
16.6425484575057
 20
49.2249038986582
 10
16.6426467743102
 20
49.2249341657552
 10
16.6427345630774
 20
49.2249604344264
 10
16.6427947137987
 20
49.2249784231797
 10
16.643224798361
 20
49.2251317517756
 10
16.6434042093942
 20
49.2252038230865
 10
16.6434509503882
 20
49.2251538464428
 10
16.6435448330936
 20
49.2251884127712
 10
16.6434959354914
 20
49.2252405889686
 10
16.6446285011493
 20
49.2256964093405
 10
16.6450067422574
 20
49.2258467995039
 10
16.6449302797805
 20
49.2256683893065
 10
16.6448638590062
 20
49.2255339193727
 10
16.6448275215881
 20
49.2254457973621
 10
16.643380583748
 20
49.2249308229829
 10
16.643141012576
 20
49.2248416668028
 10
16.6428846981817
 20
49.2247544046659
 10
16.6426947249595
 20
49.2247004001818
 10
16.6423172852232
 20
49.224593109612
 97
0
 75
0
 76
1
 98
0
  0
HATCH
  5
20026
100
AcDbEntity
  8
0
100
AcDbHatch
 10
0
 20
0
 30
0
210
0
220
0
230
1
  2
SOLID
 70
1
 71
0
 91
1
 92
2
 72
0
 73
1
 93
25
 10
16.6423172852232
 20
49.224593109612
 10
16.6421071330566
 20
49.2245333398353
 10
16.6418931093998
 20
49.2244870442767
 10
16.6418435972333
 20
49.2245815952299
 10
16.6417674930025
 20
49.2247203074877
 10
16.6421680286369
 20
49.2248080643269
 10
16.6425484575057
 20
49.2249038986582
 10
16.6426467743102
 20
49.2249341657552
 10
16.6427345630774
 20
49.2249604344264
 10
16.6427947137987
 20
49.2249784231797
 10
16.643224798361
 20
49.2251317517756
 10
16.6434042093942
 20
49.2252038230865
 10
16.6434509503882
 20
49.2251538464428
 10
16.6435448330936
 20
49.2251884127712
 10
16.6434959354914
 20
49.2252405889686
 10
16.6446285011493
 20
49.2256964093405
 10
16.6450067422574
 20
49.2258467995039
 10
16.6449302797805
 20
49.2256683893065
 10
16.6448638590062
 20
49.2255339193727
 10
16.6448275215881
 20
49.2254457973621
 10
16.643380583748
 20
49.2249308229829
 10
16.643141012576
 20
49.2248416668028
 10
16.6428846981817
 20
49.2247544046659
 10
16.6426947249595
 20
49.2247004001818
 10
16.6423172852232
 20
49.224593109612
 97
0
 75
0
 76
1
 98
0
  0
HATCH
  5
20027
100
AcDbEntity
  8
0
100
AcDbHatch
 10
0
 20
0
 30
0
210
0
220
0
230
1
  2
SOLID
 70
1
 71
0
 91
1
 92
2
 72
0
 73
1
 93
37
 10
16.5287950653045
 20
49.1767236491804
 10
16.5288171283943
 20
49.1767239599168
 10
16.528838938598
 20
49.1767217541416
 10
16.5288598332203
 20
49.1767170988765
 10
16.528879177386
 20
49.17671013557
 10
16.5288963833308
 20
49.1767010757997
 10
16.5289109282599
 20
49.176690194843
 10
16.5289223702334
 20
49.1766778233134
 10
16.5289303615944
 20
49.1766643371146
 10
16.5289346595318
 20
49.1766501460186
 10
16.528935133458
 20
49.1766356812151
 10
16.5289317689764
 20
49.1766213822099
 10
16.5289246683182
 20
49.1766076834706
 10
16.5289140472359
 20
49.1765950012259
 10
16.5289002284475
 20
49.1765837208185
 10
16.5288836318306
 20
49.1765741849968
 10
16.5288647616646
 20
49.1765666835008
 10
16.5288441913085
 20
49.1765614442587
 10
16.5288225457796
 20
49.1765586264616
 10
16.5288004827632
 20
49.1765583157262
 10
16.5287786726298
 20
49.1765605214942
 10
16.5287577780659
 20
49.1765651767447
 10
16.5287384339397
 20
49.176572140031
 10
16.5287212280109
 20
49.176581199778
 10
16.5287066830722
 20
49.1765920807109
 10
16.5286952410646
 20
49.1766044522192
 10
16.5286872496494
 20
49.1766179384018
 10
16.5286829516439
 20
49.1766321294886
 10
16.5286824776442
 20
49.1766465942911
 10
16.5286858420556
 20
49.1766608933035
 10
16.5286929426554
 20
49.1766745920574
 10
16.5287035636981
 20
49.1766872743222
 10
16.5287173824706
 20
49.176698554753
 10
16.5287339790971
 20
49.1767080905985
 10
16.5287528492971
 20
49.1767155921158
 10
16.5287734197075
 20
49.1767208313741
 10
16.5287950653045
 20
49.1767236491804
 97
0
 75
0
 76
1
 98
0
  0
HATCH
  5
20028
100
AcDbEntity
  8
0
100
AcDbHatch
 10
0
 20
0
 30
0
210
0
220
0
230
1
  2
SOLID
 70
1
 71
0
 91
1
 92
2
 72
0
 73
1
 93
25
 10
16.6423172852232
 20
49.224593109612
 10
16.6421071330566
 20
49.2245333398353
 10
16.6418931093998
 20
49.2244870442767
 10
16.6418435972333
 20
49.2245815952299
 10
16.6417674930025
 20
49.2247203074877
 10
16.6421680286369
 20
49.2248080643269
 10
16.6425484575057
 20
49.2249038986582
 10
16.6426467743102
 20
49.2249341657552
 10
16.6427345630774
 20
49.2249604344264
 10
16.6427947137987
 20
49.2249784231797
 10
16.643224798361
 20
49.2251317517756
 10
16.6434042093942
 20
49.2252038230865
 10
16.6434509503882
 20
49.2251538464428
 10
16.6435448330936
 20
49.2251884127712
 10
16.6434959354914
 20
49.2252405889686
 10
16.6446285011493
 20
49.2256964093405
 10
16.6450067422574
 20
49.2258467995039
 10
16.6449302797805
 20
49.2256683893065
 10
16.6448638590062
 20
49.2255339193727
 10
16.6448275215881
 20
49.2254457973621
 10
16.643380583748
 20
49.2249308229829
 10
16.643141012576
 20
49.2248416668028
 10
16.6428846981817
 20
49.2247544046659
 10
16.6426947249595
 20
49.2247004001818
 10
16.6423172852232
 20
49.224593109612
 97
0
 75
0
 76
1
 98
0
  0
HATCH
  5
20029
100
AcDbEntity
  8
0
100
AcDbHatch
 10
0
 20
0
 30
0
210
0
220
0
230
1
  2
SOLID
 70
1
 71
0
 91
1
 92
2
 72
0
 73
1
 93
37
 10
16.663335326087
 20
49.197297662981
 10
16.6633502077139
 20
49.1972978057389
 10
16.6633649437316
 20
49.197296310281
 10
16.6633791248295
 20
49.1972931478055
 10
16.6633921759611
 20
49.1972884587333
 10
16.6634038096028
 20
49.1972823132755
 10
16.6634135724957
 20
49.197274950866
 10
16.6634212989038
 20
49.1972665407282
 10
16.6634266573556
 20
49.1972574213083
 10
16.6634296039027
 20
49.1972478608422
 10
16.6634298363742
 20
49.1972380189522
 10
16.663427554395
 20
49.1972283618985
 10
16.6634227140168
 20
49.1972191579164
 10
16.6634155588136
 20
49.1972106050303
 10
16.6634061812725
 20
49.1972029810756
 10
16.6633949614028
 20
49.1971964936774
 10
16.6633821281266
 20
49.1971914302718
 10
16.6633682125377
 20
49.1971879186726
 10
16.6633536092931
 20
49.1971860770933
 10
16.6633386059136
 20
49.1971858353234
 10
16.663323869928
 20
49.1971873307779
 10
16.6633098252929
 20
49.1971905028475
 10
16.6632967595292
 20
49.1971952813222
 10
16.6632851258946
 20
49.1972014267692
 10
16.6632752265611
 20
49.1972087795672
 10
16.6632675147874
 20
49.1972171002836
 10
16.6632621563107
 20
49.1972262196961
 10
16.6632593315186
 20
49.1972358791706
 10
16.6632589772272
 20
49.1972456220476
 10
16.6632612591743
 20
49.1972552791046
 10
16.6632660848759
 20
49.1972645725051
 10
16.6632733764974
 20
49.1972731350013
 10
16.6632827540313
 20
49.1972807589666
 10
16.6632939885555
 20
49.1972871569638
 10
16.6633066854111
 20
49.1972922107785
 10
16.663320601025
 20
49.197295722385
 10
16.663335326087
 20
49.197297662981
 97
0
 75
0
 76
1
 98
0
  0
HATCH
  5
2002A
100
AcDbEntity
  8
0
100
AcDbHatch
 10
0
 20
0
 30
0
210
0
220
0
230
1
  2
SOLID
 70
1
 71
0
 91
1
 92
2
 72
0
 73
1
 93
25
 10
16.6423172852232
 20
49.224593109612
 10
16.6421071330566
 20
49.2245333398353
 10
16.6418931093998
 20
49.2244870442767
 10
16.6418435972333
 20
49.2245815952299
 10
16.6417674930025
 20
49.2247203074877
 10
16.6421680286369
 20
49.2248080643269
 10
16.6425484575057
 20
49.2249038986582
 10
16.6426467743102
 20
49.2249341657552
 10
16.6427345630774
 20
49.2249604344264
 10
16.6427947137987
 20
49.2249784231797
 10
16.643224798361
 20
49.2251317517756
 10
16.6434042093942
 20
49.2252038230865
 10
16.6434509503882
 20
49.2251538464428
 10
16.6435448330936
 20
49.2251884127712
 10
16.6434959354914
 20
49.2252405889686
 10
16.6446285011493
 20
49.2256964093405
 10
16.6450067422574
 20
49.2258467995039
 10
16.6449302797805
 20
49.2256683893065
 10
16.6448638590062
 20
49.2255339193727
 10
16.6448275215881
 20
49.2254457973621
 10
16.643380583748
 20
49.2249308229829
 10
16.643141012576
 20
49.2248416668028
 10
16.6428846981817
 20
49.2247544046659
 10
16.6426947249595
 20
49.2247004001818
 10
16.6423172852232
 20
49.224593109612
 97
0
 75
0
 76
1
 98
0
  0
HATCH
  5
2002B
100
AcDbEntity
  8
0
100
AcDbHatch
 10
0
 20
0
 30
0
210
0
220
0
230
1
  2
SOLID
 70
1
 71
0
 91
1
 92
2
 72
0
 73
1
 93
37
 10
16.569526701469
 20
49.1860248137809
 10
16.5695480038881
 20
49.1860251062228
 10
16.5695690601464
 20
49.1860229694888
 10
16.5695892304573
 20
49.1860184685028
 10
16.5696079019536
 20
49.1860117400255
 10
16.5696245073097
 20
49.1860029884991
 10
16.5696385419796
 20
49.1859924798355
 10
16.5696495795274
 20
49.1859805333359
 10
16.5696572845841
 20
49.1859675119897
 10
16.5696614230378
 20
49.1859538114445
 10
16.5696618691466
 20
49.1859398479847
 10
16.5696586093588
 20
49.1859260458833
 10
16.5696517427242
 20
49.1859128245096
 10
16.5696414778847
 20
49.1859005855879
 10
16.5696281267337
 20
49.1858897009907
 10
16.56961209494
 20
49.1858805014401
 10
16.569593869621
 20
49.1858732664586
 10
16.5695740045425
 20
49.1858682158768
 10
16.5695531032924
 20
49.1858655031532
 10
16.5695318009419
 20
49.1858652107122
 10
16.569510744749
 20
49.1858673474394
 10
16.5694905744925
 20
49.1858718484119
 10
16.569471903033
 20
49.1858785768703
 10
16.5694552976916
 20
49.1858873283748
 10
16.5694412630127
 20
49.1858978370164
 10
16.5694302254332
 20
49.1859097834962
 10
16.5694225203258
 20
49.1859228048273
 10
16.5694183818086
 20
49.185936505364
 10
16.5694179356313
 20
49.1859504688228
 10
16.5694211953537
 20
49.1859642709309
 10
16.5694280619338
 20
49.1859774923182
 10
16.5694383267366
 20
49.1859897312587
 10
16.5694516778728
 20
49.1860006158777
 10
16.5694677096756
 20
49.1860098154506
 10
16.5694859350263
 20
49.1860170504518
 10
16.5695058001555
 20
49.1860221010487
 10
16.569526701469
 20
49.1860248137809
 97
0
 75
0
 76
1
 98
0
  0
HATCH
  5
2002C
100
AcDbEntity
  8
0
100
AcDbHatch
 10
0
 20
0
 30
0
210
0
220
0
230
1
  2
SOLID
 70
1
 71
0
 91
1
 92
2
 72
0
 73
1
 93
25
 10
16.6423172852232
 20
49.224593109612
 10
16.6421071330566
 20
49.2245333398353
 10
16.6418931093998
 20
49.2244870442767
 10
16.6418435972333
 20
49.2245815952299
 10
16.6417674930025
 20
49.2247203074877
 10
16.6421680286369
 20
49.2248080643269
 10
16.6425484575057
 20
49.2249038986582
 10
16.6426467743102
 20
49.2249341657552
 10
16.6427345630774
 20
49.2249604344264
 10
16.6427947137987
 20
49.2249784231797
 10
16.643224798361
 20
49.2251317517756
 10
16.6434042093942
 20
49.2252038230865
 10
16.6434509503882
 20
49.2251538464428
 10
16.6435448330936
 20
49.2251884127712
 10
16.6434959354914
 20
49.2252405889686
 10
16.6446285011493
 20
49.2256964093405
 10
16.6450067422574
 20
49.2258467995039
 10
16.6449302797805
 20
49.2256683893065
 10
16.6448638590062
 20
49.2255339193727
 10
16.6448275215881
 20
49.2254457973621
 10
16.643380583748
 20
49.2249308229829
 10
16.643141012576
 20
49.2248416668028
 10
16.6428846981817
 20
49.2247544046659
 10
16.6426947249595
 20
49.2247004001818
 10
16.6423172852232
 20
49.224593109612
 97
0
 75
0
 76
1
 98
0
  0
HATCH
  5
2002D
100
AcDbEntity
  8
0
100
AcDbHatch
 10
0
 20
0
 30
0
210
0
220
0
230
1
  2
SOLID
 70
1
 71
0
 91
1
 92
2
 72
0
 73
1
 93
37
 10
16.581258181899
 20
49.2511498673643
 10
16.5812951452225
 20
49.2511503703802
 10
16.5813316804192
 20
49.2511466639966
 10
16.5813666773766
 20
49.2511388608309
 10
16.5813990727227
 20
49.2511271979804
 10
16.5814278821362
 20
49.2511120298172
 10
16.5814522302556
 20
49.2510938172215
 10
16.5814713772769
 20
49.2510731135766
 10
16.5814847414319
 20
49.2510505479551
 10
16.5814919166643
 20
49.2510268060038
 10
16.5814926849671
 20
49.2510026091113
 10
16.5814870230049
 20
49.2509786924879
 10
16.5814751028226
 20
49.2509557828272
 10
16.5814572866162
 20
49.2509345762259
 10
16.5814341157272
 20
49.2509157170332
 10
16.5814062941932
 20
49.2508997782732
 10
16.5813746673564
 20
49.250887244234
 10
16.5813401961777
 20
49.2508784957535
 10
16.5813039280396
 20
49.2508737986476
 10
16.5812669649226
 20
49.2508732956345
 10
16.581230429923
 20
49.2508770019979
 10
16.5811954331292
 20
49.2508848051225
 10
16.5811630378938
 20
49.2508964679165
 10
16.5811342285247
 20
49.2509116360141
 10
16.5811098803779
 20
49.2509298485433
 10
16.5810907332608
 20
49.2509505521288
 10
16.5810773689532
 20
49.2509731177051
 10
16.5810701935297
 20
49.2509968596308
 10
16.5810694250205
 20
49.2510210565205
 10
16.5810750867857
 20
49.2510449731642
 10
16.5810870068043
 20
49.2510678828658
 10
16.5811048229
 20
49.2510890895238
 10
16.5811279937447
 20
49.251107948782
 10
16.581155815306
 20
49.2511238876085
 10
16.5811874422386
 20
49.2511364217071
 10
16.5812219135699
 20
49.2511451702329
 10
16.581258181899
 20
49.2511498673643
 97
0
 75
0
 76
1
 98
0
  0
HATCH
  5
2002E
100
AcDbEntity
  8
0
100
AcDbHatch
 10
0
 20
0
 30
0
210
0
220
0
230
1
  2
SOLID
 70
1
 71
0
 91
1
 92
2
 72
0
 73
1
 93
37
 10
16.590306906712
 20
49.2532363488466
 10
16.5903316856939
 20
49.2532366840966
 10
16.5903561771598
 20
49.2532341976573
 10
16.5903796369451
 20
49.2532289650783
 10
16.5904013522325
 20
49.2532211453496
 10
16.590420663212
 20
49.2532109760709
 10
16.5904369831282
 20
49.253198766232
 10
16.5904498161093
 20
49.2531848868239
 10
16.5904587722336
 20
49.2531697595666
 10
16.5904635793769
 20
49.2531538440952
 10
16.5904640914805
 20
49.2531376239937
 10
16.5904602929885
 20
49.2531215921016
 10
16.5904522993202
 20
49.2531062355396
 10
16.5904403533624
 20
49.2530920209081
 10
16.5904248180894
 20
49.2530793801105
 10
16.5904061655333
 20
49.2530686972295
 10
16.5903849624422
 20
49.2530602968579
 10
16.5903618530593
 20
49.2530544342354
 10
16.5903375395483
 20
49.2530512874939
 10
16.5903127606592
 20
49.2530509522452
 10
16.5902882692817
 20
49.2530534386753
 10
16.5902648095701
 20
49.253058671236
 10
16.5902430943323
 20
49.2530664909392
 10
16.5902237833727
 20
49.2530766601884
 10
16.5902074634442
 20
49.2530888699974
 10
16.5901946304201
 20
49.2531027493788
 10
16.5901856742271
 20
49.2531178766158
 10
16.590180866998
 20
49.2531337920758
 10
16.5901803548016
 20
49.2531500121761
 10
16.5901841532051
 20
49.2531660440772
 10
16.5901921467999
 20
49.2531814006576
 10
16.5902040927079
 20
49.2531956153145
 10
16.590219627961
 20
49.2532082561416
 10
16.5902382805294
 20
49.2532189390525
 10
16.5902594836636
 20
49.2532273394508
 10
16.5902825931151
 20
49.2532332020936
 10
16.590306906712
 20
49.2532363488466
 97
0
 75
0
 76
1
 98
0
  0
HATCH
  5
2002F
100
AcDbEntity
  8
0
100
AcDbHatch
 10
0
 20
0
 30
0
210
0
220
0
230
1
  2
SOLID
 70
1
 71
0
 91
1
 92
2
 72
0
 73
1
 93
37
 10
16.6216667681797
 20
49.1874876805636
 10
16.6217059558365
 20
49.1874882007986
 10
16.6217446859622
 20
49.1874842527488
 10
16.6217817817517
 20
49.1874759563748
 10
16.6218161160599
 20
49.1874635637598
 10
16.6218466456506
 20
49.18744745145
 10
16.6218724428954
 20
49.1874281090132
 10
16.6218927239594
 20
49.1874061241628
 10
16.6219068726176
 20
49.1873821649005
 10
16.621914458978
 20
49.1873569592185
 10
16.6219152525426
 20
49.1873312729802
 10
16.6219092292097
 20
49.1873058866488
 10
16.6218965720053
 20
49.1872815715744
 10
16.6218776655203
 20
49.187259066556
 10
16.6218530842244
 20
49.1872390553943
 10
16.6218235750101
 20
49.1872221461151
 10
16.6217900344985
 20
49.1872088524948
 10
16.6217534817962
 20
49.1871995784504
 10
16.6217150275308
 20
49.1871946057667
 10
16.621675840106
 20
49.1871940855349
 10
16.6216371102016
 20
49.1871980335618
 10
16.6216000145959
 20
49.1872063298897
 10
16.6215656804119
 20
49.1872187224409
 10
16.6215351508709
 20
49.1872348346769
 10
16.6215093535952
 20
49.1872541770389
 10
16.6214890724234
 20
49.1872761618223
 10
16.6214749235935
 20
49.1873001210338
 10
16.6214673370183
 20
49.187325326687
 10
16.6214665432218
 20
49.1873510129223
 10
16.6214725663334
 20
49.1873763992764
 10
16.621485223354
 20
49.187400714397
 10
16.6215041297147
 20
49.1874232194792
 10
16.621528710961
 20
49.1874432307146
 10
16.6215582202062
 20
49.1874601400687
 10
16.6215917608256
 20
49.1874734337558
 10
16.6216283136996
 20
49.1874827078512
 10
16.6216667681797
 20
49.1874876805636
 97
0
 75
0
 76
1
 98
0
  0
HATCH
  5
20030
100
AcDbEntity
  8
0
100
AcDbHatch
 10
0
 20
0
 30
0
210
0
220
0
230
1
  2
SOLID
 70
1
 71
0
 91
1
 92
2
 72
0
 73
1
 93
37
 10
16.6644037507637
 20
49.1974621976881
 10
16.6644241338684
 20
49.1974624560496
 10
16.6644442009904
 20
49.1974604311129
 10
16.6644634063789
 20
49.1974560844806
 10
16.6644812967763
 20
49.1974496555907
 10
16.6644970242631
 20
49.1974412656719
 10
16.6645103938097
 20
49.1974312627732
 10
16.6645209521617
 20
49.1974198863333
 10
16.6645282460656
 20
49.1974073757908
 10
16.6645321729882
 20
49.1973943570298
 10
16.6645325671993
 20
49.1973809992751
 10
16.6645294772511
 20
49.1973678485976
 10
16.6645228445548
 20
49.1973552626447
 10
16.664513034479
 20
49.1973435384494
 10
16.664500368448
 20
49.1973332412805
 10
16.6644849682512
 20
49.1973244701482
 10
16.6644676085642
 20
49.1973175508835
 10
16.6644486547517
 20
49.1973127805193
 10
16.6644286525582
 20
49.1973101974526
 10
16.6644084059527
 20
49.1973099486914
 10
16.6643883388901
 20
49.1973119736219
 10
16.6643689971143
 20
49.1973163106423
 10
16.6643512431871
 20
49.1973227491143
 10
16.6643353939249
 20
49.1973310400021
 10
16.6643220097217
 20
49.1973411322926
 10
16.6643115877776
 20
49.197352518314
 10
16.6643041720386
 20
49.1973649298314
 10
16.6643002304102
 20
49.1973780379966
 10
16.6642998507848
 20
49.1973913063386
 10
16.664303062462
 20
49.1974045560337
 10
16.6643095586723
 20
49.1974171323996
 10
16.6643193833627
 20
49.1974287672001
 10
16.6643321711692
 20
49.1974391634002
 10
16.6643474349377
 20
49.1974479249532
 10
16.6643649310905
 20
49.1974548538353
 10
16.6643838849492
 20
49.1974596242131
 10
16.6644037507637
 20
49.1974621976881
 97
0
 75
0
 76
1
 98
0
  0
HATCH
  5
20031
100
AcDbEntity
  8
0
100
AcDbHatch
 10
0
 20
0
 30
0
210
0
220
0
230
1
  2
SOLID
 70
1
 71
0
 91
1
 92
2
 72
0
 73
1
 93
25
 10
16.6423172852232
 20
49.224593109612
 10
16.6421071330566
 20
49.2245333398353
 10
16.6418931093998
 20
49.2244870442767
 10
16.6418435972333
 20
49.2245815952299
 10
16.6417674930025
 20
49.2247203074877
 10
16.6421680286369
 20
49.2248080643269
 10
16.6425484575057
 20
49.2249038986582
 10
16.6426467743102
 20
49.2249341657552
 10
16.6427345630774
 20
49.2249604344264
 10
16.6427947137987
 20
49.2249784231797
 10
16.643224798361
 20
49.2251317517756
 10
16.6434042093942
 20
49.2252038230865
 10
16.6434509503882
 20
49.2251538464428
 10
16.6435448330936
 20
49.2251884127712
 10
16.6434959354914
 20
49.2252405889686
 10
16.6446285011493
 20
49.2256964093405
 10
16.6450067422574
 20
49.2258467995039
 10
16.6449302797805
 20
49.2256683893065
 10
16.6448638590062
 20
49.2255339193727
 10
16.6448275215881
 20
49.2254457973621
 10
16.643380583748
 20
49.2249308229829
 10
16.643141012576
 20
49.2248416668028
 10
16.6428846981817
 20
49.2247544046659
 10
16.6426947249595
 20
49.2247004001818
 10
16.6423172852232
 20
49.224593109612
 97
0
 75
0
 76
1
 98
0
  0
HATCH
  5
20032
100
AcDbEntity
  8
0
100
AcDbHatch
 10
0
 20
0
 30
0
210
0
220
0
230
1
  2
SOLID
 70
1
 71
0
 91
1
 92
2
 72
0
 73
1
 93
25
 10
16.6423172852232
 20
49.224593109612
 10
16.6421071330566
 20
49.2245333398353
 10
16.6418931093998
 20
49.2244870442767
 10
16.6418435972333
 20
49.2245815952299
 10
16.6417674930025
 20
49.2247203074877
 10
16.6421680286369
 20
49.2248080643269
 10
16.6425484575057
 20
49.2249038986582
 10
16.6426467743102
 20
49.2249341657552
 10
16.6427345630774
 20
49.2249604344264
 10
16.6427947137987
 20
49.2249784231797
 10
16.643224798361
 20
49.2251317517756
 10
16.6434042093942
 20
49.2252038230865
 10
16.6434509503882
 20
49.2251538464428
 10
16.6435448330936
 20
49.2251884127712
 10
16.6434959354914
 20
49.2252405889686
 10
16.6446285011493
 20
49.2256964093405
 10
16.6450067422574
 20
49.2258467995039
 10
16.6449302797805
 20
49.2256683893065
 10
16.6448638590062
 20
49.2255339193727
 10
16.6448275215881
 20
49.2254457973621
 10
16.643380583748
 20
49.2249308229829
 10
16.643141012576
 20
49.2248416668028
 10
16.6428846981817
 20
49.2247544046659
 10
16.6426947249595
 20
49.2247004001818
 10
16.6423172852232
 20
49.224593109612
 97
0
 75
0
 76
1
 98
0
  0
HATCH
  5
20033
100
AcDbEntity
  8
0
100
AcDbHatch
 10
0
 20
0
 30
0
210
0
220
0
230
1
  2
SOLID
 70
1
 71
0
 91
1
 92
2
 72
0
 73
1
 93
25
 10
16.6423172852232
 20
49.224593109612
 10
16.6421071330566
 20
49.2245333398353
 10
16.6418931093998
 20
49.2244870442767
 10
16.6418435972333
 20
49.2245815952299
 10
16.6417674930025
 20
49.2247203074877
 10
16.6421680286369
 20
49.2248080643269
 10
16.6425484575057
 20
49.2249038986582
 10
16.6426467743102
 20
49.2249341657552
 10
16.6427345630774
 20
49.2249604344264
 10
16.6427947137987
 20
49.2249784231797
 10
16.643224798361
 20
49.2251317517756
 10
16.6434042093942
 20
49.2252038230865
 10
16.6434509503882
 20
49.2251538464428
 10
16.6435448330936
 20
49.2251884127712
 10
16.6434959354914
 20
49.2252405889686
 10
16.6446285011493
 20
49.2256964093405
 10
16.6450067422574
 20
49.2258467995039
 10
16.6449302797805
 20
49.2256683893065
 10
16.6448638590062
 20
49.2255339193727
 10
16.6448275215881
 20
49.2254457973621
 10
16.643380583748
 20
49.2249308229829
 10
16.643141012576
 20
49.2248416668028
 10
16.6428846981817
 20
49.2247544046659
 10
16.6426947249595
 20
49.2247004001818
 10
16.6423172852232
 20
49.224593109612
 97
0
 75
0
 76
1
 98
0
  0
HATCH
  5
20034
100
AcDbEntity
  8
0
100
AcDbHatch
 10
0
 20
0
 30
0
210
0
220
0
230
1
  2
SOLID
 70
1
 71
0
 91
1
 92
2
 72
0
 73
1
 93
25
 10
16.6423172852232
 20
49.224593109612
 10
16.6421071330566
 20
49.2245333398353
 10
16.6418931093998
 20
49.2244870442767
 10
16.6418435972333
 20
49.2245815952299
 10
16.6417674930025
 20
49.2247203074877
 10
16.6421680286369
 20
49.2248080643269
 10
16.6425484575057
 20
49.2249038986582
 10
16.6426467743102
 20
49.2249341657552
 10
16.6427345630774
 20
49.2249604344264
 10
16.6427947137987
 20
49.2249784231797
 10
16.643224798361
 20
49.2251317517756
 10
16.6434042093942
 20
49.2252038230865
 10
16.6434509503882
 20
49.2251538464428
 10
16.6435448330936
 20
49.2251884127712
 10
16.6434959354914
 20
49.2252405889686
 10
16.6446285011493
 20
49.2256964093405
 10
16.6450067422574
 20
49.2258467995039
 10
16.6449302797805
 20
49.2256683893065
 10
16.6448638590062
 20
49.2255339193727
 10
16.6448275215881
 20
49.2254457973621
 10
16.643380583748
 20
49.2249308229829
 10
16.643141012576
 20
49.2248416668028
 10
16.6428846981817
 20
49.2247544046659
 10
16.6426947249595
 20
49.2247004001818
 10
16.6423172852232
 20
49.224593109612
 97
0
 75
0
 76
1
 98
0
  0
HATCH
  5
20035
100
AcDbEntity
  8
0
100
AcDbHatch
 10
0
 20
0
 30
0
210
0
220
0
230
1
  2
SOLID
 70
1
 71
0
 91
1
 92
2
 72
0
 73
1
 93
25
 10
16.6423172852232
 20
49.224593109612
 10
16.6421071330566
 20
49.2245333398353
 10
16.6418931093998
 20
49.2244870442767
 10
16.6418435972333
 20
49.2245815952299
 10
16.6417674930025
 20
49.2247203074877
 10
16.6421680286369
 20
49.2248080643269
 10
16.6425484575057
 20
49.2249038986582
 10
16.6426467743102
 20
49.2249341657552
 10
16.6427345630774
 20
49.2249604344264
 10
16.6427947137987
 20
49.2249784231797
 10
16.643224798361
 20
49.2251317517756
 10
16.6434042093942
 20
49.2252038230865
 10
16.6434509503882
 20
49.2251538464428
 10
16.6435448330936
 20
49.2251884127712
 10
16.6434959354914
 20
49.2252405889686
 10
16.6446285011493
 20
49.2256964093405
 10
16.6450067422574
 20
49.2258467995039
 10
16.6449302797805
 20
49.2256683893065
 10
16.6448638590062
 20
49.2255339193727
 10
16.6448275215881
 20
49.2254457973621
 10
16.643380583748
 20
49.2249308229829
 10
16.643141012576
 20
49.2248416668028
 10
16.6428846981817
 20
49.2247544046659
 10
16.6426947249595
 20
49.2247004001818
 10
16.6423172852232
 20
49.224593109612
 97
0
 75
0
 76
1
 98
0
  0
HATCH
  5
20036
100
AcDbEntity
  8
0
100
AcDbHatch
 10
0
 20
0
 30
0
210
0
220
0
230
1
  2
SOLID
 70
1
 71
0
 91
1
 92
2
 72
0
 73
1
 93
25
 10
16.6423172852232
 20
49.224593109612
 10
16.6421071330566
 20
49.2245333398353
 10
16.6418931093998
 20
49.2244870442767
 10
16.6418435972333
 20
49.2245815952299
 10
16.6417674930025
 20
49.2247203074877
 10
16.6421680286369
 20
49.2248080643269
 10
16.6425484575057
 20
49.2249038986582
 10
16.6426467743102
 20
49.2249341657552
 10
16.6427345630774
 20
49.2249604344264
 10
16.6427947137987
 20
49.2249784231797
 10
16.643224798361
 20
49.2251317517756
 10
16.6434042093942
 20
49.2252038230865
 10
16.6434509503882
 20
49.2251538464428
 10
16.6435448330936
 20
49.2251884127712
 10
16.6434959354914
 20
49.2252405889686
 10
16.6446285011493
 20
49.2256964093405
 10
16.6450067422574
 20
49.2258467995039
 10
16.6449302797805
 20
49.2256683893065
 10
16.6448638590062
 20
49.2255339193727
 10
16.6448275215881
 20
49.2254457973621
 10
16.643380583748
 20
49.2249308229829
 10
16.643141012576
 20
49.2248416668028
 10
16.6428846981817
 20
49.2247544046659
 10
16.6426947249595
 20
49.2247004001818
 10
16.6423172852232
 20
49.224593109612
 97
0
 75
0
 76
1
 98
0
  0
HATCH
  5
20037
100
AcDbEntity
  8
0
100
AcDbHatch
 10
0
 20
0
 30
0
210
0
220
0
230
1
  2
SOLID
 70
1
 71
0
 91
1
 92
2
 72
0
 73
1
 93
25
 10
16.6423172852232
 20
49.224593109612
 10
16.6421071330566
 20
49.2245333398353
 10
16.6418931093998
 20
49.2244870442767
 10
16.6418435972333
 20
49.2245815952299
 10
16.6417674930025
 20
49.2247203074877
 10
16.6421680286369
 20
49.2248080643269
 10
16.6425484575057
 20
49.2249038986582
 10
16.6426467743102
 20
49.2249341657552
 10
16.6427345630774
 20
49.2249604344264
 10
16.6427947137987
 20
49.2249784231797
 10
16.643224798361
 20
49.2251317517756
 10
16.6434042093942
 20
49.2252038230865
 10
16.6434509503882
 20
49.2251538464428
 10
16.6435448330936
 20
49.2251884127712
 10
16.6434959354914
 20
49.2252405889686
 10
16.6446285011493
 20
49.2256964093405
 10
16.6450067422574
 20
49.2258467995039
 10
16.6449302797805
 20
49.2256683893065
 10
16.6448638590062
 20
49.2255339193727
 10
16.6448275215881
 20
49.2254457973621
 10
16.643380583748
 20
49.2249308229829
 10
16.643141012576
 20
49.2248416668028
 10
16.6428846981817
 20
49.2247544046659
 10
16.6426947249595
 20
49.2247004001818
 10
16.6423172852232
 20
49.224593109612
 97
0
 75
0
 76
1
 98
0
  0
HATCH
  5
20038
100
AcDbEntity
  8
0
100
AcDbHatch
 10
0
 20
0
 30
0
210
0
220
0
230
1
  2
SOLID
 70
1
 71
0
 91
1
 92
2
 72
0
 73
1
 93
25
 10
16.6423172852232
 20
49.224593109612
 10
16.6421071330566
 20
49.2245333398353
 10
16.6418931093998
 20
49.2244870442767
 10
16.6418435972333
 20
49.2245815952299
 10
16.6417674930025
 20
49.2247203074877
 10
16.6421680286369
 20
49.2248080643269
 10
16.6425484575057
 20
49.2249038986582
 10
16.6426467743102
 20
49.2249341657552
 10
16.6427345630774
 20
49.2249604344264
 10
16.6427947137987
 20
49.2249784231797
 10
16.643224798361
 20
49.2251317517756
 10
16.6434042093942
 20
49.2252038230865
 10
16.6434509503882
 20
49.2251538464428
 10
16.6435448330936
 20
49.2251884127712
 10
16.6434959354914
 20
49.2252405889686
 10
16.6446285011493
 20
49.2256964093405
 10
16.6450067422574
 20
49.2258467995039
 10
16.6449302797805
 20
49.2256683893065
 10
16.6448638590062
 20
49.2255339193727
 10
16.6448275215881
 20
49.2254457973621
 10
16.643380583748
 20
49.2249308229829
 10
16.643141012576
 20
49.2248416668028
 10
16.6428846981817
 20
49.2247544046659
 10
16.6426947249595
 20
49.2247004001818
 10
16.6423172852232
 20
49.224593109612
 97
0
 75
0
 76
1
 98
0
  0
HATCH
  5
20039
100
AcDbEntity
  8
0
100
AcDbHatch
 10
0
 20
0
 30
0
210
0
220
0
230
1
  2
SOLID
 70
1
 71
0
 91
1
 92
2
 72
0
 73
1
 93
25
 10
16.6423172852232
 20
49.224593109612
 10
16.6421071330566
 20
49.2245333398353
 10
16.6418931093998
 20
49.2244870442767
 10
16.6418435972333
 20
49.2245815952299
 10
16.6417674930025
 20
49.2247203074877
 10
16.6421680286369
 20
49.2248080643269
 10
16.6425484575057
 20
49.2249038986582
 10
16.6426467743102
 20
49.2249341657552
 10
16.6427345630774
 20
49.2249604344264
 10
16.6427947137987
 20
49.2249784231797
 10
16.643224798361
 20
49.2251317517756
 10
16.6434042093942
 20
49.2252038230865
 10
16.6434509503882
 20
49.2251538464428
 10
16.6435448330936
 20
49.2251884127712
 10
16.6434959354914
 20
49.2252405889686
 10
16.6446285011493
 20
49.2256964093405
 10
16.6450067422574
 20
49.2258467995039
 10
16.6449302797805
 20
49.2256683893065
 10
16.6448638590062
 20
49.2255339193727
 10
16.6448275215881
 20
49.2254457973621
 10
16.643380583748
 20
49.2249308229829
 10
16.643141012576
 20
49.2248416668028
 10
16.6428846981817
 20
49.2247544046659
 10
16.6426947249595
 20
49.2247004001818
 10
16.6423172852232
 20
49.224593109612
 97
0
 75
0
 76
1
 98
0
  0
HATCH
  5
2003A
100
AcDbEntity
  8
0
100
AcDbHatch
 10
0
 20
0
 30
0
210
0
220
0
230
1
  2
SOLID
 70
1
 71
0
 91
1
 92
2
 72
0
 73
1
 93
37
 10
16.6013111561174
 20
49.190199966739
 10
16.601354809689
 20
49.1902005300912
 10
16.6013981690448
 20
49.1901961882224
 10
16.6014395825557
 20
49.19018691445
 10
16.6014778851758
 20
49.1901730784052
 10
16.6015118971032
 20
49.1901551391245
 10
16.6015407261099
 20
49.1901334855888
 10
16.6015634061759
 20
49.1901089537992
 10
16.6015792736142
 20
49.1900822202962
 10
16.6015877863872
 20
49.1900540606972
 10
16.6015886457507
 20
49.1900254487738
 10
16.6015818848073
 20
49.1899970200277
 10
16.6015677356712
 20
49.1899698763264
 10
16.6015466258952
 20
49.189944771594
 10
16.6015192705959
 20
49.1899223896973
 10
16.6014863701256
 20
49.1899035039066
 10
16.6014489271581
 20
49.1898887280319
 10
16.6014080033998
 20
49.1898783182681
 10
16.6013651766496
 20
49.189872748315
 10
16.6013213869628
 20
49.1898721752927
 10
16.6012781495279
 20
49.1898766162111
 10
16.6012367510059
 20
49.189885800522
 10
16.6011983121368
 20
49.1898996268132
 10
16.6011642855113
 20
49.1899176554061
 10
16.6011354712258
 20
49.1899392194445
 10
16.6011127910259
 20
49.1899637511506
 10
16.6010969086138
 20
49.1899905739938
 10
16.6010885467372
 20
49.1900186538272
 10
16.6010875359207
 20
49.1900473454765
 10
16.6010943113475
 20
49.1900756848473
 10
16.6011084602545
 20
49.1901028286061
 10
16.6011295551156
 20
49.1901280228219
 10
16.6011569251124
 20
49.1901503154064
 10
16.6011899620255
 20
49.1901692109646
 10
16.6012273903677
 20
49.1901840763267
 10
16.6012681926956
 20
49.1901943870761
 10
16.6013111561174
 20
49.190199966739
 97
0
 75
0
 76
1
 98
0
  0
HATCH
  5
2003B
100
AcDbEntity
  8
0
100
AcDbHatch
 10
0
 20
0
 30
0
210
0
220
0
230
1
  2
SOLID
 70
1
 71
0
 91
1
 92
2
 72
0
 73
1
 93
25
 10
16.6423172852232
 20
49.224593109612
 10
16.6421071330566
 20
49.2245333398353
 10
16.6418931093998
 20
49.2244870442767
 10
16.6418435972333
 20
49.2245815952299
 10
16.6417674930025
 20
49.2247203074877
 10
16.6421680286369
 20
49.2248080643269
 10
16.6425484575057
 20
49.2249038986582
 10
16.6426467743102
 20
49.2249341657552
 10
16.6427345630774
 20
49.2249604344264
 10
16.6427947137987
 20
49.2249784231797
 10
16.643224798361
 20
49.2251317517756
 10
16.6434042093942
 20
49.2252038230865
 10
16.6434509503882
 20
49.2251538464428
 10
16.6435448330936
 20
49.2251884127712
 10
16.6434959354914
 20
49.2252405889686
 10
16.6446285011493
 20
49.2256964093405
 10
16.6450067422574
 20
49.2258467995039
 10
16.6449302797805
 20
49.2256683893065
 10
16.6448638590062
 20
49.2255339193727
 10
16.6448275215881
 20
49.2254457973621
 10
16.643380583748
 20
49.2249308229829
 10
16.643141012576
 20
49.2248416668028
 10
16.6428846981817
 20
49.2247544046659
 10
16.6426947249595
 20
49.2247004001818
 10
16.6423172852232
 20
49.224593109612
 97
0
 75
0
 76
1
 98
0
  0
HATCH
  5
2003C
100
AcDbEntity
  8
0
100
AcDbHatch
 10
0
 20
0
 30
0
210
0
220
0
230
1
  2
SOLID
 70
1
 71
0
 91
1
 92
2
 72
0
 73
1
 93
25
 10
16.6423172852232
 20
49.224593109612
 10
16.6421071330566
 20
49.2245333398353
 10
16.6418931093998
 20
49.2244870442767
 10
16.6418435972333
 20
49.2245815952299
 10
16.6417674930025
 20
49.2247203074877
 10
16.6421680286369
 20
49.2248080643269
 10
16.6425484575057
 20
49.2249038986582
 10
16.6426467743102
 20
49.2249341657552
 10
16.6427345630774
 20
49.2249604344264
 10
16.6427947137987
 20
49.2249784231797
 10
16.643224798361
 20
49.2251317517756
 10
16.6434042093942
 20
49.2252038230865
 10
16.6434509503882
 20
49.2251538464428
 10
16.6435448330936
 20
49.2251884127712
 10
16.6434959354914
 20
49.2252405889686
 10
16.6446285011493
 20
49.2256964093405
 10
16.6450067422574
 20
49.2258467995039
 10
16.6449302797805
 20
49.2256683893065
 10
16.6448638590062
 20
49.2255339193727
 10
16.6448275215881
 20
49.2254457973621
 10
16.643380583748
 20
49.2249308229829
 10
16.643141012576
 20
49.2248416668028
 10
16.6428846981817
 20
49.2247544046659
 10
16.6426947249595
 20
49.2247004001818
 10
16.6423172852232
 20
49.224593109612
 97
0
 75
0
 76
1
 98
0
  0
HATCH
  5
2003D
100
AcDbEntity
  8
0
100
AcDbHatch
 10
0
 20
0
 30
0
210
0
220
0
230
1
  2
SOLID
 70
1
 71
0
 91
1
 92
2
 72
0
 73
1
 93
25
 10
16.6423172852232
 20
49.224593109612
 10
16.6421071330566
 20
49.2245333398353
 10
16.6418931093998
 20
49.2244870442767
 10
16.6418435972333
 20
49.2245815952299
 10
16.6417674930025
 20
49.2247203074877
 10
16.6421680286369
 20
49.2248080643269
 10
16.6425484575057
 20
49.2249038986582
 10
16.6426467743102
 20
49.2249341657552
 10
16.6427345630774
 20
49.2249604344264
 10
16.6427947137987
 20
49.2249784231797
 10
16.643224798361
 20
49.2251317517756
 10
16.6434042093942
 20
49.2252038230865
 10
16.6434509503882
 20
49.2251538464428
 10
16.6435448330936
 20
49.2251884127712
 10
16.6434959354914
 20
49.2252405889686
 10
16.6446285011493
 20
49.2256964093405
 10
16.6450067422574
 20
49.2258467995039
 10
16.6449302797805
 20
49.2256683893065
 10
16.6448638590062
 20
49.2255339193727
 10
16.6448275215881
 20
49.2254457973621
 10
16.643380583748
 20
49.2249308229829
 10
16.643141012576
 20
49.2248416668028
 10
16.6428846981817
 20
49.2247544046659
 10
16.6426947249595
 20
49.2247004001818
 10
16.6423172852232
 20
49.224593109612
 97
0
 75
0
 76
1
 98
0
  0
HATCH
  5
2003E
100
AcDbEntity
  8
0
100
AcDbHatch
 10
0
 20
0
 30
0
210
0
220
0
230
1
  2
SOLID
 70
1
 71
0
 91
1
 92
2
 72
0
 73
1
 93
25
 10
16.6423172852232
 20
49.224593109612
 10
16.6421071330566
 20
49.2245333398353
 10
16.6418931093998
 20
49.2244870442767
 10
16.6418435972333
 20
49.2245815952299
 10
16.6417674930025
 20
49.2247203074877
 10
16.6421680286369
 20
49.2248080643269
 10
16.6425484575057
 20
49.2249038986582
 10
16.6426467743102
 20
49.2249341657552
 10
16.6427345630774
 20
49.2249604344264
 10
16.6427947137987
 20
49.2249784231797
 10
16.643224798361
 20
49.2251317517756
 10
16.6434042093942
 20
49.2252038230865
 10
16.6434509503882
 20
49.2251538464428
 10
16.6435448330936
 20
49.2251884127712
 10
16.6434959354914
 20
49.2252405889686
 10
16.6446285011493
 20
49.2256964093405
 10
16.6450067422574
 20
49.2258467995039
 10
16.6449302797805
 20
49.2256683893065
 10
16.6448638590062
 20
49.2255339193727
 10
16.6448275215881
 20
49.2254457973621
 10
16.643380583748
 20
49.2249308229829
 10
16.643141012576
 20
49.2248416668028
 10
16.6428846981817
 20
49.2247544046659
 10
16.6426947249595
 20
49.2247004001818
 10
16.6423172852232
 20
49.224593109612
 97
0
 75
0
 76
1
 98
0
  0
HATCH
  5
2003F
100
AcDbEntity
  8
0
100
AcDbHatch
 10
0
 20
0
 30
0
210
0
220
0
230
1
  2
SOLID
 70
1
 71
0
 91
1
 92
2
 72
0
 73
1
 93
25
 10
16.6423172852232
 20
49.224593109612
 10
16.6421071330566
 20
49.2245333398353
 10
16.6418931093998
 20
49.2244870442767
 10
16.6418435972333
 20
49.2245815952299
 10
16.6417674930025
 20
49.2247203074877
 10
16.6421680286369
 20
49.2248080643269
 10
16.6425484575057
 20
49.2249038986582
 10
16.6426467743102
 20
49.2249341657552
 10
16.6427345630774
 20
49.2249604344264
 10
16.6427947137987
 20
49.2249784231797
 10
16.643224798361
 20
49.2251317517756
 10
16.6434042093942
 20
49.2252038230865
 10
16.6434509503882
 20
49.2251538464428
 10
16.6435448330936
 20
49.2251884127712
 10
16.6434959354914
 20
49.2252405889686
 10
16.6446285011493
 20
49.2256964093405
 10
16.6450067422574
 20
49.2258467995039
 10
16.6449302797805
 20
49.2256683893065
 10
16.6448638590062
 20
49.2255339193727
 10
16.6448275215881
 20
49.2254457973621
 10
16.643380583748
 20
49.2249308229829
 10
16.643141012576
 20
49.2248416668028
 10
16.6428846981817
 20
49.2247544046659
 10
16.6426947249595
 20
49.2247004001818
 10
16.6423172852232
 20
49.224593109612
 97
0
 75
0
 76
1
 98
0
  0
HATCH
  5
20040
100
AcDbEntity
  8
0
100
AcDbHatch
 10
0
 20
0
 30
0
210
0
220
0
230
1
  2
SOLID
 70
1
 71
0
 91
1
 92
2
 72
0
 73
1
 93
25
 10
16.6423172852232
 20
49.224593109612
 10
16.6421071330566
 20
49.2245333398353
 10
16.6418931093998
 20
49.2244870442767
 10
16.6418435972333
 20
49.2245815952299
 10
16.6417674930025
 20
49.2247203074877
 10
16.6421680286369
 20
49.2248080643269
 10
16.6425484575057
 20
49.2249038986582
 10
16.6426467743102
 20
49.2249341657552
 10
16.6427345630774
 20
49.2249604344264
 10
16.6427947137987
 20
49.2249784231797
 10
16.643224798361
 20
49.2251317517756
 10
16.6434042093942
 20
49.2252038230865
 10
16.6434509503882
 20
49.2251538464428
 10
16.6435448330936
 20
49.2251884127712
 10
16.6434959354914
 20
49.2252405889686
 10
16.6446285011493
 20
49.2256964093405
 10
16.6450067422574
 20
49.2258467995039
 10
16.6449302797805
 20
49.2256683893065
 10
16.6448638590062
 20
49.2255339193727
 10
16.6448275215881
 20
49.2254457973621
 10
16.643380583748
 20
49.2249308229829
 10
16.643141012576
 20
49.2248416668028
 10
16.6428846981817
 20
49.2247544046659
 10
16.6426947249595
 20
49.2247004001818
 10
16.6423172852232
 20
49.224593109612
 97
0
 75
0
 76
1
 98
0
  0
HATCH
  5
20041
100
AcDbEntity
  8
0
100
AcDbHatch
 10
0
 20
0
 30
0
210
0
220
0
230
1
  2
SOLID
 70
1
 71
0
 91
1
 92
2
 72
0
 73
1
 93
25
 10
16.6423172852232
 20
49.224593109612
 10
16.6421071330566
 20
49.2245333398353
 10
16.6418931093998
 20
49.2244870442767
 10
16.6418435972333
 20
49.2245815952299
 10
16.6417674930025
 20
49.2247203074877
 10
16.6421680286369
 20
49.2248080643269
 10
16.6425484575057
 20
49.2249038986582
 10
16.6426467743102
 20
49.2249341657552
 10
16.6427345630774
 20
49.2249604344264
 10
16.6427947137987
 20
49.2249784231797
 10
16.643224798361
 20
49.2251317517756
 10
16.6434042093942
 20
49.2252038230865
 10
16.6434509503882
 20
49.2251538464428
 10
16.6435448330936
 20
49.2251884127712
 10
16.6434959354914
 20
49.2252405889686
 10
16.6446285011493
 20
49.2256964093405
 10
16.6450067422574
 20
49.2258467995039
 10
16.6449302797805
 20
49.2256683893065
 10
16.6448638590062
 20
49.2255339193727
 10
16.6448275215881
 20
49.2254457973621
 10
16.643380583748
 20
49.2249308229829
 10
16.643141012576
 20
49.2248416668028
 10
16.6428846981817
 20
49.2247544046659
 10
16.6426947249595
 20
49.2247004001818
 10
16.6423172852232
 20
49.224593109612
 97
0
 75
0
 76
1
 98
0
  0
HATCH
  5
20042
100
AcDbEntity
  8
0
100
AcDbHatch
 10
0
 20
0
 30
0
210
0
220
0
230
1
  2
SOLID
 70
1
 71
0
 91
1
 92
2
 72
0
 73
1
 93
25
 10
16.6423172852232
 20
49.224593109612
 10
16.6421071330566
 20
49.2245333398353
 10
16.6418931093998
 20
49.2244870442767
 10
16.6418435972333
 20
49.2245815952299
 10
16.6417674930025
 20
49.2247203074877
 10
16.6421680286369
 20
49.2248080643269
 10
16.6425484575057
 20
49.2249038986582
 10
16.6426467743102
 20
49.2249341657552
 10
16.6427345630774
 20
49.2249604344264
 10
16.6427947137987
 20
49.2249784231797
 10
16.643224798361
 20
49.2251317517756
 10
16.6434042093942
 20
49.2252038230865
 10
16.6434509503882
 20
49.2251538464428
 10
16.6435448330936
 20
49.2251884127712
 10
16.6434959354914
 20
49.2252405889686
 10
16.6446285011493
 20
49.2256964093405
 10
16.6450067422574
 20
49.2258467995039
 10
16.6449302797805
 20
49.2256683893065
 10
16.6448638590062
 20
49.2255339193727
 10
16.6448275215881
 20
49.2254457973621
 10
16.643380583748
 20
49.2249308229829
 10
16.643141012576
 20
49.2248416668028
 10
16.6428846981817
 20
49.2247544046659
 10
16.6426947249595
 20
49.2247004001818
 10
16.6423172852232
 20
49.224593109612
 97
0
 75
0
 76
1
 98
0
  0
HATCH
  5
20043
100
AcDbEntity
  8
0
100
AcDbHatch
 10
0
 20
0
 30
0
210
0
220
0
230
1
  2
SOLID
 70
1
 71
0
 91
1
 92
2
 72
0
 73
1
 93
25
 10
16.6423172852232
 20
49.224593109612
 10
16.6421071330566
 20
49.2245333398353
 10
16.6418931093998
 20
49.2244870442767
 10
16.6418435972333
 20
49.2245815952299
 10
16.6417674930025
 20
49.2247203074877
 10
16.6421680286369
 20
49.2248080643269
 10
16.6425484575057
 20
49.2249038986582
 10
16.6426467743102
 20
49.2249341657552
 10
16.6427345630774
 20
49.2249604344264
 10
16.6427947137987
 20
49.2249784231797
 10
16.643224798361
 20
49.2251317517756
 10
16.6434042093942
 20
49.2252038230865
 10
16.6434509503882
 20
49.2251538464428
 10
16.6435448330936
 20
49.2251884127712
 10
16.6434959354914
 20
49.2252405889686
 10
16.6446285011493
 20
49.2256964093405
 10
16.6450067422574
 20
49.2258467995039
 10
16.6449302797805
 20
49.2256683893065
 10
16.6448638590062
 20
49.2255339193727
 10
16.6448275215881
 20
49.2254457973621
 10
16.643380583748
 20
49.2249308229829
 10
16.643141012576
 20
49.2248416668028
 10
16.6428846981817
 20
49.2247544046659
 10
16.6426947249595
 20
49.2247004001818
 10
16.6423172852232
 20
49.224593109612
 97
0
 75
0
 76
1
 98
0
  0
HATCH
  5
20044
100
AcDbEntity
  8
0
100
AcDbHatch
 10
0
 20
0
 30
0
210
0
220
0
230
1
  2
SOLID
 70
1
 71
0
 91
1
 92
2
 72
0
 73
1
 93
37
 10
16.5690113819209
 20
49.2044102393398
 10
16.5690124882433
 20
49.204410227638
 10
16.5690137458254
 20
49.2044101362487
 10
16.5690148966147
 20
49.2044098563481
 10
16.5690159257889
 20
49.2044094773357
 10
16.5690168333478
 20
49.2044089992114
 10
16.5690176192916
 20
49.2044084219754
 10
16.5690182836201
 20
49.2044077456276
 10
16.5690186750737
 20
49.2044070498553
 10
16.5690189449121
 20
49.2044062549713
 10
16.5690189418755
 20
49.2044054406628
 10
16.5690187875791
 20
49.2044047060417
 10
16.5690183604077
 20
49.2044039519962
 10
16.5690177819766
 20
49.2044032776381
 10
16.5690170522856
 20
49.2044026829673
 10
16.5690161713349
 20
49.2044021679839
 10
16.5690151391244
 20
49.2044017326879
 10
16.5690139408318
 20
49.2044014664788
 10
16.5690128641543
 20
49.2044012993815
 10
16.5690116213947
 20
49.2044013013711
 10
16.5690105002502
 20
49.2044014024725
 10
16.5690093494611
 20
49.2044016823731
 10
16.569008320287
 20
49.2044020613855
 10
16.5690072762907
 20
49.2044025297974
 10
16.5690064903469
 20
49.2044031070334
 10
16.5690059624557
 20
49.2044037930934
 10
16.5690054345645
 20
49.2044044791534
 10
16.5690053011634
 20
49.2044052837496
 10
16.5690051677623
 20
49.2044060883459
 10
16.569005458496
 20
49.2044068326792
 10
16.5690057492297
 20
49.2044075770125
 10
16.5690063276607
 20
49.2044082513707
 10
16.5690071937891
 20
49.2044088557538
 10
16.5690080747399
 20
49.2044093707372
 10
16.5690091069505
 20
49.2044098060333
 10
16.5690101688058
 20
49.2044100625303
 10
16.5690113819209
 20
49.2044102393398
 97
0
 75
0
 76
1
 98
0
  0
HATCH
  5
20045
100
AcDbEntity
  8
0
100
AcDbHatch
 10
0
 20
0
 30
0
210
0
220
0
230
1
  2
SOLID
 70
1
 71
0
 91
1
 92
2
 72
0
 73
1
 93
25
 10
16.6423172852232
 20
49.224593109612
 10
16.6421071330566
 20
49.2245333398353
 10
16.6418931093998
 20
49.2244870442767
 10
16.6418435972333
 20
49.2245815952299
 10
16.6417674930025
 20
49.2247203074877
 10
16.6421680286369
 20
49.2248080643269
 10
16.6425484575057
 20
49.2249038986582
 10
16.6426467743102
 20
49.2249341657552
 10
16.6427345630774
 20
49.2249604344264
 10
16.6427947137987
 20
49.2249784231797
 10
16.643224798361
 20
49.2251317517756
 10
16.6434042093942
 20
49.2252038230865
 10
16.6434509503882
 20
49.2251538464428
 10
16.6435448330936
 20
49.2251884127712
 10
16.6434959354914
 20
49.2252405889686
 10
16.6446285011493
 20
49.2256964093405
 10
16.6450067422574
 20
49.2258467995039
 10
16.6449302797805
 20
49.2256683893065
 10
16.6448638590062
 20
49.2255339193727
 10
16.6448275215881
 20
49.2254457973621
 10
16.643380583748
 20
49.2249308229829
 10
16.643141012576
 20
49.2248416668028
 10
16.6428846981817
 20
49.2247544046659
 10
16.6426947249595
 20
49.2247004001818
 10
16.6423172852232
 20
49.224593109612
 97
0
 75
0
 76
1
 98
0
  0
HATCH
  5
20046
100
AcDbEntity
  8
0
100
AcDbHatch
 10
0
 20
0
 30
0
210
0
220
0
230
1
  2
SOLID
 70
1
 71
0
 91
1
 92
2
 72
0
 73
1
 93
37
 10
16.5691738224615
 20
49.2046203323809
 10
16.5691936978295
 20
49.2046206051921
 10
16.5692133435439
 20
49.2046186124141
 10
16.569232162677
 20
49.2046144145966
 10
16.5692495834169
 20
49.2046081392891
 10
16.5692650764417
 20
49.2045999771641
 10
16.5692781710032
 20
49.2045901762244
 10
16.5692884692301
 20
49.2045790342677
 10
16.5692956582172
 20
49.2045668898373
 10
16.5692995195328
 20
49.2045541119363
 10
16.5692999358552
 20
49.204541088815
 10
16.5692968945374
 20
49.2045282161745
 10
16.5692904879909
 20
49.2045158851431
 10
16.5692809108774
 20
49.2045044703923
 10
16.5692684541942
 20
49.2044943187532
 10
16.5692534964319
 20
49.2044857386769
 10
16.5692364920741
 20
49.204478990864
 10
16.5692179577884
 20
49.2044742803427
 10
16.5691984567277
 20
49.204471750239
 10
16.5691785814194
 20
49.2044714774287
 10
16.569158935762
 20
49.2044734702008
 10
16.5691401166762
 20
49.2044776680064
 10
16.5691226959683
 20
49.2044839432976
 10
16.5691072029564
 20
49.2044921054036
 10
16.569094108387
 20
49.204501906324
 10
16.5690838101325
 20
49.2045130482635
 10
16.5690766211013
 20
49.2045251926808
 10
16.5690727597305
 20
49.2045379705744
 10
16.5690723433483
 20
49.2045509936948
 10
16.5690753846092
 20
49.2045638663412
 10
16.5690817911084
 20
49.2045761973846
 10
16.5690913681898
 20
49.2045876121516
 10
16.5691038248602
 20
49.2045977638098
 10
16.5691187826304
 20
49.2046063439053
 10
16.5691357870158
 20
49.2046130917354
 10
16.5691543213456
 20
49.2046178022699
 10
16.5691738224615
 20
49.2046203323809
 97
0
 75
0
 76
1
 98
0
  0
HATCH
  5
20047
100
AcDbEntity
  8
0
100
AcDbHatch
 10
0
 20
0
 30
0
210
0
220
0
230
1
  2
SOLID
 70
1
 71
0
 91
1
 92
2
 72
0
 73
1
 93
37
 10
16.5700436689092
 20
49.2052480484119
 10
16.5700448647952
 20
49.2052480648177
 10
16.5700460468607
 20
49.2052479449066
 10
16.5700471791895
 20
49.2052476923223
 10
16.5700482273761
 20
49.2052473147393
 10
16.570049159572
 20
49.2052468236304
 10
16.5700499474528
 20
49.2052462339176
 10
16.5700505670793
 20
49.205245563519
 10
16.5700509996244
 20
49.2052448328045
 10
16.5700512319453
 20
49.2052440639763
 10
16.5700512569833
 20
49.2052432803949
 10
16.5700510739775
 20
49.2052425058691
 10
16.5700506884884
 20
49.2052417639323
 10
16.570050112229
 20
49.2052410771281
 10
16.5700493627087
 20
49.2052404663246
 10
16.5700484627011
 20
49.2052399500808
 10
16.5700474395527
 20
49.2052395440823
 10
16.5700463243512
 20
49.2052392606653
 10
16.5700451509814
 20
49.2052391084414
 10
16.5700439550957
 20
49.2052390920357
 10
16.5700427730303
 20
49.2052392119467
 10
16.5700416407018
 20
49.205239464531
 10
16.5700405925153
 20
49.2052398421139
 10
16.5700396603195
 20
49.2052403332227
 10
16.5700388724385
 20
49.2052409229355
 10
16.570038252812
 20
49.205241593334
 10
16.5700378202668
 20
49.2052423240485
 10
16.5700375879456
 20
49.2052430928767
 10
16.5700375629074
 20
49.2052438764581
 10
16.570037745913
 20
49.205244650984
 10
16.5700381314019
 20
49.2052453929207
 10
16.5700387076612
 20
49.2052460797249
 10
16.5700394571815
 20
49.2052466905285
 10
16.5700403571891
 20
49.2052472067725
 10
16.5700413803376
 20
49.205247612771
 10
16.5700424955393
 20
49.205247896188
 10
16.5700436689092
 20
49.2052480484119
 97
0
 75
0
 76
1
 98
0
  0
HATCH
  5
20048
100
AcDbEntity
  8
0
100
AcDbHatch
 10
0
 20
0
 30
0
210
0
220
0
230
1
  2
SOLID
 70
1
 71
0
 91
1
 92
2
 72
0
 73
1
 93
37
 10
16.588669951554
 20
49.2558600331016
 10
16.5886851070323
 20
49.255860238354
 10
16.5887000867158
 20
49.255858717877
 10
16.5887144354531
 20
49.2558555178698
 10
16.5887277172636
 20
49.2558507355632
 10
16.5887395285856
 20
49.2558445162656
 10
16.5887495105376
 20
49.2558370489478
 10
16.5887573598232
 20
49.255828560501
 10
16.5887628379466
 20
49.2558193088427
 10
16.588765778459
 20
49.2558095750802
 10
16.5887660920159
 20
49.2557996549692
 10
16.5887637690915
 20
49.2557898499272
 10
16.5887588802682
 20
49.2557804578754
 10
16.5887515740916
 20
49.2557717641861
 10
16.5887420725572
 20
49.2557640330124
 10
16.5887306643645
 20
49.2557574992614
 10
16.5887176961454
 20
49.2557523614574
 10
16.5887035619322
 20
49.2557487757096
 10
16.5886886911844
 20
49.2557468509687
 10
16.5886735357408
 20
49.2557466457168
 10
16.5886585560904
 20
49.2557481661903
 10
16.5886442073807
 20
49.2557513661907
 10
16.5886309255887
 20
49.2557561484878
 10
16.5886191142742
 20
49.2557623677743
 10
16.5886091323176
 20
49.2557698350809
 10
16.5886012830159
 20
49.2557783235178
 10
16.5885958048668
 20
49.2557875751685
 10
16.5885928643222
 20
49.2557973089267
 10
16.5885925507307
 20
49.2558072290373
 10
16.588594873622
 20
49.2558170340826
 10
16.5885997624178
 20
49.2558264261413
 10
16.5886070685757
 20
49.2558351198401
 10
16.5886165701027
 20
49.2558428510249
 10
16.5886279783001
 20
49.255849384787
 10
16.5886409465352
 20
49.255854522601
 10
16.5886550807741
 20
49.2558581083564
 10
16.588669951554
 20
49.2558600331016
 97
0
 75
0
 76
1
 98
0
  0
HATCH
  5
20049
100
AcDbEntity
  8
0
100
AcDbHatch
 10
0
 20
0
 30
0
210
0
220
0
230
1
  2
SOLID
 70
1
 71
0
 91
1
 92
2
 72
0
 73
1
 93
37
 10
16.5885033652239
 20
49.2558370901801
 10
16.5885185206944
 20
49.2558372954544
 10
16.5885335003761
 20
49.255835774999
 10
16.5885478491175
 20
49.2558325750125
 10
16.588561130938
 20
49.255827792725
 10
16.5885729422754
 20
49.2558215734445
 10
16.5885829242478
 20
49.2558141061411
 10
16.5885907735584
 20
49.2558056177055
 10
16.5885962517104
 20
49.2557963660551
 10
16.5885991922542
 20
49.2557866322968
 10
16.5885995058443
 20
49.2557767121861
 10
16.588597182954
 20
49.2557669071408
 10
16.5885922941646
 20
49.255757515082
 10
16.5885849880207
 20
49.2557488213821
 10
16.5885754865167
 20
49.2557410901947
 10
16.5885640783513
 20
49.2557345564272
 10
16.5885511101556
 20
49.2557294186045
 10
16.5885369759609
 20
49.2557258328363
 10
16.5885221052265
 20
49.2557239080739
 10
16.5885069497907
 20
49.2557237028002
 10
16.5884919701421
 20
49.2557252232521
 10
16.5884776214283
 20
49.2557284232318
 10
16.5884643396264
 20
49.2557332055097
 10
16.5884525282964
 20
49.2557394247792
 10
16.5884425463193
 20
49.2557468920715
 10
16.5884346969927
 20
49.255755380497
 10
16.588429218815
 20
49.2557646321399
 10
16.588426278239
 20
49.2557743658939
 10
16.5884259646142
 20
49.255784286004
 10
16.5884282874715
 20
49.2557940910528
 10
16.5884331762334
 20
49.2558034831186
 10
16.5884404823587
 20
49.2558121768279
 10
16.5884499838552
 20
49.2558199080264
 10
16.5884613920253
 20
49.255826441805
 10
16.588474360237
 20
49.2558315796377
 10
16.5884884944573
 20
49.2558351654135
 10
16.5885033652239
 20
49.2558370901801
 97
0
 75
0
 76
1
 98
0
  0
HATCH
  5
2004A
100
AcDbEntity
  8
0
100
AcDbHatch
 10
0
 20
0
 30
0
210
0
220
0
230
1
  2
SOLID
 70
1
 71
0
 91
1
 92
2
 72
0
 73
1
 93
37
 10
16.5698593296083
 20
49.2051922977359
 10
16.5698825536864
 20
49.2051926163698
 10
16.5699055093807
 20
49.205190287728
 10
16.5699274991906
 20
49.2051853825654
 10
16.5699478549639
 20
49.2051780499236
 10
16.5699659581988
 20
49.2051685126024
 10
16.5699812588368
 20
49.2051570603895
 10
16.5699932919763
 20
49.2051440412559
 10
16.5700016919981
 20
49.2051298507824
 10
16.5700062036745
 20
49.20511492014
 10
16.570006689924
 20
49.2050997029894
 10
16.5700031359758
 20
49.2050846616958
 10
16.5699956498182
 20
49.2050702532813
 10
16.5699844589174
 20
49.2050569155373
 10
16.5699699033051
 20
49.2050450537234
 10
16.5699524252471
 20
49.2050350282538
 10
16.5699325558047
 20
49.205027143746
 10
16.5699108986994
 20
49.2050216397657
 10
16.5698881119685
 20
49.2050186835478
 10
16.5698648879719
 20
49.2050183649151
 10
16.5698419323554
 20
49.2050206935491
 10
16.5698199426102
 20
49.2050255986954
 10
16.5697995868806
 20
49.2050329313147
 10
16.5697814836633
 20
49.20504246861
 10
16.5697661830146
 20
49.2050539207966
 10
16.5697541498373
 20
49.2050669399068
 10
16.5697457497553
 20
49.2050811303625
 10
16.5697412380034
 20
49.2050960609947
 10
16.5697407516724
 20
49.2051112781442
 10
16.5697443055429
 20
49.2051263194457
 10
16.5697517916358
 20
49.2051407278764
 10
16.5697629824929
 20
49.2051540656428
 10
16.5697775380876
 20
49.2051659274825
 10
16.5697950161564
 20
49.2051759529784
 10
16.5698148856365
 20
49.2051838375098
 10
16.5698365428021
 20
49.2051893415079
 10
16.5698593296083
 20
49.2051922977359
 97
0
 75
0
 76
1
 98
0
  0
HATCH
  5
2004B
100
AcDbEntity
  8
0
100
AcDbHatch
 10
0
 20
0
 30
0
210
0
220
0
230
1
  2
SOLID
 70
1
 71
0
 91
1
 92
2
 72
0
 73
1
 93
37
 10
16.5885598406974
 20
49.255831508647
 10
16.5885845259119
 20
49.255831812562
 10
16.5886089722822
 20
49.2558293859859
 10
16.5886322237228
 20
49.2558241610964
 10
16.5886539626571
 20
49.2558163867201
 10
16.5886731885942
 20
49.2558062632398
 10
16.588689432575
 20
49.2557941191955
 10
16.5887022256422
 20
49.2557802831273
 10
16.5887110840375
 20
49.2557651729766
 10
16.588715918951
 20
49.2557493251525
 10
16.5887163832098
 20
49.2557331672847
 10
16.5887126759732
 20
49.2557171657579
 10
16.5887046936299
 20
49.2557019463811
 10
16.5886928163275
 20
49.2556877170231
 10
16.5886773502012
 20
49.2556751325588
 10
16.5886586605935
 20
49.2556644902579
 10
16.5886376591759
 20
49.2556561261454
 10
16.588614574705
 20
49.2556503278023
 10
16.588590363256
 20
49.2556471630502
 10
16.5885656781336
 20
49.2556468591365
 10
16.5885412318513
 20
49.2556492857035
 10
16.5885178439007
 20
49.2556545008858
 10
16.5884962415988
 20
49.2556622849258
 10
16.5884770156814
 20
49.2556724083769
 10
16.5884607568858
 20
49.2556846417929
 10
16.5884479785785
 20
49.2556983884332
 10
16.5884391201148
 20
49.255713498564
 10
16.5884342851162
 20
49.2557293463765
 10
16.5884338207653
 20
49.2557455042432
 10
16.5884375279139
 20
49.255761505779
 10
16.5884454953819
 20
49.2557768145753
 10
16.5884573874372
 20
49.2557909545572
 10
16.5884728535438
 20
49.2558035390506
 10
16.588491406581
 20
49.2558141716923
 10
16.588512544624
 20
49.2558225455202
 10
16.5885356291633
 20
49.2558283438836
 10
16.5885598406974
 20
49.255831508647
 97
0
 75
0
 76
1
 98
0
  0
HATCH
  5
2004C
100
AcDbEntity
  8
0
100
AcDbHatch
 10
0
 20
0
 30
0
210
0
220
0
230
1
  2
SOLID
 70
1
 71
0
 91
1
 92
2
 72
0
 73
1
 93
37
 10
16.5886041774481
 20
49.255928451954
 10
16.5886258282721
 20
49.2559287215049
 10
16.5886473324257
 20
49.2559265384592
 10
16.5886678556033
 20
49.2559219340848
 10
16.5886869436452
 20
49.2559151475197
 10
16.5887038988306
 20
49.2559062197216
 10
16.5887181008144
 20
49.2558955589427
 10
16.588729383409
 20
49.2558833342981
 10
16.5887372480532
 20
49.2558700531302
 10
16.5887414841551
 20
49.2558561527579
 10
16.5887418959259
 20
49.2558419810982
 10
16.5887385607437
 20
49.2558279054455
 10
16.5887315263816
 20
49.2558144718966
 10
16.5887211581852
 20
49.2558019777215
 10
16.5887075187285
 20
49.255790879615
 10
16.5886910951356
 20
49.255781573937
 10
16.588672555519
 20
49.2557741985323
 10
16.5886522652193
 20
49.2557690506707
 10
16.5886310289298
 20
49.2557662778865
 10
16.5886093781769
 20
49.2557660083366
 10
16.5885878740913
 20
49.2557681913753
 10
16.5885673509701
 20
49.2557727957356
 10
16.5885482629667
 20
49.2557795822811
 10
16.5885313077966
 20
49.2557885100566
 10
16.5885170910008
 20
49.255799260214
 10
16.5885058231754
 20
49.2558113954367
 10
16.5884979584785
 20
49.2558246765889
 10
16.5884937223109
 20
49.2558385769524
 10
16.588493310469
 20
49.2558527486112
 10
16.5884966455832
 20
49.2558668242709
 10
16.5885036650864
 20
49.2558803472353
 10
16.5885140480468
 20
49.2558927520285
 10
16.5885276874882
 20
49.2559038501577
 10
16.5885441110909
 20
49.2559131558587
 10
16.5885626507405
 20
49.2559205312838
 10
16.5885829410929
 20
49.255925679161
 10
16.5886041774481
 20
49.255928451954
 97
0
 75
0
 76
1
 98
0
  0
HATCH
  5
2004D
100
AcDbEntity
  8
0
100
AcDbHatch
 10
0
 20
0
 30
0
210
0
220
0
230
1
  2
SOLID
 70
1
 71
0
 91
1
 92
2
 72
0
 73
1
 93
33
 10
16.6278623109037
 20
49.1725032709693
 10
16.6278626092459
 20
49.1724838458435
 10
16.6278570480609
 20
49.1724648203939
 10
16.627846069853
 20
49.1724468590435
 10
16.6278298444026
 20
49.1724306069291
 10
16.6278090869321
 20
49.172416747758
 10
16.6277846637284
 20
49.1724058854725
 10
16.6277574999024
 20
49.1723982663848
 10
16.627728491149
 20
49.172394315623
 10
16.6276988647102
 20
49.1723941199716
 10
16.6276698478275
 20
49.1723977662159
 10
16.6276424538488
 20
49.1724049642268
 10
16.6276176667095
 20
49.172415602691
 10
16.6275965291757
 20
49.1724292126655
 10
16.6275799623626
 20
49.1724452261577
 10
16.6275683419445
 20
49.1724630366027
 10
16.6275623163202
 20
49.1724820567212
 10
16.6275620178603
 20
49.1725014818462
 10
16.6275675789362
 20
49.1725205073098
 10
16.6275785570595
 20
49.1725384686866
 10
16.6275947824628
 20
49.172554720836
 10
16.6276155399311
 20
49.1725685800453
 10
16.6276399631778
 20
49.1725794423665
 10
16.6276671270849
 20
49.1725870614817
 10
16.6276961359462
 20
49.1725910122587
 10
16.6277257625026
 20
49.1725912079109
 10
16.6277547794945
 20
49.1725875616526
 10
16.6277821735578
 20
49.1725803636152
 10
16.6278069607442
 20
49.172569725116
 10
16.6278280982802
 20
49.1725561151032
 10
16.6278446650503
 20
49.1725401015756
 10
16.6278562853872
 20
49.172522291103
 10
16.6278623109037
 20
49.1725032709693
 97
0
 75
0
 76
1
 98
0
  0
HATCH
  5
2004E
100
AcDbEntity
  8
0
100
AcDbHatch
 10
0
 20
0
 30
0
210
0
220
0
230
1
  2
SOLID
 70
1
 71
0
 91
1
 92
2
 72
0
 73
1
 93
33
 10
16.4473682816342
 20
49.2434091500221
 10
16.4473684046739
 20
49.2433985739105
 10
16.4473654640405
 20
49.2433881384992
 10
16.4473595059341
 20
49.2433783899432
 10
16.4473506367694
 20
49.2433695168648
 10
16.4473393424153
 20
49.2433619162205
 10
16.4473261087396
 20
49.2433559849669
 10
16.4473111937292
 20
49.2433518321986
 10
16.4472954014532
 20
49.2433496064351
 10
16.447279247885
 20
49.2433495258669
 10
16.447263309213
 20
49.2433514511521
 10
16.4472484196136
 20
49.2433553520446
 10
16.4472348671806
 20
49.2433611588739
 10
16.4472232582119
 20
49.2433685535325
 10
16.4472141990065
 20
49.2433772179129
 10
16.4472078561939
 20
49.2433869831054
 10
16.4472044566204
 20
49.2433973226674
 10
16.4472043335456
 20
49.2434078987789
 10
16.4472072741462
 20
49.2434183341943
 10
16.4472132322274
 20
49.243428082758
 10
16.4472221013779
 20
49.2434369558469
 10
16.4472333957312
 20
49.2434445565026
 10
16.4472466294194
 20
49.2434504877668
 10
16.4472615444541
 20
49.2434546405433
 10
16.4472773367621
 20
49.2434568663115
 10
16.4472934903654
 20
49.2434569468799
 10
16.4473094290701
 20
49.2434550215906
 10
16.4473243186948
 20
49.2434511206903
 10
16.4473378711419
 20
49.2434453138505
 10
16.4473494801115
 20
49.2434379191805
 10
16.4473585393043
 20
49.2434292547896
 10
16.4473648820926
 20
49.2434194895889
 10
16.4473682816342
 20
49.2434091500221
 97
0
 75
0
 76
1
 98
0
  0
HATCH
  5
2004F
100
AcDbEntity
  8
0
100
AcDbHatch
 10
0
 20
0
 30
0
210
0
220
0
230
1
  2
SOLID
 70
1
 71
0
 91
1
 92
2
 72
0
 73
1
 93
33
 10
16.4472600989709
 20
49.2434033301375
 10
16.4472602220337
 20
49.243392754026
 10
16.4472572814235
 20
49.2433823186118
 10
16.4472513233391
 20
49.2433725700503
 10
16.4472424541949
 20
49.2433636969636
 10
16.4472311598587
 20
49.2433560963088
 10
16.4472179261975
 20
49.2433501650426
 10
16.447203011198
 20
49.2433460122604
 10
16.4471872189288
 20
49.2433437864821
 10
16.4471710653626
 20
49.2433437058988
 10
16.4471551266883
 20
49.243345631169
 10
16.4471402370821
 20
49.2433495320476
 10
16.447126684638
 20
49.2433553388642
 10
16.4471150756546
 20
49.2433627335119
 10
16.4471060164313
 20
49.2433713978838
 10
16.447099673598
 20
49.2433811630704
 10
16.4470962740023
 20
49.2433915026292
 10
16.4470961509044
 20
49.2434020787406
 10
16.4470990914818
 20
49.2434125141587
 10
16.447105049541
 20
49.2434222627281
 10
16.4471139186711
 20
49.2434311358252
 10
16.4471252130064
 20
49.2434387364915
 10
16.4471384466802
 20
49.2434446677681
 10
16.447153361704
 20
49.2434488205586
 10
16.4471691540052
 20
49.2434510463416
 10
16.4471853076064
 20
49.2434511269252
 10
16.4472012463135
 20
49.2434492016508
 10
16.4472161359449
 20
49.2434453007644
 10
16.4472296884032
 20
49.2434394939374
 10
16.4472412973875
 20
49.2434320992782
 10
16.4472503565982
 20
49.2434234348958
 10
16.4472566994072
 20
49.243413669701
 10
16.4472600989709
 20
49.2434033301375
 97
0
 75
0
 76
1
 98
0
  0
HATCH
  5
20050
100
AcDbEntity
  8
0
100
AcDbHatch
 10
0
 20
0
 30
0
210
0
220
0
230
1
  2
SOLID
 70
1
 71
0
 91
1
 92
2
 72
0
 73
1
 93
33
 10
16.4473429143109
 20
49.2433439896139
 10
16.4473430373559
 20
49.2433334135022
 10
16.4473400967318
 20
49.2433229780901
 10
16.4473341386382
 20
49.2433132295328
 10
16.4473252694897
 20
49.2433043564524
 10
16.4473139751544
 20
49.2432967558055
 10
16.4473007414991
 20
49.2432908245489
 10
16.4472858265105
 20
49.2432866717773
 10
16.4472700342565
 20
49.2432844460103
 10
16.4472538807096
 20
49.2432843654386
 10
16.4472379420576
 20
49.2432862907203
 10
16.4472230524758
 20
49.2432901916095
 10
16.4472095000577
 20
49.2432959984359
 10
16.4471978911005
 20
49.2433033930921
 10
16.4471888319026
 20
49.2433120574705
 10
16.4471824890933
 20
49.2433218226618
 10
16.447179089519
 20
49.2433321622232
 10
16.447178966439
 20
49.2433427383346
 10
16.4471819070303
 20
49.2433531737508
 10
16.4471878650987
 20
49.243362922316
 10
16.447196734233
 20
49.2433717954069
 10
16.4472080285675
 20
49.2433793960651
 10
16.4472212622353
 20
49.2433853273323
 10
16.4472361772482
 20
49.2433894801121
 10
16.4472519695342
 20
49.2433917058838
 10
16.4472681231162
 20
49.2433917864558
 10
16.447284061801
 20
49.2433898611699
 10
16.447298951408
 20
49.2433859602729
 10
16.4473125038402
 20
49.243380153436
 10
16.4473241127983
 20
49.2433727587685
 10
16.4473331719836
 20
49.2433640943795
 10
16.4473395147686
 20
49.24335432918
 10
16.4473429143109
 20
49.2433439896139
 97
0
 75
0
 76
1
 98
0
  0
HATCH
  5
20051
100
AcDbEntity
  8
0
100
AcDbHatch
 10
0
 20
0
 30
0
210
0
220
0
230
1
  2
SOLID
 70
1
 71
0
 91
1
 92
2
 72
0
 73
1
 93
37
 10
16.59495241629
 20
49.2715498213985
 10
16.5949783301231
 20
49.2715501708298
 10
16.5950039429958
 20
49.2715475704581
 10
16.5950284766694
 20
49.2715420992949
 10
16.5950511856972
 20
49.2715339235795
 10
16.5950713800742
 20
49.2715232917283
 10
16.5950884462037
 20
49.2715105267861
 10
16.5951018655405
 20
49.2714960166105
 10
16.5951112303469
 20
49.2714802020875
 10
16.5951162560815
 20
49.2714635637341
 10
16.5951167900441
 20
49.2714466070989
 10
16.5951128160151
 20
49.2714298474009
 10
16.5951044547478
 20
49.2714137938743
 10
16.5950919602985
 20
49.2713989342967
 10
16.5950757123073
 20
49.2713857201675
 10
16.5950562044622
 20
49.2713745529899
 10
16.5950340294985
 20
49.2713657720715
 10
16.5950098611893
 20
49.2713596442147
 10
16.5949844338729
 20
49.2713563556103
 10
16.5949585201412
 20
49.2713560061803
 10
16.5949329073653
 20
49.271358606542
 10
16.5949083737721
 20
49.2713640776851
 10
16.5948856647987
 20
49.2713722533727
 10
16.5948654704434
 20
49.2713828851917
 10
16.5948484043004
 20
49.2713956501013
 10
16.5948349849165
 20
49.2714101602477
 10
16.594825620035
 20
49.2714259747485
 10
16.5948205942065
 20
49.2714426130894
 10
16.5948200601424
 20
49.2714595697231
 10
16.5948240340746
 20
49.2714763294313
 10
16.5948323952616
 20
49.2714923829779
 10
16.5948448896565
 20
49.2715072425833
 10
16.5948611376259
 20
49.2715204567447
 10
16.5948806454845
 20
49.2715316239549
 10
16.5949028204953
 20
49.2715404049026
 10
16.5949269888796
 20
49.2715465327816
 10
16.59495241629
 20
49.2715498213985
 97
0
 75
0
 76
1
 98
0
  0
HATCH
  5
20052
100
AcDbEntity
  8
0
100
AcDbHatch
 10
0
 20
0
 30
0
210
0
220
0
230
1
  2
SOLID
 70
1
 71
0
 91
1
 92
2
 72
0
 73
1
 93
37
 10
16.5948401956236
 20
49.2715925523273
 10
16.594871450319
 20
49.2715929738059
 10
16.5949023420332
 20
49.2715898375261
 10
16.5949319321306
 20
49.2715832387825
 10
16.5949593215258
 20
49.2715733780761
 10
16.5949836780024
 20
49.2715605550213
 10
16.5950042614997
 20
49.2715451592422
 10
16.5950204465995
 20
49.2715276585339
 10
16.5950317415287
 20
49.2715085846485
 10
16.5950378031016
 20
49.2714885171378
 10
16.5950384471465
 20
49.2714680657438
 10
16.5950336541011
 20
49.2714478518719
 10
16.595023569606
 20
49.2714284897095
 10
16.5950085000788
 20
49.2714105675651
 10
16.5949889034031
 20
49.2713946299919
 10
16.5949653750152
 20
49.271381161243
 10
16.5949386298125
 20
49.2713705705573
 10
16.5949094804313
 20
49.2713631797256
 10
16.5948788125559
 20
49.2713592133132
 10
16.5948475580081
 20
49.2713587918365
 10
16.5948166664347
 20
49.2713619281018
 10
16.5947870764543
 20
49.2713685268161
 10
16.5947596871381
 20
49.271378387482
 10
16.5947353306932
 20
49.27139121049
 10
16.5947147471762
 20
49.2714066062216
 10
16.594698562008
 20
49.2714241068875
 10
16.5946872669696
 20
49.2714431807406
 10
16.5946812052601
 20
49.271463248233
 10
16.5946805610675
 20
49.2714836996251
 10
16.5946853539721
 20
49.2715039135116
 10
16.5946954383502
 20
49.2715232757031
 10
16.5947105077983
 20
49.2715411978881
 10
16.5947301044424
 20
49.2715571355081
 10
16.59475363285
 20
49.2715706043045
 10
16.5947803781212
 20
49.2715811950326
 10
16.5948095276115
 20
49.2715885858966
 10
16.5948401956236
 20
49.2715925523273
 97
0
 75
0
 76
1
 98
0
  0
HATCH
  5
20053
100
AcDbEntity
  8
0
100
AcDbHatch
 10
0
 20
0
 30
0
210
0
220
0
230
1
  2
SOLID
 70
1
 71
0
 91
1
 92
2
 72
0
 73
1
 93
33
 10
16.4471589903402
 20
49.2431512185262
 10
16.447159113424
 20
49.2431406424143
 10
16.4471561728501
 20
49.2431302069973
 10
16.4471502148159
 20
49.2431204584301
 10
16.447141345735
 20
49.2431115853354
 10
16.4471300514719
 20
49.2431039846703
 10
16.4471168178902
 20
49.2430980533924
 10
16.4471019029752
 20
49.243093900597
 10
16.447086110791
 20
49.2430916748047
 10
16.4470699573073
 20
49.2430915942073
 10
16.4470540187103
 20
49.2430935194637
 10
16.447039129172
 20
49.2430974203294
 10
16.4470255767851
 20
49.2431032271343
 10
16.4470139678457
 20
49.2431106217721
 10
16.4470049086509
 20
49.2431192861364
 10
16.4469985658301
 20
49.2431290513179
 10
16.4469951662306
 20
49.2431393908742
 10
16.4469950431118
 20
49.2431499669858
 10
16.4469979836529
 20
49.243160402407
 10
16.4470039416618
 20
49.2431701509818
 10
16.4470128107286
 20
49.2431790240872
 10
16.4470241049908
 20
49.2431866247636
 10
16.4470373385851
 20
49.243192556052
 10
16.4470522535244
 20
49.2431967088557
 10
16.4470680457406
 20
49.2431989346526
 10
16.4470841992593
 20
49.2431990152503
 10
16.4471001378892
 20
49.2431970899898
 10
16.4471150274526
 20
49.2431931891163
 10
16.4471285798537
 20
49.2431873823009
 10
16.4471401887939
 20
49.2431799876516
 10
16.4471492479762
 20
49.2431713232768
 10
16.4471555907727
 20
49.2431615580871
 10
16.4471589903402
 20
49.2431512185262
 97
0
 75
0
 76
1
 98
0
  0
HATCH
  5
20054
100
AcDbEntity
  8
0
100
AcDbHatch
 10
0
 20
0
 30
0
210
0
220
0
230
1
  2
SOLID
 70
1
 71
0
 91
1
 92
2
 72
0
 73
1
 93
37
 10
16.4546716129748
 20
49.2553593558778
 10
16.4547013239264
 20
49.2553597927505
 10
16.4547306993967
 20
49.2553568459238
 10
16.4547588468213
 20
49.2553506049363
 10
16.4547849109501
 20
49.2553412594185
 10
16.4548080998345
 20
49.2553290933307
 10
16.4548277088907
 20
49.2553144763352
 10
16.4548431423082
 20
49.2552978525642
 10
16.4548539311532
 20
49.255279727124
 10
16.4548597476165
 20
49.2552606507486
 10
16.4548604149734
 20
49.2552412030645
 10
16.4548559129527
 20
49.2552219749798
 10
16.4548463783516
 20
49.2552035507298
 10
16.4548321008791
 20
49.2551864901246
 10
16.454813514352
 20
49.2551713115404
 10
16.4547911835141
 20
49.2551584761691
 10
16.4547657868756
 20
49.2551483740048
 10
16.4547380960979
 20
49.2551413119951
 10
16.4547089525467
 20
49.2551375047141
 10
16.4546792417286
 20
49.2551370678434
 10
16.4546498663857
 20
49.2551400146571
 10
16.4546217190673
 20
49.2551462556182
 10
16.4545956550104
 20
49.2551556010996
 10
16.4545724661551
 20
49.255167767145
 10
16.4545528570817
 20
49.2551823840974
 10
16.4545374236027
 20
49.25519900783
 10
16.4545266346594
 20
49.2552171332407
 10
16.4545208180727
 20
49.2552362095996
 10
16.4545201505824
 20
49.2552556572818
 10
16.4545246524757
 20
49.2552748853793
 10
16.4545341869706
 20
49.2552933096557
 10
16.4545484643712
 20
49.2553103702974
 10
16.4545670508691
 20
49.2553255489239
 10
16.4545893817243
 20
49.2553383843383
 10
16.4546147784243
 20
49.255348486541
 10
16.4546424693003
 20
49.2553555485801
 10
16.4546716129748
 20
49.2553593558778
 97
0
 75
0
 76
1
 98
0
  0
HATCH
  5
20055
100
AcDbEntity
  8
0
100
AcDbHatch
 10
0
 20
0
 30
0
210
0
220
0
230
1
  2
SOLID
 70
1
 71
0
 91
1
 92
2
 72
0
 73
1
 93
37
 10
16.4826433603339
 20
49.2407104128184
 10
16.4826700230886
 20
49.2407107985214
 10
16.4826963830662
 20
49.2407081468686
 10
16.4827216393276
 20
49.2407025384296
 10
16.4827450244702
 20
49.240694143615
 10
16.4827658279456
 20
49.2406832174983
 10
16.4827834176497
 20
49.2406700920656
 10
16.482797259129
 20
49.240655166128
 10
16.4828069318192
 20
49.2406388932041
 10
16.4828121418242
 20
49.2406217677394
 10
16.482812730845
 20
49.2406043100831
 10
16.4828086809895
 20
49.2405870506774
 10
16.4828001153151
 20
49.2405705139401
 10
16.4827872940892
 20
49.2405552023306
 10
16.4827706068811
 20
49.2405415810831
 10
16.482750560724
 20
49.2405300640708
 10
16.4827277647097
 20
49.2405210012307
 10
16.4827029114814
 20
49.2405146679312
 10
16.4826767561882
 20
49.2405112566054
 10
16.482650093541
 20
49.240510870904
 10
16.482623733666
 20
49.2405135225464
 10
16.48259847749
 20
49.2405191309641
 10
16.4825750924053
 20
49.2405275257493
 10
16.4825542889532
 20
49.2405384518319
 10
16.4825366992351
 20
49.24055157723
 10
16.4825228577063
 20
49.2405665031365
 10
16.4825131849368
 20
49.2405827760368
 10
16.4825079748325
 20
49.2405999014881
 10
16.4825073857042
 20
49.2406173591428
 10
16.4825114354571
 20
49.2406346185589
 10
16.4825200010462
 20
49.2406511553175
 10
16.4825328222141
 20
49.2406664669565
 10
16.4825495093989
 20
49.240680088238
 10
16.48256955557
 20
49.240691605285
 10
16.4825923516338
 20
49.2407006681561
 10
16.4826172049414
 20
49.2407070014792
 10
16.4826433603339
 20
49.2407104128184
 97
0
 75
0
 76
1
 98
0
  0
HATCH
  5
20056
100
AcDbEntity
  8
0
100
AcDbHatch
 10
0
 20
0
 30
0
210
0
220
0
230
1
  2
SOLID
 70
1
 71
0
 91
1
 92
2
 72
0
 73
1
 93
17
 10
16.5311267366131
 20
49.231555801409
 10
16.5311241430214
 20
49.2315556160262
 10
16.5309980898809
 20
49.2317467018952
 10
16.5310269238781
 20
49.2317593466231
 10
16.5310603745202
 20
49.2317691552555
 10
16.5311095486821
 20
49.2317733033065
 10
16.5311603468323
 20
49.2317677073568
 10
16.5312051991324
 20
49.2317513740468
 10
16.5312380489979
 20
49.2317324641105
 10
16.5312610164898
 20
49.2317048874048
 10
16.5312738181426
 20
49.2316753176562
 10
16.5312721454044
 20
49.2316430850728
 10
16.5312560301208
 20
49.2316138004
 10
16.5312264230164
 20
49.2315859033182
 10
16.5311883071406
 20
49.231567619941
 10
16.5311487610032
 20
49.231557918405
 10
16.5311267366131
 20
49.231555801409
 97
0
 75
0
 76
1
 98
0
  0
HATCH
  5
20057
100
AcDbEntity
  8
0
100
AcDbHatch
 10
0
 20
0
 30
0
210
0
220
0
230
1
  2
SOLID
 70
1
 71
0
 91
1
 92
2
 72
0
 73
1
 93
33
 10
16.5695937113989
 20
49.1878603917573
 10
16.5695940649417
 20
49.1878374413981
 10
16.5695875723003
 20
49.1878149985719
 10
16.5695745389451
 20
49.1877937182114
 10
16.5695553622873
 20
49.1877745331597
 10
16.569530893359
 20
49.187758137194
 10
16.5695019831884
 20
49.1877452240917
 10
16.5694699364236
 20
49.1877362485658
 10
16.5694356633507
 20
49.1877315467955
 10
16.5694006494532
 20
49.1877313150081
 10
16.5693664098464
 20
49.187735570633
 10
16.5693339437134
 20
49.1877441134541
 10
16.5693046742311
 20
49.1877566829925
 10
16.5692796598549
 20
49.187772721435
 10
16.5692599590446
 20
49.1877916709691
 10
16.5692462655396
 20
49.1878126764467
 10
16.5692390922401
 20
49.1878351412071
 10
16.569238738533
 20
49.1878580915652
 10
16.5692452310221
 20
49.1878805344109
 10
16.5692582642586
 20
49.1879018148082
 10
16.5692774408506
 20
49.187920999909
 10
16.5693019097753
 20
49.1879373959281
 10
16.5693308200058
 20
49.1879503090801
 10
16.5693628668838
 20
49.1879592846444
 10
16.5693971401072
 20
49.1879639864362
 10
16.5694321541692
 20
49.1879642182247
 10
16.5694663939283
 20
49.1879599625806
 10
16.5694988601799
 20
49.1879514197224
 10
16.5695281297281
 20
49.1879388501351
 10
16.5695531441078
 20
49.1879228116391
 10
16.5695728448581
 20
49.1879038620554
 10
16.56958653825
 20
49.1878828565392
 10
16.5695937113989
 20
49.1878603917573
 97
0
 75
0
 76
1
 98
0
  0
HATCH
  5
20058
100
AcDbEntity
  8
0
100
AcDbHatch
 10
0
 20
0
 30
0
210
0
220
0
230
1
  2
SOLID
 70
1
 71
0
 91
1
 92
2
 72
0
 73
1
 93
37
 10
16.5902893203311
 20
49.2538618652202
 10
16.590312897151
 20
49.2538621806713
 10
16.5903362350411
 20
49.2538597656347
 10
16.5903586215101
 20
49.2538547504788
 10
16.5903793292693
 20
49.2538473549748
 10
16.590397797206
 20
49.2538376297776
 10
16.5904132684368
 20
49.2538259734621
 10
16.5904255471901
 20
49.2538127339492
 10
16.5904341497414
 20
49.2537983291874
 10
16.5904387289454
 20
49.253783186812
 10
16.5904392256119
 20
49.2537676644301
 10
16.5904355361555
 20
49.253752387853
 10
16.5904278745415
 20
49.2537377340606
 10
16.5904165765138
 20
49.2537241791207
 10
16.5904017194583
 20
49.2537120903256
 10
16.5903839122714
 20
49.2537019631165
 10
16.5903636864646
 20
49.2536939256414
 10
16.5903416657297
 20
49.25368838394
 10
16.5903185329516
 20
49.2536853864464
 10
16.5902948196383
 20
49.2536850613094
 10
16.5902714966273
 20
49.2536873869362
 10
16.5902491102252
 20
49.2536924020752
 10
16.5902284025114
 20
49.2536997975561
 10
16.5902100711703
 20
49.2537095324136
 10
16.5901944633505
 20
49.2537211790149
 10
16.5901821845581
 20
49.2537344185035
 10
16.5901737185223
 20
49.2537488329338
 10
16.5901691244414
 20
49.2537640647003
 10
16.5901686424892
 20
49.2537794976795
 10
16.5901721952875
 20
49.2537947645779
 10
16.5901798568346
 20
49.2538094183871
 10
16.5901912913947
 20
49.2538229830372
 10
16.5902060118543
 20
49.253835062172
 10
16.5902238190526
 20
49.2538451894083
 10
16.5902440448985
 20
49.2538532269077
 10
16.5902660508971
 20
49.2538588580291
 10
16.5902893203311
 20
49.2538618652202
 97
0
 75
0
 76
1
 98
0
  0
HATCH
  5
20059
100
AcDbEntity
  8
0
100
AcDbHatch
 10
0
 20
0
 30
0
210
0
220
0
230
1
  2
SOLID
 70
1
 71
0
 91
1
 92
2
 72
0
 73
1
 93
37
 10
16.6537450266014
 20
49.129423972967
 10
16.653771435207
 20
49.1294242984894
 10
16.6537976459274
 20
49.1294216253673
 10
16.6538226757283
 20
49.12941606514
 10
16.6538458287191
 20
49.1294076591599
 10
16.6538665013175
 20
49.129396726626
 10
16.653883939048
 20
49.1293836665377
 10
16.6538975383321
 20
49.1293687980946
 10
16.6539070896896
 20
49.1293525587436
 10
16.6539122181003
 20
49.1293355551422
 10
16.6539127140864
 20
49.1293182247364
 10
16.6539086406662
 20
49.1293010241958
 10
16.6539001678115
 20
49.1292845986239
 10
16.6538873585392
 20
49.1292694046889
 10
16.6538706992549
 20
49.1292558384832
 10
16.6538507979624
 20
49.1292443951222
 10
16.6538281410634
 20
49.129235470698
 10
16.653803395146
 20
49.1292292026807
 10
16.6537774846444
 20
49.129225837176
 10
16.6537510761444
 20
49.1292255116551
 10
16.653724865525
 20
49.1292281847667
 10
16.653699835808
 20
49.1292337449729
 10
16.6536766828736
 20
49.129242150924
 10
16.6536560102979
 20
49.129253083424
 10
16.6536385725534
 20
49.129266143478
 10
16.6536249732199
 20
49.1292810118908
 10
16.6536154217838
 20
49.1292972512186
 10
16.6536102932755
 20
49.1293142548068
 10
16.6536097971838
 20
49.1293315852112
 10
16.6536138705029
 20
49.1293487857623
 10
16.6536223432739
 20
49.1293652113551
 10
16.6536351524897
 20
49.1293804053193
 10
16.6536518117514
 20
49.1293939715588
 10
16.6536717130579
 20
49.1294054149539
 10
16.6536943700062
 20
49.1294143394086
 10
16.6537191160022
 20
49.1294206074493
 10
16.6537450266014
 20
49.129423972967
 97
0
 75
0
 76
1
 98
0
  0
HATCH
  5
2005A
100
AcDbEntity
  8
0
100
AcDbHatch
 10
0
 20
0
 30
0
210
0
220
0
230
1
  2
SOLID
 70
1
 71
0
 91
1
 92
2
 72
0
 73
1
 93
37
 10
16.6432678241017
 20
49.1470486741202
 10
16.6433020347881
 20
49.1470491222358
 10
16.6433358443523
 20
49.1470456664481
 10
16.6433682255004
 20
49.1470384117602
 10
16.6433981943412
 20
49.1470275786036
 10
16.6434248402823
 20
49.1470134961408
 10
16.6434473536986
 20
49.1469965922625
 10
16.6434650505325
 20
49.1469773805872
 10
16.6434773930783
 20
49.1469564448543
 10
16.6434840063198
 20
49.1469344211871
 10
16.6434846893245
 20
49.1469119787646
 10
16.6434794213476
 20
49.1468897994886
 10
16.6434683624615
 20
49.1468685572644
 10
16.6434518486912
 20
49.1468488975245
 10
16.6434303818035
 20
49.1468314176181
 10
16.6434046140606
 20
49.1468166486608
 10
16.6433753284013
 20
49.1468050393972
 10
16.6433434146519
 20
49.1467969425665
 10
16.6433098424895
 20
49.1467926041854
 10
16.6432756319799
 20
49.1467921560721
 10
16.6432418225842
 20
49.1467956118424
 10
16.6432094415762
 20
49.1468028664952
 10
16.64317947283
 20
49.1468136996029
 10
16.6431528269266
 20
49.1468277820096
 10
16.6431303134867
 20
49.1468446858308
 10
16.6431126165706
 20
49.146863897455
 10
16.643100273894
 20
49.146884833149
 10
16.6430936604888
 20
49.1469068567943
 10
16.6430929773073
 20
49.1469292992144
 10
16.6430982451157
 20
49.1469514785079
 10
16.6431093038617
 20
49.1469727207674
 10
16.6431258175374
 20
49.1469923805559
 10
16.6431472843874
 20
49.1470098605185
 10
16.6431730521539
 20
49.147024629533
 10
16.6432023378953
 20
49.1470362388477
 10
16.6432342517756
 20
49.1470443357171
 10
16.6432678241017
 20
49.1470486741202
 97
0
 75
0
 76
1
 98
0
  0
HATCH
  5
2005B
100
AcDbEntity
  8
0
100
AcDbHatch
 10
0
 20
0
 30
0
210
0
220
0
230
1
  2
SOLID
 70
1
 71
0
 91
1
 92
2
 72
0
 73
1
 93
37
 10
16.53156868049
 20
49.1749536355915
 10
16.5315834037665
 20
49.1749538749803
 10
16.5315980007341
 20
49.1749523865901
 10
16.5316120474634
 20
49.1749492305469
 10
16.5316249687952
 20
49.1749445466153
 10
16.5316364622687
 20
49.1749384940731
 10
16.5316462254238
 20
49.1749312321983
 10
16.531653955801
 20
49.1749229202687
 10
16.5316593211794
 20
49.1749138963526
 10
16.5316621405689
 20
49.1749044188793
 10
16.5316625056771
 20
49.1748947657909
 10
16.5316602355141
 20
49.1748851955164
 10
16.5316554217879
 20
49.1748759859975
 10
16.531648277674
 20
49.1748675143273
 10
16.5316390461092
 20
49.1748599788086
 10
16.5316279700296
 20
49.1748535777439
 10
16.531615292371
 20
49.174848509436
 10
16.531601528766
 20
49.1748449917004
 10
16.5315870733789
 20
49.1748431432014
 10
16.5315723501353
 20
49.1748429038131
 10
16.5315577531991
 20
49.1748443922
 10
16.5315437064961
 20
49.1748475482366
 10
16.531530785182
 20
49.1748522321592
 10
16.5315192917156
 20
49.1748582846909
 10
16.5315095285562
 20
49.1748655465551
 10
16.5315017981639
 20
49.1748738584751
 10
16.5314964327611
 20
49.1748828823839
 10
16.5314936133412
 20
49.1748923598532
 10
16.5314932482001
 20
49.1749020129411
 10
16.5314955183316
 20
49.1749115832188
 10
16.5315003320315
 20
49.1749207927443
 10
16.5315074761278
 20
49.1749292644236
 10
16.5315167076855
 20
49.1749367999528
 10
16.5315277837693
 20
49.174943201028
 10
16.5315404614431
 20
49.1749482693455
 10
16.5315542250724
 20
49.1749517870883
 10
16.53156868049
 20
49.1749536355915
 97
0
 75
0
 76
1
 98
0
  0
HATCH
  5
2005C
100
AcDbEntity
  8
0
100
AcDbHatch
 10
0
 20
0
 30
0
210
0
220
0
230
1
  2
SOLID
 70
1
 71
0
 91
1
 92
2
 72
0
 73
1
 93
33
 10
16.5691488886458
 20
49.1884126949861
 10
16.5691492511401
 20
49.1883880266095
 10
16.5691422366137
 20
49.1883637374913
 10
16.5691282276602
 20
49.1883408498766
 10
16.5691076365049
 20
49.1883202072095
 10
16.5690812993664
 20
49.1883025926702
 10
16.5690502036692
 20
49.1882887097509
 10
16.569015517678
 20
49.188279003457
 10
16.5689786824397
 20
49.1882739382193
 10
16.5689410470578
 20
49.1882737005587
 10
16.5689039902694
 20
49.1882782981983
 10
16.568869071659
 20
49.1882874803759
 10
16.5688375780274
 20
49.188300976906
 10
16.5688107042394
 20
49.1883182396929
 10
16.5687895235895
 20
49.1883386215289
 10
16.5687747150154
 20
49.1883613566693
 10
16.5687669870946
 20
49.1883855005691
 10
16.5687666244101
 20
49.1884101689444
 10
16.5687736387589
 20
49.1884344580852
 10
16.5687876475751
 20
49.1884573457426
 10
16.568808238654
 20
49.1884779884663
 10
16.5688345757885
 20
49.1884956030675
 10
16.5688656715551
 20
49.1885094860445
 10
16.5689003576782
 20
49.1885191923833
 10
16.5689371930907
 20
49.1885242576459
 10
16.5689748286629
 20
49.1885244953077
 10
16.5690118856288
 20
49.1885198976456
 10
16.5690468043766
 20
49.1885107154252
 10
16.5690782980846
 20
49.1884972188383
 10
16.5691051718765
 20
49.1884799559896
 10
16.5691263524571
 20
49.188459574096
 10
16.5691411608993
 20
49.1884368389108
 10
16.5691488886458
 20
49.1884126949861
 97
0
 75
0
 76
1
 98
0
  0
HATCH
  5
2005D
100
AcDbEntity
  8
0
100
AcDbHatch
 10
0
 20
0
 30
0
210
0
220
0
230
1
  2
SOLID
 70
1
 71
0
 91
1
 92
2
 72
0
 73
1
 93
37
 10
16.6642484254425
 20
49.197433890657
 10
16.6642496211706
 20
49.1974339060866
 10
16.6642508028215
 20
49.1974337852105
 10
16.6642519344911
 20
49.1974335317017
 10
16.6642529817942
 20
49.1974331532628
 10
16.6642539129092
 20
49.1974326613924
 10
16.6642546995445
 20
49.197432071036
 10
16.6642553177986
 20
49.1974314001311
 10
16.6642557488862
 20
49.1974306690627
 10
16.6642559797089
 20
49.1974299000442
 10
16.6642560032533
 20
49.1974291164417
 10
16.664255818804
 20
49.1974283420646
 10
16.6642554319654
 20
49.1974276004419
 10
16.6642548544914
 20
49.1974269141075
 10
16.6642541039284
 20
49.1974263039152
 10
16.6642532030817
 20
49.1974257884056
 10
16.6642521793231
 20
49.197425383242
 10
16.664251063759
 20
49.1974251007352
 10
16.6642498902853
 20
49.1974249494689
 10
16.6642486945574
 20
49.1974249340394
 10
16.6642475129068
 20
49.1974250549154
 10
16.6642463812373
 20
49.1974253084242
 10
16.6642453339343
 20
49.1974256868631
 10
16.6642444028194
 20
49.1974261787333
 10
16.664243616184
 20
49.1974267690897
 10
16.6642429979298
 20
49.1974274399945
 10
16.6642425668421
 20
49.1974281710628
 10
16.6642423360192
 20
49.1974289400813
 10
16.6642423124746
 20
49.1974297236838
 10
16.6642424969237
 20
49.197430498061
 10
16.6642428837621
 20
49.1974312396837
 10
16.6642434612359
 20
49.1974319260182
 10
16.6642442117989
 20
49.1974325362105
 10
16.6642451126457
 20
49.1974330517202
 10
16.6642461364044
 20
49.1974334568839
 10
16.6642472519686
 20
49.1974337393908
 10
16.6642484254425
 20
49.197433890657
 97
0
 75
0
 76
1
 98
0
  0
HATCH
  5
2005E
100
AcDbEntity
  8
0
100
AcDbHatch
 10
0
 20
0
 30
0
210
0
220
0
230
1
  2
SOLID
 70
1
 71
0
 91
1
 92
2
 72
0
 73
1
 93
37
 10
16.6641970938326
 20
49.1973326462534
 10
16.6641982895583
 20
49.1973326616834
 10
16.6641994712069
 20
49.1973325408079
 10
16.6642006028744
 20
49.1973322872995
 10
16.6642016501759
 20
49.1973319088611
 10
16.6642025812894
 20
49.1973314169912
 10
16.6642033679237
 20
49.197330826635
 10
16.6642039861773
 20
49.1973301557304
 10
16.6642044172647
 20
49.1973294246622
 10
16.6642046480877
 20
49.1973286556438
 10
16.6642046716329
 20
49.1973278720413
 10
16.6642044871848
 20
49.1973270976641
 10
16.6642041003478
 20
49.1973263560412
 10
16.6642035228757
 20
49.1973256697065
 10
16.6642027723148
 20
49.1973250595139
 10
16.6642018714705
 20
49.1973245440039
 10
16.6642008477144
 20
49.1973241388398
 10
16.6641997321529
 20
49.1973238563325
 10
16.6641985586818
 20
49.1973237050657
 10
16.6641973629563
 20
49.1973236896356
 10
16.6641961813079
 20
49.1973238105111
 10
16.6641950496406
 20
49.1973240640194
 10
16.6641940023392
 20
49.1973244424579
 10
16.6641930712257
 20
49.1973249343277
 10
16.6641922845914
 20
49.1973255246837
 10
16.6641916663377
 20
49.1973261955883
 10
16.6641912352501
 20
49.1973269266564
 10
16.6641910044269
 20
49.1973276956749
 10
16.6641909808815
 20
49.1973284792774
 10
16.6641911653295
 20
49.1973292536546
 10
16.6641915521663
 20
49.1973299952775
 10
16.6641921296383
 20
49.1973306816123
 10
16.6641928801991
 20
49.1973312918049
 10
16.6641937810435
 20
49.197331807315
 10
16.6641948047996
 20
49.1973322124792
 10
16.6641959203613
 20
49.1973324949866
 10
16.6641970938326
 20
49.1973326462534
 97
0
 75
0
 76
1
 98
0
  0
HATCH
  5
2005F
100
AcDbEntity
  8
0
100
AcDbHatch
 10
0
 20
0
 30
0
210
0
220
0
230
1
  2
SOLID
 70
1
 71
0
 91
1
 92
2
 72
0
 73
1
 93
33
 10
16.5694593454354
 20
49.1879225551123
 10
16.569459643216
 20
49.187904937616
 10
16.5694546543806
 20
49.1878875768742
 10
16.5694445331861
 20
49.1878712075083
 10
16.5694298578805
 20
49.1878565038748
 10
16.5694110999514
 20
49.1878439518184
 10
16.5693888820922
 20
49.1878339574953
 10
16.5693640849614
 20
49.1878270358856
 10
16.5693377700572
 20
49.187823443482
 10
16.5693108921179
 20
49.1878232482666
 10
16.5692844058813
 20
49.1878265182225
 10
16.569259432111
 20
49.1878331522456
 10
16.5692369996308
 20
49.1878427713215
 10
16.569217849666
 20
49.1878550664123
 10
16.5692026018691
 20
49.1878696293683
 10
16.5691920419209
 20
49.1878858829524
 10
16.5691865611457
 20
49.1879031313912
 10
16.569186263268
 20
49.1879207488867
 10
16.5691912520127
 20
49.1879381096401
 10
16.5692013731373
 20
49.1879544790281
 10
16.569216048404
 20
49.1879691826903
 10
16.5692348063311
 20
49.1879817347782
 10
16.5692570242254
 20
49.1879917291308
 10
16.5692818214236
 20
49.1879986507634
 10
16.5693081364168
 20
49.1880022431797
 10
16.5693350144531
 20
49.1880024383957
 10
16.5693615007804
 20
49.1879991684283
 10
16.5693864746208
 20
49.1879925343833
 10
16.5694089071398
 20
49.1879829152786
 10
16.5694280571066
 20
49.1879706201564
 10
16.5694433048684
 20
49.1879560571708
 10
16.5694538647492
 20
49.1879398035638
 10
16.5694593454354
 20
49.1879225551123
 97
0
 75
0
 76
1
 98
0
  0
HATCH
  5
20060
100
AcDbEntity
  8
0
100
AcDbHatch
 10
0
 20
0
 30
0
210
0
220
0
230
1
  2
SOLID
 70
1
 71
0
 91
1
 92
2
 72
0
 73
1
 93
25
 10
16.6423172852232
 20
49.224593109612
 10
16.6421071330566
 20
49.2245333398353
 10
16.6418931093998
 20
49.2244870442767
 10
16.6418435972333
 20
49.2245815952299
 10
16.6417674930025
 20
49.2247203074877
 10
16.6421680286369
 20
49.2248080643269
 10
16.6425484575057
 20
49.2249038986582
 10
16.6426467743102
 20
49.2249341657552
 10
16.6427345630774
 20
49.2249604344264
 10
16.6427947137987
 20
49.2249784231797
 10
16.643224798361
 20
49.2251317517756
 10
16.6434042093942
 20
49.2252038230865
 10
16.6434509503882
 20
49.2251538464428
 10
16.6435448330936
 20
49.2251884127712
 10
16.6434959354914
 20
49.2252405889686
 10
16.6446285011493
 20
49.2256964093405
 10
16.6450067422574
 20
49.2258467995039
 10
16.6449302797805
 20
49.2256683893065
 10
16.6448638590062
 20
49.2255339193727
 10
16.6448275215881
 20
49.2254457973621
 10
16.643380583748
 20
49.2249308229829
 10
16.643141012576
 20
49.2248416668028
 10
16.6428846981817
 20
49.2247544046659
 10
16.6426947249595
 20
49.2247004001818
 10
16.6423172852232
 20
49.224593109612
 97
0
 75
0
 76
1
 98
0
  0
HATCH
  5
20061
100
AcDbEntity
  8
0
100
AcDbHatch
 10
0
 20
0
 30
0
210
0
220
0
230
1
  2
SOLID
 70
1
 71
0
 91
1
 92
2
 72
0
 73
1
 93
33
 10
16.6169763039204
 20
49.2109574721958
 10
16.6169765849462
 20
49.2109398546388
 10
16.6169715771437
 20
49.2109224960121
 10
16.616961435546
 20
49.2109061308713
 10
16.6169467393169
 20
49.2108914333324
 10
16.6169279606288
 20
49.210878889044
 10
16.6169057228542
 20
49.2108689039048
 10
16.6168809075551
 20
49.2108619925302
 10
16.616854576969
 20
49.2108584109752
 10
16.6168276863436
 20
49.2108582268282
 10
16.6168011909257
 20
49.210861507679
 10
16.6167762119032
 20
49.2108681519625
 10
16.616753778215
 20
49.2108777802418
 10
16.6167346311346
 20
49.210890083175
 10
16.6167193902113
 20
49.2109046523586
 10
16.6167088409379
 20
49.2109209102341
 10
16.6167033741534
 20
49.2109381608693
 10
16.6167030930305
 20
49.2109557784256
 10
16.6167081007422
 20
49.2109731370639
 10
16.6167182422699
 20
49.2109895022267
 10
16.6167329384603
 20
49.2110041997945
 10
16.6167517171466
 20
49.2110167441143
 10
16.6167739549564
 20
49.211026729283
 10
16.6167987703232
 20
49.2110336406804
 10
16.6168251009983
 20
49.2110372222481
 10
16.6168519917208
 20
49.2110374063957
 10
16.6168784872295
 20
49.2110341255333
 10
16.6169034663219
 20
49.2110274812279
 10
16.6169259000489
 20
49.2110178529197
 10
16.6169450471312
 20
49.2110055499551
 10
16.6169602880192
 20
49.2109909807419
 10
16.616970837225
 20
49.2109747228436
 10
16.6169763039204
 20
49.2109574721958
 97
0
 75
0
 76
1
 98
0
  0
HATCH
  5
20062
100
AcDbEntity
  8
0
100
AcDbHatch
 10
0
 20
0
 30
0
210
0
220
0
230
1
  2
SOLID
 70
1
 71
0
 91
1
 92
2
 72
0
 73
1
 93
37
 10
16.5285745894208
 20
49.1768307049012
 10
16.5285936167841
 20
49.1768309729185
 10
16.5286124260664
 20
49.1768290706833
 10
16.5286304457549
 20
49.1768250559942
 10
16.5286471283285
 20
49.1768190508359
 10
16.5286619668943
 20
49.176811237673
 10
16.5286745105894
 20
49.1768018539052
 10
16.5286843782804
 20
49.1767911846543
 10
16.5286912701435
 20
49.1767795541008
 10
16.5286949767749
 20
49.1767673156337
 10
16.5286953855527
 20
49.176754841113
 10
16.5286924840588
 20
49.1767425095707
 10
16.5286863604561
 20
49.1767306956943
 10
16.528677200809
 20
49.1767197584419
 10
16.5286652834302
 20
49.1767100301356
 10
16.5286509704237
 20
49.1767018063645
 10
16.5286346966826
 20
49.1766953370028
 10
16.5286169566752
 20
49.1766908186181
 10
16.5285982894208
 20
49.1766883884987
 10
16.5285792621122
 20
49.1766881204821
 10
16.5285604528821
 20
49.1766900227121
 10
16.528542433237
 20
49.1766940373903
 10
16.5285257506929
 20
49.1767000425335
 10
16.5285109121389
 20
49.176707855679
 10
16.5284983684367
 20
49.1767172394292
 10
16.5284885007204
 20
49.1767279086643
 10
16.5284816088169
 20
49.1767395392058
 10
16.5284779021349
 20
49.176751777666
 10
16.5284774933024
 20
49.1767642521859
 10
16.5284803947441
 20
49.1767765837335
 10
16.5284865183033
 20
49.1767883976209
 10
16.528495677921
 20
49.1767993348883
 10
16.528507595288
 20
49.1768090632119
 10
16.5285219083016
 20
49.1768172870007
 10
16.528538182068
 20
49.1768237563782
 10
16.5285559221158
 20
49.176828274775
 10
16.5285745894208
 20
49.1768307049012
 97
0
 75
0
 76
1
 98
0
  0
HATCH
  5
20063
100
AcDbEntity
  8
0
100
AcDbHatch
 10
0
 20
0
 30
0
210
0
220
0
230
1
  2
SOLID
 70
1
 71
0
 91
1
 92
2
 72
0
 73
1
 93
37
 10
16.5317824833877
 20
49.1747475795992
 10
16.5318036373131
 20
49.1747478769944
 10
16.5318245486279
 20
49.1747457614887
 10
16.5318445819494
 20
49.174741297361
 10
16.5318631285729
 20
49.1747346202522
 10
16.5318796249669
 20
49.1747259330437
 10
16.5318935698963
 20
49.1747154996929
 10
16.5319045396518
 20
49.1747036372128
 10
16.5319122009244
 20
49.1746907060399
 10
16.5319163209323
 20
49.1746770990819
 10
16.5319167744941
 20
49.1746632297798
 10
16.5319135478316
 20
49.1746495195453
 10
16.5319067389881
 20
49.1746363849566
 10
16.5318965548495
 20
49.1746242251009
 10
16.5318833048571
 20
49.1746134094486
 10
16.5318673916061
 20
49.1746042666267
 10
16.531849298612
 20
49.1745970744344
 10
16.53182957562
 20
49.1745920514017
 10
16.5318088219008
 20
49.1745893501504
 10
16.5317876680431
 20
49.1745890527562
 10
16.5317667567928
 20
49.1745911682553
 10
16.531746723525
 20
49.1745956323696
 10
16.5317281769379
 20
49.1746023094598
 10
16.5317116805584
 20
49.1746109966468
 10
16.5316977356202
 20
49.1746214299757
 10
16.5316867658335
 20
49.1746332924362
 10
16.531679104511
 20
49.1746462235943
 10
16.5316749844406
 20
49.1746598305438
 10
16.5316745308111
 20
49.174673699845
 10
16.5316777574091
 20
49.1746874100862
 10
16.5316845661989
 20
49.1747005446882
 10
16.5316947503012
 20
49.1747127045624
 10
16.5317080002788
 20
49.1747235202363
 10
16.5317239135387
 20
49.17473266308
 10
16.5317420065641
 20
49.1747398552919
 10
16.531761729606
 20
49.1747448783395
 10
16.5317824833877
 20
49.1747475795992
 97
0
 75
0
 76
1
 98
0
  0
HATCH
  5
20064
100
AcDbEntity
  8
0
100
AcDbHatch
 10
0
 20
0
 30
0
210
0
220
0
230
1
  2
SOLID
 70
1
 71
0
 91
1
 92
2
 72
0
 73
1
 93
25
 10
16.6423172852232
 20
49.224593109612
 10
16.6421071330566
 20
49.2245333398353
 10
16.6418931093998
 20
49.2244870442767
 10
16.6418435972333
 20
49.2245815952299
 10
16.6417674930025
 20
49.2247203074877
 10
16.6421680286369
 20
49.2248080643269
 10
16.6425484575057
 20
49.2249038986582
 10
16.6426467743102
 20
49.2249341657552
 10
16.6427345630774
 20
49.2249604344264
 10
16.6427947137987
 20
49.2249784231797
 10
16.643224798361
 20
49.2251317517756
 10
16.6434042093942
 20
49.2252038230865
 10
16.6434509503882
 20
49.2251538464428
 10
16.6435448330936
 20
49.2251884127712
 10
16.6434959354914
 20
49.2252405889686
 10
16.6446285011493
 20
49.2256964093405
 10
16.6450067422574
 20
49.2258467995039
 10
16.6449302797805
 20
49.2256683893065
 10
16.6448638590062
 20
49.2255339193727
 10
16.6448275215881
 20
49.2254457973621
 10
16.643380583748
 20
49.2249308229829
 10
16.643141012576
 20
49.2248416668028
 10
16.6428846981817
 20
49.2247544046659
 10
16.6426947249595
 20
49.2247004001818
 10
16.6423172852232
 20
49.224593109612
 97
0
 75
0
 76
1
 98
0
  0
HATCH
  5
20065
100
AcDbEntity
  8
0
100
AcDbHatch
 10
0
 20
0
 30
0
210
0
220
0
230
1
  2
SOLID
 70
1
 71
0
 91
1
 92
2
 72
0
 73
1
 93
25
 10
16.6423172852232
 20
49.224593109612
 10
16.6421071330566
 20
49.2245333398353
 10
16.6418931093998
 20
49.2244870442767
 10
16.6418435972333
 20
49.2245815952299
 10
16.6417674930025
 20
49.2247203074877
 10
16.6421680286369
 20
49.2248080643269
 10
16.6425484575057
 20
49.2249038986582
 10
16.6426467743102
 20
49.2249341657552
 10
16.6427345630774
 20
49.2249604344264
 10
16.6427947137987
 20
49.2249784231797
 10
16.643224798361
 20
49.2251317517756
 10
16.6434042093942
 20
49.2252038230865
 10
16.6434509503882
 20
49.2251538464428
 10
16.6435448330936
 20
49.2251884127712
 10
16.6434959354914
 20
49.2252405889686
 10
16.6446285011493
 20
49.2256964093405
 10
16.6450067422574
 20
49.2258467995039
 10
16.6449302797805
 20
49.2256683893065
 10
16.6448638590062
 20
49.2255339193727
 10
16.6448275215881
 20
49.2254457973621
 10
16.643380583748
 20
49.2249308229829
 10
16.643141012576
 20
49.2248416668028
 10
16.6428846981817
 20
49.2247544046659
 10
16.6426947249595
 20
49.2247004001818
 10
16.6423172852232
 20
49.224593109612
 97
0
 75
0
 76
1
 98
0
  0
HATCH
  5
20066
100
AcDbEntity
  8
0
100
AcDbHatch
 10
0
 20
0
 30
0
210
0
220
0
230
1
  2
SOLID
 70
1
 71
0
 91
1
 92
2
 72
0
 73
1
 93
33
 10
16.5708212472514
 20
49.1941755016891
 10
16.5708216002728
 20
49.1941525513478
 10
16.5708151062499
 20
49.1941301086116
 10
16.5708020707084
 20
49.1941088284094
 10
16.5707828911331
 20
49.1940896435791
 10
16.5707584186817
 20
49.1940732478883
 10
16.5707295045078
 20
49.1940603351047
 10
16.5706974534372
 20
49.1940513599272
 10
16.5706631758803
 20
49.1940466585247
 10
16.5706281575145
 20
49.1940464271087
 10
16.5705939136491
 20
49.1940506830926
 10
16.5705614435892
 20
49.1940592262499
 10
16.5705321706868
 20
49.1940717960868
 10
16.5705071535184
 20
49.1940878347794
 10
16.570487450665
 20
49.1941067845044
 10
16.5704737559333
 20
49.1941277901075
 10
16.5704665822741
 20
49.1941502549228
 10
16.5704662290883
 20
49.1941732052629
 10
16.5704727229587
 20
49.1941956480186
 10
16.5704857583816
 20
49.1942169282577
 10
16.5705049378911
 20
49.194236113137
 10
16.570529410339
 20
49.1942525088812
 10
16.5705583245728
 20
49.1942654217146
 10
16.5705903757566
 20
49.1942743969305
 10
16.5706246534642
 20
49.1942790983545
 10
16.5706596719943
 20
49.1942793297716
 10
16.5706939160122
 20
49.1942750737684
 10
16.5707263861906
 20
49.1942665305741
 10
16.5707556591589
 20
49.1942539606883
 10
16.5707806763308
 20
49.1942379219422
 10
16.5708003791242
 20
49.1942189721675
 10
16.5708140737428
 20
49.1941979665259
 10
16.5708212472514
 20
49.1941755016891
 97
0
 75
0
 76
1
 98
0
  0
HATCH
  5
20067
100
AcDbEntity
  8
0
100
AcDbHatch
 10
0
 20
0
 30
0
210
0
220
0
230
1
  2
SOLID
 70
1
 71
0
 91
1
 92
2
 72
0
 73
1
 93
37
 10
16.5291107288844
 20
49.1765517453566
 10
16.5291325767674
 20
49.1765520530033
 10
16.5291541742151
 20
49.176549868677
 10
16.5291748649969
 20
49.1765452587478
 10
16.5291940204311
 20
49.1765383632867
 10
16.5292110584879
 20
49.1765293918097
 10
16.5292254614738
 20
49.1765186169116
 10
16.5292367917619
 20
49.1765063659833
 10
16.5292447050886
 20
49.1764930112639
 10
16.5292489610137
 20
49.1764789585306
 10
16.5292494302263
 20
49.176464634769
 10
16.5292460984728
 20
49.1764504751994
 10
16.5292390669898
 20
49.1764369100528
 10
16.5292285494282
 20
49.1764243514987
 10
16.5292148653603
 20
49.1764131811214
 10
16.5291984305705
 20
49.1764037383263
 10
16.529179744421
 20
49.1763963100269
 10
16.5291593746795
 20
49.1763911219272
 10
16.5291379402679
 20
49.1763883316644
 10
16.5291160924569
 20
49.1763880240188
 10
16.5290944950781
 20
49.176390208338
 10
16.5290738043536
 20
49.1763948182529
 10
16.5290546489582
 20
49.1764017136941
 10
16.529037610917
 20
49.1764106851482
 10
16.5290232079216
 20
49.1764214600231
 10
16.5290118776002
 20
49.1764337109305
 10
16.5290039642203
 20
49.176447065634
 10
16.5289997082285
 20
49.1764611183583
 10
16.5289992389438
 20
49.1764754421188
 10
16.5290025706284
 20
49.1764896016955
 10
16.5290096020541
 20
49.1765031668564
 10
16.5290201195769
 20
49.1765157254304
 10
16.5290338036292
 20
49.1765268958305
 10
16.5290502384285
 20
49.176536338649
 10
16.5290689246113
 20
49.1765437669693
 10
16.5290892944061
 20
49.1765489550848
 10
16.5291107288844
 20
49.1765517453566
 97
0
 75
0
 76
1
 98
0
  0
HATCH
  5
20068
100
AcDbEntity
  8
0
100
AcDbHatch
 10
0
 20
0
 30
0
210
0
220
0
230
1
  2
SOLID
 70
1
 71
0
 91
1
 92
2
 72
0
 73
1
 93
37
 10
16.5995358890978
 20
49.2015752621487
 10
16.5995650428766
 20
49.2015756546649
 10
16.5995938577577
 20
49.2015727238563
 10
16.5996214582101
 20
49.2015665587745
 10
16.5996470056034
 20
49.2015573467437
 10
16.5996697236898
 20
49.2015453676683
 10
16.5996889221906
 20
49.2015309855283
 10
16.5997040177697
 20
49.2015146373197
 10
16.5997145517584
 20
49.201496819776
 10
16.599720204091
 20
49.2014780742758
 10
16.5997208030296
 20
49.2014589703921
 10
16.5997163303815
 20
49.2014400885869
 10
16.5997069220515
 20
49.2014220025739
 10
16.5996928639115
 20
49.201405261886
 10
16.5996745831139
 20
49.2013903751792
 10
16.599652635113
 20
49.2013777947766
 10
16.5996276867868
 20
49.2013679029254
 10
16.5996004961748
 20
49.2013610001831
 10
16.5995718894458
 20
49.2013572962845
 10
16.5995427357954
 20
49.20135690377
 10
16.5995139210368
 20
49.201359834566
 10
16.5994863206862
 20
49.2013659996223
 10
16.5994607733617
 20
49.2013752116178
 10
16.5994380553029
 20
49.2013871906524
 10
16.5994188567851
 20
49.2014015727509
 10
16.5994037611463
 20
49.2014179209225
 10
16.5993932270627
 20
49.201435738438
 10
16.5993875746112
 20
49.2014544839224
 10
16.5993869755442
 20
49.2014735878043
 10
16.5993914480698
 20
49.2014924696222
 10
16.599400856298
 20
49.2015105556607
 10
16.5994149143692
 20
49.2015272963838
 10
16.5994331951392
 20
49.2015421831314
 10
16.5994551431572
 20
49.2015547635755
 10
16.599480091543
 20
49.2015646554637
 10
16.59950728225
 20
49.2015715582342
 10
16.5995358890978
 20
49.2015752621487
 97
0
 75
0
 76
1
 98
0
  0
HATCH
  5
20069
100
AcDbEntity
  8
0
100
AcDbHatch
 10
0
 20
0
 30
0
210
0
220
0
230
1
  2
SOLID
 70
1
 71
0
 91
1
 92
2
 72
0
 73
1
 93
19
 10
16.5310549240701
 20
49.2320073971588
 10
16.5310679284363
 20
49.2319898729887
 10
16.5310785034849
 20
49.2319662048674
 10
16.5310776196861
 20
49.2319391848422
 10
16.5310695381205
 20
49.2319139118217
 10
16.5310491460761
 20
49.2318895680639
 10
16.5310172601908
 20
49.2318653977994
 10
16.5309785631064
 20
49.231850600731
 10
16.5309316676171
 20
49.2318427257568
 10
16.5307903044132
 20
49.2320054889149
 10
16.5307800430012
 20
49.2320173292731
 10
16.5308069804726
 20
49.2320347232861
 10
16.530839760777
 20
49.2320485547237
 10
16.5308801262826
 20
49.2320583149086
 10
16.530925367013
 20
49.2320603726768
 10
16.5309684740225
 20
49.232053684284
 10
16.5310074367342
 20
49.2320403675042
 10
16.5310365762307
 20
49.2320230015837
 10
16.5310549240701
 20
49.2320073971588
 97
0
 75
0
 76
1
 98
0
  0
HATCH
  5
2006A
100
AcDbEntity
  8
0
100
AcDbHatch
 10
0
 20
0
 30
0
210
0
220
0
230
1
  2
SOLID
 70
1
 71
0
 91
1
 92
2
 72
0
 73
1
 93
37
 10
16.6639763217276
 20
49.1974504836362
 10
16.6639920220237
 20
49.197450683911
 10
16.6640074695498
 20
49.1974490575472
 10
16.6640223621326
 20
49.1974457641685
 10
16.6640360175864
 20
49.1974407557758
 10
16.6640482555268
 20
49.1974342910053
 10
16.6640586226964
 20
49.1974266092934
 10
16.6640666951361
 20
49.197417771253
 10
16.6640723996028
 20
49.1974082239437
 10
16.6640754339268
 20
49.1973981269902
 10
16.6640757395145
 20
49.1973878380398
 10
16.6640732724214
 20
49.1973776253283
 10
16.6640682322791
 20
49.1973679551144
 10
16.66406060444
 20
49.1973589168098
 10
16.6640507396202
 20
49.1973508968609
 10
16.6640390031836
 20
49.1973441923022
 10
16.6640255315668
 20
49.1973388127333
 10
16.6640109483567
 20
49.1973351638003
 10
16.6639955410742
 20
49.197333175291
 10
16.6639798408152
 20
49.1973329750166
 10
16.6639642715368
 20
49.197334502365
 10
16.6639495007711
 20
49.1973378947481
 10
16.6639357235494
 20
49.1973428041187
 10
16.6639234856169
 20
49.1973492688774
 10
16.6639132402302
 20
49.1973570495891
 10
16.6639050459854
 20
49.197365788607
 10
16.6638994632789
 20
49.1973754349199
 10
16.6638964289206
 20
49.197385531869
 10
16.6638961232957
 20
49.1973958208188
 10
16.6638984685654
 20
49.1974059345222
 10
16.6639036304662
 20
49.1974157037552
 10
16.6639111364976
 20
49.1974246430583
 10
16.6639210013095
 20
49.1974326630191
 10
16.6639328595389
 20
49.1974394666015
 10
16.6639462093851
 20
49.1974447471693
 10
16.6639609144106
 20
49.1974484951222
 10
16.6639763217276
 20
49.1974504836362
 97
0
 75
0
 76
1
 98
0
  0
HATCH
  5
2006B
100
AcDbEntity
  8
0
100
AcDbHatch
 10
0
 20
0
 30
0
210
0
220
0
230
1
  2
SOLID
 70
1
 71
0
 91
1
 92
2
 72
0
 73
1
 93
33
 10
16.5880317978616
 20
49.1902325591087
 10
16.5880321428835
 20
49.1902096086993
 10
16.5880256415819
 20
49.1901871669169
 10
16.5880125996854
 20
49.1901658886453
 10
16.5879934149711
 20
49.1901467066636
 10
16.5879689387702
 20
49.190130314613
 10
16.5879400224096
 20
49.1901174061347
 10
16.5879079707693
 20
49.190108435733
 10
16.587873694304
 20
49.1901037394415
 10
16.5878386786414
 20
49.19010351325
 10
16.587804438976
 20
49.1901077743458
 10
16.5877719744644
 20
49.1901163223533
 10
16.5877427082545
 20
49.1901288965661
 10
16.5877176986454
 20
49.190144939002
 10
16.5876980039398
 20
49.1901638916794
 10
16.5876843175925
 20
49.1901848993397
 10
16.5876771523062
 20
49.1902073652404
 10
16.5876768071198
 20
49.1902303156486
 10
16.5876833082691
 20
49.1902527574505
 10
16.5876963500471
 20
49.190274035759
 10
16.5877155346956
 20
49.1902932177897
 10
16.5877400108931
 20
49.1903096098937
 10
16.5877689273136
 20
49.1903225184218
 10
16.5878009790672
 20
49.1903314888619
 10
16.5878352556831
 20
49.1903361851748
 10
16.5878702715101
 20
49.1903364113674
 10
16.5879045113278
 20
49.1903321502522
 10
16.587936975958
 20
49.1903236022077
 10
16.5879662422336
 20
49.1903110279461
 10
16.5879912518462
 20
49.1902949854567
 10
16.5880109464917
 20
49.1902760327297
 10
16.5880246327259
 20
49.1902550250308
 10
16.5880317978616
 20
49.1902325591087
 97
0
 75
0
 76
1
 98
0
  0
HATCH
  5
2006C
100
AcDbEntity
  8
0
100
AcDbHatch
 10
0
 20
0
 30
0
210
0
220
0
230
1
  2
SOLID
 70
1
 71
0
 91
1
 92
2
 72
0
 73
1
 93
37
 10
16.5319169990916
 20
49.1746962337425
 10
16.5319340417286
 20
49.1746964733192
 10
16.5319508889016
 20
49.1746947689439
 10
16.531967028716
 20
49.1746911724032
 10
16.5319819707699
 20
49.1746857929767
 10
16.5319952610557
 20
49.1746787941161
 10
16.5320064957543
 20
49.1746703884788
 10
16.5320153335053
 20
49.1746608314664
 10
16.5320215057791
 20
49.1746504134647
 10
16.5320248250356
 20
49.1746394510196
 10
16.5320251904228
 20
49.1746282772198
 10
16.5320225908406
 20
49.1746172315757
 10
16.5320171052778
 20
49.1746066497032
 10
16.5320089004121
 20
49.1745968531268
 10
16.5319982255452
 20
49.17458813951
 10
16.5319854050279
 20
49.1745807736111
 10
16.5319708284051
 20
49.1745749792385
 10
16.5319549385789
 20
49.1745709324506
 10
16.5319382183524
 20
49.1745687562067
 10
16.5319211757593
 20
49.1745685166306
 10
16.5319043286282
 20
49.1745702210017
 10
16.5318881888487
 20
49.1745738175336
 10
16.5318732468183
 20
49.1745791969481
 10
16.531859956542
 20
49.1745861957947
 10
16.5318487218377
 20
49.1745946014179
 10
16.5318398840664
 20
49.1746041584175
 10
16.5318337117602
 20
49.1746145764096
 10
16.5318303924631
 20
49.1746255388492
 10
16.531830027032
 20
49.1746367126483
 10
16.5318326265723
 20
49.1746477582968
 10
16.5318381121003
 20
49.174658340178
 10
16.5318463169424
 20
49.1746681367665
 10
16.5318569917998
 20
49.1746768503972
 10
16.5318698123228
 20
49.1746842163103
 10
16.5318843889659
 20
49.1746900106956
 10
16.5319002788245
 20
49.1746940574931
 10
16.5319169990916
 20
49.1746962337425
 97
0
 75
0
 76
1
 98
0
  0
HATCH
  5
2006D
100
AcDbEntity
  8
0
100
AcDbHatch
 10
0
 20
0
 30
0
210
0
220
0
230
1
  2
SOLID
 70
1
 71
0
 91
1
 92
2
 72
0
 73
1
 93
33
 10
16.6147052963223
 20
49.1944369245883
 10
16.6147055754755
 20
49.1944175340677
 10
16.6147000771488
 20
49.1943984804385
 10
16.6146890126461
 20
49.1943804959202
 10
16.6146728071748
 20
49.1943642716464
 10
16.6146520835048
 20
49.1943504311047
 10
16.6146276380353
 20
49.1943395061772
 10
16.6146004101895
 20
49.1943319167008
 10
16.6145714463135
 20
49.1943279543331
 10
16.6145418594668
 20
49.194327771345
 10
16.6145127866487
 20
49.1943313747684
 10
16.6144853451049
 20
49.1943386261267
 10
16.6144605893938
 20
49.1943492467556
 10
16.6144394708608
 20
49.1943628285125
 10
16.6144228010792
 20
49.1943788494601
 10
16.6144112206617
 20
49.1943966939244
 10
16.614405174642
 20
49.1944156761543
 10
16.6144048953713
 20
49.1944350666742
 10
16.6144103935886
 20
49.1944541203173
 10
16.6144214580066
 20
49.1944721048621
 10
16.6144376634308
 20
49.1944883291709
 10
16.6144583870985
 20
49.1945021697508
 10
16.6144828326109
 20
49.1945130947139
 10
16.6145100605382
 20
49.1945206842179
 10
16.6145390245219
 20
49.1945246466009
 10
16.6145686114861
 20
49.1945248295898
 10
16.6145976844137
 20
49.1945212261524
 10
16.6146251260422
 20
49.1945139747677
 10
16.6146498818004
 20
49.1945033541037
 10
16.6146710003356
 20
49.1944897723086
 10
16.6146876700743
 20
49.1944737513255
 10
16.6146992504103
 20
49.1944559068335
 10
16.6147052963223
 20
49.1944369245883
 97
0
 75
0
 76
1
 98
0
  0
HATCH
  5
2006E
100
AcDbEntity
  8
0
100
AcDbHatch
 10
0
 20
0
 30
0
210
0
220
0
230
1
  2
SOLID
 70
1
 71
0
 91
1
 92
2
 72
0
 73
1
 93
33
 10
16.6009025025639
 20
49.2132166250647
 10
16.600902735472
 20
49.2132007601685
 10
16.6008982394821
 20
49.213185170344
 10
16.6008891873767
 20
49.2131704546991
 10
16.6008759270264
 20
49.2131571787465
 10
16.6008589680207
 20
49.2131458526724
 10
16.6008389620849
 20
49.21313691173
 10
16.6008166780343
 20
49.2131306995134
 10
16.6007929722292
 20
49.2131274547536
 10
16.6007687556664
 20
49.2131273021442
 10
16.6007449589703
 20
49.2131302475499
 10
16.6007224966304
 20
49.2131361777809
 10
16.6007022318586
 20
49.2131448649428
 10
16.600684943417
 20
49.2131559751942
 10
16.6006712956906
 20
49.2131690815758
 10
16.6006618131554
 20
49.2131836804181
 10
16.6006568602231
 20
49.2131992106967
 10
16.6006566272362
 20
49.2132150755925
 10
16.6006611231528
 20
49.2132306654262
 10
16.6006701752014
 20
49.213245381089
 10
16.6006834355202
 20
49.213258657065
 10
16.6007003945243
 20
49.2132699831647
 10
16.6007204004888
 20
49.2132789241309
 10
16.6007426845941
 20
49.2132851363659
 10
16.6007663904713
 20
49.213288381136
 10
16.6007906071129
 20
49.213288533746
 10
16.6008144038823
 20
49.213285588331
 10
16.6008368662789
 20
49.2132796580822
 10
16.6008571310823
 20
49.2132709708968
 10
16.6008744195254
 20
49.2132598606198
 10
16.6008880672232
 20
49.2132467542144
 10
16.6008975497037
 20
49.2132321553537
 10
16.6009025025639
 20
49.2132166250647
 97
0
 75
0
 76
1
 98
0
  0
HATCH
  5
2006F
100
AcDbEntity
  8
0
100
AcDbHatch
 10
0
 20
0
 30
0
210
0
220
0
230
1
  2
SOLID
 70
1
 71
0
 91
1
 92
2
 72
0
 73
1
 93
33
 10
16.4605593056378
 20
49.2549196021123
 10
16.4605597503329
 20
49.2548931269932
 10
16.4605523675391
 20
49.2548671734279
 10
16.4605372800439
 20
49.2548426549438
 10
16.4605153084411
 20
49.2548204448844
 10
16.4604869701425
 20
49.2548015756811
 10
16.4604536920855
 20
49.2547866024991
 10
16.4604165980249
 20
49.2547762395929
 10
16.4603770234335
 20
49.254770764135
 10
16.4603365768906
 20
49.2547704729804
 10
16.4602969271092
 20
49.2547753054475
 10
16.4602594696935
 20
49.2547851811753
 10
16.4602255388655
 20
49.25479956304
 10
16.4601967118933
 20
49.2548181123701
 10
16.4601738369256
 20
49.2548398951416
 10
16.4601580051586
 20
49.2548641757816
 10
16.460149640052
 20
49.254890080127
 10
16.4601491951374
 20
49.2549165552445
 10
16.460156577727
 20
49.2549425088354
 10
16.4601716650639
 20
49.2549670273688
 10
16.4601936365775
 20
49.254989237493
 10
16.4602219748716
 20
49.2550081067678
 10
16.4602552530074
 20
49.2550230800161
 10
16.4602923472193
 20
49.2550334429737
 10
16.4603319220114
 20
49.2550389184605
 10
16.4603723687738
 20
49.2550392096167
 10
16.4604120187594
 20
49.255034377124
 10
16.4604494763333
 20
49.2550245013471
 10
16.4604834072506
 20
49.2550101194172
 10
16.4605122342272
 20
49.254991570016
 10
16.4605351091161
 20
49.2549697871779
 10
16.4605509407319
 20
49.2549455064867
 10
16.4605593056378
 20
49.2549196021123
 97
0
 75
0
 76
1
 98
0
  0
HATCH
  5
20070
100
AcDbEntity
  8
0
100
AcDbHatch
 10
0
 20
0
 30
0
210
0
220
0
230
1
  2
SOLID
 70
1
 71
0
 91
1
 92
2
 72
0
 73
1
 93
33
 10
16.4472825807567
 20
49.2432509731896
 10
16.4472827038143
 20
49.2432403970778
 10
16.4472797632084
 20
49.243229961664
 10
16.4472738051379
 20
49.2432202131034
 10
16.4472649360169
 20
49.2432113400182
 10
16.447253641712
 20
49.2432037393653
 10
16.4472404080889
 20
49.2431978081018
 10
16.4472254931334
 20
49.2431936553223
 10
16.4472097009118
 20
49.243191429547
 10
16.4471935473953
 20
49.2431913489669
 10
16.447177608771
 20
49.2431932742403
 10
16.4471627192124
 20
49.2431971751218
 10
16.4471491668127
 20
49.2432029819413
 10
16.4471375578684
 20
49.2432103765914
 10
16.4471284986769
 20
49.2432190409653
 10
16.4471221558677
 20
49.2432288061533
 10
16.4471187562871
 20
49.2432391457131
 10
16.4471186331945
 20
49.2432497218247
 10
16.4471215737676
 20
49.2432601572426
 10
16.4471275318128
 20
49.2432699058109
 10
16.4471364009197
 20
49.2432787789066
 10
16.4471476952237
 20
49.2432863795708
 10
16.4471609288594
 20
49.243292310845
 10
16.4471758438392
 20
49.2432964636327
 10
16.4471916360928
 20
49.2432986894126
 10
16.4472077896443
 20
49.2432987699931
 10
16.4472237283014
 20
49.2432968447155
 10
16.4472386178852
 20
49.2432929438262
 10
16.4472521702991
 20
49.2432871369963
 10
16.4472637792443
 20
49.2432797423347
 10
16.4472728384232
 20
49.2432710779503
 10
16.4472791812081
 20
49.243261312754
 10
16.4472825807567
 20
49.2432509731896
 97
0
 75
0
 76
1
 98
0
  0
HATCH
  5
20071
100
AcDbEntity
  8
0
100
AcDbHatch
 10
0
 20
0
 30
0
210
0
220
0
230
1
  2
SOLID
 70
1
 71
0
 91
1
 92
2
 72
0
 73
1
 93
33
 10
16.5691150234513
 20
49.1882981194825
 10
16.569115377219
 20
49.1882751691263
 10
16.5691088847372
 20
49.1882527262747
 10
16.5690958514727
 20
49.1882314458615
 10
16.569076674831
 20
49.1882122607315
 10
16.5690522058452
 20
49.1881958646653
 10
16.5690232955441
 20
49.1881829514438
 10
16.5689912485831
 20
49.1881739757855
 10
16.5689569752531
 20
49.1881692738732
 10
16.5689219610486
 20
49.1881690419404
 10
16.5688877210984
 20
49.1881732974228
 10
16.5688552545962
 20
49.1881818401086
 10
16.5688259847339
 20
49.1881944095246
 10
16.5688009699818
 20
49.1882104478621
 10
16.5687812688145
 20
49.188229397313
 10
16.5687675749855
 20
49.1882504027324
 10
16.5687604014056
 20
49.1882728674615
 10
16.5687600474735
 20
49.1882958178165
 10
16.568766539803
 20
49.1883182606875
 10
16.5687795729489
 20
49.1883395411376
 10
16.5687987495248
 20
49.1883587263167
 10
16.5688232185071
 20
49.1883751224362
 10
16.568852128868
 20
49.1883880357075
 10
16.5688841759422
 20
49.1883970114042
 10
16.5689184494228
 20
49.188401713338
 10
16.5689534637917
 20
49.1884019452719
 10
16.5689877038942
 20
49.1883976897702
 10
16.569020170515
 20
49.1883891470475
 10
16.5690494404432
 20
49.1883765775826
 10
16.5690744551987
 20
49.1883605391915
 10
16.5690941563062
 20
49.1883415896909
 10
16.569107850022
 20
49.188320584233
 10
16.5691150234513
 20
49.1882981194825
 97
0
 75
0
 76
1
 98
0
  0
HATCH
  5
20072
100
AcDbEntity
  8
0
100
AcDbHatch
 10
0
 20
0
 30
0
210
0
220
0
230
1
  2
SOLID
 70
1
 71
0
 91
1
 92
2
 72
0
 73
1
 93
33
 10
16.5690554155174
 20
49.1883821589806
 10
16.5690557693133
 20
49.1883592086249
 10
16.5690492768475
 20
49.1883367657703
 10
16.5690362435865
 20
49.1883154853507
 10
16.5690170669354
 20
49.1882963002109
 10
16.5689925979278
 20
49.1882799041323
 10
16.5689636875933
 20
49.188266990896
 10
16.5689316405888
 20
49.1882580152213
 10
16.5688973672063
 20
49.1882533132913
 10
16.5688623529427
 20
49.1882530813404
 10
16.5688281129293
 20
49.188257336805
 10
16.5687956463618
 20
49.1882658794739
 10
16.5687663764348
 20
49.1882784488745
 10
16.568741361621
 20
49.188294487199
 10
16.5687216603974
 20
49.1883134366394
 10
16.56870796652
 20
49.1883344420514
 10
16.5687007929008
 20
49.1883569067765
 10
16.5687004389405
 20
49.1883798571311
 10
16.568706931254
 20
49.1884023000052
 10
16.5687199643964
 20
49.1884235804617
 10
16.5687391409817
 20
49.1884427656505
 10
16.5687636099857
 20
49.1884591617824
 10
16.5687925203801
 20
49.1884720750685
 10
16.5688245674978
 20
49.1884810507816
 10
16.5688588410309
 20
49.1884857527331
 10
16.5688938554588
 20
49.1884859846851
 10
16.5689280956245
 20
49.1884817292012
 10
16.5689605623107
 20
49.1884731864954
 10
16.5689898323035
 20
49.1884606170458
 10
16.5690148471209
 20
49.1884445786679
 10
16.5690345482845
 20
49.1884256291777
 10
16.5690482420488
 20
49.1884046237272
 10
16.5690554155174
 20
49.1883821589806
 97
0
 75
0
 76
1
 98
0
  0
HATCH
  5
20073
100
AcDbEntity
  8
0
100
AcDbHatch
 10
0
 20
0
 30
0
210
0
220
0
230
1
  2
SOLID
 70
1
 71
0
 91
1
 92
2
 72
0
 73
1
 93
33
 10
16.5691887228492
 20
49.1883322224615
 10
16.5691890765831
 20
49.1883092721052
 10
16.5691825840634
 20
49.1882868292578
 10
16.5691695507583
 20
49.1882655488531
 10
16.5691503740748
 20
49.1882463637354
 10
16.5691259050478
 20
49.1882299676849
 10
16.5690969947076
 20
49.1882170544819
 10
16.5690649477112
 20
49.1882080788442
 10
16.5690306743506
 20
49.1882033769538
 10
16.5689956601216
 20
49.1882031450433
 10
16.5689614201542
 20
49.1882074005475
 10
16.5689289536424
 20
49.188215943254
 10
16.5688996837786
 20
49.1882285126886
 10
16.5688746690332
 20
49.1882445510421
 10
16.5688549678804
 20
49.1882635005055
 10
16.5688412740733
 20
49.1882845059335
 10
16.5688341005218
 20
49.1883069706671
 10
16.5688337466236
 20
49.1883299210222
 10
16.5688402389909
 20
49.188352363889
 10
16.5688532721774
 20
49.1883736443306
 10
16.568872448795
 20
49.1883928294974
 10
16.5688969178185
 20
49.1884092256012
 10
16.5689258282186
 20
49.1884221388539
 10
16.5689578753282
 20
49.1884311145301
 10
16.5689921488394
 20
49.188435816442
 10
16.5690271632327
 20
49.1884360483536
 10
16.5690614033525
 20
49.1884317928301
 10
16.569093869983
 20
49.1884232500866
 10
16.5691231399125
 20
49.1884106806031
 10
16.5691481546615
 20
49.1883946421962
 10
16.5691678557544
 20
49.188375692683
 10
16.5691815494484
 20
49.1883546872165
 10
16.5691887228492
 20
49.1883322224615
 97
0
 75
0
 76
1
 98
0
  0
HATCH
  5
20074
100
AcDbEntity
  8
0
100
AcDbHatch
 10
0
 20
0
 30
0
210
0
220
0
230
1
  2
SOLID
 70
1
 71
0
 91
1
 92
2
 72
0
 73
1
 93
33
 10
16.623536353119
 20
49.216953566433
 10
16.6235364031564
 20
49.2169482335686
 10
16.6235349077009
 20
49.2169430627982
 10
16.6235318520253
 20
49.2169381435282
 10
16.6235274649123
 20
49.2169337632732
 10
16.623521868117
 20
49.2169300210873
 10
16.6235151833946
 20
49.2169270160243
 10
16.6235077907373
 20
49.2169249558404
 10
16.6234998266274
 20
49.2169238501831
 10
16.6234916857848
 20
49.216923817402
 10
16.6234837923845
 20
49.2169247970342
 10
16.6234762829088
 20
49.2169267987274
 10
16.6234695962609
 20
49.2169296726126
 10
16.6234638836509
 20
49.2169333389311
 10
16.6234592962895
 20
49.2169377179245
 10
16.6234561513254
 20
49.2169425606696
 10
16.623454463487
 20
49.2169477777601
 10
16.6234544134408
 20
49.2169531106245
 10
16.6234559088882
 20
49.2169582813959
 10
16.6234589645575
 20
49.2169632006679
 10
16.6234633516671
 20
49.2169675809254
 10
16.6234689484621
 20
49.2169713231142
 10
16.6234756331877
 20
49.2169743281798
 10
16.6234830258511
 20
49.2169763883658
 10
16.623490989969
 20
49.2169774940243
 10
16.6234991308205
 20
49.2169775268054
 10
16.6235070242289
 20
49.2169765471722
 10
16.6235145337108
 20
49.2169745454769
 10
16.6235212203622
 20
49.2169716715892
 10
16.6235269329723
 20
49.2169680052679
 10
16.6235315203306
 20
49.2169636262717
 10
16.6235346652887
 20
49.2169587835246
 10
16.623536353119
 20
49.216953566433
 97
0
 75
0
 76
1
 98
0
  0
HATCH
  5
20075
100
AcDbEntity
  8
0
100
AcDbHatch
 10
0
 20
0
 30
0
210
0
220
0
230
1
  2
SOLID
 70
1
 71
0
 91
1
 92
2
 72
0
 73
1
 93
33
 10
16.5154787617963
 20
49.1929186679114
 10
16.5154790797677
 20
49.1928992776546
 10
16.5154736197701
 20
49.1928802193197
 10
16.5154625916343
 20
49.1928622253071
 10
16.5154464191703
 20
49.1928459871151
 10
16.5154257238795
 20
49.1928321287663
 10
16.5154013010703
 20
49.1928211828271
 10
16.5153740892954
 20
49.1928135699417
 10
16.5153451342832
 20
49.1928095826676
 10
16.5153155487526
 20
49.1928093742326
 10
16.5152864696521
 20
49.1928129526465
 10
16.5152590144692
 20
49.1928201803938
 10
16.5152342382862
 20
49.1928307797178
 10
16.5152130932353
 20
49.1928443432943
 10
16.5151963919087
 20
49.1928603498848
 10
16.5151847761316
 20
49.1928781843671
 10
16.5151786922962
 20
49.1928971613737
 10
16.5151783742072
 20
49.1929165516296
 10
16.5151838340952
 20
49.1929356099783
 10
16.5151948621461
 20
49.1929536040174
 10
16.5152110345627
 20
49.1929698422444
 10
16.515231729851
 20
49.1929837006314
 10
16.5152561527027
 20
49.1929946466063
 10
16.5152833645589
 20
49.1930022595192
 10
16.5153123196787
 20
49.1930062468088
 10
16.5153419053269
 20
49.1930064552448
 10
16.5153709845369
 20
49.1930028768169
 10
16.5153984398048
 20
49.1929956490432
 10
16.5154232160352
 20
49.1929850496842
 10
16.5154443610887
 20
49.1929714860695
 10
16.5154610623727
 20
49.1929554794433
 10
16.5154726780685
 20
49.1929376449333
 10
16.5154787617963
 20
49.1929186679114
 97
0
 75
0
 76
1
 98
0
  0
HATCH
  5
20076
100
AcDbEntity
  8
0
100
AcDbHatch
 10
0
 20
0
 30
0
210
0
220
0
230
1
  2
SOLID
 70
1
 71
0
 91
1
 92
2
 72
0
 73
1
 93
33
 10
16.4475345814648
 20
49.2435416618617
 10
16.447535033024
 20
49.243515186747
 10
16.4475276587574
 20
49.2434892323043
 10
16.4475125811842
 20
49.2434647120765
 10
16.4474906204794
 20
49.2434424995011
 10
16.4474622936643
 20
49.2434236270696
 10
16.447429027202
 20
49.2434086501092
 10
16.4473919444007
 20
49.2433982830022
 10
16.4473523803532
 20
49.2433928030722
 10
16.4473119431906
 20
49.2433925073562
 10
16.4472723012582
 20
49.2433973353605
 10
16.4472348498602
 20
49.2434072068815
 10
16.4472009230529
 20
49.2434215849448
 10
16.4471720978309
 20
49.2434401310563
 10
16.4471492223935
 20
49.243461911286
 10
16.4471333878793
 20
49.2434861901825
 10
16.4471250178809
 20
49.2435120936295
 10
16.4471245661024
 20
49.2435385687425
 10
16.4471319401648
 20
49.2435645232107
 10
16.4471470175797
 20
49.2435890434878
 10
16.4471689781953
 20
49.2436112561281
 10
16.4471973050058
 20
49.243630128631
 10
16.4472305715468
 20
49.2436451056577
 10
16.4472676544993
 20
49.2436554728161
 10
16.4473072187474
 20
49.243660952775
 10
16.4473476561293
 20
49.2436612484928
 10
16.4473872982659
 20
49.2436564204628
 10
16.4474247498222
 20
49.2436465488928
 10
16.4474586767188
 20
49.2436321707642
 10
16.4474875019453
 20
49.2436136245817
 10
16.4475103773039
 20
49.2435918442855
 10
16.447526211667
 20
49.2435675653375
 10
16.4475345814648
 20
49.2435416618617
 97
0
 75
0
 76
1
 98
0
  0
HATCH
  5
20077
100
AcDbEntity
  8
0
100
AcDbHatch
 10
0
 20
0
 30
0
210
0
220
0
230
1
  2
SOLID
 70
1
 71
0
 91
1
 92
2
 72
0
 73
1
 93
37
 10
16.5269740053877
 20
49.2255050209542
 10
16.527009137557
 20
49.22550554357
 10
16.5270437120407
 20
49.2255019555947
 10
16.5270768353844
 20
49.2254946454275
 10
16.5271075521704
 20
49.2254835447375
 10
16.5271349391398
 20
49.2254692207132
 10
16.5271579812626
 20
49.2254519626009
 10
16.5271761796529
 20
49.2254322774814
 10
16.527188854228
 20
49.2254109308553
 10
16.5271956425948
 20
49.2253884395644
 10
16.527196425528
 20
49.225365518761
 10
16.5271910987069
 20
49.2253427942022
 10
16.5271798009766
 20
49.2253210899557
 10
16.5271629888662
 20
49.2253009814296
 10
16.5271409824161
 20
49.2252830342699
 10
16.5271146327061
 20
49.2252679425632
 10
16.5270847139429
 20
49.2252560330586
 10
16.5270521219123
 20
49.2252477316616
 10
16.5270176457194
 20
49.2252432757288
 10
16.5269826502227
 20
49.2252427628775
 10
16.5269480908202
 20
49.2252462614409
 10
16.5269148162323
 20
49.2252536512032
 10
16.5268841144505
 20
49.2252646624486
 10
16.5268568491038
 20
49.2252790855696
 10
16.5268338069564
 20
49.2252963436223
 10
16.5268156233848
 20
49.2253159392944
 10
16.5268029337684
 20
49.2253373752737
 10
16.5267960087433
 20
49.2253598567794
 10
16.5267953621118
 20
49.2253827873423
 10
16.5268007036604
 20
49.2254054225253
 10
16.5268119863389
 20
49.2254272162025
 10
16.5268287983496
 20
49.2254473247793
 10
16.5268506831771
 20
49.2254651728421
 10
16.5268770180067
 20
49.2254803540025
 10
16.5269070882474
 20
49.2254921839286
 10
16.5269396655099
 20
49.2255005747601
 10
16.5269740053877
 20
49.2255050209542
 97
0
 75
0
 76
1
 98
0
  0
HATCH
  5
20078
100
AcDbEntity
  8
0
100
AcDbHatch
 10
0
 20
0
 30
0
210
0
220
0
230
1
  2
SOLID
 70
1
 71
0
 91
1
 92
2
 72
0
 73
1
 93
37
 10
16.4573661400603
 20
49.262896228532
 10
16.4573935808069
 20
49.2628966313217
 10
16.4574207115369
 20
49.2628939094497
 10
16.4574467078916
 20
49.2628881456194
 10
16.4574707799811
 20
49.2628795149627
 10
16.4574921963843
 20
49.2628682797193
 10
16.4575103063735
 20
49.2628547812678
 10
16.4575245596865
 20
49.2628394297535
 10
16.4575345232459
 20
49.2628226916261
 10
16.4575398943178
 20
49.2628050754661
 10
16.4575405097097
 20
49.2627871165323
 10
16.4575363507284
 20
49.2627693604978
 10
16.4575275437473
 20
49.2627523468702
 10
16.4575143563661
 20
49.2627365925992
 10
16.4574971892795
 20
49.2627225763688
 10
16.4574765641018
 20
49.2627107240533
 10
16.4574531075181
 20
49.2627013957778
 10
16.4574275322423
 20
49.2626948749757
 10
16.4574006153625
 20
49.2626913597772
 10
16.4573731747297
 20
49.2626909569891
 10
16.4573460441085
 20
49.2626936788501
 10
16.4573200478442
 20
49.2626994426579
 10
16.457295975816
 20
49.2627080732835
 10
16.4572745594377
 20
49.2627193084909
 10
16.4572564494338
 20
49.2627328069056
 10
16.4572421960684
 20
49.262748158387
 10
16.4572322324251
 20
49.2627648964895
 10
16.4572268612479
 20
49.2627825126352
 10
16.4572262457422
 20
49.2628004715674
 10
16.4572304046148
 20
49.2628182276129
 10
16.4572392115054
 20
49.2628352412629
 10
16.4572523988253
 20
49.2628509955652
 10
16.457269565887
 20
49.2628650118317
 10
16.4572901910794
 20
49.2628768641839
 10
16.4573136477156
 20
49.2628861924921
 10
16.4573392230753
 20
49.2628927133193
 10
16.4573661400603
 20
49.262896228532
 97
0
 75
0
 76
1
 98
0
  0
HATCH
  5
20079
100
AcDbEntity
  8
0
100
AcDbHatch
 10
0
 20
0
 30
0
210
0
220
0
230
1
  2
SOLID
 70
1
 71
0
 91
1
 92
2
 72
0
 73
1
 93
37
 10
16.5688229598301
 20
49.2043251429123
 10
16.5688395584123
 20
49.2043253707979
 10
16.5688559652168
 20
49.2043237066031
 10
16.5688716817292
 20
49.2043202008934
 10
16.5688862304098
 20
49.2043149601885
 10
16.5688991692033
 20
49.2043081437251
 10
16.5689101049706
 20
49.2042999586186
 10
16.5689187054342
 20
49.2042906535699
 10
16.5689247092742
 20
49.2042805113087
 10
16.5689279340684
 20
49.2042698400031
 10
16.5689282818348
 20
49.2042589638952
 10
16.5689257420086
 20
49.2042482134503
 10
16.5689203917628
 20
49.204237915315
 10
16.5689123936634
 20
49.2042283823926
 10
16.5689019907298
 20
49.2042199043355
 10
16.5688894990501
 20
49.2042127387446
 10
16.5688752981775
 20
49.2042071033423
 10
16.5688598195975
 20
49.2042031693567
 10
16.5688435336174
 20
49.2042010563196
 10
16.5688269350768
 20
49.2042008284345
 10
16.5688105283121
 20
49.2042024926253
 10
16.5687948118327
 20
49.2042059983267
 10
16.5687802631745
 20
49.2042112390202
 10
16.5687673243899
 20
49.2042180554703
 10
16.5687563886171
 20
49.2042262405634
 10
16.5687477881342
 20
49.2042355456001
 10
16.5687417842634
 20
49.2042456878521
 10
16.5687385594307
 20
49.2042563591526
 10
16.5687382116227
 20
49.2042672352599
 10
16.5687407514092
 20
49.2042779857089
 10
16.568746101622
 20
49.2042882838524
 10
16.568754099699
 20
49.2042978167863
 10
16.5687645026236
 20
49.2043062948566
 10
16.5687769943088
 20
49.2043134604609
 10
16.5687911952007
 20
49.2043190958753
 10
16.5688066738115
 20
49.20432302987
 10
16.5688229598301
 20
49.2043251429123
 97
0
 75
0
 76
1
 98
0
  0
HATCH
  5
2007A
100
AcDbEntity
  8
0
100
AcDbHatch
 10
0
 20
0
 30
0
210
0
220
0
230
1
  2
SOLID
 70
1
 71
0
 91
1
 92
2
 72
0
 73
1
 93
37
 10
16.621644333504
 20
49.1876180572154
 10
16.621699545827
 20
49.1876187976233
 10
16.6217540007597
 20
49.1876132435015
 10
16.6218062900999
 20
49.1876015665728
 10
16.6218547034012
 20
49.1875840980761
 10
16.6218976224593
 20
49.1875614471223
 10
16.6219339894057
 20
49.1875341720162
 10
16.621962551091
 20
49.1875031790398
 10
16.6219824488567
 20
49.1874694928303
 10
16.6219931262971
 20
49.1874339785096
 10
16.6219942556479
 20
49.1873977887168
 10
16.6219857819495
 20
49.187362095388
 10
16.621967967208
 20
49.1873278215361
 10
16.6219413167843
 20
49.1872960882845
 10
16.621906759957
 20
49.1872679562975
 10
16.6218651484835
 20
49.1872441189626
 10
16.6218178649937
 20
49.1872253976727
 10
16.6217664726753
 20
49.1872123552524
 10
16.6217122913522
 20
49.1872053564151
 10
16.6216570794896
 20
49.1872046160133
 10
16.6216026249949
 20
49.1872101700898
 10
16.6215503360198
 20
49.187221846927
 10
16.6215019229652
 20
49.187239315297
 10
16.6214590040053
 20
49.1872619661048
 10
16.6214226369975
 20
49.1872892410622
 10
16.621394075098
 20
49.187320233906
 10
16.6213741769925
 20
49.1873539200147
 10
16.621363499126
 20
49.1873894342784
 10
16.6213623693148
 20
49.1874256240649
 10
16.6213708425751
 20
49.1874613174391
 10
16.6213886569516
 20
49.1874955913824
 10
16.6214153071287
 20
49.1875273247606
 10
16.6214498638576
 20
49.1875554568936
 10
16.6214914753926
 20
49.1875792943772
 10
16.6215387590966
 20
49.1875980157999
 10
16.6215901517548
 20
49.187611058321
 10
16.621644333504
 20
49.1876180572154
 97
0
 75
0
 76
1
 98
0
  0
HATCH
  5
2007B
100
AcDbEntity
  8
0
100
AcDbHatch
 10
0
 20
0
 30
0
210
0
220
0
230
1
  2
SOLID
 70
1
 71
0
 91
1
 92
2
 72
0
 73
1
 93
37
 10
16.6623609950843
 20
49.1972327150777
 10
16.6623751798572
 20
49.1972328993637
 10
16.6623890826173
 20
49.197231435831
 10
16.6624025376238
 20
49.1972284937012
 10
16.6624150137835
 20
49.1972239451555
 10
16.6624258920931
 20
49.1972181988456
 10
16.6624353236401
 20
49.1972111749618
 10
16.6624425676383
 20
49.1972031831423
 10
16.6624477019178
 20
49.1971945906361
 10
16.6624504389561
 20
49.1971854676513
 10
16.662450720148
 20
49.197176171835
 10
16.6624484868886
 20
49.1971670608336
 10
16.6624439973992
 20
49.1971582432624
 10
16.6624370566388
 20
49.1971500671656
 10
16.6624282881804
 20
49.1971429381986
 10
16.6624175702403
 20
49.1971367573475
 10
16.662405375303
 20
49.1971320100771
 10
16.6623922637626
 20
49.1971286453827
 10
16.6623783427503
 20
49.1971268516891
 10
16.6623641580078
 20
49.1971266674035
 10
16.6623502552763
 20
49.1971281309333
 10
16.662336800294
 20
49.197131073057
 10
16.6623243241505
 20
49.1971356215943
 10
16.6623134458472
 20
49.1971413678947
 10
16.6623040142962
 20
49.1971483917686
 10
16.6622967702837
 20
49.1971563835794
 10
16.6622916359821
 20
49.197164976079
 10
16.6622888989157
 20
49.19717409906
 10
16.6622886176934
 20
49.197183394876
 10
16.6622908509241
 20
49.1971925058804
 10
16.6622953403894
 20
49.1972013234577
 10
16.6623022811336
 20
49.1972094995628
 10
16.6623110495857
 20
49.1972166285393
 10
16.6623217675298
 20
49.1972228094002
 10
16.6623339624813
 20
49.1972275566794
 10
16.6623470740439
 20
49.1972309213803
 10
16.6623609950843
 20
49.1972327150777
 97
0
 75
0
 76
1
 98
0
  0
HATCH
  5
2007C
100
AcDbEntity
  8
0
100
AcDbHatch
 10
0
 20
0
 30
0
210
0
220
0
230
1
  2
SOLID
 70
1
 71
0
 91
1
 92
2
 72
0
 73
1
 93
37
 10
16.6628986805921
 20
49.1973093540398
 10
16.6629145172754
 20
49.1973095640626
 10
16.6629302376654
 20
49.1973079570452
 10
16.6629454178007
 20
49.1973045935961
 10
16.6629592244113
 20
49.1972995055202
 10
16.6629716135442
 20
49.1972929610532
 10
16.6629821465886
 20
49.1972851102156
 10
16.6629903702841
 20
49.1972761924396
 10
16.6629961042431
 20
49.19726646636
 10
16.6629991534282
 20
49.1972562800227
 10
16.662999473889
 20
49.1972459016633
 10
16.6629970216755
 20
49.1972355995169
 10
16.6629918746227
 20
49.1972257408313
 10
16.6629841252164
 20
49.1972166034426
 10
16.6629741388137
 20
49.1972084843886
 10
16.6629622954219
 20
49.1972015912958
 10
16.6629485510887
 20
49.1971961923987
 10
16.6629337097788
 20
49.1971924347156
 10
16.6629181661479
 20
49.1971904364612
 10
16.6629023295026
 20
49.197190226439
 10
16.6628866091491
 20
49.1971918334525
 10
16.6628715654803
 20
49.1971952064952
 10
16.6628576224538
 20
49.1972002849595
 10
16.662845233329
 20
49.1972068294143
 10
16.6628347002795
 20
49.1972146802396
 10
16.6628264765663
 20
49.1972235980045
 10
16.6628207425789
 20
49.1972333240758
 10
16.6628176933586
 20
49.1972435104083
 10
16.6628173728597
 20
49.1972538887672
 10
16.6628198250368
 20
49.1972641909174
 10
16.6628249720594
 20
49.1972740496106
 10
16.6628327214453
 20
49.19728318701
 10
16.6628427078398
 20
49.1972913060761
 10
16.6628546876727
 20
49.1972982087823
 10
16.6628682955877
 20
49.1973035980892
 10
16.662883136926
 20
49.1973073557807
 10
16.6628986805921
 20
49.1973093540398
 97
0
 75
0
 76
1
 98
0
  0
HATCH
  5
2007D
100
AcDbEntity
  8
0
100
AcDbHatch
 10
0
 20
0
 30
0
210
0
220
0
230
1
  2
SOLID
 70
1
 71
0
 91
1
 92
2
 72
0
 73
1
 93
37
 10
16.6631649092512
 20
49.1973488904475
 10
16.6631815792175
 20
49.1973490686273
 10
16.663197996444
 20
49.1973474201662
 10
16.6632137516196
 20
49.1973439162618
 10
16.6632284207831
 20
49.1973386175235
 10
16.6632414142368
 20
49.1973317537839
 10
16.6632524151568
 20
49.1973235740771
 10
16.6632609995839
 20
49.197314139013
 10
16.6632669431814
 20
49.197303975462
 10
16.6632702166504
 20
49.1972932622479
 10
16.6632704885193
 20
49.1972823378164
 10
16.6632679730621
 20
49.1972715790162
 10
16.66326262633
 20
49.1972612540824
 10
16.6632545408104
 20
49.1972516408506
 10
16.6632440672124
 20
49.1972431257698
 10
16.6632314491084
 20
49.1972359068645
 10
16.6632171882922
 20
49.1972302907726
 10
16.6632016794212
 20
49.1972263957079
 10
16.6631853318024
 20
49.1972242504725
 10
16.6631686618781
 20
49.1972240722933
 10
16.6631522446915
 20
49.1972257207503
 10
16.6631364895491
 20
49.1972292246464
 10
16.6631218204082
 20
49.197234523373
 10
16.6631088269634
 20
49.1972413870992
 10
16.6630978113875
 20
49.1972496562042
 10
16.6630892415911
 20
49.1972590018445
 10
16.6630832979625
 20
49.1972691653865
 10
16.6630800244547
 20
49.1972798785953
 10
16.6630797525438
 20
49.1972908030263
 10
16.6630822679612
 20
49.1973015618305
 10
16.6630876000095
 20
49.1973119761844
 10
16.663095700157
 20
49.197321500016
 10
16.6631061737461
 20
49.1973300151102
 10
16.6631187918558
 20
49.1973372340291
 10
16.6631330526916
 20
49.1973428501331
 10
16.6631485615937
 20
49.1973467452069
 10
16.6631649092512
 20
49.1973488904475
 97
0
 75
0
 76
1
 98
0
  0
HATCH
  5
2007E
100
AcDbEntity
  8
0
100
AcDbHatch
 10
0
 20
0
 30
0
210
0
220
0
230
1
  2
SOLID
 70
1
 71
0
 91
1
 92
2
 72
0
 73
1
 93
37
 10
16.663438026901
 20
49.1973792336035
 10
16.6634548333151
 20
49.1973794213445
 10
16.6634713869792
 20
49.1973777824451
 10
16.6634871567949
 20
49.1973741890916
 10
16.6635018259381
 20
49.1973688903186
 10
16.6635148193619
 20
49.1973620265482
 10
16.6635258348932
 20
49.1973537574036
 10
16.66353455571
 20
49.1973443319197
 10
16.6635406356915
 20
49.1973341779551
 10
16.6635437873166
 20
49.197323365721
 10
16.6635442102115
 20
49.1973123614776
 10
16.6635415582569
 20
49.1973015930829
 10
16.6635360896779
 20
49.1972911691496
 10
16.6635280041004
 20
49.197281555937
 10
16.6635175304491
 20
49.197273040881
 10
16.6635049122976
 20
49.1972658220056
 10
16.6634906660916
 20
49.1972601165358
 10
16.6634750207534
 20
49.1972562119073
 10
16.6634585366767
 20
49.1972540571101
 10
16.6634418667414
 20
49.1972538789703
 10
16.6634253131177
 20
49.1972555178655
 10
16.663409406899
 20
49.19725910161
 10
16.6633947377784
 20
49.1972644003713
 10
16.6633817443635
 20
49.1972712641283
 10
16.6633707288265
 20
49.1972795332593
 10
16.66336200799
 20
49.1972889587309
 10
16.6633560644138
 20
49.1972991222869
 10
16.663352776313
 20
49.1973099249152
 10
16.663352489812
 20
49.1973209387585
 10
16.6633550052901
 20
49.1973316975568
 10
16.6633604738355
 20
49.1973421214987
 10
16.6633685593904
 20
49.1973517347229
 10
16.6633790330327
 20
49.1973602497923
 10
16.6633916511899
 20
49.1973674686813
 10
16.6634060338519
 20
49.197373183764
 10
16.6634216792215
 20
49.1973770884017
 10
16.663438026901
 20
49.1973792336035
 97
0
 75
0
 76
1
 98
0
  0
HATCH
  5
2007F
100
AcDbEntity
  8
0
100
AcDbHatch
 10
0
 20
0
 30
0
210
0
220
0
230
1
  2
SOLID
 70
1
 71
0
 91
1
 92
2
 72
0
 73
1
 93
37
 10
16.6637021547868
 20
49.1974254465942
 10
16.6637216451498
 20
49.1974256981863
 10
16.6637409060752
 20
49.1974237279935
 10
16.6637593523271
 20
49.1974195958794
 10
16.6637764234233
 20
49.1974134273967
 10
16.663791600666
 20
49.1974054099724
 10
16.6638044229016
 20
49.1973957872126
 10
16.6638145005334
 20
49.1973848515008
 10
16.6638215273589
 20
49.197372935114
 10
16.6638252898734
 20
49.1973604001259
 10
16.6638256737572
 20
49.1973476274063
 10
16.6638226673489
 20
49.1973350050477
 10
16.663816361999
 20
49.197322916574
 10
16.6638069492945
 20
49.1973117292866
 10
16.6637947152371
 20
49.1973017831051
 10
16.6637800315528
 20
49.1972933802382
 10
16.6637633443978
 20
49.197286776002
 10
16.6637451608015
 20
49.1972821710621
 10
16.6637260332615
 20
49.1972797053367
 10
16.6637065429558
 20
49.1972794537453
 10
16.6636872820851
 20
49.1972814239325
 10
16.6636688358787
 20
49.1972855560352
 10
16.6636517648131
 20
49.197291724502
 10
16.6636365875827
 20
49.1972997419081
 10
16.6636237653393
 20
49.1973093646495
 10
16.6636136876808
 20
49.1973203003447
 10
16.6636066608128
 20
49.197332216719
 10
16.6636028982451
 20
49.1973447517
 10
16.6636025143039
 20
49.1973575244189
 10
16.6636055206576
 20
49.1973701467831
 10
16.663611825962
 20
49.1973822352683
 10
16.6636212386358
 20
49.1973934225714
 10
16.6636334726811
 20
49.1974033687711
 10
16.663648156373
 20
49.1974117716566
 10
16.6636648435548
 20
49.1974183759093
 10
16.6636830271935
 20
49.1974229808618
 10
16.6637021547868
 20
49.1974254465942
 97
0
 75
0
 76
1
 98
0
  0
HATCH
  5
20080
100
AcDbEntity
  8
0
100
AcDbHatch
 10
0
 20
0
 30
0
210
0
220
0
230
1
  2
SOLID
 70
1
 71
0
 91
1
 92
2
 72
0
 73
1
 93
37
 10
16.661712516658
 20
49.197095276188
 10
16.6617293229692
 20
49.1970954641801
 10
16.6617457401599
 20
49.1970938159256
 10
16.6617616464458
 20
49.1970902324103
 10
16.6617763156893
 20
49.1970849338564
 10
16.6617893092775
 20
49.19707807028
 10
16.6618003250335
 20
49.1970698012998
 10
16.6618090461283
 20
49.1970603759459
 10
16.6618149899931
 20
49.1970502124693
 10
16.6618182784118
 20
49.1970394098844
 10
16.661818565252
 20
49.1970283960444
 10
16.6618160501228
 20
49.1970176372122
 10
16.661810581938
 20
49.1970072131967
 10
16.6618024967416
 20
49.1969975998628
 10
16.6617920234467
 20
49.19698908465
 10
16.6617794056189
 20
49.1969818655857
 10
16.661765023258
 20
49.1969761503001
 10
16.6617495145807
 20
49.1969722550401
 10
16.6617330306736
 20
49.1969700999964
 10
16.6617162244049
 20
49.1969699120048
 10
16.6616998072543
 20
49.1969715602552
 10
16.6616839010021
 20
49.196975143762
 10
16.6616692317812
 20
49.1969804423042
 10
16.6616562382019
 20
49.1969873058672
 10
16.6616452224403
 20
49.1969955748338
 10
16.6616365013257
 20
49.1970050001754
 10
16.6616305574298
 20
49.1970151636429
 10
16.6616272689717
 20
49.1970259662225
 10
16.661626982089
 20
49.197036980062
 10
16.6616294971782
 20
49.1970477388983
 10
16.6616349653293
 20
49.1970581629223
 10
16.6616430505032
 20
49.1970677762677
 10
16.661653523789
 20
49.197076291494
 10
16.6616661416225
 20
49.197083510572
 10
16.6616805240032
 20
49.1970892258699
 10
16.6616960327116
 20
49.197093121139
 10
16.661712516658
 20
49.197095276188
 97
0
 75
0
 76
1
 98
0
  0
HATCH
  5
20081
100
AcDbEntity
  8
0
100
AcDbHatch
 10
0
 20
0
 30
0
210
0
220
0
230
1
  2
SOLID
 70
1
 71
0
 91
1
 92
2
 72
0
 73
1
 93
37
 10
16.6619824490819
 20
49.1971282024953
 10
16.661998831446
 20
49.1971284510529
 10
16.6620149757674
 20
49.1971267835554
 10
16.6620304580852
 20
49.197123260608
 10
16.6620448251339
 20
49.1971181216387
 10
16.6620575165179
 20
49.1971114176508
 10
16.6620682300608
 20
49.1971033082638
 10
16.6620767707184
 20
49.1970941415224
 10
16.6620826852278
 20
49.1970841568553
 10
16.6620857931983
 20
49.1970736128954
 10
16.6620861724581
 20
49.1970628768918
 10
16.6620836279646
 20
49.1970522968887
 10
16.6620782521984
 20
49.197042150723
 10
16.6620704105106
 20
49.1970327354356
 10
16.6620601807285
 20
49.1970244182747
 10
16.6620478064187
 20
49.1970173972674
 10
16.6620338186702
 20
49.1970118002337
 10
16.6620185828313
 20
49.1970079242144
 10
16.6620024935541
 20
49.1970058874275
 10
16.6619861112305
 20
49.1970056388704
 10
16.6619699669475
 20
49.1970073063639
 10
16.6619544846617
 20
49.1970108293034
 10
16.6619401176347
 20
49.1970159682614
 10
16.6619274262593
 20
49.1970226722365
 10
16.6619167127108
 20
49.1970307816106
 10
16.6619081720346
 20
49.1970399483402
 10
16.6619022574953
 20
49.1970499329985
 10
16.6618991494872
 20
49.1970604769534
 10
16.661898770187
 20
49.1970712129564
 10
16.6619013146419
 20
49.1970817929635
 10
16.6619066903762
 20
49.1970919391375
 10
16.6619145320423
 20
49.1971013544359
 10
16.6619247618158
 20
49.1971096716095
 10
16.6619371361311
 20
49.1971166926299
 10
16.6619511238983
 20
49.1971222896753
 10
16.6619663597671
 20
49.1971261657035
 10
16.6619824490819
 20
49.1971282024953
 97
0
 75
0
 76
1
 98
0
  0
HATCH
  5
20082
100
AcDbEntity
  8
0
100
AcDbHatch
 10
0
 20
0
 30
0
210
0
220
0
230
1
  2
SOLID
 70
1
 71
0
 91
1
 92
2
 72
0
 73
1
 93
37
 10
16.6630596899141
 20
49.1972666901032
 10
16.6630753901483
 20
49.1972668905028
 10
16.6630908376471
 20
49.1972652642616
 10
16.6631057302356
 20
49.197261971001
 10
16.663119507517
 20
49.1972570617294
 10
16.6631317455316
 20
49.1972505970559
 10
16.6631419910189
 20
49.1972428164135
 10
16.6631500635921
 20
49.1972339784369
 10
16.6631557682142
 20
49.1972244311727
 10
16.6631588027136
 20
49.197214334243
 10
16.6631591084904
 20
49.1972040452948
 10
16.6631566269451
 20
49.1971939219752
 10
16.6631516016506
 20
49.1971841623093
 10
16.6631441104429
 20
49.1971751335448
 10
16.663134245808
 20
49.1971671135173
 10
16.663122373103
 20
49.1971603992645
 10
16.6631088869852
 20
49.1971551090001
 10
16.6630943185472
 20
49.1971513705395
 10
16.6630789113587
 20
49.1971493819077
 10
16.6630632111617
 20
49.1971491815086
 10
16.6630477636981
 20
49.1971508077462
 10
16.6630328711392
 20
49.1971541009993
 10
16.6630190938778
 20
49.1971590102607
 10
16.6630068558713
 20
49.1971654749223
 10
16.6629966103786
 20
49.1971732555529
 10
16.662988537788
 20
49.1971820935188
 10
16.6629828331386
 20
49.1971916407747
 10
16.6629797986047
 20
49.1972017376999
 10
16.6629794927907
 20
49.1972120266476
 10
16.6629819743008
 20
49.197222149971
 10
16.6629869995657
 20
49.1972319096441
 10
16.6629944907533
 20
49.1972409384188
 10
16.6630043553803
 20
49.1972489584581
 10
16.6630162280905
 20
49.1972556727231
 10
16.6630297142257
 20
49.1972609629982
 10
16.6630442826911
 20
49.1972647014668
 10
16.6630596899141
 20
49.1972666901032
 97
0
 75
0
 76
1
 98
0
  0
HATCH
  5
20083
100
AcDbEntity
  8
0
100
AcDbHatch
 10
0
 20
0
 30
0
210
0
220
0
230
1
  2
SOLID
 70
1
 71
0
 91
1
 92
2
 72
0
 73
1
 93
37
 10
16.6635980168633
 20
49.1973385773843
 10
16.6636150961373
 20
49.1973387843027
 10
16.6636319373051
 20
49.1973370751692
 10
16.6636481310553
 20
49.1973334211829
 10
16.6636630876917
 20
49.1973280521783
 10
16.6636763832543
 20
49.1973210287667
 10
16.6636875644848
 20
49.1973125903833
 10
16.6636963145624
 20
49.1973029860635
 10
16.6637025748903
 20
49.1972925734551
 10
16.6637057411267
 20
49.1972816718047
 10
16.663706193284
 20
49.197270488737
 10
16.6637034488082
 20
49.1972594425102
 10
16.6636980094986
 20
49.1972488397608
 10
16.663689816759
 20
49.1972390381356
 10
16.6636790995152
 20
49.1972303250701
 10
16.663666223128
 20
49.1972229975998
 10
16.6636515676071
 20
49.1972172633488
 10
16.6636356786964
 20
49.1972131607178
 10
16.6636189071052
 20
49.1972110761546
 10
16.6636019789609
 20
49.1972107894254
 10
16.6635851231854
 20
49.1972125879664
 10
16.6635689441197
 20
49.197216152532
 10
16.6635539875068
 20
49.1972215215246
 10
16.6635406919536
 20
49.1972285449221
 10
16.663529510717
 20
49.1972369832915
 10
16.6635206241826
 20
49.1972465779983
 10
16.6635145002586
 20
49.1972570001974
 10
16.6635111828956
 20
49.1972679816539
 10
16.6635108817804
 20
49.1972790849095
 10
16.663513489778
 20
49.1972901215403
 10
16.6635190654891
 20
49.1973007338988
 10
16.663527258205
 20
49.197310535536
 10
16.6635379754395
 20
49.1973192486156
 10
16.6635508518327
 20
49.1973265761
 10
16.6635654927246
 20
49.1973323997755
 10
16.6635813963173
 20
49.1973364130043
 10
16.6635980168633
 20
49.1973385773843
 97
0
 75
0
 76
1
 98
0
  0
HATCH
  5
20084
100
AcDbEntity
  8
0
100
AcDbHatch
 10
0
 20
0
 30
0
210
0
220
0
230
1
  2
SOLID
 70
1
 71
0
 91
1
 92
2
 72
0
 73
1
 93
37
 10
16.6638668072365
 20
49.1973700621026
 10
16.6638822346335
 20
49.1973702431923
 10
16.6638975310524
 20
49.1973686966548
 10
16.663912150745
 20
49.1973653840902
 10
16.6639256404532
 20
49.1973605449342
 10
16.6639377273025
 20
49.1973541599872
 10
16.6639478069503
 20
49.197346548497
 10
16.6639558500989
 20
49.1973378892879
 10
16.6639614034923
 20
49.1973284217959
 10
16.6639644085361
 20
49.1973185036688
 10
16.6639646848485
 20
49.1973083935423
 10
16.663962324921
 20
49.1972983692519
 10
16.6639572701594
 20
49.197288788445
 10
16.6639498859278
 20
49.1972799481566
 10
16.663940142929
 20
49.1972720272099
 10
16.6639285283135
 20
49.1972654216518
 10
16.6639153149538
 20
49.1972601506818
 10
16.6639008682114
 20
49.1972565113349
 10
16.6638857338305
 20
49.197254542011
 10
16.6638703064695
 20
49.1972543609218
 10
16.6638550100851
 20
49.1972559074556
 10
16.6638403904209
 20
49.197259220013
 10
16.663826900732
 20
49.1972640591592
 10
16.6638148138904
 20
49.1972704440947
 10
16.6638045978013
 20
49.1972780459732
 10
16.6637966910724
 20
49.197286714772
 10
16.6637911376522
 20
49.1972961822561
 10
16.6637881325751
 20
49.1973061003788
 10
16.6637878562267
 20
49.1973162105049
 10
16.6637902161197
 20
49.1973262347987
 10
16.6637951344163
 20
49.1973358060128
 10
16.6638026550652
 20
49.1973446559112
 10
16.6638123980563
 20
49.1973525768693
 10
16.6638240126767
 20
49.197359182439
 10
16.6638372260531
 20
49.1973644534194
 10
16.6638516728223
 20
49.1973680927742
 10
16.6638668072365
 20
49.1973700621026
 97
0
 75
0
 76
1
 98
0
  0
HATCH
  5
20085
100
AcDbEntity
  8
0
100
AcDbHatch
 10
0
 20
0
 30
0
210
0
220
0
230
1
  2
SOLID
 70
1
 71
0
 91
1
 92
2
 72
0
 73
1
 93
37
 10
16.5700486553565
 20
49.2052115078088
 10
16.5700678373532
 20
49.2052117709541
 10
16.5700867976696
 20
49.2052098475762
 10
16.5701049602035
 20
49.205205796116
 10
16.5701217730936
 20
49.2051997396757
 10
16.5701367254873
 20
49.2051918622779
 10
16.5701493630634
 20
49.2051824032741
 10
16.5701593018356
 20
49.2051716500722
 10
16.5701662398206
 20
49.2051599294033
 10
16.5701699662131
 20
49.2051475973948
 10
16.5701703677909
 20
49.2051350287487
 10
16.5701674323548
 20
49.2051226053571
 10
16.5701612490987
 20
49.2051107046982
 10
16.5701520059
 20
49.2050996883669
 10
16.5701399836098
 20
49.2050898910882
 10
16.5701255475198
 20
49.2050816105468
 10
16.5701091362631
 20
49.2050750983418
 10
16.5700912484862
 20
49.2050705523425
 10
16.5700724276983
 20
49.2050681106763
 10
16.5700532457571
 20
49.2050678475318
 10
16.5700342854939
 20
49.2050697709043
 10
16.570016123004
 20
49.2050738223534
 10
16.5699993101438
 20
49.2050798787783
 10
16.569984357762
 20
49.2050877561585
 10
16.5699717201786
 20
49.2050972151444
 10
16.5699617813806
 20
49.2051079683304
 10
16.5699548433545
 20
49.2051196889869
 10
16.5699511169106
 20
49.2051320209886
 10
16.5699507152772
 20
49.2051445896338
 10
16.5699536506603
 20
49.205157013031
 10
16.5699598338722
 20
49.2051689137009
 10
16.5699690770411
 20
49.2051799300475
 10
16.5699810993194
 20
49.2051897273438
 10
16.5699955354167
 20
49.2051980079032
 10
16.5700119466991
 20
49.2052045201243
 10
16.5700298345171
 20
49.2052090661357
 10
16.5700486553565
 20
49.2052115078088
 97
0
 75
0
 76
1
 98
0
  0
HATCH
  5
20086
100
AcDbEntity
  8
0
100
AcDbHatch
 10
0
 20
0
 30
0
210
0
220
0
230
1
  2
SOLID
 70
1
 71
0
 91
1
 92
2
 72
0
 73
1
 93
37
 10
16.5710472551336
 20
49.2069048777792
 10
16.5710721887477
 20
49.2069052048549
 10
16.5710967630924
 20
49.2069027022723
 10
16.5711204175653
 20
49.2068974205926
 10
16.5711421525917
 20
49.2068895600481
 10
16.5711616508222
 20
49.2068793694198
 10
16.5711780491296
 20
49.2068670586505
 10
16.5711909857101
 20
49.2068531447213
 10
16.5711998555104
 20
49.2068379463939
 10
16.5712047208826
 20
49.2068219203783
 10
16.5712052200268
 20
49.2068055836547
 10
16.5712015369216
 20
49.2067894920412
 10
16.5711934758502
 20
49.2067739934273
 10
16.5711814788601
 20
49.2067597524495
 10
16.5711657892041
 20
49.2067469673254
 10
16.5711471366347
 20
49.2067362327108
 10
16.5711257495824
 20
49.2067278362231
 10
16.5711025683362
 20
49.2067219352288
 10
16.5710781090318
 20
49.2067187473655
 10
16.5710533119557
 20
49.206718430001
 10
16.571028601256
 20
49.2067209228646
 10
16.5710050981213
 20
49.2067261248357
 10
16.5709832267006
 20
49.2067339756448
 10
16.5709638501155
 20
49.2067442653528
 10
16.5709474666151
 20
49.2067564866921
 10
16.5709345151719
 20
49.2067704899941
 10
16.5709255088579
 20
49.2067856785911
 10
16.5709206433989
 20
49.2068017045951
 10
16.5709201441609
 20
49.2068180413176
 10
16.5709239636213
 20
49.2068341426498
 10
16.5709320394378
 20
49.2068495518826
 10
16.5709440215584
 20
49.2068638822859
 10
16.5709595895689
 20
49.2068765683302
 10
16.5709783785952
 20
49.2068873126848
 10
16.5709996144271
 20
49.2068957888896
 10
16.5710229321871
 20
49.2069016996142
 10
16.5710472551336
 20
49.2069048777792
 97
0
 75
0
 76
1
 98
0
  0
HATCH
  5
20087
100
AcDbEntity
  8
0
100
AcDbHatch
 10
0
 20
0
 30
0
210
0
220
0
230
1
  2
SOLID
 70
1
 71
0
 91
1
 92
2
 72
0
 73
1
 93
37
 10
16.5712113703934
 20
49.207202392423
 10
16.5712281134629
 20
49.2072026219325
 10
16.5712446629934
 20
49.2072009430082
 10
16.5712605161339
 20
49.2071974066634
 10
16.5712751911934
 20
49.2071921203484
 10
16.5712882422764
 20
49.207185244686
 10
16.5712992728321
 20
49.2071769885903
 10
16.5713079477029
 20
49.207167602919
 10
16.5713140033081
 20
49.2071573728517
 10
16.5713172556525
 20
49.2071466092242
 10
16.5713176059172
 20
49.2071356390842
 10
16.5713150434613
 20
49.2071247957537
 10
16.5713096461458
 20
49.2071144087016
 10
16.5713015779667
 20
49.207104793533
 10
16.5712910840726
 20
49.2070962423994
 10
16.5712784833157
 20
49.207089015122
 10
16.5712641585633
 20
49.2070833312974
 10
16.5712485450648
 20
49.2070793636251
 10
16.5712321172272
 20
49.2070772326604
 10
16.5712153742
 20
49.2070770031515
 10
16.57119882471
 20
49.2070786820717
 10
16.5711829716031
 20
49.2070822184081
 10
16.5711682965663
 20
49.2070875047114
 10
16.5711552454924
 20
49.2070943803602
 10
16.5711442149311
 20
49.2071026364424
 10
16.5711355400407
 20
49.2071120221014
 10
16.5711294844042
 20
49.2071222521594
 10
16.5711262320206
 20
49.2071330157816
 10
16.5711258817136
 20
49.2071439859211
 10
16.571128444129
 20
49.2071548292558
 10
16.571133841411
 20
49.2071652163162
 10
16.5711419095673
 20
49.2071748314965
 10
16.5711524034522
 20
49.2071833826435
 10
16.5711650042147
 20
49.2071906099346
 10
16.5711793289868
 20
49.2071962937715
 10
16.5711949425166
 20
49.207200261453
 10
16.5712113703934
 20
49.207202392423
 97
0
 75
0
 76
1
 98
0
  0
HATCH
  5
20088
100
AcDbEntity
  8
0
100
AcDbHatch
 10
0
 20
0
 30
0
210
0
220
0
230
1
  2
SOLID
 70
1
 71
0
 91
1
 92
2
 72
0
 73
1
 93
37
 10
16.5711226693654
 20
49.2070396765465
 10
16.5711427609823
 20
49.2070399519732
 10
16.571162620357
 20
49.2070379372783
 10
16.5711816440698
 20
49.2070336936776
 10
16.5711992540926
 20
49.2070273501114
 10
16.5712149153524
 20
49.2070190993264
 10
16.571228151989
 20
49.2070091920195
 10
16.5712385618145
 20
49.20699792922
 10
16.5712458285326
 20
49.2069856531433
 10
16.57124973135
 20
49.2069727367923
 10
16.571250151684
 20
49.2069595726241
 10
16.5712470767658
 20
49.2069465606252
 10
16.5712406000277
 20
49.2069340961587
 10
16.5712309182645
 20
49.2069225579502
 10
16.571218325653
 20
49.2069122965818
 10
16.5712032048141
 20
49.206903623839
 10
16.5711860151862
 20
49.2068968032377
 10
16.5711672790664
 20
49.2068920420179
 10
16.5711475657401
 20
49.2068894848462
 10
16.5711274741842
 20
49.2068892094204
 10
16.5711076148677
 20
49.2068912241093
 10
16.5710885912033
 20
49.2068954676979
 10
16.5710709812132
 20
49.2069018112474
 10
16.5710553199665
 20
49.2069100620129
 10
16.5710420833218
 20
49.2069199693002
 10
16.5710316734681
 20
49.2069312320819
 10
16.5710244067049
 20
49.2069435081454
 10
16.5710205038311
 20
49.2069564244889
 10
16.5710200834361
 20
49.2069695886562
 10
16.5710231582961
 20
49.206982600661
 10
16.5710296349858
 20
49.2069950651397
 10
16.5710393167163
 20
49.2070066033649
 10
16.5710519093146
 20
49.2070168647527
 10
16.5710670301616
 20
49.2070255375152
 10
16.5710842198177
 20
49.207032358134
 10
16.5711029559826
 20
49.2070371193672
 10
16.5711226693654
 20
49.2070396765465
 97
0
 75
0
 76
1
 98
0
  0
HATCH
  5
20089
100
AcDbEntity
  8
0
100
AcDbHatch
 10
0
 20
0
 30
0
210
0
220
0
230
1
  2
SOLID
 70
1
 71
0
 91
1
 92
2
 72
0
 73
1
 93
37
 10
16.5709838158254
 20
49.2067594705366
 10
16.5710065144395
 20
49.2067597817302
 10
16.5710289506837
 20
49.2067575056307
 10
16.5710504428407
 20
49.2067527113968
 10
16.5710703378794
 20
49.2067455446995
 10
16.5710880312973
 20
49.2067362232961
 10
16.5711029854879
 20
49.206725030414
 10
16.5711147460764
 20
49.2067123061444
 10
16.5711229557248
 20
49.2066984371088
 10
16.5711273649896
 20
49.2066838447114
 10
16.5711278399008
 20
49.2066689723355
 10
16.5711243660321
 20
49.2066542718706
 10
16.5711170489385
 20
49.2066401899826
 10
16.5711061109489
 20
49.206627154542
 10
16.5710918844106
 20
49.2066155616228
 10
16.5710748015904
 20
49.2066057634691
 10
16.5710553815408
 20
49.2065980577916
 10
16.5710342143285
 20
49.2065926787225
 10
16.571011943106
 20
49.2065897897011
 10
16.5709892445697
 20
49.2065894785087
 10
16.5709668083998
 20
49.2065917546004
 10
16.5709453163045
 20
49.2065965488189
 10
16.5709254213076
 20
49.2066037154949
 10
16.5709077279065
 20
49.2066130368736
 10
16.5708927737055
 20
49.2066242297305
 10
16.570881013081
 20
49.2066369539777
 10
16.5708728033751
 20
49.2066508229964
 10
16.5708683940382
 20
49.2066654153839
 10
16.5708679190491
 20
49.2066802877588
 10
16.5708713928436
 20
49.2066949882313
 10
16.5708787098755
 20
49.2067090701347
 10
16.5708896478233
 20
49.2067221055968
 10
16.5709038743448
 20
49.2067336985407
 10
16.5709209571753
 20
49.2067434967195
 10
16.5709403772609
 20
49.2067512024194
 10
16.5709615445308
 20
49.2067565815058
 10
16.5709838158254
 20
49.2067594705366
 97
0
 75
0
 76
1
 98
0
  0
HATCH
  5
2008A
100
AcDbEntity
  8
0
100
AcDbHatch
 10
0
 20
0
 30
0
210
0
220
0
230
1
  2
SOLID
 70
1
 71
0
 91
1
 92
2
 72
0
 73
1
 93
37
 10
16.5708962737818
 20
49.2065009859043
 10
16.5709034971174
 20
49.2065010849413
 10
16.5709106369614
 20
49.2065003606257
 10
16.570917476373
 20
49.2064988349653
 10
16.5709238075398
 20
49.2064965543168
 10
16.5709294380923
 20
49.2064935879766
 10
16.570934196949
 20
49.2064900260755
 10
16.5709379395144
 20
49.2064859768403
 10
16.5709405520728
 20
49.206481563305
 10
16.5709419552431
 20
49.2064769195726
 10
16.5709421063911
 20
49.2064721867407
 10
16.5709410009245
 20
49.2064675086141
 10
16.5709386724328
 20
49.2064630273351
 10
16.5709351916662
 20
49.2064588790651
 10
16.5709306643864
 20
49.2064551898471
 10
16.5709252281524
 20
49.2064520717761
 10
16.5709190481414
 20
49.2064496195929
 10
16.5709123121299
 20
49.2064479078057
 10
16.5709052247878
 20
49.2064469884262
 10
16.57089800146
 20
49.2064468893893
 10
16.5708908616235
 20
49.2064476137042
 10
16.5708840222182
 20
49.2064491393629
 10
16.5708776910556
 20
49.2064514200092
 10
16.5708720605048
 20
49.206454386347
 10
16.5708673016471
 20
49.2064579482455
 10
16.570863559078
 20
49.2064619974785
 10
16.5708609465138
 20
49.2064664110121
 10
16.5708595433362
 20
49.2064710547435
 10
16.5708593921804
 20
49.2064757875753
 10
16.5708604976394
 20
49.2064804657026
 10
16.5708628261249
 20
49.2064849469832
 10
16.5708663068872
 20
49.2064890952553
 10
16.5708708341654
 20
49.2064927844758
 10
16.5708762704004
 20
49.2064959025494
 10
16.570882450415
 20
49.206498354735
 10
16.5708891864323
 20
49.2065000665238
 10
16.5708962737818
 20
49.2065009859043
 97
0
 75
0
 76
1
 98
0
  0
HATCH
  5
2008B
100
AcDbEntity
  8
0
100
AcDbHatch
 10
0
 20
0
 30
0
210
0
220
0
230
1
  2
SOLID
 70
1
 71
0
 91
1
 92
2
 72
0
 73
1
 93
37
 10
16.5707159633729
 20
49.2061769146954
 10
16.5707321798937
 20
49.2061771370614
 10
16.5707482089805
 20
49.2061755109718
 10
16.5707635635959
 20
49.2061720858347
 10
16.5707777771963
 20
49.2061669657216
 10
16.5707904179077
 20
49.2061603062049
 10
16.5708011016481
 20
49.2061523096311
 10
16.5708095037976
 20
49.2061432189729
 10
16.570815369062
 20
49.2061333104459
 10
16.5708185192297
 20
49.2061228851157
 10
16.5708188585858
 20
49.2061122597513
 10
16.5708163768212
 20
49.2061017571988
 10
16.5708111493446
 20
49.2060916965729
 10
16.5708033349918
 20
49.2060823835601
 10
16.5707931711988
 20
49.2060741011314
 10
16.5707809667877
 20
49.2060671009432
 10
16.5707670925832
 20
49.2060615956925
 10
16.5707519701451
 20
49.2060577526528
 10
16.5707360589597
 20
49.2060556885927
 10
16.5707198424787
 20
49.2060554662272
 10
16.5707038134298
 20
49.2060570923129
 10
16.5706884588459
 20
49.2060605174421
 10
16.5706742452668
 20
49.2060656375444
 10
16.5706616045639
 20
49.2060722970486
 10
16.5706509208183
 20
49.2060802936094
 10
16.5706425186504
 20
49.2060893842561
 10
16.5706366533566
 20
49.2060992927746
 10
16.5706335031522
 20
49.2061097180997
 10
16.5706331637563
 20
49.2061203434636
 10
16.570635645483
 20
49.2061308460199
 10
16.5706408729281
 20
49.2061409066538
 10
16.5706486872596
 20
49.2061502196775
 10
16.570658851044
 20
49.2061585021189
 10
16.5706710554604
 20
49.2061655023197
 10
16.5706849296833
 20
49.206171007582
 10
16.5707000521507
 20
49.2061748506303
 10
16.5707159633729
 20
49.2061769146954
 97
0
 75
0
 76
1
 98
0
  0
HATCH
  5
2008C
100
AcDbEntity
  8
0
100
AcDbHatch
 10
0
 20
0
 30
0
210
0
220
0
230
1
  2
SOLID
 70
1
 71
0
 91
1
 92
2
 72
0
 73
1
 93
37
 10
16.5706353896316
 20
49.2060254275822
 10
16.5706549546362
 20
49.2060256958778
 10
16.5706742935078
 20
49.2060237340301
 10
16.5706928186419
 20
49.2060196016491
 10
16.5707099671597
 20
49.2060134242956
 10
16.5707252180108
 20
49.206005389666
 10
16.5707381078052
 20
49.2059957418893
 10
16.5707482448933
 20
49.2059847741093
 10
16.5707553212661
 20
49.205972819577
 10
16.5707591219136
 20
49.2059602415255
 10
16.5707595313572
 20
49.2059474221329
 10
16.5707565371591
 20
49.2059347509099
 10
16.5707502302988
 20
49.205922612865
 10
16.5707408024091
 20
49.205911376806
 10
16.5707285399531
 20
49.2059013841341
 10
16.5707138155199
 20
49.2058929384709
 10
16.5706970765037
 20
49.2058862964326
 10
16.5706788315096
 20
49.2058816598335
 10
16.5706596349008
 20
49.2058791695538
 10
16.570640069954
 20
49.2058789012589
 10
16.5706207311377
 20
49.2058808631009
 10
16.5706022060494
 20
49.2058849954705
 10
16.5705850575627
 20
49.2058911728082
 10
16.5705698067241
 20
49.2058992074193
 10
16.570556916922
 20
49.2059088551774
 10
16.5705467798071
 20
49.2059198229407
 10
16.5705397033915
 20
49.2059317774603
 10
16.5705359026906
 20
49.2059443555045
 10
16.570535493189
 20
49.2059571748963
 10
16.570538487332
 20
49.205969846125
 10
16.5705447941465
 20
49.2059819841815
 10
16.5705542220051
 20
49.2059932202564
 10
16.5705664844486
 20
49.2060032129466
 10
16.5705812088894
 20
49.2060116586285
 10
16.5705979479325
 20
49.2060183006835
 10
16.5706161929693
 20
49.2060229372953
 10
16.5706353896316
 20
49.2060254275822
 97
0
 75
0
 76
1
 98
0
  0
HATCH
  5
2008D
100
AcDbEntity
  8
0
100
AcDbHatch
 10
0
 20
0
 30
0
210
0
220
0
230
1
  2
SOLID
 70
1
 71
0
 91
1
 92
2
 72
0
 73
1
 93
37
 10
16.5704783222574
 20
49.2056648634296
 10
16.5704977436112
 20
49.2056651297838
 10
16.5705169404993
 20
49.2056631823522
 10
16.5705353296314
 20
49.2056590803068
 10
16.5705523522611
 20
49.2056529482868
 10
16.5705674911629
 20
49.2056449726111
 10
16.5705802863485
 20
49.2056353956175
 10
16.5705903490429
 20
49.2056245082988
 10
16.5705973734975
 20
49.2056126414617
 10
16.5706011462796
 20
49.2056001556742
 10
16.5706015527577
 20
49.2055874303112
 10
16.5705985805835
 20
49.2055748520264
 10
16.5705923200676
 20
49.2055628030044
 10
16.5705829614346
 20
49.205551649348
 10
16.5705707890432
 20
49.2055417299549
 10
16.570556172746
 20
49.2055333462199
 10
16.5705395566514
 20
49.2055267528777
 10
16.5705214456297
 20
49.205522150263
 10
16.5705023899735
 20
49.2055196782232
 10
16.5704829686766
 20
49.2055194118699
 10
16.5704637718429
 20
49.2055213592959
 10
16.570445382756
 20
49.2055254613299
 10
16.570428360157
 20
49.2055315933342
 10
16.5704132212674
 20
49.2055395689918
 10
16.5704004260743
 20
49.2055491459671
 10
16.5703903633535
 20
49.2055600332693
 10
16.5703833388568
 20
49.205571900094
 10
16.5703795660219
 20
49.2055843858743
 10
16.5703791594869
 20
49.2055971112365
 10
16.5703821316067
 20
49.2056096895269
 10
16.5703883920774
 20
49.2056217385603
 10
16.5703977506798
 20
49.2056328922323
 10
16.5704099230589
 20
49.2056428116435
 10
16.5704245393636
 20
49.2056511953969
 10
16.5704411554847
 20
49.2056577887556
 10
16.5704592665484
 20
49.2056623913829
 10
16.5704783222574
 20
49.2056648634296
 97
0
 75
0
 76
1
 98
0
  0
HATCH
  5
2008E
100
AcDbEntity
  8
0
100
AcDbHatch
 10
0
 20
0
 30
0
210
0
220
0
230
1
  2
SOLID
 70
1
 71
0
 91
1
 92
2
 72
0
 73
1
 93
37
 10
16.57037029625
 20
49.2055100599848
 10
16.5703930660413
 20
49.2055103722831
 10
16.570415572672
 20
49.2055080891074
 10
16.5704371322862
 20
49.2055032798314
 10
16.570457089803
 20
49.2054960905831
 10
16.5704748388216
 20
49.2054867398051
 10
16.5704898400462
 20
49.2054755116174
 10
16.5705016376727
 20
49.2054627471836
 10
16.5705098732378
 20
49.2054488343459
 10
16.5705142965106
 20
49.2054341958395
 10
16.5705147730956
 20
49.2054192764484
 10
16.5705112885153
 20
49.2054045294908
 10
16.5705039486505
 20
49.2053904030452
 10
16.5704929765221
 20
49.2053773263359
 10
16.5704787055143
 20
49.2053656966909
 10
16.5704615692455
 20
49.2053558674703
 10
16.570442088392
 20
49.2053481373285
 10
16.5704208548679
 20
49.2053427411411
 10
16.5703985138407
 20
49.2053398428679
 10
16.5703757441277
 20
49.2053395305707
 10
16.5703532375718
 20
49.2053418137387
 10
16.5703316780198
 20
49.2053466229992
 10
16.570311720545
 20
49.2053538122259
 10
16.5702939715433
 20
49.205363162979
 10
16.5702789703083
 20
49.2053743911415
 10
16.5702671726455
 20
49.2053871555526
 10
16.5702589370226
 20
49.2054010683731
 10
16.5702545136772
 20
49.2054157068698
 10
16.5702540370139
 20
49.2054306262599
 10
16.5702575215194
 20
49.2054453732251
 10
16.5702648613221
 20
49.2054594996863
 10
16.5702758334085
 20
49.2054725764171
 10
16.5702901043993
 20
49.2054842060869
 10
16.5703072406785
 20
49.2054940353328
 10
16.5703267215684
 20
49.2055017654972
 10
16.5703479551503
 20
49.2055071617017
 10
16.57037029625
 20
49.2055100599848
 97
0
 75
0
 76
1
 98
0
  0
HATCH
  5
2008F
100
AcDbEntity
  8
0
100
AcDbHatch
 10
0
 20
0
 30
0
210
0
220
0
230
1
  2
SOLID
 70
1
 71
0
 91
1
 92
2
 72
0
 73
1
 93
37
 10
16.5702297615738
 20
49.20535774581
 10
16.5702491828059
 20
49.2053580122059
 10
16.5702683795847
 20
49.2053560648156
 10
16.5702867686233
 20
49.2053519628097
 10
16.5703037911782
 20
49.205345830826
 10
16.5703189300261
 20
49.2053378551825
 10
16.5703317251804
 20
49.205328278216
 10
16.570341787867
 20
49.2053173909185
 10
16.5703488123375
 20
49.2053055240958
 10
16.5703525851589
 20
49.205293038316
 10
16.5703529916982
 20
49.2052803129533
 10
16.5703500196055
 20
49.2052677346615
 10
16.5703437591888
 20
49.2052556856254
 10
16.5703344006698
 20
49.2052445319484
 10
16.5703222284036
 20
49.2052346125286
 10
16.5703076122391
 20
49.2052262287617
 10
16.5702909962805
 20
49.2052196353835
 10
16.5702728853943
 20
49.2052150327295
 10
16.5702538298685
 20
49.2052125606487
 10
16.5702344086935
 20
49.2052122942535
 10
16.5702152119691
 20
49.2052142416383
 10
16.5701968229756
 20
49.2052183436329
 10
16.5701798004513
 20
49.2052244756009
 10
16.5701646616156
 20
49.2052324512263
 10
16.5701518664539
 20
49.2052420281744
 10
16.5701418037408
 20
49.2052529154555
 10
16.5701347792282
 20
49.2052647822656
 10
16.5701310063541
 20
49.2052772680384
 10
16.5701305997578
 20
49.2052899934003
 10
16.5701335717961
 20
49.2053025716977
 10
16.5701398321676
 20
49.2053146207451
 10
16.5701491906561
 20
49.2053257744378
 10
16.5701613629099
 20
49.2053356938756
 10
16.570175979082
 20
49.2053440776609
 10
16.570192595067
 20
49.2053506710556
 10
16.5702107059954
 20
49.205355273722
 10
16.5702297615738
 20
49.20535774581
 97
0
 75
0
 76
1
 98
0
  0
HATCH
  5
20090
100
AcDbEntity
  8
0
100
AcDbHatch
 10
0
 20
0
 30
0
210
0
220
0
230
1
  2
SOLID
 70
1
 71
0
 91
1
 92
2
 72
0
 73
1
 93
37
 10
16.5698675917071
 20
49.2050650192012
 10
16.569888136951
 20
49.205065301081
 10
16.5699084447683
 20
49.2050632410355
 10
16.5699278981135
 20
49.2050589016586
 10
16.5699459059043
 20
49.2050524148004
 10
16.5699619209815
 20
49.2050439775619
 10
16.5699754567345
 20
49.2050338463049
 10
16.5699861018866
 20
49.2050223288636
 10
16.5699935329917
 20
49.2050097751906
 10
16.5699975242614
 20
49.2049965667233
 10
16.5699979544258
 20
49.2049831047947
 10
16.5699948104173
 20
49.2049697984389
 10
16.5699881877679
 20
49.2049570519623
 10
16.5699782877057
 20
49.2049452526597
 10
16.5699654110405
 20
49.204934759046
 10
16.569949949024
 20
49.2049258899636
 10
16.5699323714614
 20
49.2049189148941
 10
16.5699132124366
 20
49.2049140457705
 10
16.5698930540848
 20
49.2049114305383
 10
16.5698725089047
 20
49.2049111486594
 10
16.5698522011482
 20
49.2049132086986
 10
16.5698327478536
 20
49.2049175480628
 10
16.569814740097
 20
49.2049240349035
 10
16.5697987250335
 20
49.2049324721218
 10
16.5697851892721
 20
49.2049426033582
 10
16.5697745440904
 20
49.204954120781
 10
16.5697671129383
 20
49.2049666744401
 10
16.5697631216095
 20
49.2049798828995
 10
16.5697626913814
 20
49.2049933448271
 10
16.569765835329
 20
49.2050066511893
 10
16.5697724579278
 20
49.2050193976785
 10
16.5697823579558
 20
49.2050311969987
 10
16.5697952346072
 20
49.2050416906325
 10
16.5698106966321
 20
49.2050505597355
 10
16.5698282742243
 20
49.2050575348234
 10
16.5698474332962
 20
49.205062403961
 10
16.5698675917071
 20
49.2050650192012
 97
0
 75
0
 76
1
 98
0
  0
HATCH
  5
20091
100
AcDbEntity
  8
0
100
AcDbHatch
 10
0
 20
0
 30
0
210
0
220
0
230
1
  2
SOLID
 70
1
 71
0
 91
1
 92
2
 72
0
 73
1
 93
37
 10
16.5696842659197
 20
49.204932181635
 10
16.5697081595665
 20
49.2049325094932
 10
16.5697317771014
 20
49.2049301137376
 10
16.5697544009137
 20
49.2049250671623
 10
16.5697753435874
 20
49.2049175231057
 10
16.5697939687878
 20
49.2049077107913
 10
16.5698097105967
 20
49.2048959283625
 10
16.5698220907078
 20
49.2048825338237
 10
16.5698307329595
 20
49.2048679341622
 10
16.5698353747641
 20
49.2048525729824
 10
16.5698358750865
 20
49.2048369170262
 10
16.5698322187285
 20
49.2048214419923
 10
16.5698245167903
 20
49.204806618081
 10
16.5698130032945
 20
49.2047928957089
 10
16.5697980280751
 20
49.204780691822
 10
16.5697800461472
 20
49.2047703772282
 10
16.5697596038822
 20
49.2047622653299
 10
16.5697373224061
 20
49.2047566026018
 10
16.5697138787274
 20
49.2047535611023
 10
16.5696899851668
 20
49.2047532332452
 10
16.5696663677143
 20
49.2047556289925
 10
16.5696437439704
 20
49.2047606755506
 10
16.569622801343
 20
49.2047682195835
 10
16.5696041761612
 20
49.2047780318705
 10
16.5695884343409
 20
49.2047898142715
 10
16.5695760541898
 20
49.2048032087855
 10
16.5695674118744
 20
49.2048178084279
 10
16.5695627699899
 20
49.2048331695971
 10
16.5695622695813
 20
49.2048488255519
 10
16.569565925857
 20
49.2048643005944
 10
16.5695736277268
 20
49.2048791245228
 10
16.5695851411762
 20
49.2048928469186
 10
16.5696001163771
 20
49.2049050508329
 10
16.5696180983164
 20
49.2049153654545
 10
16.5696385406213
 20
49.2049234773778
 10
16.5696608221612
 20
49.2049291401247
 10
16.5696842659197
 20
49.204932181635
 97
0
 75
0
 76
1
 98
0
  0
HATCH
  5
20092
100
AcDbEntity
  8
0
100
AcDbHatch
 10
0
 20
0
 30
0
210
0
220
0
230
1
  2
SOLID
 70
1
 71
0
 91
1
 92
2
 72
0
 73
1
 93
37
 10
16.5695313305789
 20
49.2047966494648
 10
16.5695530237495
 20
49.2047969471588
 10
16.5695744662444
 20
49.2047947720622
 10
16.5695950065412
 20
49.2047901902647
 10
16.5696140205307
 20
49.2047833409824
 10
16.5696309304809
 20
49.2047744323281
 10
16.5696452225907
 20
49.2047637349878
 10
16.5696564626021
 20
49.204751573996
 10
16.5696643089945
 20
49.2047383188589
 10
16.5696685233616
 20
49.2047243723281
 10
16.5696689776549
 20
49.2047101581621
 10
16.5696656580742
 20
49.2046961082513
 10
16.5696586654864
 20
49.2046826494948
 10
16.5696482123602
 20
49.2046701908294
 10
16.5696346163102
 20
49.2046591108045
 10
16.5696182904463
 20
49.20464974608
 10
16.5695997308212
 20
49.2046423811974
 10
16.5695795013582
 20
49.2046372399339
 10
16.5695582167169
 20
49.2046344785035
 10
16.5695365236174
 20
49.2046341808104
 10
16.5695150811904
 20
49.2046363559
 10
16.5694945409501
 20
49.2046409376834
 10
16.5694755269987
 20
49.2046477869462
 10
16.5694586170638
 20
49.2046566955779
 10
16.5694443249446
 20
49.2046673928952
 10
16.5694330849002
 20
49.2046795538666
 10
16.5694252384553
 20
49.204692808988
 10
16.5694210240224
 20
49.20470675551
 10
16.569420569658
 20
49.2047209696749
 10
16.5694238891708
 20
49.2047350195928
 10
16.5694308817022
 20
49.2047484783634
 10
16.5694413347903
 20
49.2047609370483
 10
16.569454930825
 20
49.2047720170958
 10
16.5694712566982
 20
49.2047813818432
 10
16.5694898163563
 20
49.2047887467464
 10
16.5695100458718
 20
49.2047938880255
 10
16.5695313305789
 20
49.2047966494648
 97
0
 75
0
 76
1
 98
0
  0
HATCH
  5
20093
100
AcDbEntity
  8
0
100
AcDbHatch
 10
0
 20
0
 30
0
210
0
220
0
230
1
  2
SOLID
 70
1
 71
0
 91
1
 92
2
 72
0
 73
1
 93
37
 10
16.569371583792
 20
49.2045893810556
 10
16.5693762237669
 20
49.2045894447367
 10
16.5693808101266
 20
49.2045889795084
 10
16.5693852035166
 20
49.2045879995064
 10
16.569389270446
 20
49.2045865345077
 10
16.569392887343
 20
49.2045846290254
 10
16.5693959443101
 20
49.2045823409569
 10
16.5693983484628
 20
49.2045797398238
 10
16.5694000267523
 20
49.2045769046604
 10
16.5694009281846
 20
49.2045739216117
 10
16.5694010253705
 20
49.2045708813162
 10
16.569400315357
 20
49.2045678761516
 10
16.5693988197177
 20
49.2045649974285
 10
16.569396583897
 20
49.2045623326152
 10
16.5693936758292
 20
49.2045599626808
 10
16.5693901838745
 20
49.2045579596345
 10
16.5693862141342
 20
49.2045563843378
 10
16.5693818872268
 20
49.2045552846551
 10
16.569377334623
 20
49.2045546939999
 10
16.5693726946513
 20
49.2045546303189
 10
16.5693681082948
 20
49.2045550955469
 10
16.5693637149073
 20
49.2045560755482
 10
16.5693596479797
 20
49.204557540546
 10
16.5693560310834
 20
49.2045594460273
 10
16.5693529741159
 20
49.2045617340948
 10
16.5693505699617
 20
49.2045643352269
 10
16.5693488916698
 20
49.2045671703897
 10
16.5693479902344
 20
49.2045701534379
 10
16.5693478930453
 20
49.2045731937334
 10
16.5693486030557
 20
49.2045761988983
 10
16.5693500986924
 20
49.2045790776221
 10
16.5693523345114
 20
49.2045817424362
 10
16.5693552425785
 20
49.2045841123716
 10
16.5693587345336
 20
49.2045861154189
 10
16.5693627042754
 20
49.2045876907166
 10
16.5693670311852
 20
49.2045887904
 10
16.569371583792
 20
49.2045893810556
 97
0
 75
0
 76
1
 98
0
  0
HATCH
  5
20094
100
AcDbEntity
  8
0
100
AcDbHatch
 10
0
 20
0
 30
0
210
0
220
0
230
1
  2
SOLID
 70
1
 71
0
 91
1
 92
2
 72
0
 73
1
 93
37
 10
16.5693458528917
 20
49.2047574866631
 10
16.5693658718206
 20
49.2047577614142
 10
16.5693856594291
 20
49.2047557542184
 10
16.5694046144782
 20
49.2047515260637
 10
16.5694221610262
 20
49.204745205421
 10
16.5694377659286
 20
49.2047369843403
 10
16.5694509550377
 20
49.2047271126163
 10
16.5694613276095
 20
49.204715890197
 10
16.56946856848
 20
49.2047036580706
 10
16.5694724576409
 20
49.2046907879048
 10
16.5694728769247
 20
49.2046776707534
 10
16.5694698135942
 20
49.2046647051744
 10
16.5694633607299
 20
49.2046522851202
 10
16.569453714401
 20
49.2046407879672
 10
16.5694411677077
 20
49.20463056305
 10
16.5694261018755
 20
49.2046219210463
 10
16.5694089746719
 20
49.2046151245386
 10
16.5693903064968
 20
49.2046103800342
 10
16.5693706645714
 20
49.204607831692
 10
16.5693506457031
 20
49.2046075569418
 10
16.5693308581524
 20
49.2046095641317
 10
16.5693119031513
 20
49.2046137922743
 10
16.5692943566358
 20
49.2046201129006
 10
16.5692787517465
 20
49.2046283339618
 10
16.5692655626294
 20
49.2046382056663
 10
16.5692551900295
 20
49.2046494280682
 10
16.5692479491142
 20
49.2046616601814
 10
16.5692440598973
 20
49.2046745303396
 10
16.569243640553
 20
49.2046876474902
 10
16.5692467038256
 20
49.204700613075
 10
16.5692531566419
 20
49.2047130331413
 10
16.5692628029383
 20
49.2047245303108
 10
16.5692753496186
 20
49.2047347552475
 10
16.5692904154588
 20
49.2047433972705
 10
16.5693075426905
 20
49.2047501937958
 10
16.5693262109103
 20
49.2047549383134
 10
16.5693458528917
 20
49.2047574866631
 97
0
 75
0
 76
1
 98
0
  0
HATCH
  5
20095
100
AcDbEntity
  8
0
100
AcDbHatch
 10
0
 20
0
 30
0
210
0
220
0
230
1
  2
SOLID
 70
1
 71
0
 91
1
 92
2
 72
0
 73
1
 93
37
 10
16.5691788579965
 20
49.2045067631563
 10
16.5691991877487
 20
49.204507042204
 10
16.5692192825968
 20
49.2045050038621
 10
16.5692385319663
 20
49.2045007100646
 10
16.5692563509725
 20
49.2044942912772
 10
16.5692721981925
 20
49.204485942532
 10
16.569285592116
 20
49.2044759175025
 10
16.5692961257757
 20
49.2044645207949
 10
16.5693034791129
 20
49.2044520986934
 10
16.5693074287024
 20
49.2044390286377
 10
16.5693078545405
 20
49.2044257077552
 10
16.5693047436911
 20
49.2044125407943
 10
16.5692981906785
 20
49.2043999278262
 10
16.5692883946149
 20
49.2043882520889
 10
16.5692756531502
 20
49.2043778683429
 10
16.569260353428
 20
49.2043690920925
 10
16.5692429603223
 20
49.2043621899984
 10
16.5692240023124
 20
49.2043573717766
 10
16.5692040554259
 20
49.2043547838256
 10
16.5691837257361
 20
49.2043545047786
 10
16.5691636309477
 20
49.2043565431144
 10
16.5691443816277
 20
49.2043608368995
 10
16.569126562655
 20
49.2043672556698
 10
16.5691107154484
 20
49.2043756043952
 10
16.5690973215167
 20
49.2043856294046
 10
16.5690867878281
 20
49.2043970260941
 10
16.5690794344447
 20
49.204409448182
 10
16.5690754847974
 20
49.2044225182298
 10
16.5690750588969
 20
49.2044358391115
 10
16.5690781696867
 20
49.2044490060784
 10
16.5690847226498
 20
49.204461619059
 10
16.5690945186799
 20
49.2044732948135
 10
16.5691072601311
 20
49.2044836785792
 10
16.5691225598615
 20
49.2044924548498
 10
16.5691399529962
 20
49.204499356962
 10
16.5691589110522
 20
49.2045041751975
 10
16.5691788579965
 20
49.2045067631563
 97
0
 75
0
 76
1
 98
0
  0
HATCH
  5
20096
100
AcDbEntity
  8
0
100
AcDbHatch
 10
0
 20
0
 30
0
210
0
220
0
230
1
  2
SOLID
 70
1
 71
0
 91
1
 92
2
 72
0
 73
1
 93
37
 10
16.5690134326322
 20
49.204369228429
 10
16.5690333078985
 20
49.2043695012677
 10
16.5690529535198
 20
49.204367508517
 10
16.5690717725711
 20
49.2043633107255
 10
16.5690891932429
 20
49.2043570354419
 10
16.5691046862156
 20
49.2043488733381
 10
16.5691177807425
 20
49.2043390724162
 10
16.5691280789532
 20
49.2043279304734
 10
16.5691352679431
 20
49.2043157860526
 10
16.5691391292804
 20
49.2043030081564
 10
16.5691395456428
 20
49.2042899850352
 10
16.5691365043821
 20
49.20427711239
 10
16.5691300979079
 20
49.2042647813492
 10
16.56912052088
 20
49.2042533665847
 10
16.5691080642927
 20
49.2042432149278
 10
16.569093106634
 20
49.2042346348305
 10
16.5690761023842
 20
49.2042278869937
 10
16.5690575682077
 20
49.2042231764465
 10
16.5690380672541
 20
49.2042206463157
 10
16.5690181920474
 20
49.2042203734777
 10
16.5689985464831
 20
49.2042223662227
 10
16.5689797274792
 20
49.2042265640022
 10
16.5689623068393
 20
49.2042328392695
 10
16.5689468138795
 20
49.2042410013543
 10
16.5689337193448
 20
49.2042508022569
 10
16.5689234211064
 20
49.2042619441826
 10
16.5689162320724
 20
49.2042740885903
 10
16.5689123706798
 20
49.204286866479
 10
16.5689119542577
 20
49.2042998895994
 10
16.5689149954615
 20
49.2043127622505
 10
16.5689214018883
 20
49.2043250933031
 10
16.5689309788843
 20
49.2043365080839
 10
16.5689434354587
 20
49.2043466597598
 10
16.5689583931253
 20
49.2043552398764
 10
16.5689753974027
 20
49.2043619877304
 10
16.5689939316233
 20
49.2043666982908
 10
16.5690134326322
 20
49.204369228429
 97
0
 75
0
 76
1
 98
0
  0
HATCH
  5
20097
100
AcDbEntity
  8
0
100
AcDbHatch
 10
0
 20
0
 30
0
210
0
220
0
230
1
  2
SOLID
 70
1
 71
0
 91
1
 92
2
 72
0
 73
1
 93
37
 10
16.5688336895284
 20
49.204221221653
 10
16.5688517231088
 20
49.204221469239
 10
16.568869548331
 20
49.2042196611635
 10
16.5688866235827
 20
49.2042158523642
 10
16.5689024300392
 20
49.2042101585703
 10
16.568916487428
 20
49.2042027527852
 10
16.5689283686222
 20
49.2041938600306
 10
16.5689377126178
 20
49.2041837505091
 10
16.5689442355034
 20
49.2041727313941
 10
16.568947739086
 20
49.2041611374963
 10
16.5689481169131
 20
49.2041493210907
 10
16.5689453575067
 20
49.2041376412128
 10
16.5689395447123
 20
49.2041264527496
 10
16.5689308551503
 20
49.2041160956564
 10
16.5689195528499
 20
49.2041068846277
 10
16.5689059812263
 20
49.2040990995352
 10
16.5688905526461
 20
49.2040929769243
 10
16.5688737358978
 20
49.2040887028267
 10
16.5688560419482
 20
49.2040864071083
 10
16.568838008417
 20
49.2040861595231
 10
16.5688201832416
 20
49.2040879675938
 10
16.5688031080289
 20
49.2040917763832
 10
16.5687873015988
 20
49.2040974701637
 10
16.5687732442205
 20
49.2041048759332
 10
16.5687613630199
 20
49.204113768672
 10
16.5687520190015
 20
49.2041238781792
 10
16.5687454960796
 20
49.2041348972834
 10
16.5687419924515
 20
49.2041464911751
 10
16.5687416145753
 20
49.2041583075801
 10
16.5687443739348
 20
49.2041699874628
 10
16.5687501866902
 20
49.2041811759357
 10
16.5687588762258
 20
49.2041915330424
 10
16.5687701785156
 20
49.2042007440867
 10
16.5687837501457
 20
49.2042085291951
 10
16.5687991787487
 20
49.2042146518202
 10
16.5688159955333
 20
49.2042189259286
 10
16.5688336895284
 20
49.204221221653
 97
0
 75
0
 76
1
 98
0
  0
HATCH
  5
20098
100
AcDbEntity
  8
0
100
AcDbHatch
 10
0
 20
0
 30
0
210
0
220
0
230
1
  2
SOLID
 70
1
 71
0
 91
1
 92
2
 72
0
 73
1
 93
37
 10
16.5702051968164
 20
49.20546720228
 10
16.5702256704756
 20
49.2054674831156
 10
16.5702459075196
 20
49.2054654302056
 10
16.5702652930533
 20
49.2054611059273
 10
16.5702832380548
 20
49.205454641672
 10
16.5702991972728
 20
49.2054462338538
 10
16.570312685794
 20
49.2054361379409
 10
16.5703232937767
 20
49.2054246606932
 10
16.5703306989042
 20
49.2054121508421
 10
16.5703346761775
 20
49.2053989884937
 10
16.5703351047518
 20
49.2053855735796
 10
16.5703319716079
 20
49.2053723137053
 10
16.5703253719477
 20
49.2053596117649
 10
16.5703155063006
 20
49.2053478537
 10
16.5703026744309
 20
49.2053373967728
 10
16.570287266229
 20
49.2053285587106
 10
16.5702697498652
 20
49.2053216080526
 10
16.5702506575637
 20
49.2053167559903
 10
16.5702305694326
 20
49.2053141499504
 10
16.5702100958367
 20
49.2053138691158
 10
16.5701898588532
 20
49.2053159220195
 10
16.5701704733697
 20
49.2053202462853
 10
16.5701525284022
 20
49.2053267105231
 10
16.5701365691978
 20
49.2053351183212
 10
16.5701230806683
 20
49.2053452142137
 10
16.5701124726562
 20
49.2053566914432
 10
16.5701050674819
 20
49.2053692012803
 10
16.5701010901501
 20
49.2053823636209
 10
16.5701006615124
 20
49.2053957785341
 10
16.5701037945958
 20
49.2054090384147
 10
16.5701103942059
 20
49.2054217403675
 10
16.570120259819
 20
49.2054334984498
 10
16.570133091675
 20
49.2054439553971
 10
16.5701484998852
 20
49.2054527934798
 10
16.5701660162784
 20
49.205459744156
 10
16.5701851086266
 20
49.2054645962323
 10
16.5702051968164
 20
49.20546720228
 97
0
 75
0
 76
1
 98
0
  0
HATCH
  5
20099
100
AcDbEntity
  8
0
100
AcDbHatch
 10
0
 20
0
 30
0
210
0
220
0
230
1
  2
SOLID
 70
1
 71
0
 91
1
 92
2
 72
0
 73
1
 93
37
 10
16.570328424835
 20
49.2056529649943
 10
16.5703536343192
 20
49.205653310762
 10
16.5703785524484
 20
49.2056507829686
 10
16.5704024220937
 20
49.2056454584206
 10
16.5704245179846
 20
49.2056374989023
 10
16.5704441687463
 20
49.205627146261
 10
16.5704607772994
 20
49.2056147150576
 10
16.5704738390019
 20
49.2056005830095
 10
16.5704829569827
 20
49.2055851795131
 10
16.5704878541998
 20
49.2055689725968
 10
16.5704883818577
 20
49.2055524547
 10
16.5704845239281
 20
49.2055361277106
 10
16.5704763976363
 20
49.2055204877157
 10
16.5704642498992
 20
49.2055060099276
 10
16.5704484498217
 20
49.2054931342456
 10
16.5704294774824
 20
49.2054822518892
 10
16.5704079093454
 20
49.2054736935119
 10
16.5703844007458
 20
49.2054677191546
 10
16.5703596659771
 20
49.205464510344
 10
16.5703344565889
 20
49.2054641645776
 10
16.5703095385514
 20
49.2054666923614
 10
16.5702856689823
 20
49.2054720168904
 10
16.5702635731429
 20
49.2054799763824
 10
16.5702439224019
 20
49.2054903289932
 10
16.5702273138362
 20
49.2055027601656
 10
16.5702142520891
 20
49.2055168921859
 10
16.5702051340373
 20
49.2055322956613
 10
16.5702002367314
 20
49.2055485025658
 10
16.5701997089775
 20
49.2055650204612
 10
16.5702035668155
 20
49.20558134746
 10
16.570211693031
 20
49.2055969874739
 10
16.5702238407167
 20
49.2056114652884
 10
16.5702396407734
 20
49.2056243410009
 10
16.5702586131255
 20
49.2056352233884
 10
16.5702801813069
 20
49.2056437817932
 10
16.5703036899775
 20
49.2056497561718
 10
16.570328424835
 20
49.2056529649943
 97
0
 75
0
 76
1
 98
0
  0
HATCH
  5
2009A
100
AcDbEntity
  8
0
100
AcDbHatch
 10
0
 20
0
 30
0
210
0
220
0
230
1
  2
SOLID
 70
1
 71
0
 91
1
 92
2
 72
0
 73
1
 93
37
 10
16.5704211669297
 20
49.2057837957185
 10
16.5704384596296
 20
49.2057840328874
 10
16.5704555524684
 20
49.2057822989149
 10
16.570471926087
 20
49.2057786464869
 10
16.5704870829796
 20
49.205773186581
 10
16.5705005626106
 20
49.2057660850944
 10
16.5705119554078
 20
49.2057575578028
 10
16.5705209152071
 20
49.2057478638042
 10
16.5705271697706
 20
49.2057372976464
 10
16.5705305290578
 20
49.2057261803774
 10
16.5705308910005
 20
49.2057148497897
 10
16.5705282446033
 20
49.205703650158
 10
16.5705226702776
 20
49.2056929217769
 10
16.570514337398
 20
49.2056829906223
 10
16.5705034991559
 20
49.2056741584471
 10
16.5704904848664
 20
49.2056666936117
 10
16.5704756899617
 20
49.2056608229305
 10
16.5704595639766
 20
49.2056567247809
 10
16.5704425968895
 20
49.2056545236825
 10
16.5704253042348
 20
49.2056542865142
 10
16.5704082114391
 20
49.2056560204824
 10
16.5703918378564
 20
49.2056596729014
 10
16.570376680988
 20
49.2056651327947
 10
16.5703632013667
 20
49.205672234267
 10
16.5703518085636
 20
49.2056807615441
 10
16.5703428487433
 20
49.2056904555296
 10
16.5703365941465
 20
49.2057010216775
 10
16.5703332348175
 20
49.205712138941
 10
16.5703328728296
 20
49.2057234695278
 10
16.5703355191836
 20
49.2057346691642
 10
16.5703410934735
 20
49.2057453975543
 10
16.5703494263289
 20
49.2057553287211
 10
16.5703602645612
 20
49.2057641609107
 10
16.5703732788567
 20
49.2057716257608
 10
16.5703880737823
 20
49.2057774964549
 10
16.5704041998008
 20
49.2057815946144
 10
16.5704211669297
 20
49.2057837957185
 97
0
 75
0
 76
1
 98
0
  0
HATCH
  5
2009B
100
AcDbEntity
  8
0
100
AcDbHatch
 10
0
 20
0
 30
0
210
0
220
0
230
1
  2
SOLID
 70
1
 71
0
 91
1
 92
2
 72
0
 73
1
 93
37
 10
16.5706552287356
 20
49.2063364596908
 10
16.5706841698168
 20
49.2063368565524
 10
16.5707127763934
 20
49.2063339545445
 10
16.5707401792637
 20
49.2063278418438
 10
16.5707655458007
 20
49.2063187041829
 10
16.5707881052521
 20
49.2063068192064
 10
16.570807172159
 20
49.2062925480351
 10
16.5708221671839
 20
49.2062763242932
 10
16.5708326347133
 20
49.2062586409326
 10
16.5708382567006
 20
49.2062400352545
 10
16.5708388623301
 20
49.2062210725836
 10
16.5708344332056
 20
49.2062023290913
 10
16.5708251039093
 20
49.2061843742884
 10
16.5708111579116
 20
49.2061677537216
 10
16.5707930189578
 20
49.2061529723966
 10
16.570771238192
 20
49.2061404794348
 10
16.570746477411
 20
49.2061306544267
 10
16.5707194889559
 20
49.2061237958984
 10
16.5706910928531
 20
49.2061201122417
 10
16.5706621518984
 20
49.206119715382
 10
16.5706335454425
 20
49.2061226173774
 10
16.5706061426726
 20
49.206128730053
 10
16.5705807762035
 20
49.2061378676791
 10
16.5705582167794
 20
49.2061497526154
 10
16.5705391498558
 20
49.2061640237459
 10
16.5705241547722
 20
49.2061802474513
 10
16.5705136871493
 20
49.206197930784
 10
16.5705080650449
 20
49.2062165364465
 10
16.5705074592889
 20
49.2062354991156
 10
16.5705118882926
 20
49.2062542426203
 10
16.5705212174885
 20
49.2062721974483
 10
16.5705351634182
 20
49.20628881805
 10
16.5705533023448
 20
49.2063035994151
 10
16.5705750831273
 20
49.2063160924177
 10
16.570599843967
 20
49.2063259174624
 10
16.5706268325156
 20
49.2063327760184
 10
16.5706552287356
 20
49.2063364596908
 97
0
 75
0
 76
1
 98
0
  0
HATCH
  5
2009C
100
AcDbEntity
  8
0
100
AcDbHatch
 10
0
 20
0
 30
0
210
0
220
0
230
1
  2
SOLID
 70
1
 71
0
 91
1
 92
2
 72
0
 73
1
 93
37
 10
16.5707391864718
 20
49.2064655793838
 10
16.5707584407127
 20
49.2064658433983
 10
16.5707774724079
 20
49.2064639127123
 10
16.5707957032864
 20
49.2064598459888
 10
16.5708125794101
 20
49.2064537667938
 10
16.5708275880054
 20
49.2064458598411
 10
16.570840273043
 20
49.2064363653805
 10
16.5708502490948
 20
49.2064255718968
 10
16.5708572130448
 20
49.2064138073457
 10
16.5708609532986
 20
49.2064014291875
 10
16.570861356213
 20
49.2063888135265
 10
16.5708584095481
 20
49.2063763436834
 10
16.5708522028391
 20
49.2063643985476
 10
16.570842924676
 20
49.2063533410658
 10
16.5708308569722
 20
49.206343507213
 10
16.5708163663994
 20
49.2063351957852
 10
16.570799893246
 20
49.2063286593201
 10
16.5707819380393
 20
49.206324096424
 10
16.5707630463373
 20
49.2063216457378
 10
16.5707437921523
 20
49.2063213817241
 10
16.5707247605106
 20
49.2063233124047
 10
16.5707065296766
 20
49.206327379117
 10
16.5706896535829
 20
49.2063334582967
 10
16.5706746449997
 20
49.2063413652316
 10
16.5706619599547
 20
49.2063508596741
 10
16.5706519838769
 20
49.2063616531415
 10
16.5706450198855
 20
49.2063734176804
 10
16.5706412795799
 20
49.2063857958316
 10
16.5706408766095
 20
49.2063984114918
 10
16.570643823221
 20
49.2064108813404
 10
16.5706500298854
 20
49.2064228264873
 10
16.5706593080185
 20
49.2064338839846
 10
16.5706713757103
 20
49.2064437178552
 10
16.5706858662904
 20
49.2064520293011
 10
16.5707023394698
 20
49.2064585657824
 10
16.5707202947179
 20
49.2064631286907
 10
16.5707391864718
 20
49.2064655793838
 97
0
 75
0
 76
1
 98
0
  0
HATCH
  5
2009D
100
AcDbEntity
  8
0
100
AcDbHatch
 10
0
 20
0
 30
0
210
0
220
0
230
1
  2
SOLID
 70
1
 71
0
 91
1
 92
2
 72
0
 73
1
 93
37
 10
16.5709244866593
 20
49.2068432714451
 10
16.5709475440888
 20
49.2068435875693
 10
16.5709703350041
 20
49.2068412755051
 10
16.5709921669112
 20
49.2068364055042
 10
16.5710123764558
 20
49.2068291255394
 10
16.5710303495791
 20
49.2068196568102
 10
16.5710455401762
 20
49.2068082870198
 10
16.5710574866888
 20
49.2067953616351
 10
16.5710658261301
 20
49.2067812733882
 10
16.5710703051128
 20
49.2067664503442
 10
16.5710707875487
 20
49.2067513428943
 10
16.571067258783
 20
49.2067364100707
 10
16.5710598260388
 20
49.2067221055993
 10
16.5710487151591
 20
49.2067088641137
 10
16.5710342637444
 20
49.2066970879485
 10
16.5710169108944
 20
49.2066871349155
 10
16.5709971838661
 20
49.2066793074314
 10
16.5709756820537
 20
49.2066738433293
 10
16.5709530587761
 20
49.2066709086322
 10
16.5709300014269
 20
49.2066705925093
 10
16.5709072105883
 20
49.2066729045655
 10
16.570885378745
 20
49.2066777745505
 10
16.5708651692435
 20
49.2066850544931
 10
16.5708471961374
 20
49.206694523197
 10
16.5708320055298
 20
49.2067058929613
 10
16.5708200589799
 20
49.2067188183229
 10
16.5708117194793
 20
49.2067329065521
 10
16.5708072404222
 20
49.2067477295862
 10
16.5708067579059
 20
49.206762837035
 10
16.570810286595
 20
49.2067777698664
 10
16.5708177192755
 20
49.2067920743537
 10
16.5708288301121
 20
49.2068053158615
 10
16.5708432815095
 20
49.2068170920522
 10
16.5708606343701
 20
49.2068270451111
 10
16.5708803614356
 20
49.2068348726183
 10
16.5709018633074
 20
49.2068403367382
 10
16.5709244866593
 20
49.2068432714451
 97
0
 75
0
 76
1
 98
0
  0
HATCH
  5
2009E
100
AcDbEntity
  8
0
100
AcDbHatch
 10
0
 20
0
 30
0
210
0
220
0
230
1
  2
SOLID
 70
1
 71
0
 91
1
 92
2
 72
0
 73
1
 93
37
 10
16.5709871504046
 20
49.207002126566
 10
16.57101051885
 20
49.2070024469404
 10
16.5710336171827
 20
49.2070001036845
 10
16.5710557435681
 20
49.2069951679971
 10
16.5710762257042
 20
49.2069877898476
 10
16.5710944412496
 20
49.2069781934181
 10
16.5711098367335
 20
49.2069666702924
 10
16.5711219443723
 20
49.2069535705963
 10
16.5711303962832
 20
49.2069392923582
 10
16.5711349356621
 20
49.2069242694163
 10
16.5711354245855
 20
49.2069089582352
 10
16.5711318482016
 20
49.2068938240378
 10
16.5711243151805
 20
49.2068793266684
 10
16.5711130544122
 20
49.2068659066215
 10
16.5710984080514
 20
49.2068539716576
 10
16.5710808211212
 20
49.2068438844131
 10
16.5710608279911
 20
49.2068359513829
 10
16.5710390361405
 20
49.2068304136068
 10
16.571016107701
 20
49.2068274393467
 10
16.5709927393382
 20
49.2068271189733
 10
16.5709696410842
 20
49.2068294622211
 10
16.5709475147642
 20
49.2068343978921
 10
16.5709270326724
 20
49.206841776019
 10
16.5709088171447
 20
49.2068513724223
 10
16.57089342165
 20
49.2068628955214
 10
16.570881313973
 20
49.2068759951938
 10
16.570872862001
 20
49.2068902734136
 10
16.5708683225458
 20
49.2069052963453
 10
16.5708678335398
 20
49.2069206075251
 10
16.570871409845
 20
49.2069357417308
 10
16.5708789428007
 20
49.2069502391166
 10
16.5708902035247
 20
49.2069636591861
 10
16.5709048498677
 20
49.2069755941762
 10
16.5709224368088
 20
49.2069856814472
 10
16.5709424299772
 20
49.2069936145013
 10
16.5709642218888
 20
49.2069991522956
 10
16.5709871504046
 20
49.207002126566
 97
0
 75
0
 76
1
 98
0
  0
HATCH
  5
2009F
100
AcDbEntity
  8
0
100
AcDbHatch
 10
0
 20
0
 30
0
210
0
220
0
230
1
  2
SOLID
 70
1
 71
0
 91
1
 92
2
 72
0
 73
1
 93
37
 10
16.5710689125614
 20
49.2071734855963
 10
16.5710951034896
 20
49.207173844646
 10
16.5711209916752
 20
49.2071712183574
 10
16.5711457905144
 20
49.2071656865293
 10
16.5711687465033
 20
49.2071574172444
 10
16.5711891621333
 20
49.2071466617621
 10
16.5712064170848
 20
49.2071337468837
 10
16.5712199870754
 20
49.2071190650228
 10
16.57122945979
 20
49.2071030622816
 10
16.5712345474085
 20
49.2070862248964
 10
16.5712350953504
 20
49.2070690644631
 10
16.5712310869715
 20
49.2070521023931
 10
16.5712226440687
 20
49.2070358540696
 10
16.5712100231793
 20
49.2070208131888
 10
16.5711936077849
 20
49.207007436759
 10
16.5711738966601
 20
49.2069961312148
 10
16.5711514887167
 20
49.2069872400679
 10
16.5711270648067
 20
49.20698103347
 10
16.5711013670347
 20
49.2069777000043
 10
16.5710751762102
 20
49.2069773409559
 10
16.5710492881235
 20
49.2069799672344
 10
16.5710244893665
 20
49.2069854990419
 10
16.5710015334333
 20
49.2069937682983
 10
16.5709811178256
 20
49.2070045237477
 10
16.5709638628604
 20
49.2070174385928
 10
16.5709502928217
 20
49.2070321204238
 10
16.5709408200305
 20
49.2070481231421
 10
16.5709357323161
 20
49.2070649605145
 10
16.5709351842706
 20
49.2070821209462
 10
16.5709391925506
 20
49.2070990830265
 10
16.5709476353711
 20
49.2071153313706
 10
16.570960256205
 20
49.2071303722799
 10
16.5709766715771
 20
49.2071437487426
 10
16.5709963827156
 20
49.2071550543202
 10
16.571018790707
 20
49.207163945497
 10
16.5710432146935
 20
49.2071701521178
 10
16.5710689125614
 20
49.2071734855963
 97
0
 75
0
 76
1
 98
0
  0
HATCH
  5
200A0
100
AcDbEntity
  8
0
100
AcDbHatch
 10
0
 20
0
 30
0
210
0
220
0
230
1
  2
SOLID
 70
1
 71
0
 91
1
 92
2
 72
0
 73
1
 93
37
 10
16.5711594340765
 20
49.2073283177006
 10
16.5711818220088
 20
49.2073286245972
 10
16.5712039511534
 20
49.2073263796439
 10
16.5712251491241
 20
49.2073216510528
 10
16.5712447718286
 20
49.2073145825004
 10
16.5712622230391
 20
49.2073053887619
 10
16.5712769725086
 20
49.2072943491857
 10
16.5712885720825
 20
49.2072817992048
 10
16.5712966693151
 20
49.2072681201449
 10
16.5713010181787
 20
49.2072537276382
 10
16.5713014865384
 20
49.207239058994
 10
16.5712980601667
 20
49.2072245599118
 10
16.5712908431755
 20
49.2072106709385
 10
16.5712800548522
 20
49.2071978140827
 10
16.5712660229962
 20
49.2071863799929
 10
16.5712491739591
 20
49.2071767160867
 10
16.5712300196901
 20
49.207169115996
 10
16.5712091421802
 20
49.2071638106447
 10
16.5711871757796
 20
49.2071609612326
 10
16.5711647879229
 20
49.207160654337
 10
16.5711426588506
 20
49.2071628992829
 10
16.57112146094
 20
49.207167627859
 10
16.5711018382761
 20
49.2071746963907
 10
16.571084387082
 20
49.207183890105
 10
16.5710696376024
 20
49.2071949296568
 10
16.5710580379934
 20
49.2072074796159
 10
16.5710499407048
 20
49.2072211586591
 10
16.5710455917712
 20
49.2072355511564
 10
16.5710451233358
 20
49.2072502197995
 10
16.5710485496352
 20
49.2072647188892
 10
16.5710557665663
 20
49.2072786078776
 10
16.571066554849
 20
49.2072914647541
 10
16.5710805866887
 20
49.207302898868
 10
16.5710974357358
 20
49.2073125627986
 10
16.5711165900399
 20
49.2073201629111
 10
16.5711374676058
 20
49.2073254682791
 10
16.5711594340765
 20
49.2073283177006
 97
0
 75
0
 76
1
 98
0
  0
HATCH
  5
200A1
100
AcDbEntity
  8
0
100
AcDbHatch
 10
0
 20
0
 30
0
210
0
220
0
230
1
  2
SOLID
 70
1
 71
0
 91
1
 92
2
 72
0
 73
1
 93
37
 10
16.5695212302891
 20
49.2049156924631
 10
16.5695438323789
 20
49.2049160026312
 10
16.5695661732903
 20
49.2049137364079
 10
16.5695875742029
 20
49.2049089626512
 10
16.5696073848579
 20
49.2049018264103
 10
16.5696250033167
 20
49.2048925445169
 10
16.5696398942507
 20
49.204881398998
 10
16.5696516052067
 20
49.2048687285055
 10
16.569659780355
 20
49.2048549180271
 10
16.5696641713004
 20
49.2048403871878
 10
16.5696646446294
 20
49.2048255775003
 10
16.5696611859636
 20
49.2048109389494
 10
16.5696539003963
 20
49.2047969163199
 10
16.5696430092983
 20
49.2047839356815
 10
16.5696288435922
 20
49.2047723914434
 10
16.5696118336964
 20
49.2047626343703
 10
16.5695924964476
 20
49.2047549609249
 10
16.5695714193967
 20
49.2047496042598
 10
16.5695492429566
 20
49.2047467271339
 10
16.5695266409441
 20
49.2047464169667
 10
16.5695043001062
 20
49.2047486831826
 10
16.5694828992549
 20
49.2047534569239
 10
16.5694630886413
 20
49.2047605931437
 10
16.5694454701991
 20
49.2047698750125
 10
16.569430579255
 20
49.2047810205066
 10
16.5694188682632
 20
49.2047936909768
 10
16.5694106930578
 20
49.2048075014382
 10
16.569406302041
 20
49.204822032268
 10
16.5694058286349
 20
49.2048368419544
 10
16.569409287227
 20
49.2048514805128
 10
16.5694165727331
 20
49.2048655031577
 10
16.5694274637896
 20
49.2048784838172
 10
16.5694416294791
 20
49.2048900280799
 10
16.5694586393851
 20
49.2048997851778
 10
16.5694779766696
 20
49.2049074586456
 10
16.5694990537776
 20
49.2049128153276
 10
16.5695212302891
 20
49.2049156924631
 97
0
 75
0
 76
1
 98
0
  0
HATCH
  5
200A2
100
AcDbEntity
  8
0
100
AcDbHatch
 10
0
 20
0
 30
0
210
0
220
0
230
1
  2
SOLID
 70
1
 71
0
 91
1
 92
2
 72
0
 73
1
 93
37
 10
16.57137065395
 20
49.2075765404187
 10
16.5713958644205
 20
49.2075768859587
 10
16.5714207834643
 20
49.2075743579414
 10
16.5714446539246
 20
49.2075690331795
 10
16.5714667505063
 20
49.2075610734642
 10
16.5714864018135
 20
49.2075507206486
 10
16.5715030107503
 20
49.2075382892991
 10
16.5715160726631
 20
49.2075241571373
 10
16.5715251906743
 20
49.2075087535631
 10
16.571530087741
 20
49.2074925466073
 10
16.5715306150722
 20
49.2074760287105
 10
16.5715267566496
 20
49.2074597017608
 10
16.5715186297136
 20
49.2074440618437
 10
16.5715064812004
 20
49.2074295841695
 10
16.5714906802388
 20
49.2074167086338
 10
16.571471706934
 20
49.2074058264517
 10
16.5714501377795
 20
49.2073972682716
 10
16.5714266281414
 20
49.2073912941281
 10
16.5714018923448
 20
49.2073880855416
 10
16.5713766819703
 20
49.2073877400028
 10
16.5713517630182
 20
49.2073902680107
 10
16.571327892634
 20
49.2073955927535
 10
16.5713057961038
 20
49.2074035524425
 10
16.5712861448173
 20
49.2074139052276
 10
16.5712695358678
 20
49.2074263365461
 10
16.5712564739105
 20
49.2074404686803
 10
16.5712473558283
 20
49.2074558722333
 10
16.5712424586728
 20
49.2074720791772
 10
16.5712419312456
 20
49.2074885970726
 10
16.5712457895765
 20
49.2075049240318
 10
16.5712539164363
 20
49.2075205639679
 10
16.571266064898
 20
49.2075350416684
 10
16.5712818658389
 20
49.2075479172347
 10
16.5713008391565
 20
49.2075587994477
 10
16.5713224083554
 20
49.2075673576556
 10
16.5713459180645
 20
49.2075733318201
 10
16.57137065395
 20
49.2075765404187
 97
0
 75
0
 76
1
 98
0
  0
HATCH
  5
200A3
100
AcDbEntity
  8
0
100
AcDbHatch
 10
0
 20
0
 30
0
210
0
220
0
230
1
  2
SOLID
 70
1
 71
0
 91
1
 92
2
 72
0
 73
1
 93
37
 10
16.5686541807817
 20
49.2040976178023
 10
16.5686766274628
 20
49.2040979493669
 10
16.5686988069999
 20
49.2040957291768
 10
16.5687201736434
 20
49.2040909183821
 10
16.5687398346572
 20
49.2040839057055
 10
16.5687572442934
 20
49.204074652298
 10
16.5687720555644
 20
49.2040635857334
 10
16.5687836782566
 20
49.2040509353613
 10
16.5687918869993
 20
49.2040372278677
 10
16.5687962131952
 20
49.2040227917139
 10
16.5687967191707
 20
49.2040080836108
 10
16.5687931943799
 20
49.2039935408438
 10
16.5687859740221
 20
49.2039796395477
 10
16.5687751352458
 20
49.2039667470326
 10
16.5687611645075
 20
49.2039552597457
 10
16.5687442753896
 20
49.2039455547092
 10
16.5687249691685
 20
49.2039379389707
 10
16.5687040496368
 20
49.2039325602041
 10
16.5686820180685
 20
49.2039297254576
 10
16.5686595714635
 20
49.2039293938941
 10
16.5686373771762
 20
49.2039317034762
 10
16.5686161618524
 20
49.203936434569
 10
16.5685964860567
 20
49.2039435366241
 10
16.5685789400005
 20
49.2039527802948
 10
16.5685641287195
 20
49.2039638468349
 10
16.5685525208147
 20
49.2039764077855
 10
16.5685443120158
 20
49.2039901152622
 10
16.5685399857495
 20
49.2040045514066
 10
16.5685394796978
 20
49.2040192595085
 10
16.5685430044159
 20
49.2040338022832
 10
16.5685502098904
 20
49.2040477929939
 10
16.5685610486258
 20
49.20406068553
 10
16.5685751557839
 20
49.2040721825537
 10
16.5685920597348
 20
49.2040817982152
 10
16.568611214732
 20
49.2040894936625
 10
16.5686321491428
 20
49.2040947830463
 10
16.5686541807817
 20
49.2040976178023
 97
0
 75
0
 76
1
 98
0
  0
HATCH
  5
200A4
100
AcDbEntity
  8
0
100
AcDbHatch
 10
0
 20
0
 30
0
210
0
220
0
230
1
  2
SOLID
 70
1
 71
0
 91
1
 92
2
 72
0
 73
1
 93
37
 10
16.5820118299621
 20
49.2525215428814
 10
16.5820468790661
 20
49.2525220196058
 10
16.5820815221544
 20
49.2525185050386
 10
16.5821147066061
 20
49.2525111059686
 10
16.5821454241218
 20
49.2525000472147
 10
16.582172741361
 20
49.2524856647938
 10
16.5821958283012
 20
49.2524683957111
 10
16.5822139834587
 20
49.2524487646816
 10
16.582226655202
 20
49.2524273681867
 10
16.5822334585129
 20
49.2524048563499
 10
16.5822341866839
 20
49.2523819131829
 10
16.5822288175982
 20
49.2523592358025
 10
16.5822175144009
 20
49.2523375132484
 10
16.5822006205405
 20
49.2523174055481
 10
16.5821786493328
 20
49.2522995236612
 10
16.5821522683638
 20
49.2522844109172
 10
16.5821222792046
 20
49.2522725265067
 10
16.5820895930569
 20
49.252264231529
 10
16.5820552030665
 20
49.2522597780208
 10
16.5820201541481
 20
49.2522593012989
 10
16.581985511237
 20
49.252262815848
 10
16.5819523269325
 20
49.2522702148811
 10
16.5819216095162
 20
49.2522812735842
 10
16.5818942923169
 20
49.2522956559462
 10
16.5818712053521
 20
49.252312924969
 10
16.5818530501085
 20
49.252332555945
 10
16.5818403782279
 20
49.2523539523993
 10
16.5818335747452
 20
49.2523764642131
 10
16.5818328463886
 20
49.2523994073776
 10
16.5818382152972
 20
49.2524220847763
 10
16.5818495183473
 20
49.2524438073671
 10
16.5818664121082
 20
49.2524639151185
 10
16.581888383276
 20
49.2524817970643
 10
16.5819147642697
 20
49.2524969098679
 10
16.5819447535149
 20
49.2525087943319
 10
16.5819774397999
 20
49.2525170893503
 10
16.5820118299621
 20
49.2525215428814
 97
0
 75
0
 76
1
 98
0
  0
HATCH
  5
200A5
100
AcDbEntity
  8
0
100
AcDbHatch
 10
0
 20
0
 30
0
210
0
220
0
230
1
  2
SOLID
 70
1
 71
0
 91
1
 92
2
 72
0
 73
1
 93
33
 10
16.6075254767323
 20
49.1995057867031
 10
16.6075258127929
 20
49.1994828362664
 10
16.6075193161996
 20
49.199460306208
 10
16.6075062634931
 20
49.1994390301681
 10
16.607487052892
 20
49.1994199408576
 10
16.6074625656623
 20
49.1994035529636
 10
16.6074336388116
 20
49.1993906493872
 10
16.607401577643
 20
49.1993816844117
 10
16.6073672929138
 20
49.1993769939164
 10
16.6073322706068
 20
49.19937677364
 10
16.6072980262072
 20
49.1993810405137
 10
16.6072655589796
 20
49.1993895939935
 10
16.6072362922359
 20
49.1994021731329
 10
16.6072112990057
 20
49.1994181303671
 10
16.6071916080668
 20
49.1994370863456
 10
16.6071779126671
 20
49.199458185694
 10
16.6071707548748
 20
49.1994806527747
 10
16.6071704334017
 20
49.1995035138057
 10
16.607176929842
 20
49.1995260438836
 10
16.60718998243
 20
49.1995473199604
 10
16.607209178214
 20
49.1995664987246
 10
16.6072336654404
 20
49.1995828866719
 10
16.6072625923512
 20
49.1995957902981
 10
16.6072946536332
 20
49.1996047553119
 10
16.607328938513
 20
49.1996094458287
 10
16.6073639609844
 20
49.1996096661061
 10
16.6073982055364
 20
49.199605399213
 10
16.6074306728826
 20
49.1995968456962
 10
16.6074599396919
 20
49.199584266508
 10
16.6074849476773
 20
49.1995682198157
 10
16.6075046385562
 20
49.1995492637874
 10
16.607518333842
 20
49.1995281644006
 10
16.6075254767323
 20
49.1995057867031
 97
0
 75
0
 76
1
 98
0
  0
HATCH
  5
200A6
100
AcDbEntity
  8
0
100
AcDbHatch
 10
0
 20
0
 30
0
210
0
220
0
230
1
  2
SOLID
 70
1
 71
0
 91
1
 92
2
 72
0
 73
1
 93
37
 10
16.4599816557992
 20
49.2560449235419
 10
16.4600220582778
 20
49.2560454829751
 10
16.4600619834668
 20
49.256041484589
 10
16.4601001722619
 20
49.2560330185851
 10
16.4601356236423
 20
49.2560202842326
 10
16.4601671549287
 20
49.2560037391156
 10
16.4601938415277
 20
49.2559839498852
 10
16.4602147889196
 20
49.2559613044235
 10
16.460229437091
 20
49.2559366670586
 10
16.4602373926592
 20
49.2559107331893
 10
16.4602382472094
 20
49.2558842875981
 10
16.4602321385597
 20
49.2558581544293
 10
16.4602192045276
 20
49.2558331578264
 10
16.4601997495548
 20
49.2558099530026
 10
16.4601744727189
 20
49.255789314078
 10
16.4601441031618
 20
49.2557718364025
 10
16.4601096431359
 20
49.2557581350082
 10
16.4600720034355
 20
49.2557485469326
 10
16.4600323830005
 20
49.2557433395114
 10
16.4599919807686
 20
49.2557427800818
 10
16.459952055815
 20
49.2557467784439
 10
16.4599137306581
 20
49.2557552345581
 10
16.4598782794105
 20
49.255767968843
 10
16.4598467481779
 20
49.2557845138818
 10
16.4598201830703
 20
49.2558044022586
 10
16.4597991140417
 20
49.2558269484232
 10
16.4597844656885
 20
49.2558515857339
 10
16.4597766464501
 20
49.2558775294135
 10
16.4597756550954
 20
49.25590396516
 10
16.4597817635096
 20
49.2559300983527
 10
16.4597948188688
 20
49.2559551942302
 10
16.4598141521857
 20
49.2559782998956
 10
16.4598394289678
 20
49.2559989388985
 10
16.4598697985566
 20
49.2560164166535
 10
16.4599043952541
 20
49.25603012796
 10
16.4599420351364
 20
49.2560397160899
 10
16.4599816557992
 20
49.2560449235419
 97
0
 75
0
 76
1
 98
0
  0
HATCH
  5
200A7
100
AcDbEntity
  8
0
100
AcDbHatch
 10
0
 20
0
 30
0
210
0
220
0
230
1
  2
SOLID
 70
1
 71
0
 91
1
 92
2
 72
0
 73
1
 93
33
 10
16.5551166257089
 20
49.2218805427247
 10
16.5551169288034
 20
49.2218629253591
 10
16.5551119415829
 20
49.2218455640881
 10
16.5551018181968
 20
49.2218291935489
 10
16.5550871370944
 20
49.2218144881662
 10
16.5550683699452
 20
49.2218019338406
 10
16.555046139752
 20
49.221791936804
 10
16.5550213276277
 20
49.2217850121432
 10
16.5549949957238
 20
49.2217814164819
 10
16.5549680994134
 20
49.2217812179207
 10
16.5549415940693
 20
49.221784484561
 10
16.5549166012527
 20
49.2217911154391
 10
16.5548941506028
 20
49.2218007316705
 10
16.5548749839426
 20
49.2218130243114
 10
16.5548597214679
 20
49.2218275852914
 10
16.5548491495656
 20
49.2218438374742
 10
16.55484366003
 20
49.221861085139
 10
16.5548433568383
 20
49.2218787025039
 10
16.5548483439681
 20
49.2218960637862
 10
16.554858467284
 20
49.2219124343475
 10
16.5548731483475
 20
49.2219271397592
 10
16.5548919154947
 20
49.2219396941162
 10
16.554914145723
 20
49.2219496911823
 10
16.5549389579148
 20
49.221956615866
 10
16.5549652899078
 20
49.22196021154
 10
16.5549921863154
 20
49.2219604101018
 10
16.5550186917503
 20
49.2219571434499
 10
16.5550436846371
 20
49.22195051255
 10
16.5550661353259
 20
49.2219408962897
 10
16.5550853019881
 20
49.2219286036174
 10
16.5551005644277
 20
49.2219140426078
 10
16.5551111362625
 20
49.2218977904021
 10
16.5551166257089
 20
49.2218805427247
 97
0
 75
0
 76
1
 98
0
  0
HATCH
  5
200A8
100
AcDbEntity
  8
0
100
AcDbHatch
 10
0
 20
0
 30
0
210
0
220
0
230
1
  2
SOLID
 70
1
 71
0
 91
1
 92
2
 72
0
 73
1
 93
37
 10
16.6099196767257
 20
49.1977820199945
 10
16.6099362102108
 20
49.1977821962018
 10
16.6099524929166
 20
49.1977805456527
 10
16.6099681155595
 20
49.1977770393559
 10
16.6099826393631
 20
49.1977718271302
 10
16.6099954891246
 20
49.1977650491308
 10
16.61000634775
 20
49.1977569542456
 10
16.610014912892
 20
49.1977477019575
 10
16.6100208674581
 20
49.1977375411545
 10
16.6100239865444
 20
49.1977269986029
 10
16.6100243918334
 20
49.1977161733716
 10
16.6100218731681
 20
49.1977055028217
 10
16.6100165227383
 20
49.1976952648315
 10
16.6100085691608
 20
49.1976857469431
 10
16.6099982263052
 20
49.1976773261031
 10
16.6099857375331
 20
49.1976702004485
 10
16.6099716190597
 20
49.1976645874436
 10
16.609956250672
 20
49.197660694889
 10
16.6099400269032
 20
49.1976586411808
 10
16.6099235082057
 20
49.1976583755691
 10
16.6099072255391
 20
49.1976600261141
 10
16.6098916029288
 20
49.1976635324028
 10
16.6098772155743
 20
49.1976687542811
 10
16.6098643658216
 20
49.1976755322675
 10
16.6098534924443
 20
49.1976837165443
 10
16.6098449272832
 20
49.1976929688205
 10
16.609838987433
 20
49.1977030402095
 10
16.6098357171352
 20
49.1977136624971
 10
16.6098354629788
 20
49.1977244079868
 10
16.6098379668582
 20
49.1977351679456
 10
16.6098433172554
 20
49.197745405944
 10
16.6098512855574
 20
49.1977548344388
 10
16.6098616284042
 20
49.1977632552918
 10
16.6098739807546
 20
49.1977703712959
 10
16.6098880992472
 20
49.1977759843127
 10
16.6099034676652
 20
49.1977798768763
 10
16.6099196767257
 20
49.1977820199945
 97
0
 75
0
 76
1
 98
0
  0
HATCH
  5
200A9
100
AcDbEntity
  8
0
100
AcDbHatch
 10
0
 20
0
 30
0
210
0
220
0
230
1
  2
SOLID
 70
1
 71
0
 91
1
 92
2
 72
0
 73
1
 93
37
 10
16.5316632085529
 20
49.174876452717
 10
16.5316759248435
 20
49.1748766315038
 10
16.5316884952971
 20
49.1748753598243
 10
16.5317005379658
 20
49.1748726763182
 10
16.5317116869383
 20
49.1748686625226
 10
16.5317216034582
 20
49.1748634403948
 10
16.5317299862168
 20
49.1748571686071
 10
16.5317365805083
 20
49.1748500377248
 10
16.531741185969
 20
49.1748422644166
 10
16.5317436626653
 20
49.1748340848705
 10
16.5317439353448
 20
49.1748257476183
 10
16.5317419957235
 20
49.1748175059831
 10
16.5317379027369
 20
49.1748096103827
 10
16.5317317807491
 20
49.1748023007207
 10
16.5317238157744
 20
49.1747957990972
 10
16.5317142498245
 20
49.1747903030603
 10
16.5317033735559
 20
49.1747859796042
 10
16.5316915174381
 20
49.1747829600943
 10
16.5316790417123
 20
49.1747813362768
 10
16.5316663254461
 20
49.1747811574903
 10
16.5316537550159
 20
49.1747824291674
 10
16.5316417123666
 20
49.1747851126687
 10
16.5316305634072
 20
49.1747891264576
 10
16.5316206468925
 20
49.1747943485776
 10
16.5316122641308
 20
49.1748006203574
 10
16.531605669828
 20
49.1748077512327
 10
16.5316010643492
 20
49.1748155245355
 10
16.5315985876304
 20
49.1748237040786
 10
16.5315983149264
 20
49.1748320413304
 10
16.5316002545243
 20
49.174840282968
 10
16.5316043474915
 20
49.1748481785733
 10
16.5316104694662
 20
49.1748554882419
 10
16.5316184344357
 20
49.1748619898732
 10
16.5316280003888
 20
49.174867485918
 10
16.5316388766686
 20
49.1748718093812
 10
16.5316507328045
 20
49.1748748288964
 10
16.5316632085529
 20
49.174876452717
 97
0
 75
0
 76
1
 98
0
  0
HATCH
  5
200AA
100
AcDbEntity
  8
0
100
AcDbHatch
 10
0
 20
0
 30
0
210
0
220
0
230
1
  2
SOLID
 70
1
 71
0
 91
1
 92
2
 72
0
 73
1
 93
37
 10
16.5306713166879
 20
49.1756256752917
 10
16.5306851566154
 20
49.1756258699925
 10
16.5306988378509
 20
49.1756244860832
 10
16.5307119446959
 20
49.1756215656132
 10
16.5307240789044
 20
49.1756171973199
 10
16.5307348717839
 20
49.1756115139319
 10
16.530743995398
 20
49.1756046881365
 10
16.5307511725305
 20
49.1755969273325
 10
16.5307561851084
 20
49.1755884673284
 10
16.530758880828
 20
49.1755795651774
 10
16.5307591777825
 20
49.1755704913671
 10
16.5307570669504
 20
49.1755615216005
 10
16.5307526124694
 20
49.1755529284193
 10
16.5307459496878
 20
49.1755449729228
 10
16.5307372810515
 20
49.1755378968344
 10
16.530726869953
 20
49.175531915157
 10
16.5307150327279
 20
49.1755272096404
 10
16.5307021290439
 20
49.175523923259
 10
16.5306885509718
 20
49.1755221558674
 10
16.5306747110733
 20
49.175521961167
 10
16.5306610298654
 20
49.1755233450735
 10
16.5306479230434
 20
49.1755262655377
 10
16.5306357888505
 20
49.1755306338231
 10
16.5306249959773
 20
49.1755363172019
 10
16.5306158723594
 20
49.1755431429879
 10
16.5306086952135
 20
49.1755509037835
 10
16.5306036826142
 20
49.1755593637813
 10
16.5306009868679
 20
49.1755682659286
 10
16.5306006898844
 20
49.1755773397386
 10
16.5306028006889
 20
49.175586309508
 10
16.5306072551469
 20
49.1755949026949
 10
16.5306139179129
 20
49.1756028581993
 10
16.5306225865429
 20
49.175609934297
 10
16.5306329976453
 20
49.1756159159837
 10
16.5306448348837
 20
49.1756206215087
 10
16.5306577385891
 20
49.1756239078965
 10
16.5306713166879
 20
49.1756256752917
 97
0
 75
0
 76
1
 98
0
  0
HATCH
  5
200AB
100
AcDbEntity
  8
0
100
AcDbHatch
 10
0
 20
0
 30
0
210
0
220
0
230
1
  2
SOLID
 70
1
 71
0
 91
1
 92
2
 72
0
 73
1
 93
37
 10
16.5313851405401
 20
49.1750939222921
 10
16.5314016574473
 20
49.1750941545528
 10
16.5314179849404
 20
49.1750925028425
 10
16.5314336269151
 20
49.1750890173476
 10
16.5314481080963
 20
49.1750838039736
 10
16.5314609884796
 20
49.1750770211267
 10
16.5314718767009
 20
49.1750688749008
 10
16.5314804419272
 20
49.1750596128156
 10
16.5314864239092
 20
49.1750495162953
 10
16.531489640889
 20
49.175038892118
 10
16.5314899951218
 20
49.1750280630942
 10
16.5314874758464
 20
49.1750173582582
 10
16.5314821596115
 20
49.1750071028711
 10
16.5314742079496
 20
49.174997608537
 10
16.531463862469
 20
49.1749891637362
 10
16.5314514375122
 20
49.1749820250589
 10
16.5314373106051
 20
49.1749764094096
 10
16.5314219109857
 20
49.1749724874166
 10
16.5314057065623
 20
49.1749703782471
 10
16.5313891896963
 20
49.174970145987
 10
16.5313728622425
 20
49.1749717976933
 10
16.5313572203006
 20
49.17497528318
 10
16.5313427391416
 20
49.1749804965427
 10
16.5313298587671
 20
49.1749872793765
 10
16.5313189705405
 20
49.174995425589
 10
16.5313104052952
 20
49.1750046876623
 10
16.5313044232827
 20
49.1750147841735
 10
16.5313012062648
 20
49.1750254083457
 10
16.5313008519907
 20
49.1750362373689
 10
16.5313033712268
 20
49.1750469422089
 10
16.531308687429
 20
49.1750571976042
 10
16.5313166390687
 20
49.1750666919496
 10
16.5313269845404
 20
49.1750751367636
 10
16.5313394095025
 20
49.1750822754542
 10
16.5313535364287
 20
49.1750878911153
 10
16.5313689360786
 20
49.1750918131175
 10
16.5313851405401
 20
49.1750939222921
 97
0
 75
0
 76
1
 98
0
  0
HATCH
  5
200AC
100
AcDbEntity
  8
0
100
AcDbHatch
 10
0
 20
0
 30
0
210
0
220
0
230
1
  2
SOLID
 70
1
 71
0
 91
1
 92
2
 72
0
 73
1
 93
37
 10
16.5313072815588
 20
49.1751331286202
 10
16.5313169153118
 20
49.1751332752261
 10
16.5313263185944
 20
49.1751323198196
 10
16.5313354914061
 20
49.1751302624009
 10
16.5313438585853
 20
49.1751272427329
 10
16.5313512689009
 20
49.1751233404543
 10
16.5313575860032
 20
49.1751185458085
 10
16.531362614017
 20
49.1751132066193
 10
16.5313660653624
 20
49.1751073927685
 10
16.5313679251583
 20
49.1751011936515
 10
16.5313681487611
 20
49.1750948774535
 10
16.5313666915271
 20
49.1750887123599
 10
16.5313635385756
 20
49.1750827877658
 10
16.5313589477243
 20
49.1750772125796
 10
16.5313529957972
 20
49.1750723541383
 10
16.5313458191438
 20
49.1750682221986
 10
16.5313375392319
 20
49.175064915912
 10
16.5313286716955
 20
49.1750626530956
 10
16.5313192165341
 20
49.1750614337494
 10
16.5313095827951
 20
49.1750612871437
 10
16.5313001795256
 20
49.1750622425488
 10
16.5312911430744
 20
49.1750643097216
 10
16.5312826395533
 20
49.1750673196289
 10
16.5312752292407
 20
49.1750712219032
 10
16.5312689121365
 20
49.1750760165445
 10
16.5312638841163
 20
49.1750813557296
 10
16.5312604327608
 20
49.1750871695774
 10
16.531258572952
 20
49.1750933686927
 10
16.5312583493353
 20
49.1750996848905
 10
16.5312598065561
 20
49.1751058499854
 10
16.5312629594967
 20
49.1751117745823
 10
16.5312675503404
 20
49.1751173497723
 10
16.5312735022645
 20
49.175122208218
 10
16.5312808152691
 20
49.1751263499191
 10
16.531288958838
 20
49.1751296464529
 10
16.5312978263846
 20
49.1751319092723
 10
16.5313072815588
 20
49.1751331286202
 97
0
 75
0
 76
1
 98
0
  0
HATCH
  5
200AD
100
AcDbEntity
  8
0
100
AcDbHatch
 10
0
 20
0
 30
0
210
0
220
0
230
1
  2
SOLID
 70
1
 71
0
 91
1
 92
2
 72
0
 73
1
 93
37
 10
16.5314755109478
 20
49.1749273389607
 10
16.5314880599309
 20
49.1749275154154
 10
16.5315004650013
 20
49.1749262604888
 10
16.5315123492361
 20
49.1749236123114
 10
16.531523351538
 20
49.1749196513469
 10
16.531533137607
 20
49.1749144979473
 10
16.5315414100982
 20
49.1749083086967
 10
16.5315479176562
 20
49.1749012716525
 10
16.5315524625527
 20
49.1748936006321
 10
16.5315549066941
 20
49.1748855287158
 10
16.5315551758173
 20
49.1748773011648
 10
16.5315532617464
 20
49.1748691679691
 10
16.5315492226403
 20
49.1748613762516
 10
16.5315431812262
 20
49.1748541627596
 10
16.5315353210699
 20
49.174847746671
 10
16.5315258809985
 20
49.1748423229351
 10
16.5315151478437
 20
49.1748380563489
 10
16.5315034477264
 20
49.1748350765504
 10
16.5314911361481
 20
49.1748334740788
 10
16.5314785871887
 20
49.1748332976245
 10
16.5314661821411
 20
49.1748345525487
 10
16.5314542979252
 20
49.1748372007214
 10
16.5314432956361
 20
49.1748411616794
 10
16.5314335095722
 20
49.1748463150713
 10
16.5314252370779
 20
49.1748525043143
 10
16.5314187295089
 20
49.1748595413516
 10
16.5314141845949
 20
49.1748672123667
 10
16.5314117404315
 20
49.1748752842801
 10
16.5314114712844
 20
49.1748835118308
 10
16.5314133853326
 20
49.1748916450288
 10
16.5314174244198
 20
49.174899436751
 10
16.5314234658211
 20
49.1749066502495
 10
16.5314313259723
 20
49.1749130663457
 10
16.5314407660468
 20
49.1749184900894
 10
16.5314514992126
 20
49.1749227566824
 10
16.5314631993474
 20
49.1749257364861
 10
16.5314755109478
 20
49.1749273389607
 97
0
 75
0
 76
1
 98
0
  0
HATCH
  5
200AE
100
AcDbEntity
  8
0
100
AcDbHatch
 10
0
 20
0
 30
0
210
0
220
0
230
1
  2
SOLID
 70
1
 71
0
 91
1
 92
2
 72
0
 73
1
 93
37
 10
16.53158752043
 20
49.1748661520178
 10
16.5316040372623
 20
49.1748663842495
 10
16.5316203646737
 20
49.1748647325104
 10
16.5316360065622
 20
49.1748612469879
 10
16.5316504876556
 20
49.1748560335883
 10
16.5316633679521
 20
49.1748492507185
 10
16.53167425609
 20
49.1748411044733
 10
16.5316828212391
 20
49.1748318423727
 10
16.5316888031524
 20
49.1748217458415
 10
16.531692020074
 20
49.1748111216582
 10
16.5316923742609
 20
49.1748002926334
 10
16.5316898549534
 20
49.1747895878015
 10
16.5316845387009
 20
49.1747793324233
 10
16.5316765870368
 20
49.174769838103
 10
16.5316662415692
 20
49.1747613933199
 10
16.5316538166403
 20
49.1747542546642
 10
16.5316396897751
 20
49.1747486390396
 10
16.5316242902104
 20
49.1747447170735
 10
16.5316080858528
 20
49.1747426079324
 10
16.5315915690617
 20
49.1747423757013
 10
16.5315752416897
 20
49.1747440274364
 10
16.5315595998339
 20
49.1747475129506
 10
16.5315451187627
 20
49.1747527263389
 10
16.5315322384752
 20
49.1747595091956
 10
16.5315213503318
 20
49.1747676554275
 10
16.5315127851637
 20
49.1747769175162
 10
16.53150680322
 20
49.1747870140383
 10
16.5315035862603
 20
49.1747976382165
 10
16.5315032320321
 20
49.1748084672407
 10
16.5315057513003
 20
49.1748191720766
 10
16.53151106752
 20
49.174829427463
 10
16.531519019162
 20
49.1748389217947
 10
16.5315293646207
 20
49.1748473665908
 10
16.5315417895549
 20
49.1748545052598
 10
16.5315559164392
 20
49.1748601208963
 10
16.5315713160343
 20
49.1748640428716
 10
16.53158752043
 20
49.1748661520178
 97
0
 75
0
 76
1
 98
0
  0
HATCH
  5
200AF
100
AcDbEntity
  8
0
100
AcDbHatch
 10
0
 20
0
 30
0
210
0
220
0
230
1
  2
SOLID
 70
1
 71
0
 91
1
 92
2
 72
0
 73
1
 93
37
 10
16.5290037509878
 20
49.1766265881645
 10
16.5290304513395
 20
49.1766269641639
 10
16.5290568456396
 20
49.1766242947202
 10
16.5290821319061
 20
49.1766186609436
 10
16.5291055418245
 20
49.1766102340146
 10
16.5291263640939
 20
49.1765992699824
 10
16.5291439660389
 20
49.1765861019852
 10
16.5291578128341
 20
49.1765711301275
 10
16.5291674837538
 20
49.1765548093229
 10
16.5291726849557
 20
49.1765376354719
 10
16.5291732584083
 20
49.176520130394
 10
16.5291691866924
 20
49.1765028259722
 10
16.5291605935297
 20
49.1764862479919
 10
16.529147740023
 20
49.1764709001659
 10
16.5291310167221
 20
49.1764572488287
 10
16.5291109317572
 20
49.1764457087678
 10
16.5290880953991
 20
49.1764366306204
 10
16.5290632015167
 20
49.1764302902202
 10
16.5290370064945
 20
49.1764268802158
 10
16.5290103062505
 20
49.176426504218
 10
16.5289839120532
 20
49.1764291736511
 10
16.5289586258723
 20
49.1764348074063
 10
16.5289352160118
 20
49.1764432343058
 10
16.5289143937658
 20
49.1764541983037
 10
16.5288967918066
 20
49.1764673662661
 10
16.5288829449616
 20
49.1764823380927
 10
16.5288732739624
 20
49.1764986588736
 10
16.5288680726609
 20
49.1765158327111
 10
16.5288674991005
 20
49.1765333377874
 10
16.5288715707136
 20
49.1765506422199
 10
16.5288801637907
 20
49.1765672202214
 10
16.5288930172396
 20
49.1765825680771
 10
16.5289097405171
 20
49.1765962194485
 10
16.5289298254961
 20
49.1766077595442
 10
16.5289526619041
 20
49.1766168377227
 10
16.5289775558659
 20
49.1766231781467
 10
16.5290037509878
 20
49.1766265881645
 97
0
 75
0
 76
1
 98
0
  0
HATCH
  5
200B0
100
AcDbEntity
  8
0
100
AcDbHatch
 10
0
 20
0
 30
0
210
0
220
0
230
1
  2
SOLID
 70
1
 71
0
 91
1
 92
2
 72
0
 73
1
 93
37
 10
16.5292202328549
 20
49.176475816829
 10
16.529237132669
 20
49.176476054785
 10
16.529253838762
 20
49.1764743651436
 10
16.5292698435259
 20
49.176470799244
 10
16.5292846606624
 20
49.1764654654344
 10
16.5292978399592
 20
49.1764585257806
 10
16.5293089809698
 20
49.176450191141
 10
16.5293177451804
 20
49.1764407147601
 10
16.5293238662957
 20
49.1764303845735
 10
16.5293271583303
 20
49.176419514459
 10
16.5293275212591
 20
49.1764084347
 10
16.5293249440567
 20
49.1763974819492
 10
16.5293195050319
 20
49.1763869890003
 10
16.5293113694482
 20
49.1763772746759
 10
16.5293007845024
 20
49.1763686341401
 10
16.5292880718131
 20
49.1763613299308
 10
16.5292736176485
 20
49.176355583982
 10
16.5292578611904
 20
49.1763515708808
 10
16.5292412811893
 20
49.1763494125629
 10
16.5292243814183
 20
49.1763491746074
 10
16.5292076753665
 20
49.1763508642446
 10
16.5291916706369
 20
49.1763544301357
 10
16.5291768535236
 20
49.1763597639335
 10
16.5291636742361
 20
49.1763667035735
 10
16.5291525332199
 20
49.1763750381992
 10
16.5291437689894
 20
49.1763845145676
 10
16.5291376478422
 20
49.1763948447447
 10
16.5291343557677
 20
49.1764057148538
 10
16.5291339927957
 20
49.1764167946122
 10
16.5291365699569
 20
49.1764277473672
 10
16.5291420089475
 20
49.1764382403246
 10
16.5291501445079
 20
49.176447954661
 10
16.5291607294444
 20
49.1764565952104
 10
16.5291734421394
 20
49.1764638994337
 10
16.5291878963239
 20
49.176469645395
 10
16.5292036528138
 20
49.1764736585057
 10
16.5292202328549
 20
49.176475816829
 97
0
 75
0
 76
1
 98
0
  0
HATCH
  5
200B1
100
AcDbEntity
  8
0
100
AcDbHatch
 10
0
 20
0
 30
0
210
0
220
0
230
1
  2
SOLID
 70
1
 71
0
 91
1
 92
2
 72
0
 73
1
 93
37
 10
16.5293255233085
 20
49.1764301622025
 10
16.5293460564449
 20
49.1764304512983
 10
16.5293663542065
 20
49.1764283983765
 10
16.5293857998532
 20
49.1764240658143
 10
16.5294038025367
 20
49.1764175852549
 10
16.529419815253
 20
49.1764091536078
 10
16.5294333514632
 20
49.1763990270651
 10
16.5294439998767
 20
49.1763875133177
 10
16.5294514369483
 20
49.1763749622057
 10
16.5294554367083
 20
49.176361755089
 10
16.5294558776289
 20
49.1763482932595
 10
16.5294527463156
 20
49.1763349857481
 10
16.5294461379147
 20
49.1763222368966
 10
16.5294362532213
 20
49.1763104340718
 10
16.5294233925783
 20
49.1762999358956
 10
16.5294079467506
 20
49.1762910613491
 10
16.5293903850513
 20
49.1762840800798
 10
16.5293712410826
 20
49.1762792042093
 10
16.5293510965221
 20
49.1762765818878
 10
16.5293305634494
 20
49.1762762927929
 10
16.5293102657486
 20
49.1762783457085
 10
16.5292908201525
 20
49.1762826782581
 10
16.5292728175032
 20
49.1762891587999
 10
16.5292568048007
 20
49.1762975904268
 10
16.5292432685822
 20
49.1763077169489
 10
16.5292326201393
 20
49.1763192306779
 10
16.5292251830207
 20
49.1763317817758
 10
16.5292211832017
 20
49.1763449888846
 10
16.5292207422174
 20
49.1763584507132
 10
16.5292238734699
 20
49.1763717582308
 10
16.5292304818202
 20
49.1763845070949
 10
16.5292403664794
 20
49.1763963099374
 10
16.5292532271086
 20
49.1764068081337
 10
16.5292686729446
 20
49.1764156827008
 10
16.5292862346733
 20
49.1764226639885
 10
16.5293053786891
 20
49.176427539873
 10
16.5293255233085
 20
49.1764301622025
 97
0
 75
0
 76
1
 98
0
  0
HATCH
  5
200B2
100
AcDbEntity
  8
0
100
AcDbHatch
 10
0
 20
0
 30
0
210
0
220
0
230
1
  2
SOLID
 70
1
 71
0
 91
1
 92
2
 72
0
 73
1
 93
37
 10
16.5306018372527
 20
49.1755946506648
 10
16.5306109682525
 20
49.175594779126
 10
16.5306199945556
 20
49.1755938660865
 10
16.530628641902
 20
49.1755919392886
 10
16.5306366475459
 20
49.1755890572771
 10
16.5306437682396
 20
49.1755853076207
 10
16.5306497876242
 20
49.1755808042511
 10
16.5306545228039
 20
49.1755756840009
 10
16.530657829903
 20
49.1755701024465
 10
16.5306596084372
 20
49.1755642291809
 10
16.5306598043673
 20
49.1755582426602
 10
16.5306584117406
 20
49.1755523247819
 10
16.5306554728719
 20
49.1755466553576
 10
16.5306510770577
 20
49.1755414066499
 10
16.5306453578629
 20
49.1755367381379
 10
16.5306384890624
 20
49.1755327916718
 10
16.5306306793612
 20
49.1755296871628
 10
16.5306221660529
 20
49.1755275189395
 10
16.5306132078096
 20
49.1755263528825
 10
16.5306040768224
 20
49.1755262244215
 10
16.5305950505312
 20
49.1755271374598
 10
16.5305864031949
 20
49.1755290642553
 10
16.5305783975578
 20
49.1755319462633
 10
16.5305712768668
 20
49.1755356959156
 10
16.5305652574805
 20
49.1755401992812
 10
16.530560522295
 20
49.1755453195277
 10
16.5305572151867
 20
49.1755509010793
 10
16.5305554366408
 20
49.1755567743434
 10
16.5305552406981
 20
49.1755627608639
 10
16.5305566333127
 20
49.1755686787435
 10
16.5305595721714
 20
49.1755743481702
 10
16.5305639679789
 20
49.1755795968814
 10
16.530569687171
 20
49.1755842653973
 10
16.5305765559731
 20
49.1755882118676
 10
16.5305843656801
 20
49.1755913163802
 10
16.5305928789977
 20
49.1755934846062
 10
16.5306018372527
 20
49.1755946506648
 97
0
 75
0
 76
1
 98
0
  0
HATCH
  5
200B3
100
AcDbEntity
  8
0
100
AcDbHatch
 10
0
 20
0
 30
0
210
0
220
0
230
1
  2
SOLID
 70
1
 71
0
 91
1
 92
2
 72
0
 73
1
 93
37
 10
16.529436261584
 20
49.176351788968
 10
16.5294517032435
 20
49.1763520063643
 10
16.5294669678891
 20
49.1763504624769
 10
16.5294815917105
 20
49.1763472042162
 10
16.5294951303692
 20
49.1763423305831
 10
16.5295071724989
 20
49.176335989661
 10
16.5295173522053
 20
49.176328374116
 10
16.5295253601833
 20
49.1763197153432
 10
16.5295309531154
 20
49.1763102764354
 10
16.5295339610643
 20
49.1763003441895
 10
16.5295342926365
 20
49.1762902203919
 10
16.5295319377591
 20
49.1762802126491
 10
16.5295269679852
 20
49.1762706250412
 10
16.5295195343204
 20
49.1762617488824
 10
16.5295098626335
 20
49.1762538538699
 10
16.5294982467942
 20
49.1762471798892
 10
16.5294850397438
 20
49.1762419297252
 10
16.5294706427711
 20
49.1762382629011
 10
16.5294554933194
 20
49.176236290831
 10
16.5294400516959
 20
49.1762360734352
 10
16.5294247870847
 20
49.176237617319
 10
16.5294101632919
 20
49.1762408755726
 10
16.5293966246526
 20
49.1762457491958
 10
16.5293845825307
 20
49.1762520901064
 10
16.5293744028196
 20
49.1762597056398
 10
16.5293663948249
 20
49.1762683644022
 10
16.5293608018663
 20
49.1762778033021
 10
16.529357793884
 20
49.1762877355435
 10
16.5293574622758
 20
49.1762978593406
 10
16.5293598171188
 20
49.1763078670868
 10
16.5293647868641
 20
49.1763174547019
 10
16.5293722205096
 20
49.1763263308706
 10
16.5293818921887
 20
49.1763342258945
 10
16.5293935080326
 20
49.1763408998869
 10
16.5294067150997
 20
49.1763461500613
 10
16.529421112099
 20
49.1763498168934
 10
16.529436261584
 20
49.176351788968
 97
0
 75
0
 76
1
 98
0
  0
HATCH
  5
200B4
100
AcDbEntity
  8
0
100
AcDbHatch
 10
0
 20
0
 30
0
210
0
220
0
230
1
  2
SOLID
 70
1
 71
0
 91
1
 92
2
 72
0
 73
1
 93
37
 10
16.529653832653
 20
49.1762375504024
 10
16.529670349933
 20
49.1762377829112
 10
16.5296866778603
 20
49.1762361314464
 10
16.5297023203175
 20
49.1762326461872
 10
16.5297168020148
 20
49.1762274330316
 10
16.5297296829322
 20
49.1762206503794
 10
16.5297405716892
 20
49.1762125043186
 10
16.5297491374367
 20
49.1762032423637
 10
16.5297551199096
 20
49.1761931459351
 10
16.5297583373348
 20
49.176182521808
 10
16.5297586919543
 20
49.1761716927914
 10
16.529756172995
 20
49.1761609879195
 10
16.5297508569959
 20
49.1761507324543
 10
16.5297429054825
 20
49.1761412380025
 10
16.5297325600584
 20
49.1761327930478
 10
16.5297201350647
 20
49.1761256541851
 10
16.5297060080281
 20
49.1761200383246
 10
16.5296906081906
 20
49.1761161161009
 10
16.5296744034672
 20
49.1761140066883
 10
16.5296578862285
 20
49.1761137741802
 10
16.5296415583405
 20
49.1761154256409
 10
16.5296259159161
 20
49.176118910892
 10
16.529611434241
 20
49.1761241240362
 10
16.5295985533325
 20
49.1761309066753
 10
16.52958766457
 20
49.1761390527228
 10
16.5295790988035
 20
49.1761483146658
 10
16.5295731163002
 20
49.1761584110853
 10
16.5295698988369
 20
49.1761690352072
 10
16.5295695441761
 20
49.1761798642232
 10
16.5295720630961
 20
49.1761905690991
 10
16.5295773790625
 20
49.1762008245725
 10
16.5295853305538
 20
49.1762103190356
 10
16.5295956759688
 20
49.1762187640035
 10
16.529608100968
 20
49.1762259028795
 10
16.5296222280237
 20
49.1762315187519
 10
16.5296376278915
 20
49.1762354409847
 10
16.529653832653
 20
49.1762375504024
 97
0
 75
0
 76
1
 98
0
  0
HATCH
  5
200B5
100
AcDbEntity
  8
0
100
AcDbHatch
 10
0
 20
0
 30
0
210
0
220
0
230
1
  2
SOLID
 70
1
 71
0
 91
1
 92
2
 72
0
 73
1
 93
37
 10
16.5293253443189
 20
49.1762240809981
 10
16.5293406425175
 20
49.17622429639
 10
16.5293557653506
 20
49.1762227668566
 10
16.529370253317
 20
49.1762195388723
 10
16.5293836662059
 20
49.1762147105181
 10
16.5293955964726
 20
49.1762084285013
 10
16.5294056816216
 20
49.1762008836986
 10
16.5294136152211
 20
49.1761923053554
 10
16.5294191562132
 20
49.1761829541206
 10
16.529422136239
 20
49.1761731141274
 10
16.5294224647534
 20
49.176163084359
 10
16.5294201317762
 20
49.176153169565
 10
16.5294152081953
 20
49.1761436710012
 10
16.5294078436124
 20
49.1761348772762
 10
16.5293982617975
 20
49.1761270555826
 10
16.5293867538897
 20
49.1761204435781
 10
16.5293736695505
 20
49.1761152421645
 10
16.5293594063404
 20
49.1761116093837
 10
16.5293443976385
 20
49.1761096556156
 10
16.5293290994752
 20
49.1761094402242
 10
16.5293139766759
 20
49.1761109697541
 10
16.5292994887375
 20
49.1761141977314
 10
16.5292860758677
 20
49.1761190260759
 10
16.5292741456086
 20
49.1761253080814
 10
16.529264060455
 20
49.1761328528727
 10
16.5292561268392
 20
49.1761414312057
 10
16.5292505858209
 20
49.1761507824327
 10
16.5292476057624
 20
49.1761606224215
 10
16.5292472772127
 20
49.1761706521894
 10
16.5292496101561
 20
49.1761805669868
 10
16.529254533709
 20
49.1761900655577
 10
16.5292618982728
 20
49.1761988592924
 10
16.52927148008
 20
49.1762066809972
 10
16.5292829879925
 20
49.1762132930132
 10
16.529296072348
 20
49.176218494437
 10
16.5293103355843
 20
49.1762221272256
 10
16.5293253443189
 20
49.1762240809981
 97
0
 75
0
 76
1
 98
0
  0
HATCH
  5
200B6
100
AcDbEntity
  8
0
100
AcDbHatch
 10
0
 20
0
 30
0
210
0
220
0
230
1
  2
SOLID
 70
1
 71
0
 91
1
 92
2
 72
0
 73
1
 93
37
 10
16.5294327216101
 20
49.1761567747673
 10
16.5294509121004
 20
49.1761570308645
 10
16.5294688940656
 20
49.1761552121364
 10
16.5294861211307
 20
49.1761513738441
 10
16.5295020698582
 20
49.1761456326129
 10
16.529516255653
 20
49.1761381628876
 10
16.5295282474864
 20
49.1761291916328
 10
16.5295376809928
 20
49.1761189914363
 10
16.5295442695409
 20
49.1761078722266
 10
16.5295478129428
 20
49.1760961718556
 10
16.5295482035361
 20
49.1760842458335
 10
16.529545429455
 20
49.1760724565266
 10
16.5295395749907
 20
49.1760611621468
 10
16.52953081803
 20
49.1760507058675
 10
16.5295194246498
 20
49.1760414053969
 10
16.5295057410329
 20
49.1760335433244
 10
16.5294901829486
 20
49.1760273585344
 10
16.5294732231204
 20
49.1760230389479
 10
16.5294553768625
 20
49.1760207158128
 10
16.5294371864222
 20
49.1760204597163
 10
16.5294192045048
 20
49.1760222784396
 10
16.5294019774794
 20
49.1760261167219
 10
16.5293860287787
 20
49.1760318579395
 10
16.5293718429947
 20
49.1760393276488
 10
16.5293598511548
 20
49.1760482988875
 10
16.5293504176253
 20
49.1760584990695
 10
16.5293438290403
 20
49.1760696182683
 10
16.5293402855921
 20
49.176081318633
 10
16.5293398949489
 20
49.1760932446543
 10
16.5293426689823
 20
49.1761050339661
 10
16.5293485234068
 20
49.1761163283559
 10
16.5293572803407
 20
49.1761267846489
 10
16.52936867371
 20
49.1761360851354
 10
16.5293823573335
 20
49.176143947224
 10
16.5293979154409
 20
49.1761501320285
 10
16.529414875306
 20
49.176154451626
 10
16.5294327216101
 20
49.1761567747673
 97
0
 75
0
 76
1
 98
0
  0
HATCH
  5
200B7
100
AcDbEntity
  8
0
100
AcDbHatch
 10
0
 20
0
 30
0
210
0
220
0
230
1
  2
SOLID
 70
1
 71
0
 91
1
 92
2
 72
0
 73
1
 93
37
 10
16.5303910738626
 20
49.1758379216561
 10
16.5304084993366
 20
49.1758381668397
 10
16.5304257250171
 20
49.1758364244458
 10
16.5304422275083
 20
49.1758327474164
 10
16.5304575053887
 20
49.1758272474765
 10
16.5304710944467
 20
49.1758200917397
 10
16.5304825817851
 20
49.17581149763
 10
16.5304916183672
 20
49.1758017262758
 10
16.530497929622
 20
49.1757910745753
 10
16.5305013237868
 20
49.1757798661755
 10
16.5305016977334
 20
49.1757684416382
 10
16.5304990401018
 20
49.1757571480923
 10
16.5304934316447
 20
49.1757463286861
 10
16.5304850427739
 20
49.1757363121616
 10
16.5304741283822
 20
49.175727402865
 10
16.5304610200981
 20
49.1757198715004
 10
16.5304461162101
 20
49.1757139469036
 10
16.5304298695643
 20
49.17570980909
 10
16.5304127738053
 20
49.1757075837845
 10
16.5303953483771
 20
49.1757073386015
 10
16.5303781227405
 20
49.1757090809909
 10
16.5303616202857
 20
49.1757127580112
 10
16.5303463424299
 20
49.1757182579385
 10
16.5303327533818
 20
49.1757254136607
 10
16.5303212660374
 20
49.1757340077556
 10
16.5303122294341
 20
49.1757437790965
 10
16.5303059181455
 20
49.1757544307869
 10
16.5303025239383
 20
49.175765639181
 10
16.5303021499458
 20
49.1757770637176
 10
16.5303048075336
 20
49.175788357268
 10
16.5303104159543
 20
49.1757991766833
 10
16.5303188048003
 20
49.1758091932204
 10
16.5303297191822
 20
49.1758181025315
 10
16.5303428274722
 20
49.1758256339111
 10
16.5303577313814
 20
49.1758315585211
 10
16.5303739780611
 20
49.1758356963448
 10
16.5303910738626
 20
49.1758379216561
 97
0
 75
0
 76
1
 98
0
  0
HATCH
  5
200B8
100
AcDbEntity
  8
0
100
AcDbHatch
 10
0
 20
0
 30
0
210
0
220
0
230
1
  2
SOLID
 70
1
 71
0
 91
1
 92
2
 72
0
 73
1
 93
37
 10
16.5304888682621
 20
49.1757577166943
 10
16.5305027082256
 20
49.1757579114171
 10
16.5305163895027
 20
49.1757565275295
 10
16.5305294963933
 20
49.1757536070803
 10
16.5305416306502
 20
49.1757492388063
 10
16.5305524235794
 20
49.1757435554355
 10
16.530561547243
 20
49.1757367296547
 10
16.5305687244231
 20
49.1757289688622
 10
16.5305737370456
 20
49.1757205088662
 10
16.5305764328051
 20
49.1757116067197
 10
16.5305767297939
 20
49.1757025329099
 10
16.5305746189891
 20
49.1756935631402
 10
16.530570164528
 20
49.1756849699522
 10
16.5305635017579
 20
49.1756770144453
 10
16.5305548331246
 20
49.1756699383433
 10
16.5305444220204
 20
49.1756639566495
 10
16.5305325847811
 20
49.1756592511142
 10
16.5305196810748
 20
49.1756559647124
 10
16.5305061029731
 20
49.1756541972995
 10
16.5304922630385
 20
49.1756540025771
 10
16.530478581789
 20
49.1756553864619
 10
16.5304654749214
 20
49.1756583069053
 10
16.5304533406801
 20
49.1756626751714
 10
16.5304425477571
 20
49.175668358533
 10
16.5304334240898
 20
49.1756751843044
 10
16.5304262468962
 20
49.1756829450885
 10
16.5304212342525
 20
49.1756914050781
 10
16.5304185384661
 20
49.1757003072211
 10
16.5304182414485
 20
49.1757093810305
 10
16.5304203522256
 20
49.175718350803
 10
16.5304248066637
 20
49.1757269439968
 10
16.5304314694182
 20
49.1757348995116
 10
16.5304401380452
 20
49.1757419756228
 10
16.5304505491533
 20
49.175747957326
 10
16.5304623864059
 20
49.1757526628696
 10
16.5304752901336
 20
49.1757559492778
 10
16.5304888682621
 20
49.1757577166943
 97
0
 75
0
 76
1
 98
0
  0
HATCH
  5
200B9
100
AcDbEntity
  8
0
100
AcDbHatch
 10
0
 20
0
 30
0
210
0
220
0
230
1
  2
SOLID
 70
1
 71
0
 91
1
 92
2
 72
0
 73
1
 93
37
 10
16.5305822031709
 20
49.1756960082316
 10
16.5305967363101
 20
49.1756962126955
 10
16.5306111028118
 20
49.1756947594822
 10
16.5306248661557
 20
49.1756916927471
 10
16.5306376081485
 20
49.1756871056714
 10
16.5306489416304
 20
49.1756811376318
 10
16.5306585222389
 20
49.1756739699644
 10
16.5306660588723
 20
49.1756658204557
 10
16.5306713225345
 20
49.1756569367248
 10
16.5306741532928
 20
49.1756475886997
 10
16.5306744651374
 20
49.1756380604155
 10
16.5306722485945
 20
49.1756286413845
 10
16.530667571014
 20
49.1756196177989
 10
16.5306605745229
 20
49.1756112638355
 10
16.5306514717069
 20
49.1756038333249
 10
16.5306405391508
 20
49.175597552039
 10
16.5306281090345
 20
49.1755926108308
 10
16.5306145590402
 20
49.1755891598363
 10
16.5306003008765
 20
49.1755873039117
 10
16.5305857677692
 20
49.1755870994483
 10
16.530571401298
 20
49.1755885526584
 10
16.5305576379794
 20
49.1755916193873
 10
16.5305448960037
 20
49.1755962064542
 10
16.5305335625288
 20
49.1756021744837
 10
16.5305239819161
 20
49.1756093421407
 10
16.5305164452679
 20
49.1756174916402
 10
16.5305111815822
 20
49.1756263753641
 10
16.5305083507944
 20
49.1756357233852
 10
16.5305080389179
 20
49.1756452516689
 10
16.5305102554303
 20
49.1756546707031
 10
16.5305149329855
 20
49.1756636942951
 10
16.5305219294594
 20
49.1756720482672
 10
16.5305310322684
 20
49.175679478788
 10
16.5305419648287
 20
49.1756857600842
 10
16.5305543949598
 20
49.1756907013015
 10
16.5305679449776
 20
49.175694152303
 10
16.5305822031709
 20
49.1756960082316
 97
0
 75
0
 76
1
 98
0
  0
HATCH
  5
200BA
100
AcDbEntity
  8
0
100
AcDbHatch
 10
0
 20
0
 30
0
210
0
220
0
230
1
  2
SOLID
 70
1
 71
0
 91
1
 92
2
 72
0
 73
1
 93
37
 10
16.5305604097534
 20
49.1756247039117
 10
16.5305684651166
 20
49.1756248172429
 10
16.5305764281174
 20
49.1756240117634
 10
16.5305840568035
 20
49.1756223119472
 10
16.5305911193808
 20
49.1756197694425
 10
16.5305974012562
 20
49.1756164615021
 10
16.5306027115582
 20
49.1756124886363
 10
16.5306068889358
 20
49.1756079715586
 10
16.5306098064618
 20
49.1756030475185
 10
16.5306113754889
 20
49.1755978661304
 10
16.5306115483435
 20
49.1755925848282
 10
16.5306103197739
 20
49.1755873640816
 10
16.53060772711
 20
49.1755823625205
 10
16.5306038491289
 20
49.1755777321144
 10
16.5305988036614
 20
49.175573613556
 10
16.5305927440115
 20
49.1755701319853
 10
16.5305858542986
 20
49.175567393188
 10
16.5305783438629
 20
49.1755654803809
 10
16.5305704409049
 20
49.1755644516836
 10
16.5305623855515
 20
49.1755643383525
 10
16.5305544225601
 20
49.1755651438311
 10
16.5305467938818
 20
49.1755668436453
 10
16.5305397313097
 20
49.1755693861474
 10
16.5305334494364
 20
49.1755726940846
 10
16.5305281391332
 20
49.1755766669473
 10
16.530523961751
 20
49.1755811840221
 10
16.5305210442178
 20
49.1755861080601
 10
16.5305194751816
 20
49.1755912894469
 10
16.5305193023172
 20
49.175596570749
 10
16.5305205308774
 20
49.1756017914965
 10
16.5305231235336
 20
49.1756067930596
 10
16.5305270015093
 20
49.1756114234683
 10
16.5305320469747
 20
49.1756155420299
 10
16.5305381066259
 20
49.1756190236038
 10
16.5305449963434
 20
49.1756217624039
 10
16.5305525067863
 20
49.1756236752131
 10
16.5305604097534
 20
49.1756247039117
 97
0
 75
0
 76
1
 98
0
  0
HATCH
  5
200BB
100
AcDbEntity
  8
0
100
AcDbHatch
 10
0
 20
0
 30
0
210
0
220
0
230
1
  2
SOLID
 70
1
 71
0
 91
1
 92
2
 72
0
 73
1
 93
37
 10
16.5302231630988
 20
49.1758304281012
 10
16.5302364055003
 20
49.1758306144468
 10
16.530249496075
 20
49.1758292903429
 10
16.5302620370711
 20
49.1758264960217
 10
16.530273647436
 20
49.1758223163875
 10
16.530283974394
 20
49.1758168784367
 10
16.5302927041653
 20
49.1758103473992
 10
16.5302995715005
 20
49.1758029217175
 10
16.5303043677395
 20
49.1757948270176
 10
16.5303069471521
 20
49.1757863092532
 10
16.5303072313651
 20
49.1757776272322
 10
16.5303052117441
 20
49.1757690447536
 10
16.5303009496553
 20
49.1757608225914
 10
16.5302945746012
 20
49.1757532105718
 10
16.5302862802852
 20
49.1757464399817
 10
16.5302763187261
 20
49.1757407165417
 10
16.5302649926007
 20
49.1757362141553
 10
16.5302526460471
 20
49.1757330696248
 10
16.5302396542081
 20
49.175731378495
 10
16.5302264118331
 20
49.1757311921498
 10
16.5302133212837
 20
49.1757325162512
 10
16.5302007803086
 20
49.1757353105671
 10
16.5301891699579
 20
49.1757394901941
 10
16.5301788430057
 20
49.1757449281363
 10
16.530170113231
 20
49.1757514591653
 10
16.5301632458836
 20
49.1757588848393
 10
16.5301584496249
 20
49.1757669795334
 10
16.5301558701879
 20
49.1757754972946
 10
16.5301555859484
 20
49.1757841793152
 10
16.5301576055441
 20
49.1757927617964
 10
16.5301618676118
 20
49.1758009839638
 10
16.5301682426516
 20
49.1758085959906
 10
16.5301765369619
 20
49.1758153665891
 10
16.5301864985244
 20
49.1758210900377
 10
16.5301978246621
 20
49.1758255924318
 10
16.5302101712353
 20
49.1758287369681
 10
16.5302231630988
 20
49.1758304281012
 97
0
 75
0
 76
1
 98
0
  0
HATCH
  5
200BC
100
AcDbEntity
  8
0
100
AcDbHatch
 10
0
 20
0
 30
0
210
0
220
0
230
1
  2
SOLID
 70
1
 71
0
 91
1
 92
2
 72
0
 73
1
 93
37
 10
16.5304142904864
 20
49.1757390819767
 10
16.5304326242478
 20
49.175739339937
 10
16.5304507478004
 20
49.1757375067149
 10
16.5304681104671
 20
49.175733638012
 10
16.5304841846902
 20
49.1757278513774
 10
16.5304984820613
 20
49.1757203226358
 10
16.5305105681615
 20
49.1757112805447
 10
16.5305200757612
 20
49.1757009998445
 10
16.5305267159777
 20
49.1756897929095
 10
16.5305302870531
 20
49.1756780002573
 10
16.5305306804843
 20
49.1756659802021
 10
16.5305278843193
 20
49.175654097967
 10
16.5305219835203
 20
49.1756427145877
 10
16.530513157382
 20
49.1756321759418
 10
16.5305016740834
 20
49.1756228022401
 10
16.5304878825392
 20
49.1756148782972
 10
16.5304722017981
 20
49.1756086448772
 10
16.5304551083104
 20
49.1756042913788
 10
16.5304371214516
 20
49.1756019500804
 10
16.530418787741
 20
49.1756016921208
 10
16.5304006642368
 20
49.175603525338
 10
16.5303833016105
 20
49.1756073940308
 10
16.5303672274147
 20
49.1756131806515
 10
16.5303529300546
 20
49.175620709377
 10
16.5303408439478
 20
49.1756297514515
 10
16.5303313363246
 20
49.1756400321371
 10
16.5303246960706
 20
49.1756512390609
 10
16.5303211249482
 20
49.1756630317068
 10
16.5303207314663
 20
49.1756750517613
 10
16.5303235275828
 20
49.1756869340013
 10
16.5303294283414
 20
49.1756983173908
 10
16.5303382544524
 20
49.1757088560506
 10
16.53034973774
 20
49.1757182297684
 10
16.5303635292909
 20
49.1757261537277
 10
16.5303792100555
 20
49.1757323871624
 10
16.5303963035806
 20
49.175736740672
 10
16.5304142904864
 20
49.1757390819767
 97
0
 75
0
 76
1
 98
0
  0
HATCH
  5
200BD
100
AcDbEntity
  8
0
100
AcDbHatch
 10
0
 20
0
 30
0
210
0
220
0
230
1
  2
SOLID
 70
1
 71
0
 91
1
 92
2
 72
0
 73
1
 93
37
 10
16.5304858135535
 20
49.1756310348923
 10
16.5305004183828
 20
49.1756312403773
 10
16.5305148557557
 20
49.1756297800056
 10
16.5305286869988
 20
49.17562669815
 10
16.5305414918554
 20
49.1756220884514
 10
16.5305528812557
 20
49.1756160909736
 10
16.5305625091382
 20
49.1756088879474
 10
16.5305700829649
 20
49.1756006982335
 10
16.5305753726094
 20
49.1755917706727
 10
16.5305782173497
 20
49.1755823765248
 10
16.5305785307511
 20
49.1755728012262
 10
16.5305763032925
 20
49.1755633357178
 10
16.5305716026556
 20
49.1755542676039
 10
16.5305645716679
 20
49.1755458724144
 10
16.5305554239633
 20
49.1755384052324
 10
16.5305444374904
 20
49.1755320929441
 10
16.5305319460674
 20
49.1755271273446
 10
16.5305183292393
 20
49.1755236593107
 10
16.5305040007454
 20
49.1755217942167
 10
16.5304893959484
 20
49.1755215887321
 10
16.5304749586062
 20
49.1755230491007
 10
16.5304611273888
 20
49.1755261309499
 10
16.5304483225495
 20
49.1755307406396
 10
16.5304369331561
 20
49.1755367381072
 10
16.5304273052694
 20
49.1755439411229
 10
16.5304197314278
 20
49.1755521308275
 10
16.5304144417595
 20
49.1755610583812
 10
16.5304115969894
 20
49.1755704525251
 10
16.5304112835558
 20
49.1755800278232
 10
16.5304135109836
 20
49.1755894933348
 10
16.5304182115949
 20
49.1755985614551
 10
16.5304252425653
 20
49.1756069566535
 10
16.5304343902629
 20
49.1756144238457
 10
16.5304453767401
 20
49.1756207361444
 10
16.5304578681779
 20
49.1756257017532
 10
16.5304714850298
 20
49.1756291697942
 10
16.5304858135535
 20
49.1756310348923
 97
0
 75
0
 76
1
 98
0
  0
HATCH
  5
200BE
100
AcDbEntity
  8
0
100
AcDbHatch
 10
0
 20
0
 30
0
210
0
220
0
230
1
  2
SOLID
 70
1
 71
0
 91
1
 92
2
 72
0
 73
1
 93
37
 10
16.5305708873628
 20
49.1755725354847
 10
16.5305873327161
 20
49.1755727668532
 10
16.5306035895068
 20
49.1755711224288
 10
16.5306191637786
 20
49.1755676521767
 10
16.5306335823137
 20
49.175562461539
 10
16.5306464070113
 20
49.1755557082312
 10
16.530657248199
 20
49.1755475974497
 10
16.530665776473
 20
49.1755383756371
 10
16.5306717327069
 20
49.175528322994
 10
16.5306749359249
 20
49.1755177449654
 10
16.5306752888005
 20
49.1755069629594
 10
16.5306727806137
 20
49.175496304582
 10
16.5306674875762
 20
49.1754860936822
 10
16.5306595705157
 20
49.1754766405129
 10
16.5306492699891
 20
49.1754682323033
 10
16.5306368989731
 20
49.1754611245319
 10
16.5306228333545
 20
49.1754555331642
 10
16.5306075005091
 20
49.1754516280906
 10
16.5305913663164
 20
49.1754495279643
 10
16.5305749210039
 20
49.1754492965963
 10
16.5305586642522
 20
49.1754509410167
 10
16.5305430900129
 20
49.1754544112608
 10
16.5305286714997
 20
49.1754596018873
 10
16.530515846811
 20
49.1754663551821
 10
16.530505005618
 20
49.1754744659504
 10
16.5304964773251
 20
49.1754836877511
 10
16.530490521061
 20
49.1754937403852
 10
16.5304873178052
 20
49.1755043184087
 10
16.5304869648887
 20
49.1755151004141
 10
16.5304894730365
 20
49.1755257587956
 10
16.5304947660416
 20
49.1755359697034
 10
16.5305026830801
 20
49.1755454228839
 10
16.5305129835978
 20
49.1755538311065
 10
16.5305253546192
 20
49.1755609388912
 10
16.5305394202567
 20
49.1755665302707
 10
16.5305547531322
 20
49.1755704353533
 10
16.5305708873628
 20
49.1755725354847
 97
0
 75
0
 76
1
 98
0
  0
HATCH
  5
200BF
100
AcDbEntity
  8
0
100
AcDbHatch
 10
0
 20
0
 30
0
210
0
220
0
230
1
  2
SOLID
 70
1
 71
0
 91
1
 92
2
 72
0
 73
1
 93
37
 10
16.5301119052611
 20
49.1757519973377
 10
16.530125458383
 20
49.1757521880691
 10
16.530138856119
 20
49.1757508329069
 10
16.5301516913845
 20
49.1757479730272
 10
16.5301635741854
 20
49.1757436953263
 10
16.5301741434682
 20
49.1757381297803
 10
16.5301830780903
 20
49.1757314454958
 10
16.5301901065779
 20
49.1757238455719
 10
16.5301950153746
 20
49.1757155609287
 10
16.5301976553298
 20
49.1757068432913
 10
16.5301979462312
 20
49.1756979575408
 10
16.5301958792411
 20
49.1756891736662
 10
16.530191517165
 20
49.1756807585611
 10
16.5301849925435
 20
49.1756729679138
 10
16.5301765036247
 20
49.1756660384389
 10
16.5301663083401
 20
49.1756601806846
 10
16.5301547164683
 20
49.1756555726354
 10
16.5301420802218
 20
49.1756523543042
 10
16.5301287835457
 20
49.175650623478
 10
16.5301152304516
 20
49.175650432747
 10
16.5301018327421
 20
49.1756517879065
 10
16.5300889974987
 20
49.1756546477807
 10
16.5300771147126
 20
49.1756589254739
 10
16.5300665454358
 20
49.1756644910112
 10
16.5300576108101
 20
49.1756711752867
 10
16.5300505823097
 20
49.1756787752026
 10
16.5300456734926
 20
49.1756870598396
 10
16.5300430335116
 20
49.1756957774736
 10
16.5300427425825
 20
49.1757046632237
 10
16.5300448095461
 20
49.175713447101
 10
16.5300491716002
 20
49.1757218622116
 10
16.5300556962067
 20
49.1757296528665
 10
16.5300641851196
 20
49.1757365823502
 10
16.5300743804077
 20
49.1757424401135
 10
16.5300859722924
 20
49.1757470481707
 10
16.5300986085593
 20
49.175750266508
 10
16.5301119052611
 20
49.1757519973377
 97
0
 75
0
 76
1
 98
0
  0
HATCH
  5
200C0
100
AcDbEntity
  8
0
100
AcDbHatch
 10
0
 20
0
 30
0
210
0
220
0
230
1
  2
SOLID
 70
1
 71
0
 91
1
 92
2
 72
0
 73
1
 93
37
 10
16.5307183546616
 20
49.1756075119329
 10
16.5307384333058
 20
49.1756077943916
 10
16.5307582817207
 20
49.1756057866379
 10
16.5307772968198
 20
49.1756015496764
 10
16.5307949008367
 20
49.1755952122455
 10
16.5308105588807
 20
49.1755869669058
 10
16.5308237951896
 20
49.1755770641885
 10
16.5308342075851
 20
49.1755658049836
 10
16.5308414796931
 20
49.1755535313972
 10
16.5308453905564
 20
49.1755406163564
 10
16.5308458213479
 20
49.1755274522788
 10
16.5308427589809
 20
49.1755144391481
 10
16.5308362965066
 20
49.1755019723615
 10
16.5308266302861
 20
49.1754904307154
 10
16.5308140540241
 20
49.1754801648961
 10
16.5307989498446
 20
49.1754714868246
 10
16.5307817766801
 20
49.1754646601786
 10
16.5307630563272
 20
49.1754598923817
 10
16.5307433575924
 20
49.1754573283002
 10
16.5307232790091
 20
49.1754570458423
 10
16.5307034306523
 20
49.1754590535901
 10
16.5306844156016
 20
49.1754632905396
 10
16.5306668116175
 20
49.1754696279537
 10
16.5306511535866
 20
49.175477873274
 10
16.5306379172698
 20
49.1754877759716
 10
16.5306275048461
 20
49.1754990351589
 10
16.5306202326931
 20
49.1755113087319
 10
16.5306163217735
 20
49.1755242237651
 10
16.5306158909211
 20
49.1755373878418
 10
16.53061895323
 20
49.1755504009785
 10
16.5306254156559
 20
49.1755628677772
 10
16.5306350818437
 20
49.17557440944
 10
16.5306476580925
 20
49.1755846752787
 10
16.5306627622799
 20
49.1755933533699
 10
16.5306799354726
 20
49.1756001800334
 10
16.5306986558704
 20
49.1756049478438
 10
16.5307183546616
 20
49.1756075119329
 97
0
 75
0
 76
1
 98
0
  0
HATCH
  5
200C1
100
AcDbEntity
  8
0
100
AcDbHatch
 10
0
 20
0
 30
0
210
0
220
0
230
1
  2
SOLID
 70
1
 71
0
 91
1
 92
2
 72
0
 73
1
 93
37
 10
16.5311535491877
 20
49.1752705491721
 10
16.5311674846299
 20
49.1752707451597
 10
16.5311812602695
 20
49.1752693516319
 10
16.5311944575395
 20
49.1752664109307
 10
16.5312066754464
 20
49.1752620124077
 10
16.5312175427545
 20
49.1752562897104
 10
16.531226729266
 20
49.1752494167204
 10
16.5312339558535
 20
49.1752416022705
 10
16.5312390029414
 20
49.1752330837991
 10
16.5312417171775
 20
49.1752241201361
 10
16.5312420160923
 20
49.1752149836379
 10
16.5312398906047
 20
49.1752059519124
 10
16.531235405298
 20
49.1751972993839
 10
16.5312286964569
 20
49.1751892889549
 10
16.5312199679268
 20
49.1751821640177
 10
16.5312094849201
 20
49.1751761410596
 10
16.5311975659574
 20
49.1751714030848
 10
16.5311845731897
 20
49.1751680940538
 10
16.5311709013948
 20
49.1751663145094
 10
16.5311569659819
 20
49.1751661185222
 10
16.5311431903703
 20
49.175167512047
 10
16.5311299931237
 20
49.1751704527426
 10
16.5311177752326
 20
49.1751748512575
 10
16.5311069079308
 20
49.1751805739454
 10
16.5310977214155
 20
49.1751874469259
 10
16.5310904948144
 20
49.1751952613674
 10
16.5310854477048
 20
49.1752037798323
 10
16.5310827334416
 20
49.1752127434916
 10
16.5310824344975
 20
49.1752218799894
 10
16.531084559957
 20
49.1752309117178
 10
16.5310890452404
 20
49.1752395642521
 10
16.5310957540658
 20
49.1752475746892
 10
16.5311044825895
 20
49.1752546996357
 10
16.5311149656001
 20
49.1752607226032
 10
16.5311268845763
 20
49.1752654605866
 10
16.5311398773657
 20
49.1752687696241
 10
16.5311535491877
 20
49.1752705491721
 97
0
 75
0
 76
1
 98
0
  0
HATCH
  5
200C2
100
AcDbEntity
  8
0
100
AcDbHatch
 10
0
 20
0
 30
0
210
0
220
0
230
1
  2
SOLID
 70
1
 71
0
 91
1
 92
2
 72
0
 73
1
 93
37
 10
16.5311738236014
 20
49.1751432989177
 10
16.5311940693807
 20
49.1751435836503
 10
16.5312140829931
 20
49.1751415590859
 10
16.5312332563325
 20
49.1751372867402
 10
16.5312510068245
 20
49.1751308964268
 10
16.5312667951278
 20
49.1751225823128
 10
16.5312801415223
 20
49.1751125970193
 10
16.5312906404847
 20
49.1751012439453
 10
16.5312979730109
 20
49.175088868049
 10
16.5313019163077
 20
49.1750758453664
 10
16.5313023505627
 20
49.1750625715855
 10
16.5312992625839
 20
49.1750494500233
 10
16.5312927462009
 20
49.1750368793717
 10
16.5312829994127
 20
49.175025241583
 10
16.5312703183722
 20
49.1750148902647
 10
16.5312550883868
 20
49.1750061399356
 10
16.5312377722117
 20
49.174999256469
 10
16.5312188959888
 20
49.1749944490148
 10
16.5311990332605
 20
49.1749918636444
 10
16.5311787875431
 20
49.1749915789127
 10
16.5311587739898
 20
49.1749936034709
 10
16.5311396006996
 20
49.1749978758044
 10
16.5311218502409
 20
49.1750042661009
 10
16.531106061951
 20
49.1750125801951
 10
16.5310927155485
 20
49.1750225654686
 10
16.5310822165573
 20
49.1750339185247
 10
16.5310748839855
 20
49.1750462944074
 10
16.5310709406314
 20
49.1750593170822
 10
16.5310705063145
 20
49.1750725908623
 10
16.5310735942341
 20
49.1750857124305
 10
16.5310801105679
 20
49.1750982830944
 10
16.5310898573228
 20
49.1751099209001
 10
16.53110253835
 20
49.1751202722381
 10
16.5311177683434
 20
49.1751290225872
 10
16.5311350845471
 20
49.1751359060718
 10
16.5311539608158
 20
49.1751407135396
 10
16.5311738236014
 20
49.1751432989177
 97
0
 75
0
 76
1
 98
0
  0
HATCH
  5
200C3
100
AcDbEntity
  8
0
100
AcDbHatch
 10
0
 20
0
 30
0
210
0
220
0
230
1
  2
SOLID
 70
1
 71
0
 91
1
 92
2
 72
0
 73
1
 93
37
 10
16.5303227463397
 20
49.1756118568627
 10
16.5303446655257
 20
49.1756121652885
 10
16.5303663333979
 20
49.1756099735645
 10
16.5303870915858
 20
49.1756053482852
 10
16.5304063093599
 20
49.1755984299882
 10
16.530423402796
 20
49.1755894288832
 10
16.530437852518
 20
49.1755786184653
 10
16.5304492194789
 20
49.1755663272046
 10
16.5304571583008
 20
49.175552928566
 10
16.530461427769
 20
49.1755388296608
 10
16.530461898161
 20
49.1755244588776
 10
16.5304585551873
 20
49.1755102528655
 10
16.5304515004258
 20
49.1754966432666
 10
16.5304409482343
 20
49.175484043601
 10
16.5304272192376
 20
49.1754728367024
 10
16.530410730585
 20
49.1754633630855
 10
16.5303919832755
 20
49.1754559106005
 10
16.530371546935
 20
49.1754507056863
 10
16.5303500425091
 20
49.1754479064908
 10
16.5303281233957
 20
49.175447598066
 10
16.5303064555929
 20
49.1754497897829
 10
16.5302856974626
 20
49.1754544150478
 10
16.5302664797275
 20
49.1754613333249
 10
16.5302493863071
 20
49.1754703344068
 10
16.5302349365756
 20
49.1754811448013
 10
16.5302235695812
 20
49.175493436041
 10
16.5302156307057
 20
49.1755068346636
 10
16.5302113611703
 20
49.1755209335598
 10
16.5302108907058
 20
49.1755353043419
 10
16.5302142336101
 20
49.1755495103611
 10
16.530221288314
 20
49.1755631199744
 10
16.5302318404665
 20
49.1755757196599
 10
16.5302455694475
 20
49.1755869265816
 10
16.5302620581095
 20
49.1755964002219
 10
16.5302808054526
 20
49.175603852728
 10
16.5303012418467
 20
49.1756090576581
 10
16.5303227463397
 20
49.1756118568627
 97
0
 75
0
 76
1
 98
0
  0
HATCH
  5
200C4
100
AcDbEntity
  8
0
100
AcDbHatch
 10
0
 20
0
 30
0
210
0
220
0
230
1
  2
SOLID
 70
1
 71
0
 91
1
 92
2
 72
0
 73
1
 93
37
 10
16.529763014483
 20
49.1761917216456
 10
16.529782567483
 20
49.1761919968688
 10
16.5298018963239
 20
49.1761900418595
 10
16.5298204137063
 20
49.1761859160201
 10
16.5298375569869
 20
49.1761797447126
 10
16.5298528052742
 20
49.1761717154496
 10
16.5298656952563
 20
49.1761620721973
 10
16.5298758352779
 20
49.1761511079616
 10
16.5298829172408
 20
49.1761391558862
 10
16.5298867259651
 20
49.1761265791294
 10
16.529887145727
 20
49.1761137598299
 10
16.5298841637748
 20
49.1761010874956
 10
16.5298778707161
 20
49.1760889471689
 10
16.5298684577645
 20
49.1760777077267
 10
16.5298562109291
 20
49.1760677106733
 10
16.5298415023244
 20
49.1760592597631
 10
16.5298247788635
 20
49.176052611772
 10
16.5298065486791
 20
49.176047968695
 10
16.5297873656843
 20
49.1760454716091
 10
16.5297678127421
 20
49.1760451963868
 10
16.5297484839563
 20
49.1760471513903
 10
16.5297299666198
 20
49.1760512772183
 10
16.5297128233703
 20
49.1760574485101
 10
16.5296975750955
 20
49.1760654777545
 10
16.5296846851058
 20
49.1760751209883
 10
16.5296745450575
 20
49.1760860852072
 10
16.5296674630519
 20
49.1760980372699
 10
16.5296636542743
 20
49.1761106140195
 10
16.5296632344546
 20
49.1761234333182
 10
16.5296662163517
 20
49.1761361056581
 10
16.5296725093644
 20
49.1761482459964
 10
16.529681922285
 20
49.1761594854543
 10
16.5296941691078
 20
49.1761694825262
 10
16.5297088777201
 20
49.176177933455
 10
16.5297256012078
 20
49.1761845814628
 10
16.5297438314348
 20
49.1761892245525
 10
16.529763014483
 20
49.1761917216456
 97
0
 75
0
 76
1
 98
0
  0
HATCH
  5
200C5
100
AcDbEntity
  8
0
100
AcDbHatch
 10
0
 20
0
 30
0
210
0
220
0
230
1
  2
SOLID
 70
1
 71
0
 91
1
 92
2
 72
0
 73
1
 93
33
 10
16.5595755962131
 20
49.1912309005936
 10
16.559575864545
 20
49.1912168085697
 10
16.5595718154868
 20
49.1912029515121
 10
16.5595637692273
 20
49.1911898949818
 10
16.5595520756251
 20
49.1911780257424
 10
16.5595369036322
 20
49.1911679890294
 10
16.5595191783721
 20
49.1911600317028
 10
16.5594994009338
 20
49.1911544608508
 10
16.5594783452032
 20
49.191151603009
 10
16.5594568444074
 20
49.1911514271193
 10
16.5594357021019
 20
49.1911540809213
 10
16.5594157811849
 20
49.191159354561
 10
16.5593976717574
 20
49.1911670187379
 10
16.5593823582833
 20
49.191176962721
 10
16.5593702174107
 20
49.1911885801691
 10
16.5593617176816
 20
49.19120154266
 10
16.5593573573107
 20
49.1912153429743
 10
16.5593570889166
 20
49.1912294349977
 10
16.5593611379168
 20
49.1912432920627
 10
16.5593691841317
 20
49.191256348607
 10
16.5593808777085
 20
49.1912682178648
 10
16.5593960497005
 20
49.1912782545982
 10
16.5594137749831
 20
49.1912862119436
 10
16.5594335524643
 20
49.1912917828101
 10
16.5594546082518
 20
49.1912946406601
 10
16.5594761091098
 20
49.1912948165502
 10
16.5594972514732
 20
49.1912921627409
 10
16.5595171724349
 20
49.1912868890872
 10
16.5595352818878
 20
49.1912792248917
 10
16.5595505953629
 20
49.1912692808885
 10
16.5595627362129
 20
49.1912576634215
 10
16.5595712358991
 20
49.1912447009159
 10
16.5595755962131
 20
49.1912309005936
 97
0
 75
0
 76
1
 98
0
  0
ENDSEC
  0
SECTION
  2
OBJECTS
  0
DICTIONARY
  5
C
330
0
100
AcDbDictionary
281
     1
  3
ACAD_GROUP
350
D
  3
ACAD_LAYOUT
350
1A
  3
ACAD_MLEADERSTYLE
350
43
  3
ACAD_PLOTSETTINGS
350
19
  3
ACAD_PLOTSTYLENAME
350
E
  3
ACAD_TABLESTYLE
350
42
  0
DICTIONARY
  5
D
102
{ACAD_REACTORS
330
C
102
}
330
C
100
AcDbDictionary
281
     1
  0
DICTIONARY
  5
1A
102
{ACAD_REACTORS
330
C
102
}
330
C
100
AcDbDictionary
281
     1
  3
Layout1
350
1E
  3
Model
350
22
  0
DICTIONARY
  5
43
102
{ACAD_REACTORS
330
C
102
}
330
C
100
AcDbDictionary
281
     1
  0
DICTIONARY
  5
19
102
{ACAD_REACTORS
330
C
102
}
330
C
100
AcDbDictionary
281
     1
  0
ACDBDICTIONARYWDFLT
  5
E
102
{ACAD_REACTORS
330
C
102
}
330
C
100
AcDbDictionary
281
     1
  3
Normal
350
F
100
AcDbDictionaryWithDefault
340
F
  0
DICTIONARY
  5
42
102
{ACAD_REACTORS
330
C
102
}
330
C
100
AcDbDictionary
281
     1
  0
LAYOUT
  5
1E
102
{ACAD_REACTORS
330
1A
102
}
330
1A
100
AcDbPlotSettings
  1

  2
none_device
  4

  6

 40
0.0
 41
0.0
 42
0.0
 43
0.0
 44
0.0
 45
0.0
 46
0.0
 47
0.0
 48
0.0
 49
0.0
140
0.0
141
0.0
142
1.0
143
1.0
 70
   688
 72
     0
 73
     0
 74
     5
  7

 75
    16
 76
     0
 77
     2
 78
   300
147
1.0
148
0.0
149
0.0
100
AcDbLayout
  1
Layout1
 70
     1
 71
     1
 10
0.0
 20
0.0
 11
12.0
 21
9.0
 12
0.0
 22
0.0
 32
0.0
 14
1.000000000000000E+20
 24
1.000000000000000E+20
 34
1.000000000000000E+20
 15
-1.000000000000000E+20
 25
-1.000000000000000E+20
 35
-1.000000000000000E+20
146
0.0
 13
0.0
 23
0.0
 33
0.0
 16
1.0
 26
0.0
 36
0.0
 17
0.0
 27
1.0
 37
0.0
 76
     0
330
1B
  0
LAYOUT
  5
22
102
{ACAD_REACTORS
330
1A
102
}
330
1A
100
AcDbPlotSettings
  1

  2
none_device
  4

  6

 40
0.0
 41
0.0
 42
0.0
 43
0.0
 44
0.0
 45
0.0
 46
0.0
 47
0.0
 48
0.0
 49
0.0
140
0.0
141
0.0
142
1.0
143
1.0
 70
  1712
 72
     0
 73
     0
 74
     0
  7

 75
     0
 76
     0
 77
     2
 78
   300
147
1.0
148
0.0
149
0.0
100
AcDbLayout
  1
Model
 70
     1
 71
     0
 10
0.0
 20
0.0
 11
12.0
 21
9.0
 12
0.0
 22
0.0
 32
0.0
 14
30.0
 24
49.75
 34
0.0
 15
130.5
 25
163.1318914119703
 35
0.0
146
0.0
 13
0.0
 23
0.0
 33
0.0
 16
1.0
 26
0.0
 36
0.0
 17
0.0
 27
1.0
 37
0.0
 76
     0
330
1F
331
29
  0
ENDSEC
  0
EOF
