  0
SECTION
  2
HEADER
  9
$ACADVER
  1
AC1018
  9
$ACADMAINTVER
 70
     0
  9
$DWGCODEPAGE
  3
ANSI_1252
  9
$EXTMIN
 10
-605577.6131
 20
-1164221.009
 30
0.0
  9
$EXTMAX
 10
-590597.75
 20
-1152778.9324
 30
0.0
  9
$LIMMIN
 10
0.0
 20
0.0
  9
$LIMMAX
 10
12.0
 20
9.0
  9
$ORTHOMODE
 70
     0
  9
$REGENMODE
 70
     1
  9
$FILLMODE
 70
     1
  9
$QTEXTMODE
 70
     0
  9
$MIRRTEXT
 70
     1
  9
$LTSCALE
 40
1.0
  9
$ATTMODE
 70
     1
  9
$TEXTSIZE
 40
0.2
  9
$TRACEWID
 40
0.05
  9
$TEXTSTYLE
  7
Standard
  9
$CLAYER
  8
0
  9
$CELTYPE
  6
ByLayer
  9
$CECOLOR
 62
   256
  9
$CELTSCALE
 40
1.0
  9
$DISPSILH
 70
     0
  9
$LUNITS
 70
     2
  9
$LUPREC
 70
     4
  9
$SKETCHINC
 40
0.1
  9
$FILLETRAD
 40
0.5
  9
$AUNITS
 70
     0
  9
$AUPREC
 70
     0
  9
$MENU
  1
.
  9
$ELEVATION
 40
0.0
  9
$PELEVATION
 40
0.0
  9
$THICKNESS
 40
0.0
  9
$LIMCHECK
 70
     0
  9
$CHAMFERA
 40
0.5
  9
$CHAMFERB
 40
0.5
  9
$CHAMFERC
 40
1.0
  9
$CHAMFERD
 40
0.0
  9
$SKPOLY
 70
     0
  9
$ANGBASE
 50
0.0
  9
$ANGDIR
 70
     0
  9
$PDMODE
 70
     0
  9
$PDSIZE
 40
0.0
  9
$PLINEWID
 40
0.0
  9
$SPLFRAME
 70
     0
  9
$SPLINETYPE
 70
     6
  9
$SPLINESEGS
 70
     8
  9
$HANDSEED
  5
00020017
  9
$SURFTAB1
 70
     6
  9
$SURFTAB2
 70
     6
  9
$SURFTYPE
 70
     6
  9
$SURFU
 70
     6
  9
$SURFV
 70
     6
  9
$UCSBASE
  2

  9
$UCSNAME
  2

  9
$UCSORG
 10
0.0
 20
0.0
 30
0.0
  9
$UCSXDIR
 10
1.0
 20
0.0
 30
0.0
  9
$UCSYDIR
 10
0.0
 20
1.0
 30
0.0
  9
$UCSORTHOREF
  2

  9
$UCSORTHOVIEW
 70
     0
  9
$UCSORGTOP
 10
0.0
 20
0.0
 30
0.0
  9
$UCSORGBOTTOM
 10
0.0
 20
0.0
 30
0.0
  9
$UCSORGLEFT
 10
0.0
 20
0.0
 30
0.0
  9
$UCSORGRIGHT
 10
0.0
 20
0.0
 30
0.0
  9
$UCSORGFRONT
 10
0.0
 20
0.0
 30
0.0
  9
$UCSORGBACK
 10
0.0
 20
0.0
 30
0.0
  9
$PUCSBASE
  2

  9
$PUCSNAME
  2

  9
$PUCSORG
 10
0.0
 20
0.0
 30
0.0
  9
$PUCSXDIR
 10
1.0
 20
0.0
 30
0.0
  9
$PUCSYDIR
 10
0.0
 20
1.0
 30
0.0
  9
$PUCSORTHOREF
  2

  9
$PUCSORTHOVIEW
 70
     0
  9
$PUCSORGTOP
 10
0.0
 20
0.0
 30
0.0
  9
$PUCSORGBOTTOM
 10
0.0
 20
0.0
 30
0.0
  9
$PUCSORGLEFT
 10
0.0
 20
0.0
 30
0.0
  9
$PUCSORGRIGHT
 10
0.0
 20
0.0
 30
0.0
  9
$PUCSORGFRONT
 10
0.0
 20
0.0
 30
0.0
  9
$PUCSORGBACK
 10
0.0
 20
0.0
 30
0.0
  9
$WORLDVIEW
 70
     1
  9
$SHADEDGE
 70
     3
  9
$SHADEDIF
 70
    70
  9
$TILEMODE
 70
     1
  9
$MAXACTVP
 70
    64
  9
$PINSBASE
 10
0.0
 20
0.0
 30
0.0
  9
$PLIMCHECK
 70
     0
  9
$PEXTMIN
 10
1.000000000000000E+20
 20
1.000000000000000E+20
 30
1.000000000000000E+20
  9
$PEXTMAX
 10
-1.000000000000000E+20
 20
-1.000000000000000E+20
 30
-1.000000000000000E+20
  9
$PLIMMIN
 10
0.0
 20
0.0
  9
$PLIMMAX
 10
12.0
 20
9.0
  9
$UNITMODE
 70
     0
  9
$VISRETAIN
 70
     1
  9
$PLINEGEN
 70
     0
  9
$PSLTSCALE
 70
     1
  9
$TREEDEPTH
 70
  3020
  9
$CMLSTYLE
  2
Standard
  9
$CMLJUST
 70
     0
  9
$CMLSCALE
 40
1.0
  9
$PROXYGRAPHICS
 70
     1
  9
$MEASUREMENT
 70
     0
  9
$CELWEIGHT
370
    -1
  9
$ENDCAPS
280
     0
  9
$JOINSTYLE
280
     0
  9
$LWDISPLAY
290
     0
  9
$INSUNITS
 70
     1
  9
$HYPERLINKBASE
  1

  9
$STYLESHEET
  1

  9
$XEDIT
290
     1
  9
$CEPSNTYPE
380
     0
  9
$PSTYLEMODE
290
     1
  9
$EXTNAMES
290
     1
  9
$PSVPSCALE
 40
0.0
  9
$OLESTARTUP
290
     0
  9
$SORTENTS
280
   127
  9
$INDEXCTL
280
     0
  9
$HIDETEXT
280
     1
  9
$XCLIPFRAME
290
     0
  9
$HALOGAP
280
     0
  9
$OBSCOLOR
 70
   257
  9
$OBSLTYPE
280
     0
  9
$INTERSECTIONDISPLAY
280
     0
  9
$INTERSECTIONCOLOR
 70
   257
  9
$DIMASSOC
280
     2
  9
$PROJECTNAME
  1

  0
ENDSEC
  0
SECTION
  2
CLASSES
  0
CLASS
  1
ACDBDICTIONARYWDFLT
  2
AcDbDictionaryWithDefault
  3
ObjectDBX Classes
 90
        0
 91
        4
280
     0
281
     0
  0
ENDSEC
  0
SECTION
  2
TABLES
  0
TABLE
  2
VPORT
  5
8
330
0
100
AcDbSymbolTable
 70
     1
  0
VPORT
  5
29
330
8
100
AcDbSymbolTableRecord
100
AcDbViewportTableRecord
  2
*Active
 70
     0
 10
0.0
 20
0.0
 11
1.0
 21
1.0
 12
80.25
 22
106.4409457059851
 13
0.0
 23
0.0
 14
0.5
 24
0.5
 15
0.5
 25
0.5
 16
0.0
 26
0.0
 36
1.0
 17
0.0
 27
0.0
 37
0.0
 40
113.3818914119703
 41
0.8863849310366128
 42
50.0
 43
0.0
 44
0.0
 50
0.0
 51
0.0
 71
     0
 72
  1000
 73
     1
 74
     3
 75
     0
 76
     0
 77
     0
 78
     0
281
     0
 65
     1
110
0.0
120
0.0
130
0.0
111
1.0
121
0.0
131
0.0
112
0.0
122
1.0
132
0.0
 79
     0
146
0.0
  0
ENDTAB
  0
TABLE
  2
LTYPE
  5
5
330
0
100
AcDbSymbolTable
 70
     1
  0
LTYPE
  5
14
330
5
100
AcDbSymbolTableRecord
100
AcDbLinetypeTableRecord
  2
ByBlock
 70
     0
  3

 72
    65
 73
     0
 40
0.0
  0
LTYPE
  5
15
330
5
100
AcDbSymbolTableRecord
100
AcDbLinetypeTableRecord
  2
ByLayer
 70
     0
  3

 72
    65
 73
     0
 40
0.0
  0
LTYPE
  5
16
330
5
100
AcDbSymbolTableRecord
100
AcDbLinetypeTableRecord
  2
Continuous
 70
     0
  3
Solid line
 72
    65
 73
     0
 40
0.0
  0
ENDTAB
  0
TABLE
  2
LAYER
  5
2
330
0
100
AcDbSymbolTable
 70
     1
  0
LAYER
  5
10
330
2
100
AcDbSymbolTableRecord
100
AcDbLayerTableRecord
  2
0
 70
     0
 62
     7
  6
Continuous
370
    -3
390
F
  0
LAYER
  5
20016
330
2
100
AcDbSymbolTableRecord
100
AcDbLayerTableRecord
  2
riziková oblast 
 70
     0
 62
     7
  6
Continuous
370
    -3
390
F
  0
ENDTAB
  0
TABLE
  2
STYLE
  5
3
330
0
100
AcDbSymbolTable
 70
     1
  0
STYLE
  5
11
330
3
100
AcDbSymbolTableRecord
100
AcDbTextStyleTableRecord
  2
Standard
 70
     0
 40
0.0
 41
1.0
 50
0.0
 71
     0
 42
0.2
  3
txt
  4

  0
ENDTAB
  0
TABLE
  2
VIEW
  5
6
330
0
100
AcDbSymbolTable
 70
     0
  0
ENDTAB
  0
TABLE
  2
UCS
  5
7
330
0
100
AcDbSymbolTable
 70
     0
  0
ENDTAB
  0
TABLE
  2
APPID
  5
9
330
0
100
AcDbSymbolTable
 70
     1
  0
APPID
  5
12
330
9
100
AcDbSymbolTableRecord
100
AcDbRegAppTableRecord
  2
ACAD
 70
     0
  0
ENDTAB
  0
TABLE
  2
DIMSTYLE
  5
A
330
0
100
AcDbSymbolTable
 70
     1
100
AcDbDimStyleTable
  0
DIMSTYLE
105
27
330
A
100
AcDbSymbolTableRecord
100
AcDbDimStyleTableRecord
  2
Standard
 70
     0
340
11
  0
ENDTAB
  0
TABLE
  2
BLOCK_RECORD
  5
1
330
0
100
AcDbSymbolTable
 70
     1
  0
BLOCK_RECORD
  5
1F
330
1
100
AcDbSymbolTableRecord
100
AcDbBlockTableRecord
  2
*Model_Space
340
22
  0
BLOCK_RECORD
  5
1B
330
1
100
AcDbSymbolTableRecord
100
AcDbBlockTableRecord
  2
*Paper_Space
340
1E
  0
ENDTAB
  0
ENDSEC
  0
SECTION
  2
BLOCKS
  0
BLOCK
  5
20
330
1F
100
AcDbEntity
  8
0
100
AcDbBlockBegin
  2
*Model_Space
 70
     0
 10
0.0
 20
0.0
 30
0.0
  3
*Model_Space
  1

  0
ENDBLK
  5
21
330
1F
100
AcDbEntity
  8
0
100
AcDbBlockEnd
  0
BLOCK
  5
1C
330
1B
100
AcDbEntity
 67
     1
  8
0
100
AcDbBlockBegin
  2
*Paper_Space
 70
     0
 10
0.0
 20
0.0
 30
0.0
  3
*Paper_Space
  1

  0
ENDBLK
  5
1D
330
1B
100
AcDbEntity
 67
     1
  8
0
100
AcDbBlockEnd
  0
ENDSEC
  0
SECTION
  2
ENTITIES
  0
HATCH
  5
20000
100
AcDbEntity
  8
riziková oblast 
100
AcDbHatch
 10
0
 20
0
 30
0
210
0
220
0
230
1
  2
SOLID
 70
1
 71
0
 91
1
 92
2
 72
0
 73
1
 93
23
 10
-596668.6
 20
-1163566.25
 10
-596666.97
 20
-1163633.07
 10
-596665.16
 20
-1163708.42
 10
-596662.71
 20
-1163778.27
 10
-596662.3331
 20
-1163790.6426
 10
-596584.023
 20
-1163805.8442
 10
-596520.411
 20
-1163807.3028
 10
-596432.5754
 20
-1163797.9449
 10
-596370.0784
 20
-1163782.7627
 10
-596315.5031
 20
-1163772.8658
 10
-596289.1663
 20
-1163767.2397
 10
-596248.8476
 20
-1163758.9878
 10
-596225.2778
 20
-1163753.3928
 10
-596240.1801
 20
-1163743.6166
 10
-596286.5175
 20
-1163712.71
 10
-596338.28
 20
-1163678.34
 10
-596406.33
 20
-1163648.67
 10
-596434.195
 20
-1163638.205
 10
-596475.14
 20
-1163622.06
 10
-596499.53
 20
-1163614.72
 10
-596550.8025
 20
-1163599.8825
 10
-596636.07
 20
-1163576.71
 10
-596668.6
 20
-1163566.25
 97
0
 75
0
 76
1
 98
0
  0
HATCH
  5
20001
100
AcDbEntity
  8
riziková oblast 
100
AcDbHatch
 10
0
 20
0
 30
0
210
0
220
0
230
1
  2
SOLID
 70
1
 71
0
 91
1
 92
2
 72
0
 73
1
 93
9
 10
-595294.32
 20
-1164102.65
 10
-595299.045
 20
-1164131.94
 10
-594941.1928
 20
-1164221.009
 10
-594797.3327
 20
-1164115.3876
 10
-594906.4029
 20
-1164111.1687
 10
-595087.2107
 20
-1164106.4937
 10
-595164.36
 20
-1164105.47
 10
-595232.0036
 20
-1164104.3977
 10
-595294.32
 20
-1164102.65
 97
0
 75
0
 76
1
 98
0
  0
HATCH
  5
20002
100
AcDbEntity
  8
riziková oblast 
100
AcDbHatch
 10
0
 20
0
 30
0
210
0
220
0
230
1
  2
SOLID
 70
1
 71
0
 91
1
 92
2
 72
0
 73
1
 93
48
 10
-603070.7618
 20
-1156642.9229
 10
-603040.65
 20
-1156622.62
 10
-603016.7585
 20
-1156614.1104
 10
-603000.31
 20
-1156609.81
 10
-602988.5022
 20
-1156600.4709
 10
-602973.74
 20
-1156584.7
 10
-602969.1416
 20
-1156580.7237
 10
-602965.079
 20
-1156577.4027
 10
-602961.83
 20
-1156575.01
 10
-602957.82
 20
-1156572.45
 10
-602951.4648
 20
-1156569.6088
 10
-602927.8526
 20
-1156558.8183
 10
-602923.99
 20
-1156557.2
 10
-602905.27
 20
-1156547.25
 10
-602904.1107
 20
-1156537.1221
 10
-602916.3274
 20
-1156530.6488
 10
-602881.2908
 20
-1156421.0634
 10
-602937.93
 20
-1156456.28
 10
-602987.5531
 20
-1156487.2181
 10
-603141.94
 20
-1156112.38
 10
-603315.3512
 20
-1155677.919
 10
-603297.7213
 20
-1155612.301
 10
-603260.1419
 20
-1155482.0956
 10
-603286.6571
 20
-1155533.584
 10
-603322.6216
 20
-1155641.0208
 10
-603328.3495
 20
-1155666.1813
 10
-603335.09
 20
-1155674.88
 10
-603341.4
 20
-1155696.51
 10
-603346.63
 20
-1155712.46
 10
-603353.7369
 20
-1155730.5685
 10
-603354.4972
 20
-1155735.5054
 10
-603381.7937
 20
-1155773.2453
 10
-603425.4637
 20
-1155781.1503
 10
-603410.8037
 20
-1155842.0303
 10
-603393.971
 20
-1155886.3125
 10
-603336.7967
 20
-1156003.1166
 10
-603354.39
 20
-1156011.25
 10
-603357.82
 20
-1156023.44
 10
-603384.46
 20
-1156055.23
 10
-603393.6636
 20
-1156060.7129
 10
-603406.04
 20
-1156078.54
 10
-603415.6888
 20
-1156105.2263
 10
-603416.44
 20
-1156108.59
 10
-603417.1331
 20
-1156112.0154
 10
-603417.84
 20
-1156122.17
 10
-603420.5962
 20
-1156130.0969
 10
-603253.1152
 20
-1156146.9944
 10
-603070.7618
 20
-1156642.9229
 97
0
 75
0
 76
1
 98
0
  0
HATCH
  5
20003
100
AcDbEntity
  8
riziková oblast 
100
AcDbHatch
 10
0
 20
0
 30
0
210
0
220
0
230
1
  2
SOLID
 70
1
 71
0
 91
1
 92
2
 72
0
 73
1
 93
20
 10
-594540.295
 20
-1162578.7145
 10
-594644.561
 20
-1162661.258
 10
-594723.5684
 20
-1162743.4064
 10
-594861.781
 20
-1162887.168
 10
-594939.981
 20
-1163060.944
 10
-594983.425
 20
-1163182.587
 10
-594974.736
 20
-1163221.687
 10
-594931.292
 20
-1163347.675
 10
-594705.383
 20
-1163347.675
 10
-594596.7725
 20
-1163269.4755
 10
-594488.162
 20
-1163191.276
 10
-594349.141
 20
-1163043.566
 10
-594210.12
 20
-1162895.856
 10
-594123.232
 20
-1162704.703
 10
-594114.543
 20
-1162574.37
 10
-594149.298
 20
-1162487.482
 10
-594279.631
 20
-1162461.416
 10
-594436.029
 20
-1162496.171
 10
-594485.237
 20
-1162536.6189
 10
-594540.295
 20
-1162578.7145
 97
0
 75
0
 76
1
 98
0
  0
HATCH
  5
20004
100
AcDbEntity
  8
riziková oblast 
100
AcDbHatch
 10
0
 20
0
 30
0
210
0
220
0
230
1
  2
SOLID
 70
1
 71
0
 91
1
 92
2
 72
0
 73
1
 93
126
 10
-596676.188
 20
-1163344.5713
 10
-596675.4157
 20
-1163360.6247
 10
-596674.64
 20
-1163376.76
 10
-596673.055
 20
-1163443.105
 10
-596672.2625
 20
-1163476.2775
 10
-596671.47
 20
-1163509.45
 10
-596672.205
 20
-1163514.125
 10
-596674.86
 20
-1163531.03
 10
-596674.06
 20
-1163535.9
 10
-596674.98
 20
-1163540.33
 10
-596672.08
 20
-1163552.105
 10
-596668.6
 20
-1163566.25
 10
-596666.1
 20
-1163567.3
 10
-596647.96
 20
-1163572.99
 10
-596628.51
 20
-1163578.765
 10
-596600.91
 20
-1163586.27
 10
-596567.505
 20
-1163595.345
 10
-596525.4575
 20
-1163606.995
 10
-596487.335
 20
-1163618.39
 10
-596475.14
 20
-1163622.06
 10
-596465.33
 20
-1163626.32
 10
-596434.195
 20
-1163638.205
 10
-596406.33
 20
-1163648.67
 10
-596380.4
 20
-1163659.9
 10
-596359.34
 20
-1163669.12
 10
-596338.28
 20
-1163678.34
 10
-596320.505
 20
-1163689.93
 10
-596302.73
 20
-1163701.52
 10
-596281.16
 20
-1163716.11
 10
-596251.76
 20
-1163735.73
 10
-596224.8225
 20
-1163753.4741
 10
-596209.4738
 20
-1163750.7649
 10
-596187.4121
 20
-1163747.5337
 10
-596143.84
 20
-1163740.96
 10
-595995.9403
 20
-1163817.2636
 10
-595942.4572
 20
-1163845.1937
 10
-595847.9705
 20
-1163900.4595
 10
-595723.9026
 20
-1163965.6097
 10
-595635.8211
 20
-1164012.7739
 10
-595568.9673
 20
-1164048.1321
 10
-595507.7589
 20
-1164078.7363
 10
-595443.87
 20
-1164097.815
 10
-595298.78
 20
-1164129.54
 10
-595294.32
 20
-1164102.65
 10
-595231.41
 20
-1164104.53
 10
-595086.617
 20
-1164106.6259
 10
-594907.268
 20
-1164111.2445
 10
-594796.7391
 20
-1164115.5198
 10
-594701.9372
 20
-1164038.0597
 10
-594590.1533
 20
-1163959.8851
 10
-594497.7465
 20
-1163890.3571
 10
-594357.4791
 20
-1163791.4061
 10
-594275.6715
 20
-1163682.4575
 10
-594234.3302
 20
-1163629.5408
 10
-594192.989
 20
-1163576.624
 10
-594134.2778
 20
-1163456.3927
 10
-594099.5981
 20
-1163380.2268
 10
-594075.5665
 20
-1163336.1615
 10
-594046.2109
 20
-1163276.0459
 10
-594016.8552
 20
-1163215.9302
 10
-593927.895
 20
-1163016.47
 10
-593891.9151
 20
-1162922.2304
 10
-593989.59
 20
-1162816.65
 10
-594012.2
 20
-1162792.18
 10
-594024.52
 20
-1162785.84
 10
-594055.24
 20
-1162752.28
 10
-594059.35
 20
-1162739.02
 10
-594109.11
 20
-1162684.9
 10
-594120.5985
 20
-1162670.8695
 10
-594123.232
 20
-1162704.703
 10
-594210.12
 20
-1162895.856
 10
-594488.162
 20
-1163191.276
 10
-594705.383
 20
-1163347.675
 10
-594931.292
 20
-1163347.675
 10
-594953.014
 20
-1163284.681
 10
-594974.736
 20
-1163221.687
 10
-594983.425
 20
-1163182.587
 10
-594939.981
 20
-1163060.944
 10
-594861.781
 20
-1162887.168
 10
-594644.561
 20
-1162661.258
 10
-594512.766
 20
-1162557.6667
 10
-594485.237
 20
-1162536.6189
 10
-594436.029
 20
-1162496.171
 10
-594279.631
 20
-1162461.416
 10
-594238.7216
 20
-1162469.552
 10
-594242.18
 20
-1162458.9
 10
-594254.28
 20
-1162417.46
 10
-594260.93
 20
-1162397.27
 10
-594285.89
 20
-1162387.2
 10
-594302.01
 20
-1162374.28
 10
-594303.83
 20
-1162359.23
 10
-594313.67
 20
-1162356.22
 10
-594318.21
 20
-1162345.76
 10
-594350.1
 20
-1162290.16
 10
-594406.213
 20
-1162203.7662
 10
-594406.515
 20
-1162203.305
 10
-594409.83
 20
-1162198.73
 10
-594432.88
 20
-1162168.38
 10
-594427.245
 20
-1162157.89
 10
-594402.93
 20
-1162112.81
 10
-594412.31
 20
-1162101.66
 10
-594427.56
 20
-1162097.47
 10
-594435.67
 20
-1162095.24
 10
-594450.3718
 20
-1162090.4188
 10
-594467.17
 20
-1162084.91
 10
-594503.55
 20
-1162069.48
 10
-594563.565
 20
-1162042.77
 10
-594600.4665
 20
-1162026.8211
 10
-594615.06
 20
-1162020.5
 10
-594676.25
 20
-1161992.23
 10
-594798.75
 20
-1161936.8
 10
-594817.06
 20
-1161928.69
 10
-594828.8515
 20
-1161921.1304
 10
-595276.1022
 20
-1162250.2741
 10
-595495.305
 20
-1162411.5955
 10
-595646.5183
 20
-1162526.3746
 10
-595905.4057
 20
-1162706.8743
 10
-596052.1221
 20
-1162790.5848
 10
-596108.6023
 20
-1162836.3448
 10
-596184.9143
 20
-1162890.0593
 10
-596341.1964
 20
-1163005.2923
 10
-596370.5938
 20
-1163040.9323
 10
-596412.2331
 20
-1163087.8218
 10
-596503.4364
 20
-1163199.8323
 10
-596585.1458
 20
-1163301.5817
 10
-596676.188
 20
-1163344.5713
 97
0
 75
0
 76
1
 98
0
  0
HATCH
  5
20005
100
AcDbEntity
  8
riziková oblast 
100
AcDbHatch
 10
0
 20
0
 30
0
210
0
220
0
230
1
  2
SOLID
 70
1
 71
0
 91
1
 92
2
 72
0
 73
1
 93
165
 10
-595778.6396
 20
-1157583.7256
 10
-595793.4946
 20
-1157596.7806
 10
-595808.3496
 20
-1157609.8356
 10
-595809.0196
 20
-1157624.2456
 10
-595809.6896
 20
-1157638.6556
 10
-595816.9996
 20
-1157652.7406
 10
-595824.3096
 20
-1157666.8256
 10
-595837.0496
 20
-1157696.3456
 10
-595837.7746
 20
-1157709.5656
 10
-595838.4996
 20
-1157722.7856
 10
-595845.3796
 20
-1157742.4956
 10
-595852.2596
 20
-1157762.2056
 10
-595857.7696
 20
-1157790.5556
 10
-595842.8596
 20
-1157815.8856
 10
-595851.3796
 20
-1157842.3356
 10
-595851.9096
 20
-1157857.0456
 10
-595852.4396
 20
-1157871.7556
 10
-595860.4046
 20
-1157901.0656
 10
-595864.3796
 20
-1157915.5056
 10
-595878.4496
 20
-1157949.9356
 10
-595887.1696
 20
-1157974.9456
 10
-595920.7196
 20
-1157980.0656
 10
-595940.7196
 20
-1157983.2456
 10
-595958.1946
 20
-1157991.1856
 10
-595975.6696
 20
-1157999.1256
 10
-595999.1896
 20
-1158009.8706
 10
-596003.2496
 20
-1158011.2956
 10
-596012.6396
 20
-1158012.9856
 10
-596006.3796
 20
-1158079.4656
 10
-595995.4759
 20
-1158199.9953
 10
-595948.21
 20
-1158310.74
 10
-595681.96
 20
-1158938.25
 10
-595650.7296
 20
-1159012.0256
 10
-595631.4117
 20
-1159052.9629
 10
-595564.6355
 20
-1158961.5186
 10
-595501.7
 20
-1158875.86
 10
-595475.4205
 20
-1158835.9436
 10
-595441.7305
 20
-1158773.4736
 10
-595432.9105
 20
-1158746.8236
 10
-595427.7305
 20
-1158732.2636
 10
-595423.16
 20
-1158694.14
 10
-595428.1505
 20
-1158657.9136
 10
-595439.6705
 20
-1158630.2036
 10
-595458.7205
 20
-1158609.0036
 10
-595476.7
 20
-1158602.03
 10
-595482.31
 20
-1158615.47
 10
-595516.7755
 20
-1158583.7936
 10
-595528.9605
 20
-1158572.7336
 10
-595546.33
 20
-1158558.27
 10
-595566.6505
 20
-1158543.9036
 10
-595573.7555
 20
-1158536.6236
 10
-595580.8605
 20
-1158529.3436
 10
-595594.2805
 20
-1158512.3636
 10
-595599.9655
 20
-1158503.5386
 10
-595605.6505
 20
-1158494.7136
 10
-595612.987
 20
-1158481.9015
 10
-595616.79
 20
-1158477.32
 10
-595621.6305
 20
-1158470.1386
 10
-595626.5505
 20
-1158462.9536
 10
-595629.65
 20
-1158459.35
 10
-595641.6344
 20
-1158440.1306
 10
-595646.5887
 20
-1158422.4397
 10
-595647.4855
 20
-1158416.8136
 10
-595647.61
 20
-1158395.02
 10
-595645.3905
 20
-1158378.7336
 10
-595638.1705
 20
-1158352.3436
 10
-595631.7155
 20
-1158336.2436
 10
-595625.34
 20
-1158320.14
 10
-595633.4205
 20
-1158310.3436
 10
-595646.0805
 20
-1158289.4536
 10
-595674.4655
 20
-1158246.4836
 10
-595702.8505
 20
-1158203.5136
 10
-595704.7826
 20
-1158200.5756
 10
-595709.3805
 20
-1158193.6236
 10
-595712.6405
 20
-1158181.9636
 10
-595716.0105
 20
-1158149.7736
 10
-595720.8455
 20
-1158126.6686
 10
-595725.6805
 20
-1158103.5636
 10
-595731.7674
 20
-1158084.6569
 10
-595738.0129
 20
-1158065.2195
 10
-595741.2705
 20
-1158046.1436
 10
-595738.1405
 20
-1158026.1236
 10
-595734.8805
 20
-1158012.8586
 10
-595731.6205
 20
-1157999.5936
 10
-595730.5705
 20
-1157990.5236
 10
-595730.6605
 20
-1157987.8536
 10
-595735.9596
 20
-1157988.9456
 10
-595744.8396
 20
-1157985.6556
 10
-595748.7746
 20
-1157968.9956
 10
-595752.7096
 20
-1157952.3356
 10
-595754.4146
 20
-1157945.1106
 10
-595756.1196
 20
-1157937.8856
 10
-595756.5996
 20
-1157933.6056
 10
-595757.0796
 20
-1157929.3256
 10
-595756.8296
 20
-1157929.0456
 10
-595754.8696
 20
-1157926.2256
 10
-595758.1696
 20
-1157923.7456
 10
-595760.3096
 20
-1157922.0356
 10
-595765.4496
 20
-1157920.7156
 10
-595771.0196
 20
-1157917.1356
 10
-595776.5896
 20
-1157913.5556
 10
-595778.5146
 20
-1157911.5756
 10
-595780.4396
 20
-1157909.5956
 10
-595782.3446
 20
-1157902.0306
 10
-595784.2496
 20
-1157894.4656
 10
-595783.6746
 20
-1157886.8956
 10
-595783.0996
 20
-1157879.3256
 10
-595781.9296
 20
-1157876.7256
 10
-595778.7946
 20
-1157873.3606
 10
-595775.6596
 20
-1157869.9956
 10
-595769.0096
 20
-1157864.9556
 10
-595762.3596
 20
-1157859.9156
 10
-595753.6396
 20
-1157855.7906
 10
-595744.9196
 20
-1157851.6656
 10
-595738.5046
 20
-1157850.1456
 10
-595732.0896
 20
-1157848.6256
 10
-595725.6346
 20
-1157846.5356
 10
-595719.1796
 20
-1157844.4456
 10
-595713.8996
 20
-1157842.1456
 10
-595708.6196
 20
-1157839.8456
 10
-595703.0796
 20
-1157836.2156
 10
-595699.9996
 20
-1157832.8056
 10
-595695.6846
 20
-1157826.4706
 10
-595691.3696
 20
-1157820.1356
 10
-595687.0096
 20
-1157816.1356
 10
-595682.6496
 20
-1157812.1356
 10
-595672.7346
 20
-1157805.5206
 10
-595662.8196
 20
-1157798.9056
 10
-595659.3446
 20
-1157794.2456
 10
-595655.8696
 20
-1157789.5856
 10
-595653.9946
 20
-1157783.8906
 10
-595652.1196
 20
-1157778.1956
 10
-595652.2296
 20
-1157776.0606
 10
-595652.3396
 20
-1157773.9256
 10
-595656.4096
 20
-1157759.3656
 10
-595660.4796
 20
-1157744.8056
 10
-595662.1246
 20
-1157736.2306
 10
-595663.7696
 20
-1157727.6556
 10
-595666.1346
 20
-1157720.9756
 10
-595668.4996
 20
-1157714.2956
 10
-595669.1896
 20
-1157712.6256
 10
-595672.0046
 20
-1157706.4956
 10
-595674.8196
 20
-1157700.3656
 10
-595676.5396
 20
-1157694.3556
 10
-595678.2596
 20
-1157688.3456
 10
-595678.8046
 20
-1157686.1306
 10
-595679.3496
 20
-1157683.9156
 10
-595679.9246
 20
-1157674.5556
 10
-595680.4996
 20
-1157665.1956
 10
-595679.8846
 20
-1157662.4356
 10
-595679.2696
 20
-1157659.6756
 10
-595681.0796
 20
-1157658.3906
 10
-595682.8896
 20
-1157657.1056
 10
-595685.5796
 20
-1157655.2306
 10
-595688.2696
 20
-1157653.3556
 10
-595701.0496
 20
-1157644.5306
 10
-595713.8296
 20
-1157635.7056
 10
-595709.5396
 20
-1157629.6456
 10
-595712.9096
 20
-1157627.3656
 10
-595721.3846
 20
-1157621.6256
 10
-595729.8596
 20
-1157615.8856
 10
-595739.2596
 20
-1157609.3456
 10
-595748.6596
 20
-1157602.8056
 10
-595763.6496
 20
-1157593.2656
 10
-595778.6396
 20
-1157583.7256
 97
0
 75
0
 76
1
 98
0
  0
HATCH
  5
20006
100
AcDbEntity
  8
riziková oblast 
100
AcDbHatch
 10
0
 20
0
 30
0
210
0
220
0
230
1
  2
SOLID
 70
1
 71
0
 91
1
 92
2
 72
0
 73
1
 93
52
 10
-604471.2855
 20
-1152791.7046
 10
-604977.915
 20
-1153121.6524
 10
-604795.19
 20
-1153526.46
 10
-604650.98
 20
-1153737.6
 10
-604383.48
 20
-1154123.305
 10
-604192.127
 20
-1154490.2041
 10
-604123.4766
 20
-1154702.0093
 10
-604047.1313
 20
-1154941.4907
 10
-603943.7
 20
-1155749.545
 10
-604020.5234
 20
-1155870.8723
 10
-603890.5174
 20
-1155889.8215
 10
-603762.261
 20
-1155913.85
 10
-603693.347
 20
-1155922.8163
 10
-603491.6531
 20
-1156121.5833
 10
-603420.6079
 20
-1156130.098
 10
-603417.84
 20
-1156122.17
 10
-603417.2
 20
-1156111.95
 10
-603415.68
 20
-1156105.23
 10
-603406.04
 20
-1156078.54
 10
-603393.91
 20
-1156060.74
 10
-603384.46
 20
-1156055.23
 10
-603357.82
 20
-1156023.44
 10
-603356.105
 20
-1156017.345
 10
-603354.39
 20
-1156011.25
 10
-603336.7967
 20
-1156003.1166
 10
-603353.65
 20
-1155968.52
 10
-603394.5637
 20
-1155885.2003
 10
-603410.8037
 20
-1155842.0303
 10
-603420.2837
 20
-1155805.2403
 10
-603425.4637
 20
-1155781.1503
 10
-603402.1137
 20
-1155776.8953
 10
-603381.7937
 20
-1155773.2453
 10
-603354.72
 20
-1155735.505
 10
-603353.7369
 20
-1155730.5685
 10
-603346.63
 20
-1155712.46
 10
-603341.4
 20
-1155696.51
 10
-603335.09
 20
-1155674.88
 10
-603328.49
 20
-1155665.96
 10
-603322.51
 20
-1155640.73
 10
-603313.4413
 20
-1155612.3261
 10
-603298.39
 20
-1155569.05
 10
-603297.87
 20
-1155566.27
 10
-603289.42
 20
-1155543.28
 10
-603289.3
 20
-1155541.06
 10
-603286.86
 20
-1155534.02
 10
-603260.1037
 20
-1155483.0403
 10
-603154.4211
 20
-1155075.5289
 10
-603136.3272
 20
-1155005.282
 10
-603064.2177
 20
-1154726.6889
 10
-603279.2159
 20
-1153970.4698
 10
-603851.835
 20
-1152778.9324
 10
-604471.2855
 20
-1152791.7046
 97
0
 75
0
 76
1
 98
0
  0
HATCH
  5
20007
100
AcDbEntity
  8
riziková oblast 
100
AcDbHatch
 10
0
 20
0
 30
0
210
0
220
0
230
1
  2
SOLID
 70
1
 71
0
 91
1
 92
2
 72
0
 73
1
 93
20
 10
-596676.7816
 20
-1163344.439
 10
-596721.2535
 20
-1163366.8844
 10
-596755.0773
 20
-1163383.6897
 10
-596786.4686
 20
-1163398.6982
 10
-596819.183
 20
-1163413.8129
 10
-596851.6645
 20
-1163429.6174
 10
-596869.796
 20
-1163436.9864
 10
-596883.3773
 20
-1163510.2689
 10
-596884.9218
 20
-1163549.4598
 10
-596825.9702
 20
-1163632.8453
 10
-596756.5469
 20
-1163730.9686
 10
-596662.1165
 20
-1163791.0781
 10
-596666.97
 20
-1163633.07
 10
-596668.6
 20
-1163566.25
 10
-596674.98
 20
-1163540.33
 10
-596674.06
 20
-1163535.9
 10
-596674.86
 20
-1163531.03
 10
-596671.72
 20
-1163509.45
 10
-596674.64
 20
-1163376.76
 10
-596676.7816
 20
-1163344.439
 97
0
 75
0
 76
1
 98
0
  0
HATCH
  5
20008
100
AcDbEntity
  8
riziková oblast 
100
AcDbHatch
 10
0
 20
0
 30
0
210
0
220
0
230
1
  2
SOLID
 70
1
 71
0
 91
1
 92
2
 72
0
 73
1
 93
20
 10
-602614.0431
 20
-1156564.9698
 10
-602613.39
 20
-1156578.46
 10
-602600.0502
 20
-1156601.1866
 10
-602576.766
 20
-1156616.003
 10
-602530.829
 20
-1156610.46
 10
-602466.552
 20
-1156577.614
 10
-602424.3161
 20
-1156553.0347
 10
-602385.2184
 20
-1156526.2836
 10
-602346.5322
 20
-1156487.5974
 10
-602315.649
 20
-1156437.266
 10
-602309.4922
 20
-1156412.6943
 10
-602318.5464
 20
-1156380.593
 10
-602335.98
 20
-1156365.56
 10
-602384.2075
 20
-1156365.6335
 10
-602463.799
 20
-1156395.133
 10
-602474.1805
 20
-1156402.7851
 10
-602539.6376
 20
-1156451.0859
 10
-602583.311
 20
-1156484.501
 10
-602614.0431
 20
-1156533.6916
 10
-602614.0431
 20
-1156564.9698
 97
0
 75
0
 76
1
 98
0
  0
HATCH
  5
20009
100
AcDbEntity
  8
riziková oblast 
100
AcDbHatch
 10
0
 20
0
 30
0
210
0
220
0
230
1
  2
SOLID
 70
1
 71
0
 91
2
 92
2
 72
0
 73
1
 93
37
 10
-602511.9989
 20
-1155449.0569
 10
-602425.8549
 20
-1155743.0811
 10
-602630.3668
 20
-1155923.0401
 10
-602551.8015
 20
-1156223.2127
 10
-602881.2908
 20
-1156421.0634
 10
-602903.8877
 20
-1156492.7769
 10
-602914.1377
 20
-1156525.1269
 10
-602915.9877
 20
-1156530.5869
 10
-602908.6577
 20
-1156534.6069
 10
-602904.2601
 20
-1156536.8614
 10
-602905.9077
 20
-1156547.5969
 10
-602928.0477
 20
-1156558.7269
 10
-602951.4577
 20
-1156569.6069
 10
-602959.0077
 20
-1156572.9069
 10
-602961.7377
 20
-1156574.6269
 10
-602967.6977
 20
-1156579.5269
 10
-602973.7177
 20
-1156584.6669
 10
-602988.4977
 20
-1156600.4269
 10
-603000.2877
 20
-1156609.7769
 10
-603017.9877
 20
-1156614.4269
 10
-603040.6277
 20
-1156622.5869
 10
-603058.5277
 20
-1156634.9869
 10
-603073.3177
 20
-1156638.2369
 10
-603044.2777
 20
-1156709.7869
 10
-603017.7961
 20
-1156780.9789
 10
-602981.76
 20
-1157124.89
 10
-602992.549
 20
-1157368.7768
 10
-602908.6702
 20
-1157369.8918
 10
-602704.3993
 20
-1157018.1647
 10
-602217.2
 20
-1156644.16
 10
-601960.8382
 20
-1156572.3528
 10
-601997.1743
 20
-1156467.6348
 10
-602103.0087
 20
-1156439.0244
 10
-602097.3206
 20
-1156420.7825
 10
-602013.5866
 20
-1156152.2437
 10
-602359.7196
 20
-1155474.0474
 10
-602511.9989
 20
-1155449.0569
 97
0
 92
2
 72
0
 73
1
 93
21
 10
-602315.5638
 20
-1156436.2879
 10
-602346.5322
 20
-1156487.5974
 10
-602385.2184
 20
-1156526.2836
 10
-602424.3161
 20
-1156553.0347
 10
-602466.552
 20
-1156577.614
 10
-602530.829
 20
-1156610.46
 10
-602576.766
 20
-1156616.003
 10
-602600.0502
 20
-1156601.1866
 10
-602613.39
 20
-1156578.46
 10
-602614.0431
 20
-1156533.6916
 10
-602583.6981
 20
-1156483.8388
 10
-602463.799
 20
-1156395.133
 10
-602384.2075
 20
-1156365.6335
 10
-602335.98
 20
-1156365.56
 10
-602318.5464
 20
-1156380.593
 10
-602309.4922
 20
-1156412.6943
 10
-602315.405
 20
-1156436.2923
 10
-602187.0107
 20
-1156439.8842
 10
-602315.649
 20
-1156437.266
 10
-602315.405
 20
-1156436.2923
 10
-602315.5638
 20
-1156436.2879
 97
0
 75
0
 76
1
 98
0
  0
HATCH
  5
2000A
100
AcDbEntity
  8
riziková oblast 
100
AcDbHatch
 10
0
 20
0
 30
0
210
0
220
0
230
1
  2
SOLID
 70
1
 71
0
 91
1
 92
2
 72
0
 73
1
 93
83
 10
-596636.0518
 20
-1157101.3746
 10
-596744.7411
 20
-1156987.1854
 10
-596812.0499
 20
-1156981.7524
 10
-596871.19
 20
-1157172.57
 10
-597164.308
 20
-1157166.1953
 10
-597249.7902
 20
-1157201.4211
 10
-597387.5794
 20
-1157256.4205
 10
-597193.2481
 20
-1157532.899
 10
-596707.4201
 20
-1157602.0001
 10
-596583.0167
 20
-1157325.4317
 10
-596474.5893
 20
-1157364.4551
 10
-596547.9218
 20
-1157633.6902
 10
-596352.0192
 20
-1157699.4931
 10
-596260.8773
 20
-1157751.8735
 10
-596162.25
 20
-1157884.79
 10
-596044.2844
 20
-1158100.9887
 10
-596012.3324
 20
-1158164.8928
 10
-595995.73
 20
-1158202
 10
-596006.3902
 20
-1158079.3725
 10
-596012.6502
 20
-1158012.8925
 10
-596000.9802
 20
-1158010.7325
 10
-595997.4202
 20
-1158008.8225
 10
-595975.6802
 20
-1157999.0325
 10
-595940.7302
 20
-1157983.1525
 10
-595920.7302
 20
-1157979.9725
 10
-595920.1502
 20
-1157978.3025
 10
-595917.0102
 20
-1157979.4125
 10
-595887.1802
 20
-1157974.8525
 10
-595878.4602
 20
-1157949.8425
 10
-595863.3802
 20
-1157911.7625
 10
-595857.4502
 20
-1157890.1825
 10
-595852.4502
 20
-1157871.9875
 10
-595851.3902
 20
-1157842.2425
 10
-595842.8702
 20
-1157815.7925
 10
-595857.7802
 20
-1157790.4625
 10
-595852.2702
 20
-1157762.1125
 10
-595838.5102
 20
-1157722.6925
 10
-595837.0602
 20
-1157696.2525
 10
-595824.3202
 20
-1157666.7325
 10
-595809.7002
 20
-1157638.5625
 10
-595808.3602
 20
-1157609.7425
 10
-595778.6502
 20
-1157583.6325
 10
-595794.7302
 20
-1157572.1325
 10
-595790.1402
 20
-1157561.2225
 10
-595804.4102
 20
-1157562.9825
 10
-595810.6602
 20
-1157559.5125
 10
-595824.3902
 20
-1157552.0325
 10
-595837.7702
 20
-1157545.6125
 10
-595852.5802
 20
-1157538.5725
 10
-595866.0002
 20
-1157529.3625
 10
-595884.6002
 20
-1157516.6925
 10
-595891.0002
 20
-1157514.0825
 10
-595918.0202
 20
-1157503.0825
 10
-595910.8702
 20
-1157494.0125
 10
-595888.4602
 20
-1157466.8025
 10
-595883.4002
 20
-1157455.4825
 10
-595879.4402
 20
-1157441.3925
 10
-595879.3602
 20
-1157425.3425
 10
-595876.0002
 20
-1157414.7125
 10
-595870.2002
 20
-1157396.3725
 10
-595860.2902
 20
-1157380.0825
 10
-595855.6802
 20
-1157372.4725
 10
-595842.5102
 20
-1157350.8525
 10
-595836.0702
 20
-1157335.2725
 10
-595834.9802
 20
-1157332.6225
 10
-595829.8202
 20
-1157318.6225
 10
-595822.1902
 20
-1157302.3325
 10
-595816.4902
 20
-1157288.0825
 10
-595807.7402
 20
-1157264.9225
 10
-595803.3202
 20
-1157252.0925
 10
-595797.8202
 20
-1157235.6725
 10
-595787.4902
 20
-1157204.1825
 10
-595782.0602
 20
-1157183.2925
 10
-595783.1302
 20
-1157158.4525
 10
-595783.7602
 20
-1157131.6225
 10
-595798.2602
 20
-1157122.3825
 10
-595813.2902
 20
-1157112.8425
 10
-595831.4019
 20
-1157101.3471
 10
-595894.4011
 20
-1157061.5438
 10
-595900.725
 20
-1157059.87
 10
-596211.2469
 20
-1157302.61
 10
-596465.2918
 20
-1157194.6117
 10
-596636.0518
 20
-1157101.3746
 97
0
 75
0
 76
1
 98
0
  0
HATCH
  5
2000B
100
AcDbEntity
  8
riziková oblast 
100
AcDbHatch
 10
0
 20
0
 30
0
210
0
220
0
230
1
  2
SOLID
 70
1
 71
0
 91
1
 92
2
 72
0
 73
1
 93
16
 10
-596690.1346
 20
-1156456.2447
 10
-596803.2762
 20
-1156510.7203
 10
-596823.8583
 20
-1156546.7984
 10
-596838.3904
 20
-1156588.3611
 10
-596766.6276
 20
-1156744.9453
 10
-596643.9089
 20
-1156799.3362
 10
-596524.7
 20
-1156832.96
 10
-596450.8872
 20
-1156822.3836
 10
-596393.19
 20
-1156729.2
 10
-596357.2572
 20
-1156649.2664
 10
-596201.4256
 20
-1156581.9576
 10
-596178.902
 20
-1156574.6244
 10
-596180.3337
 20
-1156540.7888
 10
-596431.29
 20
-1156516.77
 10
-596552.4154
 20
-1156442.3867
 10
-596690.1346
 20
-1156456.2447
 97
0
 75
0
 76
1
 98
0
  0
HATCH
  5
2000C
100
AcDbEntity
  8
riziková oblast 
100
AcDbHatch
 10
0
 20
0
 30
0
210
0
220
0
230
1
  2
SOLID
 70
1
 71
0
 91
1
 92
2
 72
0
 73
1
 93
37
 10
-593825.4962
 20
-1161555.9873
 10
-593867.12
 20
-1161617.885
 10
-593870.85
 20
-1161622.985
 10
-593878.27
 20
-1161634.36
 10
-593889.9
 20
-1161652.16
 10
-593874.015
 20
-1161667.105
 10
-593858.13
 20
-1161682.05
 10
-593841.535
 20
-1161698.185
 10
-593824.94
 20
-1161714.32
 10
-593825.35
 20
-1161714.76
 10
-593830.41
 20
-1161720.16
 10
-593838.3
 20
-1161728.595
 10
-593848.67
 20
-1161739.675
 10
-593872.4
 20
-1161765.03
 10
-593862.87
 20
-1161774.37
 10
-593883.23
 20
-1161796.21
 10
-593899.47
 20
-1161813.87
 10
-593883.78
 20
-1161819.75
 10
-593867.73
 20
-1161825.77
 10
-593845.33
 20
-1161834.16
 10
-593840.904
 20
-1161855.677
 10
-593839.02
 20
-1161864.58
 10
-593839.66
 20
-1161871.33
 10
-593834.05
 20
-1161880.53
 10
-593829.07
 20
-1161887.02
 10
-593798.09
 20
-1161865.65
 10
-593782.6
 20
-1161854.965
 10
-593767.11
 20
-1161844.28
 10
-593760.2
 20
-1161838.42
 10
-593723.1
 20
-1161818.37
 10
-593696.25
 20
-1161799.435
 10
-593669.4
 20
-1161780.5
 10
-593622.9244
 20
-1161748.4964
 10
-593688.791
 20
-1161653.3555
 10
-593746.465
 20
-1161570.835
 10
-593766.99
 20
-1161540.401
 10
-593825.4962
 20
-1161555.9873
 97
0
 75
0
 76
1
 98
0
  0
HATCH
  5
2000D
100
AcDbEntity
  8
riziková oblast 
100
AcDbHatch
 10
0
 20
0
 30
0
210
0
220
0
230
1
  2
SOLID
 70
1
 71
0
 91
1
 92
2
 72
0
 73
1
 93
132
 10
-591944.3576
 20
-1158637.5956
 10
-592703.0154
 20
-1159190.573
 10
-592846.9464
 20
-1159248.2988
 10
-593201.8755
 20
-1159388.9404
 10
-593225.195
 20
-1159416.7275
 10
-593255.985
 20
-1159455.4025
 10
-593273.64
 20
-1159478.7
 10
-593282.39
 20
-1159494.07
 10
-593297.66
 20
-1159520.885
 10
-593312.93
 20
-1159547.7
 10
-593321.5725
 20
-1159571.1975
 10
-593347.5
 20
-1159641.44
 10
-593356.88
 20
-1159676.055
 10
-593366.26
 20
-1159710.42
 10
-593370.38
 20
-1159723.3425
 10
-593395.1
 20
-1159800.8775
 10
-593399.22
 20
-1159813.8
 10
-593417.2
 20
-1159846.955
 10
-593435.18
 20
-1159880.11
 10
-593444.47
 20
-1159892.42
 10
-593453.76
 20
-1159904.73
 10
-593475.33
 20
-1159929.57
 10
-593485.14
 20
-1159939.97
 10
-593490.945
 20
-1159944.715
 10
-593496.75
 20
-1159949.46
 10
-593505.325
 20
-1159955.915
 10
-593514.2475
 20
-1159962.5825
 10
-593528.595
 20
-1159972.9075
 10
-593544.87
 20
-1159983.88
 10
-593558.8
 20
-1159993.27
 10
-593569.675
 20
-1160000.605
 10
-593580.55
 20
-1160007.94
 10
-593590.455
 20
-1160009.58
 10
-593600.36
 20
-1160011.22
 10
-593607.4
 20
-1160012.46
 10
-593616.3275
 20
-1160015.685
 10
-593626.8187
 20
-1160019.4725
 10
-593637.31
 20
-1160023.26
 10
-593671.9175
 20
-1160033.3775
 10
-593688.14
 20
-1160038.12
 10
-593707.26
 20
-1160045
 10
-593736.75
 20
-1160055.6
 10
-593739.39
 20
-1160058.47
 10
-593747.11
 20
-1160066.86
 10
-593757.88
 20
-1160077.44
 10
-593765.26
 20
-1160084.62
 10
-593783.11
 20
-1160087.8762
 10
-593793.82
 20
-1160089.83
 10
-593796.16
 20
-1160101.48
 10
-593798.24
 20
-1160111.88
 10
-593793.455
 20
-1160122.05
 10
-593788.67
 20
-1160132.22
 10
-593786.95
 20
-1160139.86
 10
-593785.23
 20
-1160147.5
 10
-593784.92
 20
-1160151.13
 10
-593785.18
 20
-1160152.075
 10
-593787.3
 20
-1160159.91
 10
-593788.73
 20
-1160166.58
 10
-593792.9
 20
-1160182.6
 10
-593795.03
 20
-1160191.4
 10
-593804.0588
 20
-1160223.18
 10
-593807.12
 20
-1160234.89
 10
-593812.49
 20
-1160252.61
 10
-593816.2
 20
-1160251.6
 10
-593818.2038
 20
-1160259.0687
 10
-593820.2075
 20
-1160266.5375
 10
-593824.215
 20
-1160281.475
 10
-593826.2188
 20
-1160288.9437
 10
-593828.2225
 20
-1160296.4125
 10
-593832.23
 20
-1160311.35
 10
-593834.945
 20
-1160317.715
 10
-593837.66
 20
-1160324.08
 10
-593838.76
 20
-1160328.795
 10
-593839.86
 20
-1160333.51
 10
-593840.18
 20
-1160337.24
 10
-593847.12
 20
-1160335.73
 10
-593848.54
 20
-1160342.1
 10
-593840.77
 20
-1160344.11
 10
-593841.53
 20
-1160352.31
 10
-593843.88
 20
-1160362.4275
 10
-593848.58
 20
-1160382.6625
 10
-593856.315
 20
-1160416.005
 10
-593862.565
 20
-1160442.665
 10
-593863.43
 20
-1160446.1
 10
-593868.305
 20
-1160467.505
 10
-593870.8
 20
-1160478
 10
-593875.65
 20
-1160499.12
 10
-593876.8
 20
-1160502.49
 10
-593879.04
 20
-1160506.2
 10
-593880.1
 20
-1160508.76
 10
-593882.825
 20
-1160519.82
 10
-593884.1875
 20
-1160525.35
 10
-593885.55
 20
-1160530.88
 10
-593887.1675
 20
-1160537.575
 10
-593889.4987
 20
-1160547.9625
 10
-593892.71
 20
-1160560.59
 10
-593899.565
 20
-1160567.155
 10
-593906.42
 20
-1160573.72
 10
-593910.5
 20
-1160575.88
 10
-593921.1
 20
-1160579.57
 10
-593930.165
 20
-1160581.985
 10
-593939.23
 20
-1160584.4
 10
-593947.16
 20
-1160587.27
 10
-593960.165
 20
-1160591.98
 10
-593972.45
 20
-1160596.59
 10
-594042.37
 20
-1160664.77
 10
-594071.61
 20
-1160690.67
 10
-594098.15
 20
-1160714.3
 10
-594124.8225
 20
-1160741.06
 10
-594197.6887
 20
-1160814.165
 10
-594249.18
 20
-1160865.82
 10
-594252.2
 20
-1160868.85
 10
-594255.38
 20
-1160870.14
 10
-594256.61
 20
-1160871.2
 10
-594295.4825
 20
-1160907.1425
 10
-594317.4
 20
-1160927.29
 10
-594318.57
 20
-1160947.78
 10
-594290.16
 20
-1160951.92
 10
-594269.99
 20
-1160951.38
 10
-594243.75
 20
-1160950
 10
-594187.28
 20
-1160945.44
 10
-594062.56
 20
-1160934.42
 10
-593935.44
 20
-1160923.08
 10
-593919.2876
 20
-1160921.5669
 10
-593755.6662
 20
-1160818.2065
 10
-591147.69
 20
-1159640.81
 10
-590892.38
 20
-1159150.11
 10
-590597.75
 20
-1158600.6815
 10
-590980.4073
 20
-1158662.3299
 10
-591117.7011
 20
-1159131.417
 10
-591779.0754
 20
-1159139.7822
 10
-591944.3576
 20
-1158637.5956
 97
0
 75
0
 76
1
 98
0
  0
HATCH
  5
2000E
100
AcDbEntity
  8
riziková oblast 
100
AcDbHatch
 10
0
 20
0
 30
0
210
0
220
0
230
1
  2
SOLID
 70
1
 71
0
 91
1
 92
2
 72
0
 73
1
 93
298
 10
-595376.5405
 20
-1157524.3636
 10
-595370.7005
 20
-1157519.9136
 10
-595389.1005
 20
-1157514.5736
 10
-595400.3405
 20
-1157510.6836
 10
-595417.3755
 20
-1157503.5736
 10
-595434.4105
 20
-1157496.4636
 10
-595436.7005
 20
-1157495.2336
 10
-595445.2405
 20
-1157493.4336
 10
-595456.4005
 20
-1157491.4086
 10
-595463.1324
 20
-1157490.1878
 10
-595467.5605
 20
-1157489.3836
 10
-595470.2205
 20
-1157489.2686
 10
-595472.8805
 20
-1157489.1536
 10
-595485.9705
 20
-1157490.4836
 10
-595504.8305
 20
-1157495.3036
 10
-595524.8605
 20
-1157502.1736
 10
-595545.7605
 20
-1157510.4236
 10
-595569.3105
 20
-1157523.9436
 10
-595579.5655
 20
-1157531.0536
 10
-595589.8205
 20
-1157538.1636
 10
-595594.9755
 20
-1157542.6786
 10
-595600.1305
 20
-1157547.1936
 10
-595603.9705
 20
-1157551.1436
 10
-595608.9705
 20
-1157556.8386
 10
-595613.9705
 20
-1157562.5336
 10
-595618.2205
 20
-1157569.1036
 10
-595624.9655
 20
-1157578.4236
 10
-595631.7105
 20
-1157587.7436
 10
-595634.9555
 20
-1157593.1436
 10
-595638.2005
 20
-1157598.5436
 10
-595643.5055
 20
-1157603.6586
 10
-595648.8105
 20
-1157608.7736
 10
-595652.4705
 20
-1157613.3436
 10
-595657.8805
 20
-1157619.4236
 10
-595664.1755
 20
-1157629.0936
 10
-595670.4705
 20
-1157638.7636
 10
-595674.1955
 20
-1157646.6036
 10
-595677.9205
 20
-1157654.4436
 10
-595679.0205
 20
-1157659.3836
 10
-595679.2005
 20
-1157659.7136
 10
-595680.4305
 20
-1157665.2336
 10
-595679.8555
 20
-1157674.5936
 10
-595679.2805
 20
-1157683.9536
 10
-595678.1905
 20
-1157688.3836
 10
-595677.3105
 20
-1157691.4436
 10
-595676.0936
 20
-1157695.9234
 10
-595695.3105
 20
-1157800.8986
 10
-595701.4705
 20
-1157834.5486
 10
-595703.0105
 20
-1157836.2536
 10
-595705.7805
 20
-1157838.0686
 10
-595708.5505
 20
-1157839.8836
 10
-595713.8305
 20
-1157842.1836
 10
-595719.1105
 20
-1157844.4836
 10
-595725.5655
 20
-1157846.5736
 10
-595732.0205
 20
-1157848.6636
 10
-595738.4355
 20
-1157850.1836
 10
-595744.8505
 20
-1157851.7036
 10
-595753.5705
 20
-1157855.8286
 10
-595762.2905
 20
-1157859.9536
 10
-595768.9405
 20
-1157864.9936
 10
-595775.5905
 20
-1157870.0336
 10
-595778.7255
 20
-1157873.3986
 10
-595781.8605
 20
-1157876.7636
 10
-595783.0305
 20
-1157879.3636
 10
-595783.6055
 20
-1157886.9336
 10
-595784.1805
 20
-1157894.5036
 10
-595782.2755
 20
-1157902.0686
 10
-595780.3705
 20
-1157909.6336
 10
-595776.5205
 20
-1157913.5936
 10
-595770.9505
 20
-1157917.1736
 10
-595765.3805
 20
-1157920.7536
 10
-595760.2405
 20
-1157922.0736
 10
-595758.6105
 20
-1157923.4436
 10
-595758.1005
 20
-1157923.7836
 10
-595754.8005
 20
-1157926.2636
 10
-595756.7605
 20
-1157929.0836
 10
-595757.0105
 20
-1157929.3636
 10
-595756.0505
 20
-1157937.9236
 10
-595752.6405
 20
-1157952.3736
 10
-595744.7705
 20
-1157985.6936
 10
-595740.3305
 20
-1157987.3386
 10
-595735.8905
 20
-1157988.9836
 10
-595733.0205
 20
-1157988.3986
 10
-595730.6605
 20
-1157987.8536
 10
-595730.5705
 20
-1157990.5236
 10
-595731.6205
 20
-1157999.5936
 10
-595734.8805
 20
-1158012.8586
 10
-595738.1405
 20
-1158026.1236
 10
-595741.2705
 20
-1158046.1436
 10
-595737.9705
 20
-1158065.6036
 10
-595731.8255
 20
-1158084.5836
 10
-595725.6805
 20
-1158103.5636
 10
-595720.8455
 20
-1158126.6686
 10
-595716.0105
 20
-1158149.7736
 10
-595714.3255
 20
-1158165.8686
 10
-595712.6405
 20
-1158181.9636
 10
-595709.3805
 20
-1158193.6236
 10
-595702.8505
 20
-1158203.5136
 10
-595674.4655
 20
-1158246.4836
 10
-595646.0805
 20
-1158289.4536
 10
-595633.4205
 20
-1158310.3436
 10
-595625.2605
 20
-1158320.1436
 10
-595631.7155
 20
-1158336.2436
 10
-595638.1705
 20
-1158352.3436
 10
-595641.7805
 20
-1158365.5386
 10
-595645.3905
 20
-1158378.7336
 10
-595646.4605
 20
-1158386.8786
 10
-595647.5305
 20
-1158395.0236
 10
-595647.5055
 20
-1158405.9136
 10
-595647.4805
 20
-1158416.8036
 10
-595646.5805
 20
-1158422.4636
 10
-595644.1355
 20
-1158431.2986
 10
-595641.6905
 20
-1158440.1336
 10
-595635.6305
 20
-1158449.7436
 10
-595629.5705
 20
-1158459.3536
 10
-595626.5505
 20
-1158462.9536
 10
-595621.6305
 20
-1158470.1386
 10
-595616.7105
 20
-1158477.3236
 10
-595612.8905
 20
-1158481.9436
 10
-595605.6505
 20
-1158494.7136
 10
-595594.2805
 20
-1158512.3636
 10
-595580.8605
 20
-1158529.3436
 10
-595566.6505
 20
-1158543.9036
 10
-595556.4505
 20
-1158551.0886
 10
-595546.2505
 20
-1158558.2736
 10
-595528.9605
 20
-1158572.7336
 10
-595504.5905
 20
-1158594.8536
 10
-595494.8305
 20
-1158604.1336
 10
-595482.2305
 20
-1158615.4736
 10
-595479.4255
 20
-1158608.7536
 10
-595476.6205
 20
-1158602.0336
 10
-595472.4005
 20
-1158603.7936
 10
-595463.9005
 20
-1158607.2236
 10
-595458.8505
 20
-1158609.3136
 10
-595458.7205
 20
-1158609.0036
 10
-595439.6705
 20
-1158630.2036
 10
-595428.1505
 20
-1158657.9136
 10
-595425.6155
 20
-1158676.0286
 10
-595423.0805
 20
-1158694.1436
 10
-595425.4055
 20
-1158713.2036
 10
-595427.7305
 20
-1158732.2636
 10
-595432.9105
 20
-1158746.8236
 10
-595437.4305
 20
-1158759.6536
 10
-595441.7305
 20
-1158773.4736
 10
-595472.8505
 20
-1158831.4636
 10
-595475.4205
 20
-1158835.9436
 10
-595483.5755
 20
-1158848.5636
 10
-595496.6755
 20
-1158868.5236
 10
-595564.6355
 20
-1158961.5186
 10
-595631.4138
 20
-1159052.9645
 10
-595579.6898
 20
-1159171.1129
 10
-595576.3369
 20
-1159438.9773
 10
-595566.7105
 20
-1159433.4336
 10
-595555.27
 20
-1159426.74
 10
-595551.27
 20
-1159424.87
 10
-595534.6605
 20
-1159416.0636
 10
-595492.0205
 20
-1159392.1636
 10
-595489.3155
 20
-1159381.8386
 10
-595485.7205
 20
-1159368.3136
 10
-595471.8555
 20
-1159360.4336
 10
-595449.5005
 20
-1159347.7336
 10
-595453.7805
 20
-1159363.6736
 10
-595439.4305
 20
-1159367.6136
 10
-595418.2455
 20
-1159354.9786
 10
-595397.0605
 20
-1159342.3436
 10
-595382.6755
 20
-1159335.9686
 10
-595368.2905
 20
-1159329.5936
 10
-595355.5005
 20
-1159323.6486
 10
-595342.7105
 20
-1159317.7036
 10
-595339.6405
 20
-1159325.4036
 10
-595324.1105
 20
-1159317.5136
 10
-595299.5605
 20
-1159305.9486
 10
-595275.0105
 20
-1159294.3836
 10
-595265.6105
 20
-1159289.9686
 10
-595256.2105
 20
-1159285.5536
 10
-595253.5505
 20
-1159287.5136
 10
-595218.8755
 20
-1159307.6136
 10
-595184.2005
 20
-1159327.7136
 10
-595178.3005
 20
-1159320.7336
 10
-595172.4005
 20
-1159313.7536
 10
-595168.1405
 20
-1159309.2036
 10
-595163.8805
 20
-1159304.6536
 10
-595158.8005
 20
-1159299.8586
 10
-595153.5805
 20
-1159294.9236
 10
-595148.9405
 20
-1159291.0336
 10
-595144.2805
 20
-1159287.1186
 10
-595140.1705
 20
-1159283.6736
 10
-595137.0305
 20
-1159281.3986
 10
-595133.8905
 20
-1159279.1236
 10
-595131.5205
 20
-1159277.4036
 10
-595127.7405
 20
-1159274.6836
 10
-595123.4305
 20
-1159272.1786
 10
-595119.1205
 20
-1159269.6736
 10
-595104.3405
 20
-1159261.7836
 10
-595074.2305
 20
-1159247.6186
 10
-595044.1205
 20
-1159233.4536
 10
-595018.9605
 20
-1159220.6036
 10
-595004.0905
 20
-1159211.6336
 10
-594988.4005
 20
-1159200.8336
 10
-594981.4805
 20
-1159195.3336
 10
-594975.8455
 20
-1159190.1636
 10
-594970.2105
 20
-1159184.9936
 10
-594962.7355
 20
-1159191.0686
 10
-594840.7324
 20
-1159074.7511
 10
-594728.735
 20
-1158965.33
 10
-594619.0084
 20
-1158845.8689
 10
-594554.2166
 20
-1158652.5946
 10
-594593.0117
 20
-1158455.6494
 10
-594636.2618
 20
-1158172.3457
 10
-594596.3221
 20
-1157936.9613
 10
-594432.3418
 20
-1157807.0885
 10
-594177.2124
 20
-1157772.9489
 10
-594050.9326
 20
-1157806.7214
 10
-593945.7605
 20
-1157837.3736
 10
-593915.51
 20
-1157846.565
 10
-593927.6416
 20
-1157790.5932
 10
-594026.0286
 20
-1157695.8658
 10
-594116.8508
 20
-1157613.9068
 10
-594398.8505
 20
-1157431.5736
 10
-594407.0205
 20
-1157428.9036
 10
-594415.6905
 20
-1157426.6236
 10
-594423.1805
 20
-1157424.6936
 10
-594431.4655
 20
-1157422.2486
 10
-594439.7505
 20
-1157419.8036
 10
-594473.9105
 20
-1157410.7836
 10
-594502.9755
 20
-1157403.4886
 10
-594532.0405
 20
-1157396.1936
 10
-594537.1905
 20
-1157395.6136
 10
-594545.2655
 20
-1157395.2636
 10
-594553.3405
 20
-1157394.9136
 10
-594563.4505
 20
-1157395.6786
 10
-594573.5605
 20
-1157396.4436
 10
-594576.2305
 20
-1157396.6236
 10
-594586.2955
 20
-1157399.4486
 10
-594596.3605
 20
-1157402.2736
 10
-594606.3705
 20
-1157407.8936
 10
-594616.3805
 20
-1157413.5136
 10
-594620.0305
 20
-1157415.7836
 10
-594644.0005
 20
-1157433.1436
 10
-594660.3005
 20
-1157439.9436
 10
-594684.7155
 20
-1157445.9636
 10
-594709.1305
 20
-1157451.9836
 10
-594725.0105
 20
-1157457.2536
 10
-594743.5905
 20
-1157463.2036
 10
-594755.8905
 20
-1157465.1736
 10
-594768.1905
 20
-1157467.1436
 10
-594785.1305
 20
-1157469.0836
 10
-594787.863
 20
-1157469.3024
 10
-594799.7805
 20
-1157470.7536
 10
-594802.4905
 20
-1157471.0836
 10
-594808.9305
 20
-1157472.0736
 10
-594815.3705
 20
-1157473.0636
 10
-594827.1655
 20
-1157471.8136
 10
-594838.9605
 20
-1157470.5636
 10
-594850.6655
 20
-1157467.4386
 10
-594862.3705
 20
-1157464.3136
 10
-594871.1005
 20
-1157458.9186
 10
-594879.8305
 20
-1157453.5236
 10
-594893.0305
 20
-1157444.5286
 10
-594906.2305
 20
-1157435.5336
 10
-594911.8655
 20
-1157432.3586
 10
-594917.5005
 20
-1157429.1836
 10
-594927.3205
 20
-1157426.7536
 10
-594937.1405
 20
-1157424.3236
 10
-594948.5905
 20
-1157423.0536
 10
-594960.0405
 20
-1157421.7836
 10
-594984.9605
 20
-1157425.8136
 10
-595028.1805
 20
-1157442.9736
 10
-595044.0605
 20
-1157450.0636
 10
-595061.0705
 20
-1157457.1536
 10
-595075.6605
 20
-1157462.8136
 10
-595082.2705
 20
-1157463.2936
 10
-595095.9155
 20
-1157465.0536
 10
-595109.5605
 20
-1157466.8136
 10
-595125.8205
 20
-1157468.2736
 10
-595138.3855
 20
-1157468.8186
 10
-595150.9505
 20
-1157469.3636
 10
-595167.1755
 20
-1157469.7486
 10
-595183.4005
 20
-1157470.1336
 10
-595195.2105
 20
-1157470.6386
 10
-595207.0205
 20
-1157471.1436
 10
-595223.2355
 20
-1157470.3736
 10
-595239.4505
 20
-1157469.6036
 10
-595248.4605
 20
-1157471.6336
 10
-595255.6105
 20
-1157473.3836
 10
-595258.2105
 20
-1157474.3686
 10
-595264.1405
 20
-1157476.9236
 10
-595271.4405
 20
-1157481.4636
 10
-595282.4605
 20
-1157488.5486
 10
-595293.4805
 20
-1157495.6336
 10
-595306.2755
 20
-1157505.0086
 10
-595330.2155
 20
-1157523.0936
 10
-595341.3605
 20
-1157531.8036
 10
-595347.9305
 20
-1157535.1986
 10
-595354.5005
 20
-1157538.5936
 10
-595365.4255
 20
-1157533.3736
 10
-595376.3505
 20
-1157528.1536
 10
-595376.5405
 20
-1157524.3636
 97
0
 75
0
 76
1
 98
0
  0
HATCH
  5
2000F
100
AcDbEntity
  8
riziková oblast 
100
AcDbHatch
 10
0
 20
0
 30
0
210
0
220
0
230
1
  2
SOLID
 70
1
 71
0
 91
1
 92
2
 72
0
 73
1
 93
78
 10
-594187.0094
 20
-1159480.4168
 10
-594204.0387
 20
-1159510.5713
 10
-594200.5733
 20
-1159508.6388
 10
-594197.1087
 20
-1159508.1313
 10
-594195.1287
 20
-1159507.8413
 10
-594192.6887
 20
-1159507.3613
 10
-594189.9687
 20
-1159506.4113
 10
-594187.3287
 20
-1159505.9013
 10
-594186.3287
 20
-1159505.1613
 10
-594183.1687
 20
-1159502.8613
 10
-594179.3937
 20
-1159500.0963
 10
-594175.6187
 20
-1159497.3313
 10
-594164.2037
 20
-1159488.3613
 10
-594152.4063
 20
-1159479.0819
 10
-594150.3687
 20
-1159477.4913
 10
-594147.7937
 20
-1159475.4813
 10
-594145.2187
 20
-1159473.4713
 10
-594142.6637
 20
-1159471.5763
 10
-594140.1087
 20
-1159469.6813
 10
-594135.3737
 20
-1159465.6963
 10
-594133.4587
 20
-1159464.1913
 10
-594128.4587
 20
-1159460.2663
 10
-594123.9587
 20
-1159456.7313
 10
-594120.9837
 20
-1159454.3913
 10
-594115.1887
 20
-1159449.8213
 10
-594111.5387
 20
-1159446.9213
 10
-594096.5787
 20
-1159435.0613
 10
-594069.2787
 20
-1159413.1713
 10
-594033.2237
 20
-1159383.6663
 10
-593997.1687
 20
-1159354.1613
 10
-593995.4987
 20
-1159355.2013
 10
-593958.9037
 20
-1159330.0313
 10
-593922.3087
 20
-1159304.8613
 10
-593864.4937
 20
-1159280.8963
 10
-593806.6787
 20
-1159256.9313
 10
-593779.8887
 20
-1159250.5213
 10
-593747.9487
 20
-1159238.3313
 10
-593733.3804
 20
-1159232.8009
 10
-593732.0131
 20
-1159232.4704
 10
-593729.4887
 20
-1159231.3213
 10
-593728.8287
 20
-1159231.1713
 10
-593728.1687
 20
-1159231.0213
 10
-593726.4387
 20
-1159230.3713
 10
-593724.7087
 20
-1159229.7213
 10
-593713.3587
 20
-1159234.7113
 10
-593706.4287
 20
-1159237.7513
 10
-593694.5137
 20
-1159242.9913
 10
-593682.5987
 20
-1159248.2313
 10
-593662.6187
 20
-1159257.0213
 10
-593642.0337
 20
-1159265.5913
 10
-593608.8637
 20
-1159279.4013
 10
-593596.2787
 20
-1159284.6413
 10
-593588.6637
 20
-1159287.8113
 10
-593581.0487
 20
-1159290.9813
 10
-593579.9587
 20
-1159289.5913
 10
-593567.5087
 20
-1159273.6513
 10
-593551.5787
 20
-1159253.6413
 10
-593544.1737
 20
-1159215.1313
 10
-593536.7687
 20
-1159176.6213
 10
-593527.2687
 20
-1159104.1213
 10
-593544.0061
 20
-1159044.0953
 10
-593545.8896
 20
-1159037.3422
 10
-593547.3587
 20
-1159032.0013
 10
-593542.4387
 20
-1159025.2813
 10
-593533.6387
 20
-1159013.9813
 10
-593525.0187
 20
-1159002.2213
 10
-593516.3987
 20
-1158990.4613
 10
-593495.6237
 20
-1158969.9113
 10
-593478.7045
 20
-1158953.1734
 10
-593556.3912
 20
-1158745.0038
 10
-593617.3587
 20
-1158644.1713
 10
-593703.4836
 20
-1158501.0817
 10
-593733.0957
 20
-1158447.1163
 10
-593805.37
 20
-1158319.73
 10
-593922.9549
 20
-1158549.3498
 10
-593991.2341
 20
-1158956.0884
 10
-594079.435
 20
-1159163.275
 10
-594187.0094
 20
-1159480.4168
 97
0
 75
0
 76
1
 98
0
  0
HATCH
  5
20010
100
AcDbEntity
  8
riziková oblast 
100
AcDbHatch
 10
0
 20
0
 30
0
210
0
220
0
230
1
  2
SOLID
 70
1
 71
0
 91
1
 92
2
 72
0
 73
1
 93
209
 10
-594801.8289
 20
-1155521.7431
 10
-594844.2429
 20
-1155525.2317
 10
-594957.7139
 20
-1155554.6093
 10
-594954.234
 20
-1156135.6007
 10
-595291.5489
 20
-1156182.2854
 10
-595357.066
 20
-1156308.329
 10
-595435.4675
 20
-1156624.1385
 10
-595720.9793
 20
-1156895.8929
 10
-595991.8063
 20
-1156757.2558
 10
-595900.725
 20
-1157059.87
 10
-595894.4011
 20
-1157061.5438
 10
-595830.8056
 20
-1157101.6815
 10
-595824.8106
 20
-1157105.5465
 10
-595819.0506
 20
-1157109.2565
 10
-595812.3606
 20
-1157113.5615
 10
-595799.8506
 20
-1157121.5065
 10
-595788.5806
 20
-1157128.7665
 10
-595783.7606
 20
-1157131.7465
 10
-595783.4456
 20
-1157145.1615
 10
-595782.0606
 20
-1157183.4165
 10
-595784.2906
 20
-1157191.9015
 10
-595786.5206
 20
-1157200.3865
 10
-595788.2106
 20
-1157207.0265
 10
-595792.5606
 20
-1157220.3165
 10
-595796.9106
 20
-1157233.6065
 10
-595803.3206
 20
-1157252.2165
 10
-595816.4906
 20
-1157288.2065
 10
-595822.1906
 20
-1157302.4565
 10
-595828.1506
 20
-1157316.2065
 10
-595833.2506
 20
-1157328.4865
 10
-595836.0706
 20
-1157335.3965
 10
-595839.2906
 20
-1157343.1865
 10
-595843.5406
 20
-1157352.5565
 10
-595849.6106
 20
-1157362.5765
 10
-595855.6806
 20
-1157372.5965
 10
-595860.2906
 20
-1157380.2065
 10
-595870.2006
 20
-1157396.4965
 10
-595873.1006
 20
-1157405.6665
 10
-595876.0006
 20
-1157414.8365
 10
-595879.3606
 20
-1157425.4665
 10
-595879.4006
 20
-1157433.4915
 10
-595879.4406
 20
-1157441.5165
 10
-595881.4206
 20
-1157448.5615
 10
-595883.4006
 20
-1157455.6065
 10
-595885.9306
 20
-1157461.2665
 10
-595888.4606
 20
-1157466.9265
 10
-595899.6656
 20
-1157480.5315
 10
-595910.8706
 20
-1157494.1365
 10
-595914.4456
 20
-1157498.6715
 10
-595918.0206
 20
-1157503.2065
 10
-595916.4506
 20
-1157503.8465
 10
-595903.7256
 20
-1157509.0265
 10
-595891.0006
 20
-1157514.2065
 10
-595884.6006
 20
-1157516.8165
 10
-595878.1306
 20
-1157521.1965
 10
-595872.0656
 20
-1157525.3415
 10
-595866.0006
 20
-1157529.4865
 10
-595861.0906
 20
-1157532.7365
 10
-595852.5806
 20
-1157538.6965
 10
-595845.1756
 20
-1157542.2165
 10
-595837.7706
 20
-1157545.7365
 10
-595830.5906
 20
-1157549.2565
 10
-595824.3906
 20
-1157552.1565
 10
-595817.5256
 20
-1157555.8965
 10
-595810.6606
 20
-1157559.6365
 10
-595804.4106
 20
-1157563.1065
 10
-595798.7206
 20
-1157562.3865
 10
-595790.1406
 20
-1157561.3465
 10
-595792.4356
 20
-1157566.8015
 10
-595794.7306
 20
-1157572.2565
 10
-595786.6906
 20
-1157578.0065
 10
-595778.6506
 20
-1157583.7565
 10
-595770.5306
 20
-1157588.9265
 10
-595762.4106
 20
-1157594.0965
 10
-595755.5406
 20
-1157598.4665
 10
-595748.6706
 20
-1157602.8365
 10
-595739.2706
 20
-1157609.3765
 10
-595729.8706
 20
-1157615.9165
 10
-595721.3956
 20
-1157621.6565
 10
-595712.1506
 20
-1157627.9165
 10
-595709.5506
 20
-1157629.6765
 10
-595711.2706
 20
-1157631.9165
 10
-595712.5556
 20
-1157633.8265
 10
-595713.8406
 20
-1157635.7365
 10
-595701.0606
 20
-1157644.5615
 10
-595688.2806
 20
-1157653.3865
 10
-595685.5906
 20
-1157655.2615
 10
-595682.9006
 20
-1157657.1365
 10
-595681.0906
 20
-1157658.4215
 10
-595679.2806
 20
-1157659.7065
 10
-595679.1006
 20
-1157659.3765
 10
-595678.5506
 20
-1157656.9065
 10
-595678.0006
 20
-1157654.4365
 10
-595674.2756
 20
-1157646.5965
 10
-595670.5506
 20
-1157638.7565
 10
-595664.2556
 20
-1157629.0865
 10
-595657.9606
 20
-1157619.4165
 10
-595655.2556
 20
-1157616.3765
 10
-595652.5506
 20
-1157613.3365
 10
-595648.8906
 20
-1157608.7665
 10
-595643.5856
 20
-1157603.6515
 10
-595638.2806
 20
-1157598.5365
 10
-595635.0356
 20
-1157593.1365
 10
-595631.7906
 20
-1157587.7365
 10
-595625.0456
 20
-1157578.4165
 10
-595618.3006
 20
-1157569.0965
 10
-595616.1756
 20
-1157565.8115
 10
-595614.0506
 20
-1157562.5265
 10
-595609.0506
 20
-1157556.8315
 10
-595602.1306
 20
-1157549.1615
 10
-595595.0556
 20
-1157542.6715
 10
-595589.9006
 20
-1157538.1565
 10
-595579.6456
 20
-1157531.0465
 10
-595569.3906
 20
-1157523.9365
 10
-595557.6156
 20
-1157517.1765
 10
-595545.8406
 20
-1157510.4165
 10
-595535.3906
 20
-1157506.2915
 10
-595524.9406
 20
-1157502.1665
 10
-595514.9256
 20
-1157498.7315
 10
-595504.9106
 20
-1157495.2965
 10
-595495.4806
 20
-1157492.8865
 10
-595486.0506
 20
-1157490.4765
 10
-595479.5056
 20
-1157489.8115
 10
-595472.9606
 20
-1157489.1465
 10
-595467.6406
 20
-1157489.3765
 10
-595445.3206
 20
-1157493.4265
 10
-595436.7806
 20
-1157495.2265
 10
-595434.4906
 20
-1157496.4565
 10
-595417.4556
 20
-1157503.5665
 10
-595400.4206
 20
-1157510.6765
 10
-595395.3406
 20
-1157512.4565
 10
-595388.1006
 20
-1157514.8965
 10
-595370.7005
 20
-1157519.9136
 10
-595376.5405
 20
-1157524.3636
 10
-595376.3505
 20
-1157528.1536
 10
-595354.5005
 20
-1157538.5936
 10
-595341.3605
 20
-1157531.8036
 10
-595319.92
 20
-1157515.385
 10
-595298.3325
 20
-1157499.228
 10
-595293.4805
 20
-1157495.6336
 10
-595264.1405
 20
-1157476.9236
 10
-595255.6105
 20
-1157473.3836
 10
-595241.16
 20
-1157469.73
 10
-595207.147
 20
-1157471.0624
 10
-595145.66
 20
-1157469.02
 10
-595121.4598
 20
-1157467.896
 10
-595102.738
 20
-1157465.9336
 10
-595082.2705
 20
-1157463.2936
 10
-595075.6605
 20
-1157462.8136
 10
-595061.0705
 20
-1157457.1536
 10
-595044.0605
 20
-1157450.0636
 10
-595028.1805
 20
-1157442.9736
 10
-594984.6243
 20
-1157425.528
 10
-594960.1123
 20
-1157421.6262
 10
-594937.1405
 20
-1157424.3236
 10
-594917.5005
 20
-1157429.1836
 10
-594907.3113
 20
-1157434.9475
 10
-594879.8305
 20
-1157453.5236
 10
-594862.3705
 20
-1157464.3136
 10
-594839.6411
 20
-1157470.5813
 10
-594815.3705
 20
-1157473.0636
 10
-594802.4905
 20
-1157471.0836
 10
-594793.8218
 20
-1157470.028
 10
-594768.1905
 20
-1157467.1436
 10
-594743.5905
 20
-1157463.2036
 10
-594709.1305
 20
-1157451.9836
 10
-594684.7155
 20
-1157445.9636
 10
-594660.3005
 20
-1157439.9436
 10
-594644.3393
 20
-1157433.3587
 10
-594632.17
 20
-1157424.54
 10
-594616.3805
 20
-1157413.5136
 10
-594596.3605
 20
-1157402.2736
 10
-594576.2305
 20
-1157396.6236
 10
-594553.3405
 20
-1157394.9136
 10
-594537.0975
 20
-1157395.6913
 10
-594532.0405
 20
-1157396.1936
 10
-594488.443
 20
-1157407.1361
 10
-594473.9105
 20
-1157410.7836
 10
-594439.7505
 20
-1157419.8036
 10
-594431.4655
 20
-1157422.2486
 10
-594398.8505
 20
-1157431.5736
 10
-594456.9172
 20
-1157396.4028
 10
-594572.62
 20
-1157224.9
 10
-594608.25
 20
-1157088.185
 10
-594579.58
 20
-1156995.55
 10
-594498.2295
 20
-1156979.4241
 10
-594353.185
 20
-1156940.305
 10
-594174.29
 20
-1156933.88
 10
-594055.4884
 20
-1156929.8453
 10
-593930.1397
 20
-1156925.0755
 10
-593889.011
 20
-1156844.2871
 10
-593948.5007
 20
-1156777.453
 10
-593902.8021
 20
-1156632.9359
 10
-593706.8698
 20
-1156480.3717
 10
-593636.3635
 20
-1156362.8612
 10
-593648.1681
 20
-1156261.9684
 10
-593648.2063
 20
-1156192.7005
 10
-593610.5235
 20
-1156052.5385
 10
-593640.8619
 20
-1155606.2497
 10
-593928.7626
 20
-1155476.9882
 10
-594052.1487
 20
-1155302.1913
 10
-594112.1892
 20
-1155342.3101
 10
-594132.8514
 20
-1155442.4894
 10
-594267.1622
 20
-1155468.5345
 10
-594323.3409
 20
-1155275.935
 10
-594429.4675
 20
-1155278.8728
 10
-594386.5027
 20
-1155504.7133
 10
-594681.1085
 20
-1155516.9549
 10
-594801.8289
 20
-1155521.7431
 97
0
 75
0
 76
1
 98
0
  0
HATCH
  5
20011
100
AcDbEntity
  8
riziková oblast 
100
AcDbHatch
 10
0
 20
0
 30
0
210
0
220
0
230
1
  2
SOLID
 70
1
 71
0
 91
1
 92
2
 72
0
 73
1
 93
95
 10
-594398.11
 20
-1162089.04
 10
-594395.55
 20
-1162099.26
 10
-594432.88
 20
-1162168.38
 10
-594409.83
 20
-1162198.73
 10
-594403.7338
 20
-1162207.8879
 10
-594387
 20
-1162233.11
 10
-594368.55
 20
-1162261.635
 10
-594350.1
 20
-1162290.16
 10
-594328.39
 20
-1162327.97
 10
-594318.21
 20
-1162345.76
 10
-594313.67
 20
-1162356.22
 10
-594303.83
 20
-1162359.23
 10
-594302.01
 20
-1162374.28
 10
-594285.89
 20
-1162387.2
 10
-594280.81
 20
-1162389.25
 10
-594260.93
 20
-1162397.27
 10
-594259.64
 20
-1162401.18
 10
-594255.64
 20
-1162413.32
 10
-594253.765
 20
-1162419.025
 10
-594242.18
 20
-1162458.9
 10
-594238.7056
 20
-1162469.6015
 10
-594220.3211
 20
-1162473.2639
 10
-594214.4645
 20
-1162474.449
 10
-594149.298
 20
-1162487.482
 10
-594114.89
 20
-1162573.145
 10
-594120.6021
 20
-1162671.4653
 10
-594084.23
 20
-1162711.96
 10
-594057.295
 20
-1162745.65
 10
-594055.24
 20
-1162752.28
 10
-594039.88
 20
-1162769.06
 10
-594024.52
 20
-1162785.84
 10
-594012.2
 20
-1162792.18
 10
-593989.59
 20
-1162816.65
 10
-593971.8575
 20
-1162835.835
 10
-593892.5138
 20
-1162920.2232
 10
-593838.4409
 20
-1162777.7076
 10
-593784.368
 20
-1162635.192
 10
-593749.089
 20
-1162503.5835
 10
-593713.81
 20
-1162371.975
 10
-593666.6475
 20
-1162193.4725
 10
-593645.65
 20
-1162112.28
 10
-593637.3664
 20
-1162082.9049
 10
-593619.485
 20
-1162014.97
 10
-593615.0385
 20
-1161890.64
 10
-593614.2034
 20
-1161859.2311
 10
-593610.592
 20
-1161766.31
 10
-593622.6589
 20
-1161748.3318
 10
-593626.07
 20
-1161750.67
 10
-593663.11
 20
-1161776.06
 10
-593696.25
 20
-1161799.435
 10
-593723.1
 20
-1161818.37
 10
-593741.65
 20
-1161828.395
 10
-593760.2
 20
-1161838.42
 10
-593767.11
 20
-1161844.28
 10
-593798.09
 20
-1161865.65
 10
-593829.07
 20
-1161887.02
 10
-593834.05
 20
-1161880.53
 10
-593839.66
 20
-1161871.33
 10
-593839.02
 20
-1161864.58
 10
-593839.935
 20
-1161860.12
 10
-593840.85
 20
-1161855.66
 10
-593841.38
 20
-1161853.41
 10
-593842.83
 20
-1161846.36
 10
-593844.04
 20
-1161840.88
 10
-593854.925
 20
-1161843.245
 10
-593865.81
 20
-1161845.61
 10
-593883.275
 20
-1161850.035
 10
-593900.74
 20
-1161854.46
 10
-593931.54
 20
-1161863.62
 10
-593938.75
 20
-1161865.14
 10
-593949.46
 20
-1161867.63
 10
-593961.78
 20
-1161870.415
 10
-593981.22
 20
-1161874.66
 10
-594002.935
 20
-1161879.13
 10
-594024.98
 20
-1161883.7
 10
-594030.54
 20
-1161884.99
 10
-594041.96
 20
-1161887.63
 10
-594062.35
 20
-1161891.795
 10
-594082.74
 20
-1161895.96
 10
-594101.725
 20
-1161901.445
 10
-594120.71
 20
-1161906.93
 10
-594136.285
 20
-1161913.475
 10
-594158.16
 20
-1161922.67
 10
-594165.93
 20
-1161927.7
 10
-594168.04
 20
-1161929.14
 10
-594181.105
 20
-1161937.99
 10
-594193.84
 20
-1161946.62
 10
-594208.81
 20
-1161959.58
 10
-594234.64
 20
-1161983.87
 10
-594256.79
 20
-1162013.09
 10
-594278.48
 20
-1162043.14
 10
-594290.52
 20
-1162063.89
 10
-594302.76
 20
-1162089.48
 10
-594359.03
 20
-1162088.68
 10
-594398.11
 20
-1162089.04
 97
0
 75
0
 76
1
 98
0
  0
HATCH
  5
20012
100
AcDbEntity
  8
riziková oblast 
100
AcDbHatch
 10
0
 20
0
 30
0
210
0
220
0
230
1
  2
SOLID
 70
1
 71
0
 91
1
 92
2
 72
0
 73
1
 93
9
 10
-605367.624
 20
-1158388.7363
 10
-605526.2107
 20
-1158447.7453
 10
-605577.6131
 20
-1158585.5866
 10
-605534.865
 20
-1158725.99
 10
-605411.6503
 20
-1158779.2099
 10
-605241.9994
 20
-1158736.3361
 10
-605179.7634
 20
-1158601.2609
 10
-605214.8
 20
-1158470.3347
 10
-605367.624
 20
-1158388.7363
 97
0
 75
0
 76
1
 98
0
  0
HATCH
  5
20013
100
AcDbEntity
  8
riziková oblast 
100
AcDbHatch
 10
0
 20
0
 30
0
210
0
220
0
230
1
  2
SOLID
 70
1
 71
0
 91
1
 92
2
 72
0
 73
1
 93
70
 10
-594824.59
 20
-1161919.05
 10
-594828.8515
 20
-1161921.1304
 10
-594817.06
 20
-1161928.69
 10
-594803.325
 20
-1161934.72
 10
-594776.975
 20
-1161946.71
 10
-594769.05
 20
-1161950.32
 10
-594715.725
 20
-1161974.425
 10
-594645.655
 20
-1162006.365
 10
-594615.06
 20
-1162020.5
 10
-594559.86
 20
-1162044.45
 10
-594467.17
 20
-1162084.91
 10
-594435.67
 20
-1162095.24
 10
-594412.31
 20
-1162101.66
 10
-594402.92
 20
-1162112.81
 10
-594395.55
 20
-1162099.26
 10
-594398.11
 20
-1162089.04
 10
-594371.32
 20
-1162088.5
 10
-594358.6
 20
-1162088.69
 10
-594302.76
 20
-1162089.48
 10
-594278.28
 20
-1162042.93
 10
-594260.03
 20
-1162017.685
 10
-594234.53
 20
-1161983.8
 10
-594220.47
 20
-1161970.57
 10
-594206.41
 20
-1161957.34
 10
-594200.66
 20
-1161952.42
 10
-594193.56
 20
-1161946.33
 10
-594180.89
 20
-1161937.785
 10
-594168.22
 20
-1161929.24
 10
-594165.6
 20
-1161927.47
 10
-594161.7062
 20
-1161924.9587
 10
-594158.16
 20
-1161922.67
 10
-594151.48
 20
-1161919.86
 10
-594146.38
 20
-1161917.72
 10
-594133.545
 20
-1161912.325
 10
-594120.71
 20
-1161906.93
 10
-594109.035
 20
-1161903.555
 10
-594097.36
 20
-1161900.18
 10
-594090.05
 20
-1161898.07
 10
-594082.74
 20
-1161895.96
 10
-594061.855
 20
-1161891.535
 10
-594041.96
 20
-1161887.63
 10
-594024.65
 20
-1161883.6
 10
-593981.22
 20
-1161874.66
 10
-593961.78
 20
-1161870.415
 10
-593949.3409
 20
-1161867.6038
 10
-593945.96
 20
-1161866.66
 10
-593931.54
 20
-1161863.62
 10
-593904.56
 20
-1161855.565
 10
-593873.9286
 20
-1161847.6896
 10
-593865.81
 20
-1161845.61
 10
-593844.04
 20
-1161840.88
 10
-593845.33
 20
-1161834.16
 10
-593875.22
 20
-1161822.96
 10
-593899.47
 20
-1161813.87
 10
-593881.035
 20
-1161794.04
 10
-593862.87
 20
-1161774.37
 10
-593872.4
 20
-1161765.03
 10
-593857.405
 20
-1161748.865
 10
-593842.1175
 20
-1161732.675
 10
-593824.94
 20
-1161714.32
 10
-593842.0639
 20
-1161697.6888
 10
-593860.9408
 20
-1161679.3983
 10
-593889.9
 20
-1161652.16
 10
-593876.845
 20
-1161632.165
 10
-593863.06
 20
-1161611.41
 10
-593842.06
 20
-1161579.99
 10
-593825.7509
 20
-1161555.9906
 10
-594189.32
 20
-1161652.27
 10
-594618.494
 20
-1161766.31
 10
-594824.59
 20
-1161919.05
 97
0
 75
0
 76
1
 98
0
  0
HATCH
  5
20014
100
AcDbEntity
  8
riziková oblast 
100
AcDbHatch
 10
0
 20
0
 30
0
210
0
220
0
230
1
  2
SOLID
 70
1
 71
0
 91
1
 92
2
 72
0
 73
1
 93
183
 10
-593547.37
 20
-1159032.01
 10
-593537.325
 20
-1159068.07
 10
-593527.28
 20
-1159104.13
 10
-593532.03
 20
-1159140.38
 10
-593551.59
 20
-1159253.65
 10
-593567.52
 20
-1159273.66
 10
-593581.06
 20
-1159290.99
 10
-593596.29
 20
-1159284.65
 10
-593611.5525
 20
-1159278.295
 10
-593642.045
 20
-1159265.6
 10
-593668.285
 20
-1159254.3
 10
-593682.61
 20
-1159248.24
 10
-593724.72
 20
-1159229.73
 10
-593747.96
 20
-1159238.34
 10
-593779.9
 20
-1159250.53
 10
-593793.295
 20
-1159253.735
 10
-593806.69
 20
-1159256.94
 10
-593835.5975
 20
-1159268.9225
 10
-593864.505
 20
-1159280.905
 10
-593893.4125
 20
-1159292.8875
 10
-593922.32
 20
-1159304.87
 10
-593940.6175
 20
-1159317.455
 10
-593958.915
 20
-1159330.04
 10
-593977.2125
 20
-1159342.625
 10
-593995.51
 20
-1159355.21
 10
-593997.18
 20
-1159354.17
 10
-594033.235
 20
-1159383.675
 10
-594087.86
 20
-1159428.15
 10
-594164.215
 20
-1159488.37
 10
-594175.63
 20
-1159497.34
 10
-594183.18
 20
-1159502.87
 10
-594187.34
 20
-1159505.91
 10
-594189.98
 20
-1159506.42
 10
-594192.7
 20
-1159507.37
 10
-594194.91
 20
-1159507.755
 10
-594200.74
 20
-1159508.67
 10
-594202.395
 20
-1159509.625
 10
-594208.32
 20
-1159518.12
 10
-594250.9129
 20
-1159587.5972
 10
-594320.1578
 20
-1159698.2444
 10
-594372.37
 20
-1159783.48
 10
-594433.6976
 20
-1159880.4867
 10
-594486.2189
 20
-1159969.5287
 10
-594547.5991
 20
-1160080.0855
 10
-594619.25
 20
-1160218.3
 10
-594553.475
 20
-1160393.5857
 10
-594512.4996
 20
-1160497.285
 10
-594651.1048
 20
-1160635.8523
 10
-594709.474
 20
-1160695.0733
 10
-594752.8025
 20
-1160735.9229
 10
-594775.6732
 20
-1160760.7823
 10
-594806.8605
 20
-1160760.9631
 10
-594866.325
 20
-1160759.495
 10
-594936.9957
 20
-1160758.0842
 10
-594964.1982
 20
-1160757.2568
 10
-594998.911
 20
-1160756.5336
 10
-594997.87
 20
-1160812.59
 10
-594997.6557
 20
-1160833.342
 10
-594993.5776
 20
-1160931.5441
 10
-594975.1695
 20
-1161363.3399
 10
-594970.786
 20
-1161523.504
 10
-594232.41
 20
-1161500.47
 10
-594482.4
 20
-1161163.77
 10
-594293.3565
 20
-1161082.3675
 10
-594237.74
 20
-1161058.431
 10
-594065.8477
 20
-1160988.3774
 10
-593982.3744
 20
-1160952.9772
 10
-593919.367
 20
-1160921.6342
 10
-593999.77
 20
-1160929.3
 10
-594041.74
 20
-1160933.28
 10
-594042.0145
 20
-1160932.5498
 10
-594087.39
 20
-1160936.17
 10
-594214.9325
 20
-1160947.61
 10
-594229.05
 20
-1160948.75
 10
-594245.6
 20
-1160949.875
 10
-594275.75
 20
-1160951.975
 10
-594286.86
 20
-1160952.17
 10
-594299.86
 20
-1160950.6675
 10
-594312.4275
 20
-1160948.9145
 10
-594313.7226
 20
-1160948.6689
 10
-594318.57
 20
-1160947.78
 10
-594317.95
 20
-1160938.6425
 10
-594317.4232
 20
-1160927.2841
 10
-594312.54
 20
-1160922.505
 10
-594308.105
 20
-1160918.915
 10
-594284.06
 20
-1160896.66
 10
-594270.28
 20
-1160883.78
 10
-594255.7
 20
-1160869.7
 10
-594252.2
 20
-1160868.85
 10
-594249.18
 20
-1160865.82
 10
-594216.13
 20
-1160832.8975
 10
-594183.08
 20
-1160799.975
 10
-594158.94
 20
-1160775.9625
 10
-594148.06
 20
-1160765.28
 10
-594134.8
 20
-1160751.95
 10
-594113.04
 20
-1160730.035
 10
-594091.28
 20
-1160708.12
 10
-594058.2075
 20
-1160678.8825
 10
-594011.35
 20
-1160635.225
 10
-593978.125
 20
-1160602.855
 10
-593974.7475
 20
-1160599.6575
 10
-593971.37
 20
-1160596.46
 10
-593967.935
 20
-1160595.005
 10
-593964.5
 20
-1160593.55
 10
-593961.315
 20
-1160592.335
 10
-593958.13
 20
-1160591.12
 10
-593953.725
 20
-1160589.435
 10
-593949.32
 20
-1160587.75
 10
-593939.23
 20
-1160584.4
 10
-593934.6975
 20
-1160583.1925
 10
-593921.1
 20
-1160579.57
 10
-593917.953
 20
-1160578.5151
 10
-593910.5
 20
-1160575.88
 10
-593908.46
 20
-1160574.8
 10
-593902.34
 20
-1160571.56
 10
-593896.34
 20
-1160567.29
 10
-593892.19
 20
-1160559.64
 10
-593890.3
 20
-1160553.01
 10
-593888.77
 20
-1160547.67
 10
-593887.535
 20
-1160541.085
 10
-593885.55
 20
-1160530.88
 10
-593882.295
 20
-1160518.54
 10
-593879.04
 20
-1160506.2
 10
-593875.6
 20
-1160500
 10
-593873.2
 20
-1160489
 10
-593866.56
 20
-1160459.935
 10
-593855.51
 20
-1160412.54
 10
-593853.78
 20
-1160405.1
 10
-593851.03
 20
-1160393.24
 10
-593846.28
 20
-1160372.775
 10
-593841.53
 20
-1160352.31
 10
-593841.15
 20
-1160348.21
 10
-593840.77
 20
-1160344.11
 10
-593848.54
 20
-1160342.1
 10
-593847.12
 20
-1160335.73
 10
-593840.18
 20
-1160337.24
 10
-593838.76
 20
-1160328.795
 10
-593837.66
 20
-1160324.08
 10
-593837.27
 20
-1160322.49
 10
-593834.75
 20
-1160316.92
 10
-593832.23
 20
-1160311.35
 10
-593824.215
 20
-1160281.475
 10
-593816.2
 20
-1160251.6
 10
-593813.2
 20
-1160252.42
 10
-593807.96
 20
-1160237.665
 10
-593804.39
 20
-1160225.8275
 10
-593797.42
 20
-1160200.8
 10
-593794.05
 20
-1160187.555
 10
-593784.64
 20
-1160150.12
 10
-593788.67
 20
-1160132.22
 10
-593799.35
 20
-1160110.27
 10
-593793.82
 20
-1160089.83
 10
-593765.26
 20
-1160084.62
 10
-593747.92
 20
-1160067.74
 10
-593736.75
 20
-1160055.6
 10
-593705.0725
 20
-1160044.21
 10
-593655.695
 20
-1160028.635
 10
-593607.4
 20
-1160012.46
 10
-593600.36
 20
-1160011.22
 10
-593580.55
 20
-1160007.94
 10
-593544.87
 20
-1159983.88
 10
-593513.19
 20
-1159961.79
 10
-593475.33
 20
-1159929.57
 10
-593457.5
 20
-1159908.78
 10
-593435.18
 20
-1159880.11
 10
-593426.19
 20
-1159863.5325
 10
-593399.22
 20
-1159813.8
 10
-593390.98
 20
-1159787.955
 10
-593366.26
 20
-1159710.42
 10
-593352.19
 20
-1159658.8725
 10
-593338.8575
 20
-1159618.1925
 10
-593312.93
 20
-1159547.7
 10
-593305.295
 20
-1159534.2925
 10
-593272.51
 20
-1159476.72
 10
-593254.505
 20
-1159453.545
 10
-593223.715
 20
-1159414.87
 10
-593201.8664
 20
-1159389.01
 10
-593297.0265
 20
-1159428.8751
 10
-593352.5377
 20
-1159286.3008
 10
-593398.9119
 20
-1159166.0714
 10
-593477.6357
 20
-1158952.0253
 10
-593516.41
 20
-1158990.47
 10
-593547.37
 20
-1159032.01
 97
0
 75
0
 76
1
 98
0
  0
HATCH
  5
20015
100
AcDbEntity
  8
riziková oblast 
100
AcDbHatch
 10
0
 20
0
 30
0
210
0
220
0
230
1
  2
SOLID
 70
1
 71
0
 91
1
 92
2
 72
0
 73
1
 93
45
 10
-595576.3615
 20
-1159438.9884
 10
-595578.0909
 20
-1159889.7977
 10
-595450.35
 20
-1160267.57
 10
-595028.2904
 20
-1160727.2446
 10
-595052.8786
 20
-1160585.5006
 10
-595096.9929
 20
-1160345.7651
 10
-595132.2481
 20
-1160127.3636
 10
-595138.5759
 20
-1160002.072
 10
-595141.4687
 20
-1159871.8989
 10
-595142.39
 20
-1159691.13
 10
-594962.815
 20
-1159191.065
 10
-594970.29
 20
-1159184.99
 10
-594982.2025
 20
-1159195.495
 10
-594988.48
 20
-1159200.83
 10
-595004.17
 20
-1159211.63
 10
-595019.04
 20
-1159220.6
 10
-595044.2
 20
-1159233.45
 10
-595074.31
 20
-1159247.615
 10
-595104.42
 20
-1159261.78
 10
-595123.51
 20
-1159272.175
 10
-595132.785
 20
-1159278.26
 10
-595151.62
 20
-1159293.485
 10
-595171.58
 20
-1159313.7825
 10
-595184.28
 20
-1159327.71
 10
-595184.9132
 20
-1159327.4622
 10
-595218.955
 20
-1159307.61
 10
-595256.29
 20
-1159285.55
 10
-595299.5542
 20
-1159305.3431
 10
-595339.72
 20
-1159325.4
 10
-595342.79
 20
-1159317.7
 10
-595368.37
 20
-1159329.59
 10
-595397.14
 20
-1159342.34
 10
-595418.325
 20
-1159354.975
 10
-595439.51
 20
-1159367.61
 10
-595453.38
 20
-1159363.8
 10
-595450.26
 20
-1159350.19
 10
-595449.58
 20
-1159347.73
 10
-595485.8
 20
-1159368.31
 10
-595492.1
 20
-1159392.16
 10
-595513.01
 20
-1159403.895
 10
-595534.74
 20
-1159416.06
 10
-595543.005
 20
-1159420.465
 10
-595551.27
 20
-1159424.87
 10
-595555.27
 20
-1159426.74
 10
-595576.3615
 20
-1159438.9884
 97
0
 75
0
 76
1
 98
0
  0
ENDSEC
  0
SECTION
  2
OBJECTS
  0
DICTIONARY
  5
C
330
0
100
AcDbDictionary
281
     1
  3
ACAD_GROUP
350
D
  3
ACAD_LAYOUT
350
1A
  3
ACAD_MLEADERSTYLE
350
43
  3
ACAD_PLOTSETTINGS
350
19
  3
ACAD_PLOTSTYLENAME
350
E
  3
ACAD_TABLESTYLE
350
42
  0
DICTIONARY
  5
D
102
{ACAD_REACTORS
330
C
102
}
330
C
100
AcDbDictionary
281
     1
  0
DICTIONARY
  5
1A
102
{ACAD_REACTORS
330
C
102
}
330
C
100
AcDbDictionary
281
     1
  3
Layout1
350
1E
  3
Model
350
22
  0
DICTIONARY
  5
43
102
{ACAD_REACTORS
330
C
102
}
330
C
100
AcDbDictionary
281
     1
  0
DICTIONARY
  5
19
102
{ACAD_REACTORS
330
C
102
}
330
C
100
AcDbDictionary
281
     1
  0
ACDBDICTIONARYWDFLT
  5
E
102
{ACAD_REACTORS
330
C
102
}
330
C
100
AcDbDictionary
281
     1
  3
Normal
350
F
100
AcDbDictionaryWithDefault
340
F
  0
DICTIONARY
  5
42
102
{ACAD_REACTORS
330
C
102
}
330
C
100
AcDbDictionary
281
     1
  0
LAYOUT
  5
1E
102
{ACAD_REACTORS
330
1A
102
}
330
1A
100
AcDbPlotSettings
  1

  2
none_device
  4

  6

 40
0.0
 41
0.0
 42
0.0
 43
0.0
 44
0.0
 45
0.0
 46
0.0
 47
0.0
 48
0.0
 49
0.0
140
0.0
141
0.0
142
1.0
143
1.0
 70
   688
 72
     0
 73
     0
 74
     5
  7

 75
    16
 76
     0
 77
     2
 78
   300
147
1.0
148
0.0
149
0.0
100
AcDbLayout
  1
Layout1
 70
     1
 71
     1
 10
0.0
 20
0.0
 11
12.0
 21
9.0
 12
0.0
 22
0.0
 32
0.0
 14
1.000000000000000E+20
 24
1.000000000000000E+20
 34
1.000000000000000E+20
 15
-1.000000000000000E+20
 25
-1.000000000000000E+20
 35
-1.000000000000000E+20
146
0.0
 13
0.0
 23
0.0
 33
0.0
 16
1.0
 26
0.0
 36
0.0
 17
0.0
 27
1.0
 37
0.0
 76
     0
330
1B
  0
LAYOUT
  5
22
102
{ACAD_REACTORS
330
1A
102
}
330
1A
100
AcDbPlotSettings
  1

  2
none_device
  4

  6

 40
0.0
 41
0.0
 42
0.0
 43
0.0
 44
0.0
 45
0.0
 46
0.0
 47
0.0
 48
0.0
 49
0.0
140
0.0
141
0.0
142
1.0
143
1.0
 70
  1712
 72
     0
 73
     0
 74
     0
  7

 75
     0
 76
     0
 77
     2
 78
   300
147
1.0
148
0.0
149
0.0
100
AcDbLayout
  1
Model
 70
     1
 71
     0
 10
0.0
 20
0.0
 11
12.0
 21
9.0
 12
0.0
 22
0.0
 32
0.0
 14
30.0
 24
49.75
 34
0.0
 15
130.5
 25
163.1318914119703
 35
0.0
146
0.0
 13
0.0
 23
0.0
 33
0.0
 16
1.0
 26
0.0
 36
0.0
 17
0.0
 27
1.0
 37
0.0
 76
     0
330
1F
331
29
  0
ENDSEC
  0
EOF
