  0
SECTION
  2
HEADER
  9
$ACADVER
  1
AC1018
  9
$ACADMAINTVER
 70
     0
  9
$DWGCODEPAGE
  3
ANSI_1252
  9
$EXTMIN
 10
16.5036097472199
 20
49.1672066475911
 30
0.0
  9
$EXTMAX
 10
16.7080658170967
 20
49.2608665246607
 30
0.0
  9
$LIMMIN
 10
0.0
 20
0.0
  9
$LIMMAX
 10
12.0
 20
9.0
  9
$ORTHOMODE
 70
     0
  9
$REGENMODE
 70
     1
  9
$FILLMODE
 70
     1
  9
$QTEXTMODE
 70
     0
  9
$MIRRTEXT
 70
     1
  9
$LTSCALE
 40
1.0
  9
$ATTMODE
 70
     1
  9
$TEXTSIZE
 40
0.2
  9
$TRACEWID
 40
0.05
  9
$TEXTSTYLE
  7
Standard
  9
$CLAYER
  8
0
  9
$CELTYPE
  6
ByLayer
  9
$CECOLOR
 62
   256
  9
$CELTSCALE
 40
1.0
  9
$DISPSILH
 70
     0
  9
$LUNITS
 70
     2
  9
$LUPREC
 70
     4
  9
$SKETCHINC
 40
0.1
  9
$FILLETRAD
 40
0.5
  9
$AUNITS
 70
     0
  9
$AUPREC
 70
     0
  9
$MENU
  1
.
  9
$ELEVATION
 40
0.0
  9
$PELEVATION
 40
0.0
  9
$THICKNESS
 40
0.0
  9
$LIMCHECK
 70
     0
  9
$CHAMFERA
 40
0.5
  9
$CHAMFERB
 40
0.5
  9
$CHAMFERC
 40
1.0
  9
$CHAMFERD
 40
0.0
  9
$SKPOLY
 70
     0
  9
$ANGBASE
 50
0.0
  9
$ANGDIR
 70
     0
  9
$PDMODE
 70
     0
  9
$PDSIZE
 40
0.0
  9
$PLINEWID
 40
0.0
  9
$SPLFRAME
 70
     0
  9
$SPLINETYPE
 70
     6
  9
$SPLINESEGS
 70
     8
  9
$HANDSEED
  5
00020017
  9
$SURFTAB1
 70
     6
  9
$SURFTAB2
 70
     6
  9
$SURFTYPE
 70
     6
  9
$SURFU
 70
     6
  9
$SURFV
 70
     6
  9
$UCSBASE
  2

  9
$UCSNAME
  2

  9
$UCSORG
 10
0.0
 20
0.0
 30
0.0
  9
$UCSXDIR
 10
1.0
 20
0.0
 30
0.0
  9
$UCSYDIR
 10
0.0
 20
1.0
 30
0.0
  9
$UCSORTHOREF
  2

  9
$UCSORTHOVIEW
 70
     0
  9
$UCSORGTOP
 10
0.0
 20
0.0
 30
0.0
  9
$UCSORGBOTTOM
 10
0.0
 20
0.0
 30
0.0
  9
$UCSORGLEFT
 10
0.0
 20
0.0
 30
0.0
  9
$UCSORGRIGHT
 10
0.0
 20
0.0
 30
0.0
  9
$UCSORGFRONT
 10
0.0
 20
0.0
 30
0.0
  9
$UCSORGBACK
 10
0.0
 20
0.0
 30
0.0
  9
$PUCSBASE
  2

  9
$PUCSNAME
  2

  9
$PUCSORG
 10
0.0
 20
0.0
 30
0.0
  9
$PUCSXDIR
 10
1.0
 20
0.0
 30
0.0
  9
$PUCSYDIR
 10
0.0
 20
1.0
 30
0.0
  9
$PUCSORTHOREF
  2

  9
$PUCSORTHOVIEW
 70
     0
  9
$PUCSORGTOP
 10
0.0
 20
0.0
 30
0.0
  9
$PUCSORGBOTTOM
 10
0.0
 20
0.0
 30
0.0
  9
$PUCSORGLEFT
 10
0.0
 20
0.0
 30
0.0
  9
$PUCSORGRIGHT
 10
0.0
 20
0.0
 30
0.0
  9
$PUCSORGFRONT
 10
0.0
 20
0.0
 30
0.0
  9
$PUCSORGBACK
 10
0.0
 20
0.0
 30
0.0
  9
$WORLDVIEW
 70
     1
  9
$SHADEDGE
 70
     3
  9
$SHADEDIF
 70
    70
  9
$TILEMODE
 70
     1
  9
$MAXACTVP
 70
    64
  9
$PINSBASE
 10
0.0
 20
0.0
 30
0.0
  9
$PLIMCHECK
 70
     0
  9
$PEXTMIN
 10
1.000000000000000E+20
 20
1.000000000000000E+20
 30
1.000000000000000E+20
  9
$PEXTMAX
 10
-1.000000000000000E+20
 20
-1.000000000000000E+20
 30
-1.000000000000000E+20
  9
$PLIMMIN
 10
0.0
 20
0.0
  9
$PLIMMAX
 10
12.0
 20
9.0
  9
$UNITMODE
 70
     0
  9
$VISRETAIN
 70
     1
  9
$PLINEGEN
 70
     0
  9
$PSLTSCALE
 70
     1
  9
$TREEDEPTH
 70
  3020
  9
$CMLSTYLE
  2
Standard
  9
$CMLJUST
 70
     0
  9
$CMLSCALE
 40
1.0
  9
$PROXYGRAPHICS
 70
     1
  9
$MEASUREMENT
 70
     0
  9
$CELWEIGHT
370
    -1
  9
$ENDCAPS
280
     0
  9
$JOINSTYLE
280
     0
  9
$LWDISPLAY
290
     0
  9
$INSUNITS
 70
     1
  9
$HYPERLINKBASE
  1

  9
$STYLESHEET
  1

  9
$XEDIT
290
     1
  9
$CEPSNTYPE
380
     0
  9
$PSTYLEMODE
290
     1
  9
$EXTNAMES
290
     1
  9
$PSVPSCALE
 40
0.0
  9
$OLESTARTUP
290
     0
  9
$SORTENTS
280
   127
  9
$INDEXCTL
280
     0
  9
$HIDETEXT
280
     1
  9
$XCLIPFRAME
290
     0
  9
$HALOGAP
280
     0
  9
$OBSCOLOR
 70
   257
  9
$OBSLTYPE
280
     0
  9
$INTERSECTIONDISPLAY
280
     0
  9
$INTERSECTIONCOLOR
 70
   257
  9
$DIMASSOC
280
     2
  9
$PROJECTNAME
  1

  0
ENDSEC
  0
SECTION
  2
CLASSES
  0
CLASS
  1
ACDBDICTIONARYWDFLT
  2
AcDbDictionaryWithDefault
  3
ObjectDBX Classes
 90
        0
 91
        4
280
     0
281
     0
  0
ENDSEC
  0
SECTION
  2
TABLES
  0
TABLE
  2
VPORT
  5
8
330
0
100
AcDbSymbolTable
 70
     1
  0
VPORT
  5
29
330
8
100
AcDbSymbolTableRecord
100
AcDbViewportTableRecord
  2
*Active
 70
     0
 10
0.0
 20
0.0
 11
1.0
 21
1.0
 12
80.25
 22
106.4409457059851
 13
0.0
 23
0.0
 14
0.5
 24
0.5
 15
0.5
 25
0.5
 16
0.0
 26
0.0
 36
1.0
 17
0.0
 27
0.0
 37
0.0
 40
113.3818914119703
 41
0.8863849310366128
 42
50.0
 43
0.0
 44
0.0
 50
0.0
 51
0.0
 71
     0
 72
  1000
 73
     1
 74
     3
 75
     0
 76
     0
 77
     0
 78
     0
281
     0
 65
     1
110
0.0
120
0.0
130
0.0
111
1.0
121
0.0
131
0.0
112
0.0
122
1.0
132
0.0
 79
     0
146
0.0
  0
ENDTAB
  0
TABLE
  2
LTYPE
  5
5
330
0
100
AcDbSymbolTable
 70
     1
  0
LTYPE
  5
14
330
5
100
AcDbSymbolTableRecord
100
AcDbLinetypeTableRecord
  2
ByBlock
 70
     0
  3

 72
    65
 73
     0
 40
0.0
  0
LTYPE
  5
15
330
5
100
AcDbSymbolTableRecord
100
AcDbLinetypeTableRecord
  2
ByLayer
 70
     0
  3

 72
    65
 73
     0
 40
0.0
  0
LTYPE
  5
16
330
5
100
AcDbSymbolTableRecord
100
AcDbLinetypeTableRecord
  2
Continuous
 70
     0
  3
Solid line
 72
    65
 73
     0
 40
0.0
  0
ENDTAB
  0
TABLE
  2
LAYER
  5
2
330
0
100
AcDbSymbolTable
 70
     1
  0
LAYER
  5
10
330
2
100
AcDbSymbolTableRecord
100
AcDbLayerTableRecord
  2
0
 70
     0
 62
     7
  6
Continuous
370
    -3
390
F
  0
LAYER
  5
20016
330
2
100
AcDbSymbolTableRecord
100
AcDbLayerTableRecord
  2
riziková oblast 
 70
     0
 62
     7
  6
Continuous
370
    -3
390
F
  0
ENDTAB
  0
TABLE
  2
STYLE
  5
3
330
0
100
AcDbSymbolTable
 70
     1
  0
STYLE
  5
11
330
3
100
AcDbSymbolTableRecord
100
AcDbTextStyleTableRecord
  2
Standard
 70
     0
 40
0.0
 41
1.0
 50
0.0
 71
     0
 42
0.2
  3
txt
  4

  0
ENDTAB
  0
TABLE
  2
VIEW
  5
6
330
0
100
AcDbSymbolTable
 70
     0
  0
ENDTAB
  0
TABLE
  2
UCS
  5
7
330
0
100
AcDbSymbolTable
 70
     0
  0
ENDTAB
  0
TABLE
  2
APPID
  5
9
330
0
100
AcDbSymbolTable
 70
     1
  0
APPID
  5
12
330
9
100
AcDbSymbolTableRecord
100
AcDbRegAppTableRecord
  2
ACAD
 70
     0
  0
ENDTAB
  0
TABLE
  2
DIMSTYLE
  5
A
330
0
100
AcDbSymbolTable
 70
     1
100
AcDbDimStyleTable
  0
DIMSTYLE
105
27
330
A
100
AcDbSymbolTableRecord
100
AcDbDimStyleTableRecord
  2
Standard
 70
     0
340
11
  0
ENDTAB
  0
TABLE
  2
BLOCK_RECORD
  5
1
330
0
100
AcDbSymbolTable
 70
     1
  0
BLOCK_RECORD
  5
1F
330
1
100
AcDbSymbolTableRecord
100
AcDbBlockTableRecord
  2
*Model_Space
340
22
  0
BLOCK_RECORD
  5
1B
330
1
100
AcDbSymbolTableRecord
100
AcDbBlockTableRecord
  2
*Paper_Space
340
1E
  0
ENDTAB
  0
ENDSEC
  0
SECTION
  2
BLOCKS
  0
BLOCK
  5
20
330
1F
100
AcDbEntity
  8
0
100
AcDbBlockBegin
  2
*Model_Space
 70
     0
 10
0.0
 20
0.0
 30
0.0
  3
*Model_Space
  1

  0
ENDBLK
  5
21
330
1F
100
AcDbEntity
  8
0
100
AcDbBlockEnd
  0
BLOCK
  5
1C
330
1B
100
AcDbEntity
 67
     1
  8
0
100
AcDbBlockBegin
  2
*Paper_Space
 70
     0
 10
0.0
 20
0.0
 30
0.0
  3
*Paper_Space
  1

  0
ENDBLK
  5
1D
330
1B
100
AcDbEntity
 67
     1
  8
0
100
AcDbBlockEnd
  0
ENDSEC
  0
SECTION
  2
ENTITIES
  0
HATCH
  5
20000
100
AcDbEntity
  8
riziková oblast 
100
AcDbHatch
 10
0
 20
0
 30
0
210
0
220
0
230
1
  2
SOLID
 70
1
 71
0
 91
1
 92
2
 72
0
 73
1
 93
23
 10
16.6325060816569
 20
49.1713986042742
 10
16.6326265183869
 20
49.170802749517
 10
16.6327619432714
 20
49.1701308028166
 10
16.6328980079637
 20
49.1695086471845
 10
16.6329213306983
 20
49.1693983891181
 10
16.6340114576105
 20
49.1693379340588
 10
16.6348809751618
 20
49.1693861823479
 10
16.6360649033873
 20
49.1695544679157
 10
16.6368947786642
 20
49.1697504101191
 10
16.6376244064824
 20
49.1698914616365
 10
16.6379752612092
 20
49.1699671287233
 10
16.6385129129304
 20
49.1700797365755
 10
16.6388260860618
 20
49.1701524583635
 10
16.6386085250853
 20
49.1702255157265
 10
16.6379312874675
 20
49.1704572237786
 10
16.6371749804144
 20
49.1707146684449
 10
16.6362034761985
 20
49.1709143968376
 10
16.6358081384596
 20
49.1709811205263
 10
16.6352260969334
 20
49.1710860258446
 10
16.6348827329725
 20
49.1711281539786
 10
16.6341617843988
 20
49.1712114137884
 10
16.6329650312877
 20
49.17133643212
 10
16.6325060816569
 20
49.1713986042742
 97
0
 75
0
 76
1
 98
0
  0
HATCH
  5
20001
100
AcDbEntity
  8
riziková oblast 
100
AcDbHatch
 10
0
 20
0
 30
0
210
0
220
0
230
1
  2
SOLID
 70
1
 71
0
 91
1
 92
2
 72
0
 73
1
 93
9
 10
16.6520326716544
 20
49.1679255122379
 10
16.6520111889448
 20
49.1676590855347
 10
16.6570211419237
 20
49.1672066475911
 10
16.658827985936
 20
49.1682892324857
 10
16.6573345733079
 20
49.1682221711834
 10
16.6548623214828
 20
49.1680902275382
 10
16.6538088580977
 20
49.1680252294912
 10
16.6528849398937
 20
49.1679697943434
 10
16.6520326716544
 20
49.1679255122379
 97
0
 75
0
 76
1
 98
0
  0
HATCH
  5
20002
100
AcDbEntity
  8
riziková oblast 
100
AcDbHatch
 10
0
 20
0
 30
0
210
0
220
0
230
1
  2
SOLID
 70
1
 71
0
 91
1
 92
2
 72
0
 73
1
 93
48
 10
16.534921286034
 20
49.2270874381449
 10
16.5353020610079
 20
49.2272983015632
 10
16.5356154952265
 20
49.2273976717542
 10
16.5358336049441
 20
49.2274521550115
 10
16.5359808700078
 20
49.2275471560694
 10
16.5361588856633
 20
49.227702534876
 10
16.536215731491
 20
49.2277425649209
 10
16.5362662396265
 20
49.2277762144276
 10
16.5363070246456
 20
49.227800772041
 10
16.5363579479371
 20
49.2278275672558
 10
16.5364404635938
 20
49.2278591629775
 10
16.5367466955886
 20
49.2279786478679
 10
16.5367970093113
 20
49.2279968808329
 10
16.5370377174611
 20
49.2281040812372
 10
16.5370384639143
 20
49.2281957500405
 10
16.5368620728512
 20
49.2282417067642
 10
16.537177172101
 20
49.2292555074315
 10
16.5364564821173
 20
49.2288854636422
 10
16.5358252003627
 20
49.2285605047071
 10
16.5331595700493
 20
49.231760787341
 10
16.5301450384162
 20
49.2354754367757
 10
16.5302879325742
 20
49.2360792265456
 10
16.5306069343963
 20
49.2372798557973
 10
16.5303216760695
 20
49.2367937067359
 10
16.5299908000839
 20
49.2357981903337
 10
16.5299500998402
 20
49.2355676808217
 10
16.529871044595
 20
49.2354833419154
 10
16.5298171373599
 20
49.2352838248884
 10
16.5297695095346
 20
49.2351361375966
 10
16.529699476384
 20
49.2349673229673
 10
16.5296964544456
 20
49.2349224480542
 10
16.5293800636462
 20
49.2345584374904
 10
16.5287956945251
 20
49.2344451522429
 10
16.5290865538886
 20
49.2339152291742
 10
16.5293823314198
 20
49.2335358001415
 10
16.5303368673593
 20
49.2325474335917
 10
16.5301088254632
 20
49.232457558088
 10
16.5300801679097
 20
49.2323452395377
 10
16.5297638861198
 20
49.2320350591421
 10
16.5296464220459
 20
49.2319770637516
 10
16.5295040430217
 20
49.2318056220798
 10
16.5294120999981
 20
49.2315576460997
 10
16.5294068583656
 20
49.2315268435133
 10
16.5294025017751
 20
49.2314955460649
 10
16.5294079846467
 20
49.2314040800796
 10
16.5293821740595
 20
49.231330528495
 10
16.5316935356285
 20
49.2313428972863
 10
16.534921286034
 20
49.2270874381449
 97
0
 75
0
 76
1
 98
0
  0
HATCH
  5
20003
100
AcDbEntity
  8
riziková oblast 
100
AcDbHatch
 10
0
 20
0
 30
0
210
0
220
0
230
1
  2
SOLID
 70
1
 71
0
 91
1
 92
2
 72
0
 73
1
 93
20
 10
16.6600820342376
 20
49.1822757622147
 10
16.6587808647102
 20
49.1814375775002
 10
16.6578236605296
 20
49.180627177709
 10
16.6561493179803
 20
49.1792089901372
 10
16.6553375269521
 20
49.1775800925811
 10
16.6549233564912
 20
49.1764507187652
 10
16.6550991703615
 20
49.1761094723786
 10
16.6558763081061
 20
49.1750247498907
 10
16.6589571246014
 20
49.1752417970252
 10
16.6603237473589
 20
49.1760453126738
 10
16.661690414408
 20
49.176848812046
 10
16.663370078941
 20
49.1783029993003
 10
16.665049841983
 20
49.1797571618006
 10
16.6659550450638
 20
49.1815497007986
 10
16.6658827397543
 20
49.1827233776589
 10
16.6652814700406
 20
49.1834669047628
 10
16.6634655742769
 20
49.1835748532375
 10
16.6613832477591
 20
49.1831139321574
 10
16.6607713242664
 20
49.1827050243152
 10
16.6600820342376
 20
49.1822757622147
 97
0
 75
0
 76
1
 98
0
  0
HATCH
  5
20004
100
AcDbEntity
  8
riziková oblast 
100
AcDbHatch
 10
0
 20
0
 30
0
210
0
220
0
230
1
  2
SOLID
 70
1
 71
0
 91
1
 92
2
 72
0
 73
1
 93
126
 10
16.632076773187
 20
49.173373279627
 10
16.6321109018949
 20
49.1732304935254
 10
16.6321451971552
 20
49.1730869784348
 10
16.6322643305191
 20
49.172495327726
 10
16.6323238961332
 20
49.1721995023054
 10
16.6323834610353
 20
49.1719036768408
 10
16.632380310005
 20
49.1718611701793
 10
16.6323689538538
 20
49.1717074669602
 10
16.6323870206949
 20
49.1716646961675
 10
16.6323809869156
 20
49.1716242017144
 10
16.6324378382814
 20
49.1715217184013
 10
16.6325060816569
 20
49.1713986042742
 10
16.6325417147112
 20
49.1713916257021
 10
16.632797433019
 20
49.1713582339125
 10
16.6330711389368
 20
49.1713253439691
 10
16.6334585195149
 20
49.1712848391727
 10
16.6339273630019
 20
49.1712358893931
 10
16.6345178375246
 20
49.1711722419674
 10
16.6350544150258
 20
49.1711070900394
 10
16.6352260969334
 20
49.1710860258446
 10
16.6353661240036
 20
49.1710573886337
 10
16.6358081384596
 20
49.1709811205263
 10
16.6362034761985
 20
49.1709143968376
 10
16.6365735513468
 20
49.170838968166
 10
16.6368742662572
 20
49.1707768186979
 10
16.6371749804144
 20
49.1707146684449
 10
16.6374343814651
 20
49.1706281636237
 10
16.6376937816112
 20
49.1705416582178
 10
16.6380093348765
 20
49.1704319844074
 10
16.6384390420358
 20
49.1702848774951
 10
16.6388324137904
 20
49.1701521699084
 10
16.6390377253053
 20
49.1701911727478
 10
16.6393338071743
 20
49.1702413064282
 10
16.639918291877
 20
49.1703420358181
 10
16.642047040385
 20
49.1698021960515
 10
16.6428173166632
 20
49.1696039543143
 10
16.6441868137324
 20
49.1692007605441
 10
16.6459741450118
 20
49.1687376356961
 10
16.6472443699173
 20
49.1684006792752
 10
16.6482078137242
 20
49.1681488488774
 10
16.6490872984987
 20
49.1679340866282
 10
16.6499864223888
 20
49.167824945413
 10
16.6520112834895
 20
49.1676807988849
 10
16.6520326716544
 20
49.1679255122379
 10
16.6528932278003
 20
49.1679691820704
 10
16.6548706106022
 20
49.1680896161134
 10
16.6573228882833
 20
49.1682206622714
 10
16.6588362736765
 20
49.1682886206798
 10
16.6600154945251
 20
49.1690722649148
 10
16.6614252736199
 20
49.1698785935198
 10
16.6625835282654
 20
49.1705889889134
 10
16.6643513905742
 20
49.1716083958247
 10
16.6653074802204
 20
49.1726610572204
 10
16.6657937865566
 20
49.1731738779148
 10
16.6662801014383
 20
49.1736866973201
 10
16.6669047805586
 20
49.1748180598977
 10
16.6672662473139
 20
49.1755323583221
 10
16.6675294896787
 20
49.1759494181066
 10
16.6678418542411
 20
49.176515095824
 10
16.6681542271442
 20
49.1770807736386
 10
16.669075598786
 20
49.1789495540549
 10
16.6694284114638
 20
49.179826694583
 10
16.6679416981941
 20
49.1806770041052
 10
16.6675974993413
 20
49.1808741012636
 10
16.6674201840799
 20
49.1809189667935
 10
16.6669520605337
 20
49.181189555656
 10
16.6668765919736
 20
49.1813041724037
 10
16.6661186677687
 20
49.1817403176683
 10
16.665941429787
 20
49.1818547415041
 10
16.6659550450638
 20
49.1815497007986
 10
16.665049841983
 20
49.1797571618006
 10
16.661690414408
 20
49.176848812046
 10
16.6589571246014
 20
49.1752417970252
 10
16.6558763081061
 20
49.1750247498907
 10
16.6554877434853
 20
49.1755671118126
 10
16.6550991703615
 20
49.1761094723786
 10
16.6549233564912
 20
49.1764507187652
 10
16.6553375269521
 20
49.1775800925811
 10
16.6561493179803
 20
49.1792089901372
 10
16.6587808647102
 20
49.1814375775002
 10
16.66042667776
 20
49.1824903937829
 10
16.6607713242664
 20
49.1827050243152
 10
16.6613832477591
 20
49.1831139321574
 10
16.6634655742769
 20
49.1835748532375
 10
16.6640354882342
 20
49.1835413815908
 10
16.6639727164806
 20
49.183633303261
 10
16.6637469839926
 20
49.1839922105637
 10
16.6636267087229
 20
49.1841663491839
 10
16.663271505015
 20
49.1842324239699
 10
16.6630327041083
 20
49.1843324674683
 10
16.6629858357253
 20
49.1844652849868
 10
16.6628472084094
 20
49.1844827503707
 10
16.6627699613305
 20
49.1845719161869
 10
16.6622535340485
 20
49.1850384262038
 10
16.6613615735664
 20
49.1857570055481
 10
16.6613567784926
 20
49.1857608392024
 10
16.6613048579925
 20
49.1857985616192
 10
16.6609459806021
 20
49.1860477902841
 10
16.6610074759934
 20
49.1861469946544
 10
16.6612731011706
 20
49.1865734127918
 10
16.661128816268
 20
49.1866640989358
 10
16.6609146572929
 20
49.1866869171385
 10
16.660800764212
 20
49.1866990673673
 10
16.6605931579268
 20
49.1867280551083
 10
16.6603559475925
 20
49.1867611769836
 10
16.6598370901623
 20
49.1868641975883
 10
16.6589793017901
 20
49.1870453688978
 10
16.6584525643868
 20
49.1871525218797
 10
16.6582442338389
 20
49.187195020229
 10
16.6573681193743
 20
49.187388998912
 10
16.655615860369
 20
49.1877668963688
 10
16.6553542057022
 20
49.1878218127032
 10
16.6551822755554
 20
49.1878780718151
 10
16.6495643513172
 20
49.1845052082648
 10
16.6468112262658
 20
49.1828519901831
 10
16.6449172662318
 20
49.1816802651295
 10
16.6416513775758
 20
49.1798172631275
 10
16.6397733539034
 20
49.1789275640776
 10
16.639070284661
 20
49.1784640438551
 10
16.6381084507516
 20
49.177910300257
 10
16.636146426575
 20
49.176729490631
 10
16.6357978892488
 20
49.1763825197789
 10
16.6352989414105
 20
49.1759231741925
 10
16.6342197977181
 20
49.1748338360678
 10
16.6332550846258
 20
49.1738453790378
 10
16.632076773187
 20
49.173373279627
 97
0
 75
0
 76
1
 98
0
  0
HATCH
  5
20005
100
AcDbEntity
  8
riziková oblast 
100
AcDbHatch
 10
0
 20
0
 30
0
210
0
220
0
230
1
  2
SOLID
 70
1
 71
0
 91
1
 92
2
 72
0
 73
1
 93
165
 10
16.635852072057
 20
49.2257446670147
 10
16.6356684892815
 20
49.2256136348432
 10
16.6354849074774
 20
49.2254826023771
 10
16.6354969565565
 20
49.2253531202701
 10
16.6355090055725
 20
49.2252236381591
 10
16.6354299355225
 20
49.2250906650775
 10
16.635350865897
 20
49.2249576919391
 10
16.6352203768132
 20
49.2246814866195
 10
16.6352299252527
 20
49.2245625910638
 10
16.6352394736463
 20
49.224443695505
 10
16.6351745490339
 20
49.2242608446034
 10
16.6351096249006
 20
49.2240779936599
 10
16.6350761108253
 20
49.2238192142258
 10
16.6353168947781
 20
49.2236071084861
 10
16.6352394980336
 20
49.2233624167816
 10
16.6352538995216
 20
49.2232303872952
 10
16.6352683009328
 20
49.2230983578042
 10
16.6352026876428
 20
49.222828630097
 10
16.6351696674106
 20
49.2226956957183
 10
16.6350282526983
 20
49.2223743095238
 10
16.6349460112756
 20
49.222142299614
 10
16.6344955877987
 20
49.222064199056
 10
16.6342272677456
 20
49.2220164975303
 10
16.6340004162069
 20
49.2219286702656
 10
16.6337735654728
 20
49.221840842554
 10
16.633468329054
 20
49.2217221106311
 10
16.6334150073038
 20
49.2217054578219
 10
16.6332893221776
 20
49.2216812996132
 10
16.6334725695635
 20
49.2210929500782
 10
16.6337987048864
 20
49.2200258289914
 10
16.6346067432659
 20
49.2190812270311
 10
16.6391632804574
 20
49.2137272289452
 10
16.6396979357405
 20
49.213097684057
 10
16.6400217421128
 20
49.2127502697252
 10
16.6407986870932
 20
49.2136321513209
 10
16.6415317438286
 20
49.2144586011219
 10
16.6418317520665
 20
49.2148407861064
 10
16.6421997655103
 20
49.2154317524803
 10
16.6422809848746
 20
49.2156785167805
 10
16.64233028943
 20
49.2158136820608
 10
16.6423366524906
 20
49.2161589400208
 10
16.6422153099131
 20
49.2164780323037
 10
16.6420173615433
 20
49.2167146951571
 10
16.6417262034706
 20
49.2168859040605
 10
16.6414705604662
 20
49.2169309463616
 10
16.6414137423745
 20
49.2168053805686
 10
16.6408967849042
 20
49.2170554153847
 10
16.6407142216957
 20
49.2171425704155
 10
16.6404558939138
 20
49.2172551647802
 10
16.6401574304719
 20
49.2173640482717
 10
16.6400497562452
 20
49.2174222968698
 10
16.6399420817653
 20
49.217480545367
 10
16.6397339574986
 20
49.217619439566
 10
16.6396433925265
 20
49.217692868649
 10
16.639552827286
 20
49.2177662976599
 10
16.6394338599947
 20
49.2178737844155
 10
16.6393752189508
 20
49.2179110849829
 10
16.6392985953984
 20
49.2179706317939
 10
16.6392208812841
 20
49.2180301341882
 10
16.6391732793793
 20
49.2180593688186
 10
16.6389814529517
 20
49.2182196661355
 10
16.6388878258359
 20
49.2183730668023
 10
16.6388673148284
 20
49.2184225052493
 10
16.6388335778062
 20
49.2186172383222
 10
16.6388399298991
 20
49.2187649896162
 10
16.6388996815755
 20
49.2190078907982
 10
16.6389641190395
 20
49.219158054096
 10
16.6390274664886
 20
49.2193081729873
 10
16.6389027725973
 20
49.2193879798625
 10
16.6386992627265
 20
49.2195625626567
 10
16.6382486538048
 20
49.2199194150427
 10
16.6377980383904
 20
49.2202762656482
 10
16.6377673465159
 20
49.2203006729863
 10
16.6376943659898
 20
49.2203584013308
 10
16.6376327246589
 20
49.2204595115305
 10
16.6375393953588
 20
49.2207440706736
 10
16.6374394266352
 20
49.2209459914615
 10
16.6373394570964
 20
49.2211479121561
 10
16.6372285719187
 20
49.2213110907848
 10
16.6371147407851
 20
49.2214788614308
 10
16.6370422247831
 20
49.2216462777413
 10
16.6370555099669
 20
49.2218282874261
 10
16.6370805027984
 20
49.2219500271694
 10
16.6371054957527
 20
49.2220717669048
 10
16.6371064910156
 20
49.2221538713481
 10
16.6371013363483
 20
49.2221776566161
 10
16.6370306095334
 20
49.2221627893016
 10
16.6369045598202
 20
49.2221836514623
 10
16.6368263482077
 20
49.2223288150632
 10
16.6367481361367
 20
49.2224739786076
 10
16.6367142380387
 20
49.2225369336177
 10
16.6366803398545
 20
49.2225998886171
 10
16.6366674937859
 20
49.2226376928969
 10
16.6366546476978
 20
49.222675497175
 10
16.6366576484644
 20
49.2226782414045
 10
16.6366802556752
 20
49.2227053423736
 10
16.636631563269
 20
49.2227243369241
 10
16.6365998373184
 20
49.2227375643853
 10
16.6365277345105
 20
49.2227444152214
 10
16.6364464385477
 20
49.2227710580183
 10
16.6363651424974
 20
49.2227977007579
 10
16.6363359541372
 20
49.2228135492615
 10
16.6363067657583
 20
49.2228293977578
 10
16.6362696368041
 20
49.2228951998512
 10
16.6362325077512
 20
49.2229610019319
 10
16.636229223729
 20
49.2230292376251
 10
16.6362259396977
 20
49.2230974733175
 10
16.6362380867337
 20
49.2231218464104
 10
16.6362759314301
 20
49.2231549520325
 10
16.6363137761772
 20
49.2231880576419
 10
16.6363971382959
 20
49.2232395249144
 10
16.6364805005878
 20
49.2232909921263
 10
16.636593464752
 20
49.2233362723362
 10
16.6367064291228
 20
49.2233815524352
 10
16.6367917605553
 20
49.2234013214509
 10
16.6368770920559
 20
49.2234210904034
 10
16.6369621314304
 20
49.2234459940779
 10
16.6370471708903
 20
49.2234708976897
 10
16.6371158624773
 20
49.2234965470868
 10
16.6371845541354
 20
49.2235221964429
 10
16.637254839207
 20
49.2235599874498
 10
16.6372918679756
 20
49.2235934420996
 10
16.637341453873
 20
49.2236542380787
 10
16.6373910398921
 20
49.223715034036
 10
16.6374446738305
 20
49.2237549965244
 10
16.6374983078555
 20
49.2237949589877
 10
16.6376239250083
 20
49.2238636517311
 10
16.6377495425096
 20
49.2239323443371
 10
16.6377901258253
 20
49.2239773552618
 10
16.6378307092147
 20
49.2240223661718
 10
16.6378479299956
 20
49.2240750898816
 10
16.6378651508131
 20
49.2241278135883
 10
16.6378605099566
 20
49.2241467962859
 10
16.6378558690966
 20
49.2241657789832
 10
16.6377789021888
 20
49.2242920374593
 10
16.6377019348884
 20
49.2244182958813
 10
16.6376668706109
 20
49.2244933790315
 10
16.637631806227
 20
49.22456846217
 10
16.6375896997814
 20
49.2246259090236
 10
16.637547593238
 20
49.2246833558613
 10
16.6375357185822
 20
49.2246976224603
 10
16.6374882778681
 20
49.224749718428
 10
16.6374408370541
 20
49.2248018143757
 10
16.63740852014
 20
49.2248538920383
 10
16.6373762031579
 20
49.2249059696915
 10
16.6373655063283
 20
49.2249252486665
 10
16.6373548094905
 20
49.2249445276405
 10
16.6373331962755
 20
49.2250276597733
 10
16.6373115829879
 20
49.2251107919009
 10
16.6373159195753
 20
49.2251360608559
 10
16.6373202561671
 20
49.2251613298106
 10
16.6372936585811
 20
49.2251710754522
 10
16.6372670609846
 20
49.2251808210877
 10
16.6372275830441
 20
49.225194994216
 10
16.637188105081
 20
49.2252091673308
 10
16.6370006698058
 20
49.2252757605934
 10
16.6368132340266
 20
49.2253423535509
 10
16.6368628842344
 20
49.2254006669187
 10
16.6368135278124
 20
49.2254178059537
 10
16.6366893952386
 20
49.2254609629196
 10
16.6365652624484
 20
49.2255041197517
 10
16.6364273258072
 20
49.2255535380799
 10
16.6362893888909
 20
49.2256029562429
 10
16.6360707307867
 20
49.2256738118363
 10
16.635852072057
 20
49.2257446670147
 97
0
 75
0
 76
1
 98
0
  0
HATCH
  5
20006
100
AcDbEntity
  8
riziková oblast 
100
AcDbHatch
 10
0
 20
0
 30
0
210
0
220
0
230
1
  2
SOLID
 70
1
 71
0
 91
1
 92
2
 72
0
 73
1
 93
52
 10
16.5100537411662
 20
49.2601467221294
 10
16.5036277927822
 20
49.2567015218488
 10
16.5067284667728
 20
49.2532617669347
 10
16.5090133603509
 20
49.2515154672822
 10
16.5132423789076
 20
49.2483292257992
 10
16.5164030699108
 20
49.2452365137156
 10
16.5176565908393
 20
49.2434102347971
 10
16.5190563809646
 20
49.2413440559343
 10
16.5216740574797
 20
49.2342216795672
 10
16.5208063402763
 20
49.2330620521449
 10
16.522609279279
 20
49.2330196509326
 10
16.5243959058533
 20
49.232930107487
 10
16.5253500020011
 20
49.2329172448825
 10
16.5283995328392
 20
49.2313372860589
 10
16.5293820159892
 20
49.2313305072435
 10
16.5294079846467
 20
49.2314040800796
 10
16.5294014911022
 20
49.2314960654143
 10
16.5294122256358
 20
49.2315576216119
 10
16.5295040430217
 20
49.2318056220798
 10
16.5296430989291
 20
49.2319765810382
 10
16.5297638861198
 20
49.2320350591421
 10
16.5300801679097
 20
49.2323452395377
 10
16.5300944966702
 20
49.232401398814
 10
16.5301088254632
 20
49.232457558088
 10
16.5303368673593
 20
49.2325474335917
 10
16.5300552545907
 20
49.2328402614326
 10
16.5293725830019
 20
49.2335451641289
 10
16.5290865538886
 20
49.2339152291742
 10
16.5289023111354
 20
49.2342348576738
 10
16.5287956945251
 20
49.2344451522429
 10
16.5291081095745
 20
49.2345059779522
 10
16.5293800636462
 20
49.2345584374904
 10
16.5296934123214
 20
49.2349222342066
 10
16.529699476384
 20
49.2349673229673
 10
16.5297695095346
 20
49.2351361375966
 10
16.5298171373599
 20
49.2352838248884
 10
16.529871044595
 20
49.2354833419154
 10
16.5299478520088
 20
49.2355695220079
 10
16.5299918902492
 20
49.2358008988171
 10
16.5300733651042
 20
49.2360636624276
 10
16.5302143514432
 20
49.2364652125691
 10
16.5302173076285
 20
49.2364905715538
 10
16.5302984061536
 20
49.2367043341648
 10
16.5302967361482
 20
49.2367242967567
 10
16.5303195558209
 20
49.2367896111633
 10
16.5306088636546
 20
49.2372714480051
 10
16.5314444556054
 20
49.241017478599
 10
16.5315868191346
 20
49.24166309862
 10
16.5321562450438
 20
49.244223911226
 10
16.5280932911341
 20
49.2507742537848
 10
16.5184952019622
 20
49.2608665246607
 10
16.5100537411662
 20
49.2601467221294
 97
0
 75
0
 76
1
 98
0
  0
HATCH
  5
20007
100
AcDbEntity
  8
riziková oblast 
100
AcDbHatch
 10
0
 20
0
 30
0
210
0
220
0
230
1
  2
SOLID
 70
1
 71
0
 91
1
 92
2
 72
0
 73
1
 93
20
 10
16.6320684841215
 20
49.1733738904033
 10
16.6314950415371
 20
49.1731303482625
 10
16.6310585136706
 20
49.1729474939224
 10
16.6306525176017
 20
49.1727830475233
 10
16.6302286383082
 20
49.1726163747311
 10
16.6298089519444
 20
49.1724437575498
 10
16.6295725433061
 20
49.1723603932551
 10
16.6294950991941
 20
49.1716920972295
 10
16.6295316624103
 20
49.1713402109853
 10
16.6304581079891
 20
49.1706515091396
 10
16.6315489781095
 20
49.1698411249845
 10
16.6329249241557
 20
49.1693947041184
 10
16.6326265183869
 20
49.170802749517
 10
16.6325060816569
 20
49.1713986042742
 10
16.6323809869156
 20
49.1716242017144
 10
16.6323870206949
 20
49.1716646961675
 10
16.6323689538538
 20
49.1717074669602
 10
16.6323800520236
 20
49.1719034359078
 10
16.6321451971552
 20
49.1730869784348
 10
16.6320684841215
 20
49.1733738904033
 97
0
 75
0
 76
1
 98
0
  0
HATCH
  5
20008
100
AcDbEntity
  8
riziková oblast 
100
AcDbHatch
 10
0
 20
0
 30
0
210
0
220
0
230
1
  2
SOLID
 70
1
 71
0
 91
1
 92
2
 72
0
 73
1
 93
20
 10
16.5410392521344
 20
49.2282295518258
 10
16.5410682401291
 20
49.228109591781
 10
16.5412841409175
 20
49.2279194256242
 10
16.5416240080649
 20
49.2278096633269
 10
16.5422427862387
 20
49.2279039773931
 10
16.5430712863352
 20
49.2282602343841
 10
16.5436112362222
 20
49.2285211118629
 10
16.5441051249793
 20
49.2287983447213
 10
16.5445756501642
 20
49.2291818697302
 10
16.5449223497244
 20
49.2296618957844
 10
16.544969845196
 20
49.2298875543743
 10
16.5447985061916
 20
49.2301657080616
 10
16.5445381707249
 20
49.2302831151554
 10
16.5438799561662
 20
49.2302354771746
 10
16.5428373917466
 20
49.2298942214735
 10
16.5427070660364
 20
49.2298156999594
 10
16.5418854289744
 20
49.229320131202
 10
16.5413390050083
 20
49.22897885663
 10
16.5409927099374
 20
49.2285091652748
 10
16.5410392521344
 20
49.2282295518258
 97
0
 75
0
 76
1
 98
0
  0
HATCH
  5
20009
100
AcDbEntity
  8
riziková oblast 
100
AcDbHatch
 10
0
 20
0
 30
0
210
0
220
0
230
1
  2
SOLID
 70
1
 71
0
 91
2
 92
2
 72
0
 73
1
 93
37
 10
16.5407715988212
 20
49.2383047628366
 10
16.5423852110401
 20
49.2357602604902
 10
16.53986111037
 20
49.2339522068109
 10
16.5413803223024
 20
49.2313453660852
 10
16.537177172101
 20
49.2292555074315
 10
16.5369754896803
 20
49.2285923918886
 10
16.5368837408348
 20
49.2282932048446
 10
16.5368666174946
 20
49.2282425913344
 10
16.5369726543956
 20
49.2282138013566
 10
16.5370360365436
 20
49.2281979349062
 10
16.5370295295173
 20
49.2281003583625
 10
16.5367438964768
 20
49.2279792747097
 10
16.536440557677
 20
49.2278591868855
 10
16.5363424166056
 20
49.2278223246921
 10
16.5363077141243
 20
49.2278042867652
 10
16.5362336581929
 20
49.2277546716589
 10
16.5361591407662
 20
49.2277028525183
 10
16.5359808659191
 20
49.2275475537955
 10
16.5358338600436
 20
49.2274524726545
 10
16.535599188608
 20
49.2273936437258
 10
16.5353023161032
 20
49.2272986192075
 10
16.5350764562601
 20
49.2271703131176
 10
16.5348794219095
 20
49.2271268359268
 10
16.5353823359521
 20
49.2265155360214
 10
16.5358497849114
 20
49.2259049394091
 10
16.5368536181755
 20
49.2228656813088
 10
16.5370694063707
 20
49.2206749309526
 10
16.5382158120951
 20
49.2207467392899
 10
16.5404803117892
 20
49.2240901298361
 10
16.5465738649941
 20
49.2279082276409
 10
16.5499664322814
 20
49.2287997717089
 10
16.5493147759009
 20
49.2297005428821
 10
16.5478275660065
 20
49.2298532658824
 10
16.5478780882313
 20
49.2300218806969
 10
16.5486218589094
 20
49.2325040539222
 10
16.5428877886784
 20
49.2382297446863
 10
16.5407715988212
 20
49.2383047628366
 97
0
 92
2
 72
0
 73
1
 93
21
 10
16.5449220579558
 20
49.2296707226094
 10
16.5445756501642
 20
49.2291818697302
 10
16.5441051249793
 20
49.2287983447213
 10
16.5436112362222
 20
49.2285211118629
 10
16.5430712863352
 20
49.2282602343841
 10
16.5422427862387
 20
49.2279039773931
 10
16.5416240080649
 20
49.2278096633269
 10
16.5412841409175
 20
49.2279194256242
 10
16.5410682401291
 20
49.228109591781
 10
16.5409927099374
 20
49.2285091652748
 10
16.5413327357705
 20
49.2289843991851
 10
16.5428373917466
 20
49.2298942214735
 10
16.5438799561662
 20
49.2302354771746
 10
16.5445381707249
 20
49.2302831151554
 10
16.5447985061916
 20
49.2301657080616
 10
16.544969845196
 20
49.2298875543743
 10
16.5449242321576
 20
49.2296708379571
 10
16.5466821903094
 20
49.2297637791045
 10
16.5449223497244
 20
49.2296618957844
 10
16.5449242321576
 20
49.2296708379571
 10
16.5449220579558
 20
49.2296707226094
 97
0
 75
0
 76
1
 98
0
  0
HATCH
  5
2000A
100
AcDbEntity
  8
riziková oblast 
100
AcDbHatch
 10
0
 20
0
 30
0
210
0
220
0
230
1
  2
SOLID
 70
1
 71
0
 91
1
 92
2
 72
0
 73
1
 93
83
 10
16.6234372733854
 20
49.229230635534
 10
16.6217852358527
 20
49.2301466843389
 10
16.6208583394078
 20
49.2301303032819
 10
16.6203321836484
 20
49.2283672049593
 10
16.6163213493663
 20
49.2281412255491
 10
16.6152063594553
 20
49.2277437389428
 10
16.6134065119729
 20
49.2271189307633
 10
16.6164669418314
 20
49.2248347530345
 10
16.6232004975226
 20
49.2246858754469
 10
16.6244913190743
 20
49.2272785880949
 10
16.6260289465792
 20
49.2270342793256
 10
16.6254243883737
 20
49.224556410724
 10
16.6281954209203
 20
49.2241570143385
 10
16.6295166409853
 20
49.2237765709122
 10
16.63105853512
 20
49.2226832762421
 10
16.6329868487594
 20
49.2208639911252
 10
16.6335169873543
 20
49.2203234296733
 10
16.6337981855249
 20
49.2200076605942
 10
16.6334722879183
 20
49.2210937722489
 10
16.633289040526
 20
49.2216821217834
 10
16.6334451557171
 20
49.2217126791664
 10
16.6334909391027
 20
49.2217331864326
 10
16.6337732838284
 20
49.2218416647254
 10
16.6342269861077
 20
49.2220173197028
 10
16.634495306165
 20
49.2220650212291
 10
16.6345007666309
 20
49.2220805111375
 10
16.6345452600577
 20
49.2220736121886
 10
16.6349457296489
 20
49.2221431217882
 10
16.6350279710717
 20
49.2223751316982
 10
16.6351778038062
 20
49.2227301247754
 10
16.6352270083253
 20
49.2229287797613
 10
16.6352684973272
 20
49.2230962742251
 10
16.6352392164048
 20
49.2233632389564
 10
16.6353166131492
 20
49.223607930661
 10
16.6350758291913
 20
49.2238200364002
 10
16.6351093432656
 20
49.2240788158342
 10
16.6352391920114
 20
49.2244445176796
 10
16.6352200951766
 20
49.2246823087941
 10
16.635350584261
 20
49.2249585141139
 10
16.6355087239377
 20
49.2252244603342
 10
16.6354846258406
 20
49.2254834245522
 10
16.6358517904249
 20
49.2257454891906
 10
16.6356153686571
 20
49.2258328178419
 10
16.6356619796318
 20
49.2259347835174
 10
16.6354697688829
 20
49.2259053007274
 10
16.6353793462958
 20
49.225930304186
 10
16.6351809158269
 20
49.2259839539336
 10
16.634988822009
 20
49.2260284633162
 10
16.6347762948803
 20
49.2260771379337
 10
16.6345795500708
 20
49.2261465528477
 10
16.634307002334
 20
49.2262419115692
 10
16.6342157960505
 20
49.2262590805324
 10
16.6338307619163
 20
49.2263313942414
 10
16.6339150234394
 20
49.2264193763145
 10
16.6341809149207
 20
49.2266842471322
 10
16.6342333366391
 20
49.2267903319341
 10
16.6342666672114
 20
49.2269201227717
 10
16.6342441476226
 20
49.227063699099
 10
16.634274377754
 20
49.2271619767858
 10
16.6343265748366
 20
49.2273315386846
 10
16.6344378952877
 20
49.2274867319216
 10
16.6344896330807
 20
49.2275592127893
 10
16.6346376174123
 20
49.2277652010368
 10
16.6347026135273
 20
49.2279107028472
 10
16.6347135953181
 20
49.2279354460435
 10
16.6347634421809
 20
49.2280655881848
 10
16.6348436400044
 20
49.2282185843527
 10
16.6349004916126
 20
49.2283514818761
 10
16.6349858741151
 20
49.2285669800617
 10
16.6350273411677
 20
49.2286859484446
 10
16.6350782712966
 20
49.2288380546587
 10
16.6351729716392
 20
49.2291295514909
 10
16.6352163715435
 20
49.229321555443
 10
16.6351652234089
 20
49.2295426133719
 10
16.6351171543008
 20
49.2297818872996
 10
16.6349056069027
 20
49.2298505304718
 10
16.6346863819815
 20
49.2299213448543
 10
16.6344222080514
 20
49.2300066724189
 10
16.633503573928
 20
49.230301841727
 10
16.633414776327
 20
49.2303107130457
 10
16.6295328428639
 20
49.2278411499826
 10
16.6259057491652
 20
49.2285617580426
 10
16.6234372733854
 20
49.229230635534
 97
0
 75
0
 76
1
 98
0
  0
HATCH
  5
2000B
100
AcDbEntity
  8
riziková oblast 
100
AcDbHatch
 10
0
 20
0
 30
0
210
0
220
0
230
1
  2
SOLID
 70
1
 71
0
 91
1
 92
2
 72
0
 73
1
 93
16
 10
16.6217483836875
 20
49.2349463045342
 10
16.6202839334518
 20
49.234350071384
 10
16.6200561021171
 20
49.2340076472907
 10
16.6199189572897
 20
49.2336220267721
 10
16.6211294801156
 20
49.232291333692
 10
16.6228850321856
 20
49.2319234642406
 10
16.6245620509388
 20
49.2317378533746
 10
16.6255541944841
 20
49.2319036124034
 10
16.6262046678307
 20
49.2327923828565
 10
16.6265775299261
 20
49.2335416963111
 10
16.6286059880963
 20
49.2342937491697
 10
16.6289027095593
 20
49.2343810292199
 10
16.6288333450618
 20
49.234682162236
 10
16.6253716106944
 20
49.2346548963985
 10
16.6236082792796
 20
49.2352030849896
 10
16.6217483836875
 20
49.2349463045342
 97
0
 75
0
 76
1
 98
0
  0
HATCH
  5
2000C
100
AcDbEntity
  8
riziková oblast 
100
AcDbHatch
 10
0
 20
0
 30
0
210
0
220
0
230
1
  2
SOLID
 70
1
 71
0
 91
1
 92
2
 72
0
 73
1
 93
37
 10
16.6683346808861
 20
49.1921063571902
 10
16.6678574570911
 20
49.1915129762896
 10
16.6678140384691
 20
49.1914637968723
 10
16.6677294674086
 20
49.1913549704113
 10
16.667596870235
 20
49.1911846566524
 10
16.6678354536942
 20
49.191066272312
 10
16.6680740360139
 20
49.1909478874759
 10
16.6683240450362
 20
49.19081954329
 10
16.6685740527639
 20
49.1906911985597
 10
16.6685691036773
 20
49.1906868710329
 10
16.668507980503
 20
49.1906337334208
 10
16.6684126938264
 20
49.1905507437808
 10
16.6682874477126
 20
49.1904417249346
 10
16.6680008455455
 20
49.1901922505886
 10
16.6681445247146
 20
49.1901178834859
 10
16.6678987517776
 20
49.1899030708805
 10
16.6677030649906
 20
49.1897295855194
 10
16.6679257103887
 20
49.1896920662182
 10
16.6681534713825
 20
49.1896536401332
 10
16.6684713256416
 20
49.1896001154635
 10
16.6685632007353
 20
49.1894119730741
 10
16.6686019338401
 20
49.18933417669
 10
16.6686030840197
 20
49.1892732091712
 10
16.6686930799672
 20
49.1891963320973
 10
16.6687705146496
 20
49.1891430813202
 10
16.6691618489529
 20
49.1893638784393
 10
16.6693575174118
 20
49.1894742764986
 10
16.6695531867423
 20
49.1895846742244
 10
16.6696388735225
 20
49.1896436990314
 10
16.670115634882
 20
49.1898585614736
 10
16.67045420388
 20
49.19005362039
 10
16.6707927755426
 20
49.1902486783077
 10
16.6713799565193
 20
49.1905794089362
 10
16.6703421668446
 20
49.1913669124492
 10
16.6694345835445
 20
49.1920494238733
 10
16.6691100257749
 20
49.1923018511048
 10
16.6683346808861
 20
49.1921063571902
 97
0
 75
0
 76
1
 98
0
  0
HATCH
  5
2000D
100
AcDbEntity
  8
riziková oblast 
100
AcDbHatch
 10
0
 20
0
 30
0
210
0
220
0
230
1
  2
SOLID
 70
1
 71
0
 91
1
 92
2
 72
0
 73
1
 93
132
 10
16.6897374137287
 20
49.2200032920405
 10
16.6801903750293
 20
49.2143324635154
 10
16.6783103576169
 20
49.2136784037402
 10
16.6736720085543
 20
49.21208065738
 10
16.6733944162641
 20
49.2118098447676
 10
16.6730308078905
 20
49.2114345161145
 10
16.6728239583284
 20
49.2112092766729
 10
16.6727270388039
 20
49.2110634584052
 10
16.6725578902699
 20
49.2108090546446
 10
16.6723887434725
 20
49.210554650626
 10
16.6723051904286
 20
49.2103362648842
 10
16.6720541697642
 20
49.2096833425677
 10
16.6719768287414
 20
49.2093648446954
 10
16.6718991227603
 20
49.2090485820721
 10
16.6718618131013
 20
49.2089290872037
 10
16.671637958924
 20
49.208212117692
 10
16.6716006505239
 20
49.2080926227231
 10
16.6714038162419
 20
49.2077789303759
 10
16.6712069844513
 20
49.2074652376774
 10
16.6710982283347
 20
49.2073462602829
 10
16.6709894727403
 20
49.2072272827837
 10
16.6707314823103
 20
49.2069844924071
 10
16.6706128360653
 20
49.2068820935652
 10
16.6705405652528
 20
49.2068340990731
 10
16.6704682945802
 20
49.2067861045355
 10
16.6703607270669
 20
49.2067201633226
 10
16.6702487288418
 20
49.2066519886527
 10
16.6700680544378
 20
49.2065459072138
 10
16.6698620256069
 20
49.2064321869883
 10
16.6696856811817
 20
49.2063348655201
 10
16.66954801782
 20
49.2062588488118
 10
16.6694103548806
 20
49.2061828319385
 10
16.6692775905767
 20
49.2061586658466
 10
16.6691448264023
 20
49.2061344996018
 10
16.6690505729493
 20
49.2061166583703
 10
16.6689334689685
 20
49.2060792578289
 10
16.6687958503375
 20
49.2060353274743
 10
16.6686582305859
 20
49.2059913968595
 10
16.6682007882632
 20
49.2058677291912
 10
16.6679863596479
 20
49.2058097598205
 10
16.6677355223928
 20
49.2057298979021
 10
16.6673486248319
 20
49.2056068231883
 10
16.6673168025965
 20
49.2055786285618
 10
16.667223743101
 20
49.2054962036185
 10
16.6670922711895
 20
49.20539127049
 10
16.667002079888
 20
49.2053199905061
 10
16.6667632694849
 20
49.205273746371
 10
16.6666199835742
 20
49.2052459989374
 10
16.6666051153638
 20
49.2051395882173
 10
16.6665919643256
 20
49.2050446035204
 10
16.6666721549391
 20
49.2049582635096
 10
16.6667523452731
 20
49.2048719234419
 10
16.6667870056148
 20
49.2048052632229
 10
16.6668216658632
 20
49.2047386029927
 10
16.6668312125213
 20
49.2047064438925
 10
16.6668290486685
 20
49.2046977449376
 10
16.6668115948081
 20
49.204625656078
 10
16.6668018502804
 20
49.2045646458909
 10
16.6667684105879
 20
49.2044174059099
 10
16.6667522337932
 20
49.2043366791734
 10
16.6666755753524
 20
49.2040438628492
 10
16.6666509541036
 20
49.2039362235237
 10
16.6666036305304
 20
49.203772631809
 10
16.6665515265354
 20
49.2037781019911
 10
16.6665351225157
 20
49.2037093997598
 10
16.6665187200525
 20
49.2036406967272
 10
16.6664859137513
 20
49.2035032914511
 10
16.6664695099134
 20
49.2034345892074
 10
16.6664531076319
 20
49.2033658861626
 10
16.6664203016942
 20
49.2032284808618
 10
16.6663925769867
 20
49.2031689644718
 10
16.6663648523457
 20
49.2031094480746
 10
16.666356748257
 20
49.2030662346
 10
16.6663486441823
 20
49.2030230211246
 10
16.6663497407645
 20
49.2029893633144
 10
16.6662528310496
 20
49.2029962040811
 10
16.666242784588
 20
49.20293788579
 10
16.6663517520569
 20
49.2029273709913
 10
16.666353391606
 20
49.2028533237107
 10
16.6663361436956
 20
49.2027606057183
 10
16.6663016480682
 20
49.2025751697218
 10
16.6662449374736
 20
49.2022696240772
 10
16.6661987030066
 20
49.2020252532043
 10
16.6661919310871
 20
49.201993709992
 10
16.6661567622841
 20
49.2017976447647
 10
16.6661380894945
 20
49.20170141226
 10
16.6661028448133
 20
49.2015079192444
 10
16.6660920890452
 20
49.2014766836751
 10
16.6660669584008
 20
49.2014413619708
 10
16.6660562443494
 20
49.2014174551516
 10
16.6660352611142
 20
49.2013159501011
 10
16.6660247695288
 20
49.2012651975738
 10
16.6660142779649
 20
49.2012144450451
 10
16.6660020133132
 20
49.2011530312735
 10
16.6659854186235
 20
49.2010579171218
 10
16.6659600960919
 20
49.2009419299826
 10
16.6658761772038
 20
49.200876651785
 10
16.6657922585368
 20
49.2008113735257
 10
16.6657397520625
 20
49.2007881446125
 10
16.6656005236105
 20
49.2007449777567
 10
16.6654803723692
 20
49.2007146840824
 10
16.6653602212748
 20
49.2006843902828
 10
16.6652562234092
 20
49.2006511175372
 10
16.6650856746282
 20
49.2005965216114
 10
16.6649248038247
 20
49.2005435106684
 10
16.6640706588144
 20
49.1998667819849
 10
16.6637096418363
 20
49.1996071348669
 10
16.6633821423056
 20
49.1993703752563
 10
16.6630574238449
 20
49.1991055016306
 10
16.6621703477246
 20
49.1983818948069
 10
16.6615434987362
 20
49.1978705950635
 10
16.6615067345999
 20
49.1978406033101
 10
16.6614652377895
 20
49.197826015503
 10
16.6614500092648
 20
49.1978153567216
 10
16.6609723150518
 20
49.1974566593511
 10
16.6607028066543
 20
49.1972554688103
 10
16.6607168712539
 20
49.1970711411348
 10
16.6611105506937
 20
49.1970614085378
 10
16.6613849494614
 20
49.1970856063673
 10
16.6617409340239
 20
49.1971231429196
 10
16.6625047054297
 20
49.197218137915
 10
16.6641901963924
 20
49.1974364095486
 10
16.6659079786356
 20
49.1976598211937
 10
16.6661261426307
 20
49.1976888524672
 10
16.668207232749
 20
49.1987700349938
 10
16.7020758090494
 20
49.2117947752967
 10
16.7048449770755
 20
49.2164263527912
 10
16.7080658170967
 20
49.2216205363487
 10
16.7029320426654
 20
49.2207038264875
 10
16.7017421572431
 20
49.2163782397448
 10
16.6927269708335
 20
49.2156711271651
 10
16.6897374137287
 20
49.2200032920405
 97
0
 75
0
 76
1
 98
0
  0
HATCH
  5
2000E
100
AcDbEntity
  8
riziková oblast 
100
AcDbHatch
 10
0
 20
0
 30
0
210
0
220
0
230
1
  2
SOLID
 70
1
 71
0
 91
1
 92
2
 72
0
 73
1
 93
298
 10
16.6412538913079
 20
49.2266626323549
 10
16.6413270740574
 20
49.2267080411671
 10
16.6410680408353
 20
49.2267380719164
 10
16.64090888212
 20
49.2267620309652
 10
16.6406658805652
 20
49.2268092002235
 10
16.6404228785478
 20
49.2268563689701
 10
16.6403898088727
 20
49.226865161443
 10
16.6402705804259
 20
49.2268730327525
 10
16.6401152546838
 20
49.2268803930638
 10
16.6400215606071
 20
49.2268848264416
 10
16.6399599288956
 20
49.2268877531659
 10
16.6399234472938
 20
49.2268862202256
 10
16.6398869656942
 20
49.2268846872737
 10
16.6397102251348
 20
49.2268601922557
 10
16.6394598476673
 20
49.2267989376182
 10
16.6391965128065
 20
49.2267182271257
 10
16.6389233312099
 20
49.2266243399264
 10
16.6386217235971
 20
49.2264807820425
 10
16.638492184849
 20
49.2264073372868
 10
16.638362646485
 20
49.2263338923848
 10
16.6382989136082
 20
49.2262885602127
 10
16.6382351808481
 20
49.2262432280051
 10
16.6381885686342
 20
49.2262042137218
 10
16.6381286870862
 20
49.226148480565
 10
16.638068805673
 20
49.2260927473767
 10
16.6380204493109
 20
49.2260299132418
 10
16.6379420774334
 20
49.2259400889988
 10
16.6378637058401
 20
49.2258502647014
 10
16.6378273487868
 20
49.2257988591257
 10
16.637790991809
 20
49.2257474535382
 10
16.6377260948468
 20
49.2256966120966
 10
16.6376611980179
 20
49.225645770618
 10
16.6376179556869
 20
49.2256013861579
 10
16.6375530447753
 20
49.2255418156116
 10
16.6374813320937
 20
49.2254492951683
 10
16.63740961968
 20
49.225356774679
 10
16.6373702991254
 20
49.2252830910855
 10
16.6373309786877
 20
49.2252094074777
 10
16.6373232271891
 20
49.2251641804446
 10
16.6373212553176
 20
49.2251610566132
 10
16.6373125821374
 20
49.2251105187036
 10
16.6373341954232
 20
49.2250273865758
 10
16.6373558086365
 20
49.2249442544429
 10
16.6373772023029
 20
49.2249056964936
 10
16.6373937146941
 20
49.2248791851864
 10
16.6374169138099
 20
49.224840304199
 10
16.6373089572983
 20
49.223883232706
 10
16.6372743527039
 20
49.2235764415792
 10
16.6372558383256
 20
49.2235597142529
 10
16.6372206957762
 20
49.2235408187551
 10
16.6371855532537
 20
49.2235219232466
 10
16.6371168615954
 20
49.2234962738911
 10
16.6370481700083
 20
49.2234706244946
 10
16.6369631305483
 20
49.2234457208836
 10
16.6368780911738
 20
49.2234208172098
 10
16.6367927596732
 20
49.223401048258
 10
16.6367074282408
 20
49.223381279243
 10
16.6365944638697
 20
49.223335999145
 10
16.6364814997052
 20
49.2232907189361
 10
16.6363981374127
 20
49.2232392517249
 10
16.6363147752934
 20
49.2231877844532
 10
16.6362769305459
 20
49.223154678844
 10
16.636239085849
 20
49.2231215732223
 10
16.6362269388126
 20
49.2230972001295
 10
16.6362302228425
 20
49.2230289644371
 10
16.6362335068633
 20
49.2229607287439
 10
16.6362706359147
 20
49.2228949266628
 10
16.6363077648673
 20
49.222829124569
 10
16.6363661416055
 20
49.2227974275687
 10
16.6364474376548
 20
49.2227707848284
 10
16.6365287336167
 20
49.2227441420308
 10
16.636600836424
 20
49.2227372911941
 10
16.6366251008169
 20
49.2227266123594
 10
16.6366325623742
 20
49.2227240637325
 10
16.6366812547797
 20
49.2227050691816
 10
16.6366586475684
 20
49.2226779682127
 10
16.6366556468018
 20
49.2226752239832
 10
16.6366813389569
 20
49.2225996154252
 10
16.6367491352361
 20
49.222473705415
 10
16.636905558913
 20
49.2221833782684
 10
16.6369685837823
 20
49.2221729472047
 10
16.637031608625
 20
49.2221625161066
 10
16.6370699238153
 20
49.222170510792
 10
16.6371013363483
 20
49.2221776566161
 10
16.6371064910156
 20
49.2221538713481
 10
16.6371054957527
 20
49.2220717669048
 10
16.6370805027984
 20
49.2219500271694
 10
16.6370555099669
 20
49.2218282874261
 10
16.6370422247831
 20
49.2216462777413
 10
16.637115884337
 20
49.2214754681049
 10
16.6372276710864
 20
49.2213116901868
 10
16.6373394570964
 20
49.2211479121561
 10
16.6374394266352
 20
49.2209459914615
 10
16.6375393953588
 20
49.2207440706736
 10
16.6375860601429
 20
49.2206017911132
 10
16.6376327246589
 20
49.2204595115305
 10
16.6376943659898
 20
49.2203584013308
 10
16.6377980383904
 20
49.2202762656482
 10
16.6382486538048
 20
49.2199194150427
 10
16.6386992627265
 20
49.2195625626567
 10
16.6389027725973
 20
49.2193879798625
 10
16.6390285568941
 20
49.2193082173542
 10
16.6389641190395
 20
49.219158054096
 10
16.6388996815755
 20
49.2190078907982
 10
16.6388698056641
 20
49.2188864402123
 10
16.6388399298991
 20
49.2187649896162
 10
16.6388372990438
 20
49.218691136154
 10
16.6388346681963
 20
49.2186172826909
 10
16.6388510183167
 20
49.2185199410836
 10
16.6388673683729
 20
49.2184225994725
 10
16.6388879728914
 20
49.2183728610126
 10
16.638934332346
 20
49.2182962231619
 10
16.6389806916572
 20
49.2182195852916
 10
16.6390775308639
 20
49.2181394992791
 10
16.6391743697574
 20
49.2180594131841
 10
16.6392208812841
 20
49.2180301341882
 10
16.6392985953984
 20
49.2179706317939
 10
16.6393763093259
 20
49.2179111293466
 10
16.6394352389914
 20
49.2178735009253
 10
16.639552827286
 20
49.2177662976599
 10
16.6397339574986
 20
49.217619439566
 10
16.6399420817653
 20
49.217480545367
 10
16.6401574304719
 20
49.2173640482717
 10
16.6403072075381
 20
49.2173096288
 10
16.6404569842754
 20
49.2172552091336
 10
16.6407142216957
 20
49.2171425704155
 10
16.6410793474704
 20
49.216968260064
 10
16.6412261957005
 20
49.2168946846963
 10
16.6414148327271
 20
49.2168054249129
 10
16.6414432417384
 20
49.216868207813
 10
16.6414716508216
 20
49.2169309907054
 10
16.641531834347
 20
49.2169193171568
 10
16.6416528879746
 20
49.2168968324018
 10
16.6417248846915
 20
49.2168830072488
 10
16.6417262034706
 20
49.2168859040605
 10
16.6420173615433
 20
49.2167146951571
 10
16.6422153099131
 20
49.2164780323037
 10
16.6422765265686
 20
49.2163185083484
 10
16.6423377428297
 20
49.2161589843565
 10
16.642334016117
 20
49.2159863332111
 10
16.64233028943
 20
49.2158136820608
 10
16.6422809848746
 20
49.2156785167805
 10
16.6422381464541
 20
49.2155594544932
 10
16.6421997655103
 20
49.2154317524803
 10
16.6418602446434
 20
49.2148833151447
 10
16.6418317520665
 20
49.2148407861064
 10
16.6417389963419
 20
49.2147201020998
 10
16.6415895375189
 20
49.214529031755
 10
16.6407986870932
 20
49.2136321513209
 10
16.6400217158046
 20
49.2127502533979
 10
16.6409012369976
 20
49.2117437031495
 10
16.6413405948234
 20
49.2093519889615
 10
16.6414638163719
 20
49.2094108214924
 10
16.6416101049154
 20
49.2094816813359
 10
16.6416619436451
 20
49.2095022513263
 10
16.6418756677978
 20
49.2095969769541
 10
16.6424224469859
 20
49.2098517083657
 10
16.6424441923436
 20
49.2099466267509
 10
16.6424733821152
 20
49.2100710126441
 10
16.6426510176852
 20
49.2101548123002
 10
16.6429374342983
 20
49.2102898783262
 10
16.6429024429972
 20
49.210143240984
 10
16.6431040622759
 20
49.210121825332
 10
16.6433746086438
 20
49.2102551830348
 10
16.6436451564681
 20
49.2103885401009
 10
16.6438321022534
 20
49.2104593823171
 10
16.6440190485734
 20
49.2105302242298
 10
16.6441848601878
 20
49.2105956863261
 10
16.6443506722403
 20
49.2106611481836
 10
16.6444038782509
 20
49.2105952574241
 10
16.6446042264601
 20
49.2106807457174
 10
16.6449222736089
 20
49.2108077710746
 10
16.6452403223888
 20
49.2109347955531
 10
16.64536212048
 20
49.2109833144412
 10
16.6454839188097
 20
49.2110318332005
 10
16.6455230985236
 20
49.2110168683704
 10
16.6460258284359
 20
49.2108705180054
 10
16.6465285553791
 20
49.2107241654471
 10
16.6465988231372
 20
49.2107922493426
 10
16.6466690910884
 20
49.2108603331946
 10
16.6467205462711
 20
49.2109051127718
 10
16.6467720015469
 20
49.2109498923258
 10
16.6468342877714
 20
49.2109976512457
 10
16.6468982791374
 20
49.211046796546
 10
16.6469558897478
 20
49.2110860405564
 10
16.647013736683
 20
49.2111255273015
 10
16.6470647679095
 20
49.2111602826751
 10
16.6471042794385
 20
49.2111836439864
 10
16.6471437910047
 20
49.2112070052841
 10
16.6471736092216
 20
49.2112246636162
 10
16.6472212016333
 20
49.2112526192774
 10
16.6472763427887
 20
49.2112791624574
 10
16.6473314840031
 20
49.2113057056109
 10
16.6475216047312
 20
49.2113904673606
 10
16.6479117252923
 20
49.211546079309
 10
16.6483018483042
 20
49.2117016899355
 10
16.6486263498792
 20
49.2118407809341
 10
16.6488161176384
 20
49.2119352833537
 10
16.6490143905158
 20
49.2120469360863
 10
16.6491007566106
 20
49.2121027668016
 10
16.649170070364
 20
49.2121544110903
 10
16.6492393842619
 20
49.2122060553371
 10
16.6493503170051
 20
49.2121589278307
 10
16.6508446334773
 20
49.2133162433215
 10
16.6522125810786
 20
49.2144022592274
 10
16.6535348639306
 20
49.2155758438921
 10
16.6541356009932
 20
49.2173661921979
 10
16.6533170892298
 20
49.2190897939587
 10
16.6523109626405
 20
49.2215812381669
 10
16.652510675713
 20
49.2237242067148
 10
16.654558557104
 20
49.2250430232802
 10
16.6579912971834
 20
49.2255934214852
 10
16.659764715095
 20
49.2254127625985
 10
16.6612453977526
 20
49.2252397057457
 10
16.6616718321911
 20
49.2251865736479
 10
16.6614241558476
 20
49.2256753741198
 10
16.659942123251
 20
49.2264278523604
 10
16.6585820465873
 20
49.2270734153201
 10
16.6544647095014
 20
49.2284326989654
 10
16.654349254003
 20
49.2284487191088
 10
16.654227544761
 20
49.2284607715689
 10
16.6541224585283
 20
49.2284708287116
 10
16.6540057630579
 20
49.2284847262503
 10
16.653889067522
 20
49.2284986236711
 10
16.6534094750993
 20
49.2285464365457
 10
16.6530019709231
 20
49.2285837219934
 10
16.6525944661337
 20
49.2286210060027
 10
16.6525233066853
 20
49.2286212408712
 10
16.6524125526035
 20
49.2286166073005
 10
16.6523017985424
 20
49.2286119736235
 10
16.6521648993574
 20
49.228595414216
 10
16.6520280002638
 20
49.2285788546463
 10
16.6519918135757
 20
49.2285746783139
 10
16.6518585530228
 20
49.2285397433736
 10
16.6517252926579
 20
49.2285048082794
 10
16.6515968865313
 20
49.2284449358667
 10
16.6514684807152
 20
49.2283850633107
 10
16.6514219835673
 20
49.2283612579092
 10
16.6511202329428
 20
49.228182995527
 10
16.6509076904558
 20
49.2281065240547
 10
16.6505832186298
 20
49.2280292230199
 10
16.6502587478167
 20
49.2279519210724
 10
16.650049694896
 20
49.2278895315734
 10
16.6498047811698
 20
49.227818465347
 10
16.6496397570317
 20
49.2277890230328
 10
16.6494747330898
 20
49.2277595804826
 10
16.6492463211974
 20
49.2277259435009
 10
16.6492093391094
 20
49.2277213592787
 10
16.6490487755864
 20
49.2276969225503
 10
16.6490122639984
 20
49.2276913656708
 10
16.648925800695
 20
49.2276763203584
 10
16.6488393374442
 20
49.2276612749812
 10
16.6486764797878
 20
49.2276611068418
 10
16.6485136221326
 20
49.2276609384728
 10
16.6483492394904
 20
49.2276776207054
 10
16.6481848567376
 20
49.2276943027039
 10
16.6480577538637
 20
49.2277341419776
 10
16.6479306507853
 20
49.2277739811111
 10
16.6477372368274
 20
49.2278417077405
 10
16.6475438223406
 20
49.2279094340451
 10
16.6474622313135
 20
49.2279324009725
 10
16.6473806402107
 20
49.2279553678422
 10
16.6472430106288
 20
49.2279676478329
 10
16.6471053809786
 20
49.2279799276595
 10
16.6469472027637
 20
49.2279802677847
 10
16.6467890245466
 20
49.2279806076932
 10
16.6464547426229
 20
49.2279206016681
 10
16.6458899238686
 20
49.2277255937761
 10
16.645683551153
 20
49.2276469239138
 10
16.6454617527556
 20
49.2275671664188
 10
16.6452708910467
 20
49.2275025225235
 10
16.645181359159
 20
49.2274918706927
 10
16.6449976689402
 20
49.2274630051535
 10
16.6448139789355
 20
49.227434139322
 10
16.6445941495209
 20
49.2274054391016
 10
16.6444234184316
 20
49.2273884751003
 10
16.6442526874594
 20
49.2273715108464
 10
16.6440317568697
 20
49.2273524546932
 10
16.6438108264502
 20
49.2273333981173
 10
16.6436503439987
 20
49.2273175172013
 10
16.6434898616501
 20
49.2273016360622
 10
16.6432673708912
 20
49.2272929147873
 10
16.6430448802107
 20
49.2272841930837
 10
16.6429248634517
 20
49.2272573712239
 10
16.6428298270929
 20
49.2272348429209
 10
16.6427957807939
 20
49.2272235336783
 10
16.6427185823913
 20
49.2271949821254
 10
16.6426255987879
 20
49.2271473642488
 10
16.6424855722716
 20
49.2270734111771
 10
16.6423455461735
 20
49.2269994579346
 10
16.6421846548978
 20
49.2269033213858
 10
16.6418844215163
 20
49.2267185815816
 10
16.6417450792843
 20
49.2266299783824
 10
16.6416603802092
 20
49.2265932997206
 10
16.6415756812596
 20
49.2265566209964
 10
16.6414188686533
 20
49.2265927753204
 10
16.6412620558181
 20
49.2266289294313
 10
16.6412538913079
 20
49.2266626323549
 97
0
 75
0
 76
1
 98
0
  0
HATCH
  5
2000F
100
AcDbEntity
  8
riziková oblast 
100
AcDbHatch
 10
0
 20
0
 30
0
210
0
220
0
230
1
  2
SOLID
 70
1
 71
0
 91
1
 92
2
 72
0
 73
1
 93
78
 10
16.6603613495688
 20
49.2103173800259
 10
16.6601731533021
 20
49.210031409559
 10
16.6602176129609
 20
49.2100520165818
 10
16.6602641506986
 20
49.2100598817242
 10
16.6602907468176
 20
49.2100643763024
 10
16.6603233420785
 20
49.2100710114832
 10
16.660359069553
 20
49.2100821178995
 10
16.6603943502774
 20
49.2100892133781
 10
16.6604069126038
 20
49.2100967902241
 10
16.6604466658712
 20
49.2101203897095
 10
16.6604941305115
 20
49.2101487374524
 10
16.6605415952061
 20
49.2101770851758
 10
16.6606842283999
 20
49.2102682499213
 10
16.6608316272697
 20
49.2103625481177
 10
16.6608571032112
 20
49.2103787267108
 10
16.660889298401
 20
49.2103991713038
 10
16.6609214936175
 20
49.2104196158877
 10
16.6609535844859
 20
49.2104390130259
 10
16.6609856753795
 20
49.2104584101551
 10
16.6610444536999
 20
49.2104985877792
 10
16.6610683821032
 20
49.210513883227
 10
16.6611308650235
 20
49.2105537788284
 10
16.6611870960733
 20
49.2105897071934
 10
16.6612242667332
 20
49.2106134863945
 10
16.6612966540669
 20
49.2106599123881
 10
16.6613422159222
 20
49.2106893467939
 10
16.6615289958302
 20
49.2108097546332
 10
16.6618694843843
 20
49.211031691284
 10
16.6623182989372
 20
49.2113301202434
 10
16.6627671188964
 20
49.2116285474441
 10
16.6627914344878
 20
49.2116208520749
 10
16.6632539824005
 20
49.2118810359609
 10
16.6637165351711
 20
49.2121412179834
 10
16.6644704650886
 20
49.2124109942242
 10
16.6652244032172
 20
49.2126807655306
 10
16.6655806398608
 20
49.2127637922085
 10
16.6659986971304
 20
49.2129034406055
 10
16.6661894233498
 20
49.2129668707844
 10
16.6662076001024
 20
49.2129711380878
 10
16.6662403697661
 20
49.212983835147
 10
16.6662491577122
 20
49.2129858097444
 10
16.6662579456591
 20
49.212987784341
 10
16.6662806045126
 20
49.2129952564352
 10
16.6663032633729
 20
49.2130027285249
 10
16.6664654782833
 20
49.2129690046673
 10
16.6665645122692
 20
49.2129484741107
 10
16.6667348041586
 20
49.2129130567986
 10
16.6669050958047
 20
49.212877639235
 10
16.6671906581822
 20
49.2128182194885
 10
16.667484154662
 20
49.2127613466459
 10
16.6679570847843
 20
49.2126696968341
 10
16.6681365188485
 20
49.2126349203324
 10
16.6682450907137
 20
49.2126138832331
 10
16.6683536624868
 20
49.2125928460315
 10
16.6683665030232
 20
49.2126063201534
 10
16.6685130755182
 20
49.2127607885414
 10
16.6687011835982
 20
49.2129549863559
 10
16.668745849853
 20
49.2133064174271
 10
16.6687905167406
 20
49.213657848461
 10
16.6688139988295
 20
49.2143152015854
 10
16.6684976470556
 20
49.2148358486914
 10
16.6684620494043
 20
49.214894422478
 10
16.668434175965
 20
49.2149407670707
 10
16.6684914849608
 20
49.2150055726022
 10
16.6685950430148
 20
49.2151150515471
 10
16.6686954710634
 20
49.2152284706597
 10
16.6687958995718
 20
49.2153418896828
 10
16.6690493560048
 20
49.2155455634964
 10
16.6692557701096
 20
49.2157114527762
 10
16.6678905285306
 20
49.2174982055395
 10
16.6669106514782
 20
49.2183412652599
 10
16.6655254324489
 20
49.2195379989667
 10
16.6650421549278
 20
49.2199920899043
 10
16.663868923413
 20
49.2210616921545
 10
16.6626004560585
 20
49.2188957378334
 10
16.6622646873585
 20
49.2151934723961
 10
16.6613645878681
 20
49.2132562946422
 10
16.6603613495688
 20
49.2103173800259
 97
0
 75
0
 76
1
 98
0
  0
HATCH
  5
20010
100
AcDbEntity
  8
riziková oblast 
100
AcDbHatch
 10
0
 20
0
 30
0
210
0
220
0
230
1
  2
SOLID
 70
1
 71
0
 91
1
 92
2
 72
0
 73
1
 93
209
 10
16.6461577033892
 20
49.2451208975475
 10
16.6455836048875
 20
49.2450488986057
 10
16.6440771794032
 20
49.2446770494782
 10
16.6449785984611
 20
49.2394858286912
 10
16.6404412708586
 20
49.2387437605973
 10
16.63973200772
 20
49.2375537465277
 10
16.6391259129638
 20
49.2346546598177
 10
16.6356274911084
 20
49.2319499732302
 10
16.6317259700894
 20
49.2329285308964
 10
16.633414776327
 20
49.2303107130457
 10
16.633503573928
 20
49.230301841727
 10
16.6344308407551
 20
49.2300042571545
 10
16.634518371094
 20
49.2299754771697
 10
16.6346024650651
 20
49.2299478565226
 10
16.634700130691
 20
49.229915812071
 10
16.6348826059958
 20
49.2298568303451
 10
16.6350471446536
 20
49.229802778128
 10
16.6351173312515
 20
49.2297807782588
 10
16.6351413658627
 20
49.2296611412985
 10
16.6352165484904
 20
49.2293204464019
 10
16.6351985864418
 20
49.2292424355874
 10
16.6351806244497
 20
49.2291644247691
 10
16.6351673204579
 20
49.2291034299052
 10
16.635127485023
 20
49.2289804162641
 10
16.6350876497859
 20
49.2288574026067
 10
16.6350275181165
 20
49.2286848394037
 10
16.634900668563
 20
49.2283503728353
 10
16.6348438169556
 20
49.228217475312
 10
16.6347826807122
 20
49.2280887976468
 10
16.634731122616
 20
49.2279740914417
 10
16.6347027904806
 20
49.2279095938066
 10
16.6346702923759
 20
49.2278368429065
 10
16.6346260576746
 20
49.2277489732201
 10
16.6345579337248
 20
49.2276535385054
 10
16.6344898100375
 20
49.227558103749
 10
16.6344380722454
 20
49.2274856228814
 10
16.6343267517962
 20
49.2273304296446
 10
16.6343006532105
 20
49.2272456486987
 10
16.6342745547142
 20
49.2271608677458
 10
16.6342443245832
 20
49.227062590059
 10
16.6342555843934
 20
49.2269908018963
 10
16.6342668441709
 20
49.2269190137317
 10
16.6342501788631
 20
49.2268541183144
 10
16.6342335135989
 20
49.2267892228941
 10
16.6342073027121
 20
49.2267361804964
 10
16.6341810918813
 20
49.2266831380922
 10
16.6340481457877
 20
49.2265507027615
 10
16.633915200405
 20
49.2264182672749
 10
16.6338730696068
 20
49.2263742762463
 10
16.6338309388834
 20
49.2263302852019
 10
16.6338533126048
 20
49.2263260758968
 10
16.6340346429314
 20
49.226292023837
 10
16.6342159730088
 20
49.2262579714923
 10
16.6343071792902
 20
49.226240802529
 10
16.6344019448997
 20
49.2262078757819
 10
16.6344908360161
 20
49.2261766598287
 10
16.6345797270205
 20
49.226145443807
 10
16.6346515344139
 20
49.2261211169115
 10
16.6347764718254
 20
49.2260760288927
 10
16.6348827354395
 20
49.2260516916327
 10
16.6349889989492
 20
49.2260273542749
 10
16.6350921908811
 20
49.2260028000526
 10
16.6351810927626
 20
49.225982844892
 10
16.6352803080484
 20
49.2259560200607
 10
16.6353795232268
 20
49.2259291951441
 10
16.6354699458118
 20
49.2259041916854
 10
16.6355465608307
 20
49.2259161105518
 10
16.6356621565565
 20
49.2259336744751
 10
16.6356388510455
 20
49.2258826916398
 10
16.6356155455825
 20
49.2258317087996
 10
16.6357337565678
 20
49.2257880445344
 10
16.6358519673447
 20
49.2257443801479
 10
16.6359704169318
 20
49.2257059783607
 10
16.6360888663353
 20
49.2256675764516
 10
16.6361890753215
 20
49.2256351229576
 10
16.6362892841763
 20
49.2256026693765
 10
16.636427221092
 20
49.2255532512137
 10
16.6365651577324
 20
49.2255038328856
 10
16.636689290522
 20
49.2254606760536
 10
16.6368246989851
 20
49.2254136115388
 10
16.6368627795169
 20
49.2254003800529
 10
16.6368425942228
 20
49.2253786959624
 10
16.6368278617607
 20
49.2253603813246
 10
16.6368131293096
 20
49.2253420666849
 10
16.6370005650878
 20
49.2252754737276
 10
16.637188000362
 20
49.2252088804653
 10
16.6372274783249
 20
49.2251947073505
 10
16.6372669562653
 20
49.2251805342222
 10
16.6372935538616
 20
49.2251707885868
 10
16.6373201514475
 20
49.2251610429452
 10
16.6373221233189
 20
49.2251641667766
 10
16.6373259990659
 20
49.2251867802932
 10
16.6373298748165
 20
49.2252093938097
 10
16.6373691952525
 20
49.2252830774179
 10
16.6374085158055
 20
49.2253567610119
 10
16.6374802282171
 20
49.2254492815017
 10
16.6375519408966
 20
49.2255418019458
 10
16.6375843963322
 20
49.2255715872238
 10
16.6376168518069
 20
49.2256013724926
 10
16.6376600941368
 20
49.2256457569532
 10
16.6377249909646
 20
49.2256965984323
 10
16.6377898879257
 20
49.2257474398747
 10
16.6378262449024
 20
49.2257988454625
 10
16.6378626019545
 20
49.2258502510385
 10
16.6379409735457
 20
49.2259400753367
 10
16.6380193454212
 20
49.2260298995804
 10
16.6380435235862
 20
49.2260613166507
 10
16.6380677017819
 20
49.2260927337157
 10
16.6381275831938
 20
49.2261484669046
 10
16.6382107708379
 20
49.2262237072063
 10
16.6382978097127
 20
49.226288546554
 10
16.6383615425884
 20
49.2263338787267
 10
16.6384910809507
 20
49.2264073236299
 10
16.6386206196972
 20
49.2264807683869
 10
16.6387714232834
 20
49.2265525474292
 10
16.6389222273067
 20
49.2266243262737
 10
16.6390588179744
 20
49.2266712699556
 10
16.6391954089011
 20
49.2267182134756
 10
16.6393270762233
 20
49.2267585687983
 10
16.63945874376
 20
49.2267989239706
 10
16.6395839324157
 20
49.2268295513585
 10
16.6397091212261
 20
49.2268601786105
 10
16.6397974914837
 20
49.2268724261542
 10
16.639885861785
 20
49.2268846736302
 10
16.6399588249863
 20
49.2268877395231
 10
16.6402694765168
 20
49.2268730191127
 10
16.6403887049637
 20
49.2268651478043
 10
16.640421774639
 20
49.2268563553317
 10
16.6406647766574
 20
49.2268091865874
 10
16.6409077782132
 20
49.2267620173314
 10
16.6409797433456
 20
49.2267509932119
 10
16.6410821654107
 20
49.2267361475188
 10
16.6413270740574
 20
49.2267080411671
 10
16.6412538913079
 20
49.2266626323549
 10
16.6412620558181
 20
49.2266289294313
 10
16.6415756812596
 20
49.2265566209964
 10
16.6417450792843
 20
49.2266299783824
 10
16.6420136392106
 20
49.2267974135135
 10
16.6422845921772
 20
49.2269626505808
 10
16.6423455461735
 20
49.2269994579346
 10
16.6427185823913
 20
49.2271949821254
 10
16.6428298270929
 20
49.2272348429209
 10
16.6430217287234
 20
49.2272814176186
 10
16.6434880154121
 20
49.2273022403164
 10
16.6443244061222
 20
49.2273796740865
 10
16.6446531251063
 20
49.2274130113964
 10
16.6449058239111
 20
49.2274485722743
 10
16.645181359159
 20
49.2274918706927
 10
16.6452708910467
 20
49.2275025225235
 10
16.6454617527556
 20
49.2275671664188
 10
16.645683551153
 20
49.2276469239138
 10
16.6458899238686
 20
49.2277255937761
 10
16.6464589128043
 20
49.2279234786396
 10
16.646787813145
 20
49.2279819459209
 10
16.6471053809786
 20
49.2279799276595
 10
16.6473806402107
 20
49.2279553678422
 10
16.6475282066752
 20
49.2279136346651
 10
16.6479306507853
 20
49.2277739811111
 10
16.6481848567376
 20
49.2276943027039
 10
16.6485043567721
 20
49.2276601256032
 10
16.6488393374442
 20
49.2276612749812
 10
16.6490122639984
 20
49.2276913656708
 10
16.6491290566455
 20
49.2277091408944
 10
16.6494747330898
 20
49.2277595804826
 10
16.6498047811698
 20
49.227818465347
 10
16.6502587478167
 20
49.2279519210724
 10
16.6505832186298
 20
49.2280292230199
 10
16.6509076904558
 20
49.2281065240547
 10
16.6511159234709
 20
49.2281807465628
 10
16.6512691109227
 20
49.2282712951757
 10
16.6514684807152
 20
49.2283850633107
 10
16.6517252926579
 20
49.2285048082794
 10
16.6519918135757
 20
49.2285746783139
 10
16.6523017985424
 20
49.2286119736235
 10
16.6525246903809
 20
49.2286206355611
 10
16.6525944661337
 20
49.2286210060027
 10
16.6532057230878
 20
49.2285650794494
 10
16.6534094750993
 20
49.2285464365457
 10
16.653889067522
 20
49.2284986236711
 10
16.6540057630579
 20
49.2284847262503
 10
16.6544647095014
 20
49.2284326989654
 10
16.6536203620876
 20
49.228691349808
 10
16.6517890113652
 20
49.2301135275463
 10
16.6511018521244
 20
49.2313016359002
 10
16.6513572727301
 20
49.2321574490297
 10
16.652444280416
 20
49.2323798422715
 10
16.6543671775346
 20
49.2328690287737
 10
16.6568002589987
 20
49.2330983899477
 10
16.6584163863173
 20
49.2332486023052
 10
16.660120836255
 20
49.2334116528075
 10
16.6605639059969
 20
49.2341734896247
 10
16.6596536204459
 20
49.2347139219851
 10
16.6600656199498
 20
49.2360499529336
 10
16.6625172325929
 20
49.2376021989184
 10
16.6633076834218
 20
49.2387205676085
 10
16.6629985527793
 20
49.2396113280744
 10
16.6628964610501
 20
49.2402306232505
 10
16.6632055175817
 20
49.2415200061948
 10
16.6621367262128
 20
49.2454811898318
 10
16.6580152439127
 20
49.2463604108296
 10
16.656073596685
 20
49.2478047235597
 10
16.6553124920809
 20
49.2473883241532
 10
16.6551773620012
 20
49.2464727641661
 10
16.6533813213366
 20
49.2461108043345
 10
16.6523312756147
 20
49.2477788259245
 10
16.650886187213
 20
49.2476505236674
 10
16.6518046343291
 20
49.2456726046394
 10
16.6477992879406
 20
49.2452798412363
 10
16.6461577033892
 20
49.2451208975475
 97
0
 75
0
 76
1
 98
0
  0
HATCH
  5
20011
100
AcDbEntity
  8
riziková oblast 
100
AcDbHatch
 10
0
 20
0
 30
0
210
0
220
0
230
1
  2
SOLID
 70
1
 71
0
 91
1
 92
2
 72
0
 73
1
 93
95
 10
16.6613040247873
 20
49.1867905730105
 10
16.6613539178015
 20
49.186701652685
 10
16.6609459806021
 20
49.1860477902841
 10
16.6613048579925
 20
49.1857985616192
 10
16.6614014292348
 20
49.1857225335186
 10
16.6616666346678
 20
49.1855130876451
 10
16.661960085763
 20
49.1852757573023
 10
16.6622535340485
 20
49.1850384262038
 10
16.6626050468633
 20
49.1847212055773
 10
16.6627699613305
 20
49.1845719161869
 10
16.6628472084094
 20
49.1844827503707
 10
16.6629858357253
 20
49.1844652849868
 10
16.6630327041083
 20
49.1843324674683
 10
16.663271505015
 20
49.1842324239699
 10
16.6633437988816
 20
49.1842189717035
 10
16.6636267087229
 20
49.1841663491839
 10
16.6636500307805
 20
49.1841326275424
 10
16.6637223704234
 20
49.1840279214998
 10
16.6637563005785
 20
49.1839787119963
 10
16.6639727164806
 20
49.183633303261
 10
16.6640357789632
 20
49.1835409543609
 10
16.6642919044346
 20
49.1835258567315
 10
16.6643735231452
 20
49.183520882573
 10
16.6652814700406
 20
49.1834669047628
 10
16.6658762132481
 20
49.1827339976244
 10
16.6659422529814
 20
49.1818494108631
 10
16.6664976315378
 20
49.1815222456624
 10
16.6669143262973
 20
49.1812468640363
 10
16.6669520605337
 20
49.181189555656
 10
16.6671861229455
 20
49.1810542614637
 10
16.6674201840799
 20
49.1809189667935
 10
16.6675974993413
 20
49.1808741012636
 10
16.6679416981941
 20
49.1806770041052
 10
16.6682116343231
 20
49.1805224805672
 10
16.6694173085116
 20
49.1798440671531
 10
16.669946264434
 20
49.1811702125201
 10
16.6704752486325
 20
49.1824963551972
 10
16.6707638709377
 20
49.1837069448904
 10
16.6710525073216
 20
49.1849175336375
 10
16.671434641404
 20
49.1865588122109
 10
16.6716022645316
 20
49.1873049171405
 10
16.6716722797475
 20
49.1875755133341
 10
16.67181680076
 20
49.1882000891041
 10
16.6716955338342
 20
49.1893160249596
 10
16.6716609663703
 20
49.1895976620994
 10
16.6715742614361
 20
49.1904319604911
 10
16.6713833375872
 20
49.1905811353188
 10
16.6713402251874
 20
49.1905569571348
 10
16.6708720850752
 20
49.1902944108756
 10
16.67045420388
 20
49.19005362039
 10
16.670115634882
 20
49.1898585614736
 10
16.6698772536855
 20
49.1897511304995
 10
16.6696388735225
 20
49.1896436990314
 10
16.6695531867423
 20
49.1895846742244
 10
16.6691618489529
 20
49.1893638784393
 10
16.6687705146496
 20
49.1891430813202
 10
16.6686930799672
 20
49.1891963320973
 10
16.6686030840197
 20
49.1892732091712
 10
16.6686019338401
 20
49.18933417669
 10
16.6685829231824
 20
49.1893731767897
 10
16.6685639124949
 20
49.189412176886
 10
16.6685533888493
 20
49.1894317861974
 10
16.6685232885339
 20
49.1894934308261
 10
16.6684987603623
 20
49.1895412679494
 10
16.6683537336123
 20
49.1895096780582
 10
16.6682087070471
 20
49.1894780879847
 10
16.6679769348724
 20
49.1894217651317
 10
16.6677451632245
 20
49.189365441813
 10
16.6673384147553
 20
49.1892539851492
 10
16.667242284928
 20
49.189233475721
 10
16.6670998301495
 20
49.1892009345298
 10
16.6669358447075
 20
49.1891642104705
 10
16.6666768700418
 20
49.1891075991223
 10
16.666387191172
 20
49.1890467920782
 10
16.6660931577766
 20
49.1889847734681
 10
16.666019200505
 20
49.18896790308
 10
16.6658672815558
 20
49.1889333377568
 10
16.6655952328759
 20
49.1888765274928
 10
16.6653231848197
 20
49.1888197165871
 10
16.6650722365005
 20
49.1887524512555
 10
16.6648212888624
 20
49.1886851853775
 10
16.6646184110287
 20
49.188611714613
 10
16.6643334750516
 20
49.188508501627
 10
16.6642348495034
 20
49.1884560684991
 10
16.6642081755318
 20
49.1884411676401
 10
16.6640429149269
 20
49.1883494959094
 10
16.6638818342952
 20
49.1882601078065
 10
16.6636966083296
 20
49.1881298584443
 10
16.6633798365128
 20
49.1878878788471
 10
16.6631204878267
 20
49.187605351489
 10
16.6628686326791
 20
49.1873158440115
 10
16.662734791456
 20
49.1871187544167
 10
16.6626053129104
 20
49.1868781973083
 10
16.6618365765443
 20
49.1868313195938
 10
16.6613040247873
 20
49.1867905730105
 97
0
 75
0
 76
1
 98
0
  0
HATCH
  5
20012
100
AcDbEntity
  8
riziková oblast 
100
AcDbHatch
 10
0
 20
0
 30
0
210
0
220
0
230
1
  2
SOLID
 70
1
 71
0
 91
1
 92
2
 72
0
 73
1
 93
9
 10
16.5061806636439
 20
49.2092371449426
 10
16.5041051038285
 20
49.2085544356536
 10
16.5036097472199
 20
49.207271938005
 10
16.5044027304792
 20
49.2060587025285
 10
16.5061632345138
 20
49.205703560115
 10
16.5084137467771
 20
49.2062528225286
 10
16.5090611552376
 20
49.2075211718403
 10
16.5083876287017
 20
49.2086572657278
 10
16.5061806636439
 20
49.2092371449426
 97
0
 75
0
 76
1
 98
0
  0
HATCH
  5
20013
100
AcDbEntity
  8
riziková oblast 
100
AcDbHatch
 10
0
 20
0
 30
0
210
0
220
0
230
1
  2
SOLID
 70
1
 71
0
 91
1
 92
2
 72
0
 73
1
 93
70
 10
16.6552373559396
 20
49.1879007682905
 10
16.6551822755554
 20
49.1878780718151
 10
16.6553542057022
 20
49.1878218127032
 10
16.6555504038872
 20
49.1877810973179
 10
16.6559274189146
 20
49.1876992151619
 10
16.6560408150554
 20
49.187674553259
 10
16.6568035493724
 20
49.187510267395
 10
16.6578061774632
 20
49.1872920104029
 10
16.6582442338389
 20
49.187195020229
 10
16.6590323026967
 20
49.1870339067517
 10
16.6603559475925
 20
49.1867611769836
 10
16.660800764212
 20
49.1866990673673
 10
16.661128816268
 20
49.1866640989358
 10
16.6612732375771
 20
49.186573422395
 10
16.6613539178015
 20
49.186701652685
 10
16.6613040247873
 20
49.1867905730105
 10
16.6616686683596
 20
49.186821127422
 10
16.6618424567062
 20
49.186831643089
 10
16.6626053129104
 20
49.1868781973083
 10
16.6628710532488
 20
49.1873179136856
 10
16.6630830216865
 20
49.1875611560106
 10
16.6633812344978
 20
49.1878886103377
 10
16.6635536498788
 20
49.1880204006916
 10
16.6637260661763
 20
49.1881521907853
 10
16.6637972965861
 20
49.1882017015874
 10
16.6638852290751
 20
49.1882629695554
 10
16.6640455475369
 20
49.1883515352525
 10
16.6642058665715
 20
49.1884401007257
 10
16.6642390142529
 20
49.1884584417638
 10
16.6642884524672
 20
49.1884846337017
 10
16.6643334750516
 20
49.188508501627
 10
16.6644204831423
 20
49.1885400388622
 10
16.6644869193985
 20
49.1885640687287
 10
16.6646541039262
 20
49.1886246271744
 10
16.6648212888624
 20
49.1886851853775
 10
16.664975608481
 20
49.1887265686368
 10
16.6651299283572
 20
49.1887679516895
 10
16.665226556538
 20
49.1887938341788
 10
16.6653231848197
 20
49.1888197165871
 10
16.6656016046203
 20
49.1888793273124
 10
16.6658672815558
 20
49.1889333377568
 10
16.6660975130132
 20
49.1889859843064
 10
16.6666768700418
 20
49.1891075991223
 10
16.6669358447075
 20
49.1891642104705
 10
16.6671014164908
 20
49.1892012830817
 10
16.6671461551802
 20
49.1892129662127
 10
16.6673384147553
 20
49.1892539851492
 10
16.6676946702525
 20
49.1893518962449
 10
16.6681010008989
 20
49.1894517039508
 10
16.6682087070471
 20
49.1894780879847
 10
16.6684987603623
 20
49.1895412679494
 10
16.6684713256416
 20
49.1896001154635
 10
16.6680471819867
 20
49.189671578323
 10
16.6677030649906
 20
49.1897295855194
 10
16.6679255185005
 20
49.1899245795526
 10
16.6681445247146
 20
49.1901178834859
 10
16.6680008455455
 20
49.1901922505886
 10
16.6681817396988
 20
49.1903511736918
 10
16.6683665886599
 20
49.1905106006861
 10
16.6685740527639
 20
49.1906911985597
 10
16.6683161034152
 20
49.1908234724678
 10
16.6680318091332
 20
49.1909688999758
 10
16.667596870235
 20
49.1911846566524
 10
16.6677456938302
 20
49.1913759637959
 10
16.6679033646938
 20
49.1915747665448
 10
16.6681438520879
 20
49.1918758503011
 10
16.6683312110223
 20
49.1921060833044
 10
16.6635123566489
 20
49.1908962870634
 10
16.657824825671
 20
49.1894644649468
 10
16.6552373559396
 20
49.1879007682905
 97
0
 75
0
 76
1
 98
0
  0
HATCH
  5
20014
100
AcDbEntity
  8
riziková oblast 
100
AcDbHatch
 10
0
 20
0
 30
0
210
0
220
0
230
1
  2
SOLID
 70
1
 71
0
 91
1
 92
2
 72
0
 73
1
 93
183
 10
16.668434034478
 20
49.2149406784401
 10
16.6686239471099
 20
49.214627895862
 10
16.6688138573435
 20
49.2143151129553
 10
16.6688021162225
 20
49.2139864364024
 10
16.6687010421164
 20
49.2129548977256
 10
16.6685129340373
 20
49.212760699911
 10
16.6683535210066
 20
49.2125927574008
 10
16.6681363773686
 20
49.2126348317015
 10
16.6679187678337
 20
49.2126770085268
 10
16.6674840131829
 20
49.2127612580142
 10
16.6671093385051
 20
49.2128371136986
 10
16.6669049543263
 20
49.2128775506026
 10
16.6663031218952
 20
49.2130026398917
 10
16.6659985556536
 20
49.2129033519719
 10
16.6655804983851
 20
49.2127637035745
 10
16.6654023799145
 20
49.2127221903728
 10
16.6652242617423
 20
49.212680676896
 10
16.6648472916528
 20
49.2125457918592
 10
16.6644703236159
 20
49.2124109055887
 10
16.6640933576319
 20
49.2122760180847
 10
16.6637163937006
 20
49.212141129347
 10
16.6634851167088
 20
49.2120110385685
 10
16.6632538409315
 20
49.211880947324
 10
16.6630225663687
 20
49.2117508556136
 10
16.6627912930204
 20
49.2116207634373
 10
16.662766977429
 20
49.2116284588066
 10
16.6623181574714
 20
49.2113300316053
 10
16.6616378527808
 20
49.2108799218627
 10
16.6606840869401
 20
49.2102681612813
 10
16.6605414537468
 20
49.2101769965355
 10
16.6604465244122
 20
49.2101203010691
 10
16.6603942088186
 20
49.2100891247376
 10
16.6603589280943
 20
49.2100820292589
 10
16.6603232006199
 20
49.2100709228426
 10
16.6602936049267
 20
49.2100653579669
 10
16.660215383729
 20
49.2100515775138
 10
16.6601941977821
 20
49.210041449218
 10
16.6601257921561
 20
49.2099598037837
 10
16.6596463813865
 20
49.2092976906243
 10
16.6588636336244
 20
49.2082418686917
 10
16.6582760931263
 20
49.2074296118168
 10
16.657581442497
 20
49.2065033478095
 10
16.656995307387
 20
49.2056567538576
 10
16.6563198588665
 20
49.2046092788614
 10
16.6555448556899
 20
49.203304640336
 10
16.6566994013854
 20
49.2018006020526
 10
16.6574105454372
 20
49.2009127868763
 10
16.6557225559111
 20
49.1995406629953
 10
16.6550130130468
 20
49.1989550702067
 10
16.6544817545329
 20
49.1985481888531
 10
16.6542061721955
 20
49.1983039376511
 10
16.6537809263785
 20
49.19827234465
 10
16.6529674568721
 20
49.1982283108486
 10
16.6520011793012
 20
49.1981729853328
 10
16.6516288240244
 20
49.1981542297665
 10
16.6511541541643
 20
49.198127320155
 10
16.6512506036012
 20
49.1976271196159
 10
16.6512839744767
 20
49.1974417815637
 10
16.6514836906225
 20
49.1965676751753
 10
16.6523682637008
 20
49.1927246716933
 10
16.652662991756
 20
49.1912968511379
 10
16.6627021527142
 20
49.1922121878381
 10
16.6587982605394
 20
49.1949825881023
 10
16.6612580931911
 20
49.1958919881316
 10
16.6619818095631
 20
49.1961594151968
 10
16.6642243793922
 20
49.1969508102081
 10
16.6653114054743
 20
49.1973474564567
 10
16.6661251578748
 20
49.1976881745202
 10
16.6650393854859
 20
49.1975424618097
 10
16.6644725882673
 20
49.1974665887288
 10
16.6644677734703
 20
49.1974728540838
 10
16.6638539873194
 20
49.1973969259298
 10
16.6621306055704
 20
49.1971721839015
 10
16.6619396628009
 20
49.1971484350075
 10
16.6617155102836
 20
49.1971224840814
 10
16.6613072345741
 20
49.197074755019
 10
16.6611559406847
 20
49.1970623423436
 10
16.6609763730613
 20
49.1970632920093
 10
16.6608023391584
 20
49.1970668965126
 10
16.660784309516
 20
49.1970678486807
 10
16.6607168712539
 20
49.1970711411348
 10
16.6607119395028
 20
49.1971534362703
 10
16.6607024814771
 20
49.1972554992822
 10
16.6607621021661
 20
49.1973029196223
 10
16.6608173504851
 20
49.1973392775793
 10
16.6611127983328
 20
49.1975613544324
 10
16.6612819339626
 20
49.1976897496911
 10
16.6614602270338
 20
49.1978296423164
 10
16.6615067345999
 20
49.1978406033101
 10
16.6615434987362
 20
49.1978705950635
 10
16.661946184819
 20
49.1981966968075
 10
16.6623488762003
 20
49.1985227971306
 10
16.6626430591075
 20
49.1987606753374
 10
16.6627758546828
 20
49.1988666357242
 10
16.6629372448385
 20
49.1989985527859
 10
16.6632020332926
 20
49.1992153903653
 10
16.6634668240636
 20
49.1994322273301
 10
16.6638752409335
 20
49.1997253956391
 10
16.6644506271601
 20
49.2001607272822
 10
16.6648565480859
 20
49.2004820467439
 10
16.6648979487786
 20
49.2005138782273
 10
16.6649393495245
 20
49.2005457096957
 10
16.6649840873065
 20
49.2005620163132
 10
16.6650288251181
 20
49.2005783229134
 10
16.665070503364
 20
49.2005922436432
 10
16.6651121816334
 20
49.200606164358
 10
16.6651698178784
 20
49.2006254584421
 10
16.6652274541684
 20
49.2006447524974
 10
16.6653602212748
 20
49.2006843902828
 10
16.6654202968036
 20
49.2006995371983
 10
16.6656005236105
 20
49.2007449777567
 10
16.6656419181581
 20
49.2007574303212
 10
16.6657397520625
 20
49.2007881446125
 10
16.6657660052935
 20
49.2007997590721
 10
16.6658447650603
 20
49.200834602415
 10
16.665920378995
 20
49.2008785399729
 10
16.6659657999252
 20
49.2009509232024
 10
16.6659818778669
 20
49.2010120173356
 10
16.6659949331269
 20
49.201061231799
 10
16.6660021397438
 20
49.2011212949334
 10
16.6660142779649
 20
49.2012144450451
 10
16.6660406181226
 20
49.2013279035119
 10
16.6660669584008
 20
49.2014413619708
 10
16.6661048159292
 20
49.2015000989704
 10
16.6661214526782
 20
49.2016007556172
 10
16.6661694854682
 20
49.2018670044353
 10
16.6662508468215
 20
49.2023013779377
 10
16.6662635559913
 20
49.2023695608397
 10
16.6662837095669
 20
49.2024782427903
 10
16.6663185504548
 20
49.2026657832585
 10
16.666353391606
 20
49.2028533237107
 10
16.666352571832
 20
49.2028903473511
 10
16.6663517520569
 20
49.2029273709913
 10
16.666242784588
 20
49.20293788579
 10
16.6662528310496
 20
49.2029962040811
 10
16.6663497407645
 20
49.2029893633144
 10
16.666356748257
 20
49.2030662346
 10
16.6663648523457
 20
49.2031094480746
 10
16.6663678452505
 20
49.2031240388814
 10
16.6663940734447
 20
49.2031762598748
 10
16.6664203016942
 20
49.2032284808618
 10
16.6664859137513
 20
49.2035032914511
 10
16.6665515265354
 20
49.2037781019911
 10
16.6665936639631
 20
49.2037736492627
 10
16.6666435561358
 20
49.2039106055375
 10
16.6666749334755
 20
49.2040198731524
 10
16.6667333879488
 20
49.204250338194
 10
16.6667599751543
 20
49.2043719985989
 10
16.6668335540912
 20
49.204715743219
 10
16.6667523452731
 20
49.2048719234419
 10
16.6665744593679
 20
49.2050579336119
 10
16.6666199835742
 20
49.2052459989374
 10
16.667002079888
 20
49.2053199905061
 10
16.6672139786682
 20
49.2054875580649
 10
16.6673486248319
 20
49.2056068231883
 10
16.667764216193
 20
49.2057390604781
 10
16.6684152173803
 20
49.205925698163
 10
16.6690505729493
 20
49.2061166583703
 10
16.6691448264023
 20
49.2061344996018
 10
16.6694103548806
 20
49.2061828319385
 10
16.6698620256069
 20
49.2064321869883
 10
16.6702619996074
 20
49.2066600890033
 10
16.6707314823103
 20
49.2069844924071
 10
16.6709443636632
 20
49.2071874833952
 10
16.6712069844513
 20
49.2074652376774
 10
16.6713054000352
 20
49.2076220840705
 10
16.6716006505239
 20
49.2080926227231
 10
16.671675267504
 20
49.2083316126464
 10
16.6718991227603
 20
49.2090485820721
 10
16.6720156821036
 20
49.2095229759813
 10
16.6721380865492
 20
49.2098994931963
 10
16.6723887434725
 20
49.210554650626
 10
16.6724733166542
 20
49.2106818526676
 10
16.672836482044
 20
49.2112280640122
 10
16.6730482877439
 20
49.2114525437465
 10
16.6734118963821
 20
49.2118278723435
 10
16.6736722346152
 20
49.2120800437919
 10
16.672431855302
 20
49.2116323478099
 10
16.6714655295405
 20
49.2128539042898
 10
16.6706565784879
 20
49.2138844255398
 10
16.6692686766018
 20
49.21572274357
 10
16.668795758083
 20
49.2153418010527
 10
16.668434034478
 20
49.2149406784401
 97
0
 75
0
 76
1
 98
0
  0
HATCH
  5
20015
100
AcDbEntity
  8
riziková oblast 
100
AcDbHatch
 10
0
 20
0
 30
0
210
0
220
0
230
1
  2
SOLID
 70
1
 71
0
 91
1
 92
2
 72
0
 73
1
 93
45
 10
16.6413402754284
 20
49.209351866036
 10
16.6419790106522
 20
49.2053195666614
 10
16.6442769223474
 20
49.2020648839132
 10
16.6507103369137
 20
49.1983609442294
 10
16.650166866881
 20
49.1996046348499
 10
16.6492131309487
 20
49.2017056854887
 10
16.6484115136926
 20
49.2036245018064
 10
16.6481412507147
 20
49.2047386444739
 10
16.6479106822829
 20
49.2058997357546
 10
16.6476327251285
 20
49.207515097948
 10
16.6493492267477
 20
49.2121588835613
 10
16.6492382940035
 20
49.2122060110666
 10
16.6490911400996
 20
49.2121006293429
 10
16.6490133002612
 20
49.2120468918137
 10
16.6488150273864
 20
49.2119352390793
 10
16.6486252596294
 20
49.2118407366578
 10
16.6483007580578
 20
49.2117016456561
 10
16.6479106350496
 20
49.211546035026
 10
16.6475205144923
 20
49.2113904230739
 10
16.6472752525524
 20
49.2112791181683
 10
16.6471576098758
 20
49.211215790161
 10
16.6469229218803
 20
49.2110615450164
 10
16.6466803309269
 20
49.2108608641543
 10
16.6465274651558
 20
49.210724121151
 10
16.6465184599933
 20
49.2107257275421
 10
16.6460247382098
 20
49.2108704737046
 10
16.6454828285806
 20
49.2110317888945
 10
16.6449214702709
 20
49.2108131908654
 10
16.6444027880323
 20
49.210595213108
 10
16.6443495820203
 20
49.2106611038669
 10
16.6440179583566
 20
49.2105301799099
 10
16.6436440662548
 20
49.2103884957776
 10
16.6433735184336
 20
49.2102551387089
 10
16.6431029720689
 20
49.2101217810036
 10
16.6429080942212
 20
49.2101424963296
 10
16.6429306781669
 20
49.2102671848995
 10
16.6429363440878
 20
49.2102898339962
 10
16.6424722919099
 20
49.2100709683097
 10
16.6424213567855
 20
49.2098516640308
 10
16.6421532457394
 20
49.2097266155939
 10
16.6418745776035
 20
49.209596932614
 10
16.6417682605227
 20
49.2095495920193
 10
16.6416619436451
 20
49.2095022513263
 10
16.6416101049154
 20
49.2094816813359
 10
16.6413402754284
 20
49.209351866036
 97
0
 75
0
 76
1
 98
0
  0
ENDSEC
  0
SECTION
  2
OBJECTS
  0
DICTIONARY
  5
C
330
0
100
AcDbDictionary
281
     1
  3
ACAD_GROUP
350
D
  3
ACAD_LAYOUT
350
1A
  3
ACAD_MLEADERSTYLE
350
43
  3
ACAD_PLOTSETTINGS
350
19
  3
ACAD_PLOTSTYLENAME
350
E
  3
ACAD_TABLESTYLE
350
42
  0
DICTIONARY
  5
D
102
{ACAD_REACTORS
330
C
102
}
330
C
100
AcDbDictionary
281
     1
  0
DICTIONARY
  5
1A
102
{ACAD_REACTORS
330
C
102
}
330
C
100
AcDbDictionary
281
     1
  3
Layout1
350
1E
  3
Model
350
22
  0
DICTIONARY
  5
43
102
{ACAD_REACTORS
330
C
102
}
330
C
100
AcDbDictionary
281
     1
  0
DICTIONARY
  5
19
102
{ACAD_REACTORS
330
C
102
}
330
C
100
AcDbDictionary
281
     1
  0
ACDBDICTIONARYWDFLT
  5
E
102
{ACAD_REACTORS
330
C
102
}
330
C
100
AcDbDictionary
281
     1
  3
Normal
350
F
100
AcDbDictionaryWithDefault
340
F
  0
DICTIONARY
  5
42
102
{ACAD_REACTORS
330
C
102
}
330
C
100
AcDbDictionary
281
     1
  0
LAYOUT
  5
1E
102
{ACAD_REACTORS
330
1A
102
}
330
1A
100
AcDbPlotSettings
  1

  2
none_device
  4

  6

 40
0.0
 41
0.0
 42
0.0
 43
0.0
 44
0.0
 45
0.0
 46
0.0
 47
0.0
 48
0.0
 49
0.0
140
0.0
141
0.0
142
1.0
143
1.0
 70
   688
 72
     0
 73
     0
 74
     5
  7

 75
    16
 76
     0
 77
     2
 78
   300
147
1.0
148
0.0
149
0.0
100
AcDbLayout
  1
Layout1
 70
     1
 71
     1
 10
0.0
 20
0.0
 11
12.0
 21
9.0
 12
0.0
 22
0.0
 32
0.0
 14
1.000000000000000E+20
 24
1.000000000000000E+20
 34
1.000000000000000E+20
 15
-1.000000000000000E+20
 25
-1.000000000000000E+20
 35
-1.000000000000000E+20
146
0.0
 13
0.0
 23
0.0
 33
0.0
 16
1.0
 26
0.0
 36
0.0
 17
0.0
 27
1.0
 37
0.0
 76
     0
330
1B
  0
LAYOUT
  5
22
102
{ACAD_REACTORS
330
1A
102
}
330
1A
100
AcDbPlotSettings
  1

  2
none_device
  4

  6

 40
0.0
 41
0.0
 42
0.0
 43
0.0
 44
0.0
 45
0.0
 46
0.0
 47
0.0
 48
0.0
 49
0.0
140
0.0
141
0.0
142
1.0
143
1.0
 70
  1712
 72
     0
 73
     0
 74
     0
  7

 75
     0
 76
     0
 77
     2
 78
   300
147
1.0
148
0.0
149
0.0
100
AcDbLayout
  1
Model
 70
     1
 71
     0
 10
0.0
 20
0.0
 11
12.0
 21
9.0
 12
0.0
 22
0.0
 32
0.0
 14
30.0
 24
49.75
 34
0.0
 15
130.5
 25
163.1318914119703
 35
0.0
146
0.0
 13
0.0
 23
0.0
 33
0.0
 16
1.0
 26
0.0
 36
0.0
 17
0.0
 27
1.0
 37
0.0
 76
     0
330
1F
331
29
  0
ENDSEC
  0
EOF
