  0
SECTION
  2
HEADER
  9
$ACADVER
  1
AC1018
  9
$ACADMAINTVER
 70
     0
  9
$DWGCODEPAGE
  3
ANSI_1252
  9
$EXTMIN
 10
-608605
 20
-1168576.7437
 30
0.0
  9
$EXTMAX
 10
-590265.9339
 20
-1150341.59
 30
0.0
  9
$LIMMIN
 10
0.0
 20
0.0
  9
$LIMMAX
 10
12.0
 20
9.0
  9
$ORTHOMODE
 70
     0
  9
$REGENMODE
 70
     1
  9
$FILLMODE
 70
     1
  9
$QTEXTMODE
 70
     0
  9
$MIRRTEXT
 70
     1
  9
$LTSCALE
 40
1.0
  9
$ATTMODE
 70
     1
  9
$TEXTSIZE
 40
0.2
  9
$TRACEWID
 40
0.05
  9
$TEXTSTYLE
  7
Standard
  9
$CLAYER
  8
0
  9
$CELTYPE
  6
ByLayer
  9
$CECOLOR
 62
   256
  9
$CELTSCALE
 40
1.0
  9
$DISPSILH
 70
     0
  9
$LUNITS
 70
     2
  9
$LUPREC
 70
     4
  9
$SKETCHINC
 40
0.1
  9
$FILLETRAD
 40
0.5
  9
$AUNITS
 70
     0
  9
$AUPREC
 70
     0
  9
$MENU
  1
.
  9
$ELEVATION
 40
0.0
  9
$PELEVATION
 40
0.0
  9
$THICKNESS
 40
0.0
  9
$LIMCHECK
 70
     0
  9
$CHAMFERA
 40
0.5
  9
$CHAMFERB
 40
0.5
  9
$CHAMFERC
 40
1.0
  9
$CHAMFERD
 40
0.0
  9
$SKPOLY
 70
     0
  9
$ANGBASE
 50
0.0
  9
$ANGDIR
 70
     0
  9
$PDMODE
 70
     0
  9
$PDSIZE
 40
0.0
  9
$PLINEWID
 40
0.0
  9
$SPLFRAME
 70
     0
  9
$SPLINETYPE
 70
     6
  9
$SPLINESEGS
 70
     8
  9
$HANDSEED
  5
0002017E
  9
$SURFTAB1
 70
     6
  9
$SURFTAB2
 70
     6
  9
$SURFTYPE
 70
     6
  9
$SURFU
 70
     6
  9
$SURFV
 70
     6
  9
$UCSBASE
  2

  9
$UCSNAME
  2

  9
$UCSORG
 10
0.0
 20
0.0
 30
0.0
  9
$UCSXDIR
 10
1.0
 20
0.0
 30
0.0
  9
$UCSYDIR
 10
0.0
 20
1.0
 30
0.0
  9
$UCSORTHOREF
  2

  9
$UCSORTHOVIEW
 70
     0
  9
$UCSORGTOP
 10
0.0
 20
0.0
 30
0.0
  9
$UCSORGBOTTOM
 10
0.0
 20
0.0
 30
0.0
  9
$UCSORGLEFT
 10
0.0
 20
0.0
 30
0.0
  9
$UCSORGRIGHT
 10
0.0
 20
0.0
 30
0.0
  9
$UCSORGFRONT
 10
0.0
 20
0.0
 30
0.0
  9
$UCSORGBACK
 10
0.0
 20
0.0
 30
0.0
  9
$PUCSBASE
  2

  9
$PUCSNAME
  2

  9
$PUCSORG
 10
0.0
 20
0.0
 30
0.0
  9
$PUCSXDIR
 10
1.0
 20
0.0
 30
0.0
  9
$PUCSYDIR
 10
0.0
 20
1.0
 30
0.0
  9
$PUCSORTHOREF
  2

  9
$PUCSORTHOVIEW
 70
     0
  9
$PUCSORGTOP
 10
0.0
 20
0.0
 30
0.0
  9
$PUCSORGBOTTOM
 10
0.0
 20
0.0
 30
0.0
  9
$PUCSORGLEFT
 10
0.0
 20
0.0
 30
0.0
  9
$PUCSORGRIGHT
 10
0.0
 20
0.0
 30
0.0
  9
$PUCSORGFRONT
 10
0.0
 20
0.0
 30
0.0
  9
$PUCSORGBACK
 10
0.0
 20
0.0
 30
0.0
  9
$WORLDVIEW
 70
     1
  9
$SHADEDGE
 70
     3
  9
$SHADEDIF
 70
    70
  9
$TILEMODE
 70
     1
  9
$MAXACTVP
 70
    64
  9
$PINSBASE
 10
0.0
 20
0.0
 30
0.0
  9
$PLIMCHECK
 70
     0
  9
$PEXTMIN
 10
1.000000000000000E+20
 20
1.000000000000000E+20
 30
1.000000000000000E+20
  9
$PEXTMAX
 10
-1.000000000000000E+20
 20
-1.000000000000000E+20
 30
-1.000000000000000E+20
  9
$PLIMMIN
 10
0.0
 20
0.0
  9
$PLIMMAX
 10
12.0
 20
9.0
  9
$UNITMODE
 70
     0
  9
$VISRETAIN
 70
     1
  9
$PLINEGEN
 70
     0
  9
$PSLTSCALE
 70
     1
  9
$TREEDEPTH
 70
  3020
  9
$CMLSTYLE
  2
Standard
  9
$CMLJUST
 70
     0
  9
$CMLSCALE
 40
1.0
  9
$PROXYGRAPHICS
 70
     1
  9
$MEASUREMENT
 70
     0
  9
$CELWEIGHT
370
    -1
  9
$ENDCAPS
280
     0
  9
$JOINSTYLE
280
     0
  9
$LWDISPLAY
290
     0
  9
$INSUNITS
 70
     1
  9
$HYPERLINKBASE
  1

  9
$STYLESHEET
  1

  9
$XEDIT
290
     1
  9
$CEPSNTYPE
380
     0
  9
$PSTYLEMODE
290
     1
  9
$EXTNAMES
290
     1
  9
$PSVPSCALE
 40
0.0
  9
$OLESTARTUP
290
     0
  9
$SORTENTS
280
   127
  9
$INDEXCTL
280
     0
  9
$HIDETEXT
280
     1
  9
$XCLIPFRAME
290
     0
  9
$HALOGAP
280
     0
  9
$OBSCOLOR
 70
   257
  9
$OBSLTYPE
280
     0
  9
$INTERSECTIONDISPLAY
280
     0
  9
$INTERSECTIONCOLOR
 70
   257
  9
$DIMASSOC
280
     2
  9
$PROJECTNAME
  1

  0
ENDSEC
  0
SECTION
  2
CLASSES
  0
CLASS
  1
ACDBDICTIONARYWDFLT
  2
AcDbDictionaryWithDefault
  3
ObjectDBX Classes
 90
        0
 91
        4
280
     0
281
     0
  0
ENDSEC
  0
SECTION
  2
TABLES
  0
TABLE
  2
VPORT
  5
8
330
0
100
AcDbSymbolTable
 70
     1
  0
VPORT
  5
29
330
8
100
AcDbSymbolTableRecord
100
AcDbViewportTableRecord
  2
*Active
 70
     0
 10
0.0
 20
0.0
 11
1.0
 21
1.0
 12
80.25
 22
106.4409457059851
 13
0.0
 23
0.0
 14
0.5
 24
0.5
 15
0.5
 25
0.5
 16
0.0
 26
0.0
 36
1.0
 17
0.0
 27
0.0
 37
0.0
 40
113.3818914119703
 41
0.8863849310366128
 42
50.0
 43
0.0
 44
0.0
 50
0.0
 51
0.0
 71
     0
 72
  1000
 73
     1
 74
     3
 75
     0
 76
     0
 77
     0
 78
     0
281
     0
 65
     1
110
0.0
120
0.0
130
0.0
111
1.0
121
0.0
131
0.0
112
0.0
122
1.0
132
0.0
 79
     0
146
0.0
  0
ENDTAB
  0
TABLE
  2
LTYPE
  5
5
330
0
100
AcDbSymbolTable
 70
     1
  0
LTYPE
  5
14
330
5
100
AcDbSymbolTableRecord
100
AcDbLinetypeTableRecord
  2
ByBlock
 70
     0
  3

 72
    65
 73
     0
 40
0.0
  0
LTYPE
  5
15
330
5
100
AcDbSymbolTableRecord
100
AcDbLinetypeTableRecord
  2
ByLayer
 70
     0
  3

 72
    65
 73
     0
 40
0.0
  0
LTYPE
  5
16
330
5
100
AcDbSymbolTableRecord
100
AcDbLinetypeTableRecord
  2
Continuous
 70
     0
  3
Solid line
 72
    65
 73
     0
 40
0.0
  0
ENDTAB
  0
TABLE
  2
LAYER
  5
2
330
0
100
AcDbSymbolTable
 70
     1
  0
LAYER
  5
10
330
2
100
AcDbSymbolTableRecord
100
AcDbLayerTableRecord
  2
0
 70
     0
 62
     7
  6
Continuous
370
    -3
390
F
  0
LAYER
  5
2017D
330
2
100
AcDbSymbolTableRecord
100
AcDbLayerTableRecord
  2
skládky a antropogenní uloženiny
 70
     0
 62
     7
  6
Continuous
370
    -3
390
F
  0
ENDTAB
  0
TABLE
  2
STYLE
  5
3
330
0
100
AcDbSymbolTable
 70
     1
  0
STYLE
  5
11
330
3
100
AcDbSymbolTableRecord
100
AcDbTextStyleTableRecord
  2
Standard
 70
     0
 40
0.0
 41
1.0
 50
0.0
 71
     0
 42
0.2
  3
txt
  4

  0
ENDTAB
  0
TABLE
  2
VIEW
  5
6
330
0
100
AcDbSymbolTable
 70
     0
  0
ENDTAB
  0
TABLE
  2
UCS
  5
7
330
0
100
AcDbSymbolTable
 70
     0
  0
ENDTAB
  0
TABLE
  2
APPID
  5
9
330
0
100
AcDbSymbolTable
 70
     1
  0
APPID
  5
12
330
9
100
AcDbSymbolTableRecord
100
AcDbRegAppTableRecord
  2
ACAD
 70
     0
  0
ENDTAB
  0
TABLE
  2
DIMSTYLE
  5
A
330
0
100
AcDbSymbolTable
 70
     1
100
AcDbDimStyleTable
  0
DIMSTYLE
105
27
330
A
100
AcDbSymbolTableRecord
100
AcDbDimStyleTableRecord
  2
Standard
 70
     0
340
11
  0
ENDTAB
  0
TABLE
  2
BLOCK_RECORD
  5
1
330
0
100
AcDbSymbolTable
 70
     1
  0
BLOCK_RECORD
  5
1F
330
1
100
AcDbSymbolTableRecord
100
AcDbBlockTableRecord
  2
*Model_Space
340
22
  0
BLOCK_RECORD
  5
1B
330
1
100
AcDbSymbolTableRecord
100
AcDbBlockTableRecord
  2
*Paper_Space
340
1E
  0
ENDTAB
  0
ENDSEC
  0
SECTION
  2
BLOCKS
  0
BLOCK
  5
20
330
1F
100
AcDbEntity
  8
0
100
AcDbBlockBegin
  2
*Model_Space
 70
     0
 10
0.0
 20
0.0
 30
0.0
  3
*Model_Space
  1

  0
ENDBLK
  5
21
330
1F
100
AcDbEntity
  8
0
100
AcDbBlockEnd
  0
BLOCK
  5
1C
330
1B
100
AcDbEntity
 67
     1
  8
0
100
AcDbBlockBegin
  2
*Paper_Space
 70
     0
 10
0.0
 20
0.0
 30
0.0
  3
*Paper_Space
  1

  0
ENDBLK
  5
1D
330
1B
100
AcDbEntity
 67
     1
  8
0
100
AcDbBlockEnd
  0
ENDSEC
  0
SECTION
  2
ENTITIES
  0
HATCH
  5
20000
100
AcDbEntity
  8
skládky a antropogenní uloženiny
100
AcDbHatch
 10
0
 20
0
 30
0
210
0
220
0
230
1
  2
SOLID
 70
1
 71
0
 91
1
 92
2
 72
0
 73
1
 93
22
 10
-601094.67
 20
-1162075.97
 10
-601094.8983
 20
-1162088.7864
 10
-601094.4982
 20
-1162093.3694
 10
-601092.94
 20
-1162104.95
 10
-601084.43
 20
-1162116.99
 10
-601075.58
 20
-1162119.61
 10
-601042.491
 20
-1162125.8787
 10
-601036.7933
 20
-1162126.8123
 10
-601030.2511
 20
-1162123.7313
 10
-601027.7303
 20
-1162118.5967
 10
-601029.5976
 20
-1162094.1349
 10
-601019.5068
 20
-1162085.2215
 10
-601006.89
 20
-1162075.78
 10
-601007.465
 20
-1162067.865
 10
-601010.0845
 20
-1162050.9073
 10
-601014.58
 20
-1162031.0415
 10
-601020.5413
 20
-1162000.1173
 10
-601043.586
 20
-1162004.9347
 10
-601055.84
 20
-1162007.08
 10
-601072.42
 20
-1162016.51
 10
-601079.87
 20
-1162024.68
 10
-601094.67
 20
-1162075.97
 97
0
 75
0
 76
1
 98
0
  0
HATCH
  5
20001
100
AcDbEntity
  8
skládky a antropogenní uloženiny
100
AcDbHatch
 10
0
 20
0
 30
0
210
0
220
0
230
1
  2
SOLID
 70
1
 71
0
 91
1
 92
2
 72
0
 73
1
 93
22
 10
-600407.8979
 20
-1162378.4725
 10
-600403.9541
 20
-1162394.6861
 10
-600400.0103
 20
-1162410.8996
 10
-600407.8979
 20
-1162416.5963
 10
-600415.7856
 20
-1162422.2929
 10
-600409.9794
 20
-1162433.0289
 10
-600404.1732
 20
-1162443.7649
 10
-600399.3097
 20
-1162434.3103
 10
-600394.4463
 20
-1162424.8557
 10
-600385.9445
 20
-1162419.6305
 10
-600377.4427
 20
-1162414.4052
 10
-600359.9146
 20
-1162416.5963
 10
-600347.7299
 20
-1162416.3121
 10
-600341.2798
 20
-1162413.3817
 10
-600340.4145
 20
-1162404.7648
 10
-600335.2656
 20
-1162389.4276
 10
-600330.1167
 20
-1162374.0904
 10
-600318.7344
 20
-1162363.1309
 10
-600323.7627
 20
-1162348.6746
 10
-600337.7852
 20
-1162342.5397
 10
-600397.4135
 20
-1162369.0031
 10
-600407.8979
 20
-1162378.4725
 97
0
 75
0
 76
1
 98
0
  0
HATCH
  5
20002
100
AcDbEntity
  8
skládky a antropogenní uloženiny
100
AcDbHatch
 10
0
 20
0
 30
0
210
0
220
0
230
1
  2
SOLID
 70
1
 71
0
 91
1
 92
2
 72
0
 73
1
 93
5
 10
-603112.55
 20
-1162685.58
 10
-603128.87
 20
-1162756.41
 10
-603056.715
 20
-1162771.63
 10
-603042.2283
 20
-1162705.5994
 10
-603112.55
 20
-1162685.58
 97
0
 75
0
 76
1
 98
0
  0
HATCH
  5
20003
100
AcDbEntity
  8
skládky a antropogenní uloženiny
100
AcDbHatch
 10
0
 20
0
 30
0
210
0
220
0
230
1
  2
SOLID
 70
1
 71
0
 91
1
 92
2
 72
0
 73
1
 93
21
 10
-603684.23
 20
-1162026.685
 10
-603673.49
 20
-1162036.85
 10
-603656.58
 20
-1162048.23
 10
-603652.73
 20
-1162032.07
 10
-603650.16
 20
-1162032.47
 10
-603653.75
 20
-1162056.56
 10
-603661.98
 20
-1162076.795
 10
-603654.735
 20
-1162084.76
 10
-603620.585
 20
-1162050.16
 10
-603613.17
 20
-1162030.95
 10
-603610.6
 20
-1162038.14
 10
-603591.39
 20
-1162047.75
 10
-603581.975
 20
-1162029.015
 10
-603562.78
 20
-1161990.72
 10
-603555.24
 20
-1161978.88
 10
-603530.91
 20
-1161948.33
 10
-603567.235
 20
-1161929.2
 10
-603600.3
 20
-1161911.02
 10
-603631.45
 20
-1161955.165
 10
-603662.6
 20
-1161999.31
 10
-603684.23
 20
-1162026.685
 97
0
 75
0
 76
1
 98
0
  0
HATCH
  5
20004
100
AcDbEntity
  8
skládky a antropogenní uloženiny
100
AcDbHatch
 10
0
 20
0
 30
0
210
0
220
0
230
1
  2
SOLID
 70
1
 71
0
 91
1
 92
2
 72
0
 73
1
 93
21
 10
-603854.65
 20
-1161729.37
 10
-603855.27
 20
-1161744.09
 10
-603849.86
 20
-1161767.44
 10
-603840.52
 20
-1161785.94
 10
-603833.42
 20
-1161797.99
 10
-603815.7
 20
-1161817.18
 10
-603809.29
 20
-1161827.66
 10
-603798.54
 20
-1161864.32
 10
-603786.95
 20
-1161903.84
 10
-603774.14
 20
-1161938.05
 10
-603755.6
 20
-1161977.36
 10
-603725.06
 20
-1162021.41
 10
-603698.89
 20
-1161985.44
 10
-603720.43
 20
-1161969.045
 10
-603750.27
 20
-1161901.23
 10
-603764.57
 20
-1161857.32
 10
-603806.1
 20
-1161782.02
 10
-603828.04
 20
-1161744.89
 10
-603832.84
 20
-1161722.19
 10
-603842.4
 20
-1161713.61
 10
-603854.65
 20
-1161729.37
 97
0
 75
0
 76
1
 98
0
  0
HATCH
  5
20005
100
AcDbEntity
  8
skládky a antropogenní uloženiny
100
AcDbHatch
 10
0
 20
0
 30
0
210
0
220
0
230
1
  2
SOLID
 70
1
 71
0
 91
1
 92
2
 72
0
 73
1
 93
5
 10
-603773.3
 20
-1161747.26
 10
-603748.75
 20
-1161769.28
 10
-603721.95
 20
-1161735.25
 10
-603743.52
 20
-1161715.81
 10
-603773.3
 20
-1161747.26
 97
0
 75
0
 76
1
 98
0
  0
HATCH
  5
20006
100
AcDbEntity
  8
skládky a antropogenní uloženiny
100
AcDbHatch
 10
0
 20
0
 30
0
210
0
220
0
230
1
  2
SOLID
 70
1
 71
0
 91
1
 92
2
 72
0
 73
1
 93
35
 10
-604220.07
 20
-1161880.02
 10
-604185.53
 20
-1161834.035
 10
-604150.99
 20
-1161788.05
 10
-604110.005
 20
-1161812.315
 10
-604069.02
 20
-1161836.58
 10
-604067.12
 20
-1161820.05
 10
-604040.72
 20
-1161777.54
 10
-604004.12
 20
-1161736.5
 10
-603967.52
 20
-1161695.46
 10
-603944.08
 20
-1161666.185
 10
-603916.65
 20
-1161634.35
 10
-603951.48
 20
-1161599.09
 10
-603969.93
 20
-1161579.68
 10
-603987
 20
-1161566.17
 10
-603992.38
 20
-1161556.05
 10
-604015.33
 20
-1161531.91
 10
-604033.84
 20
-1161528.12
 10
-604048
 20
-1161522.36
 10
-604066.155
 20
-1161543.66
 10
-604086.22
 20
-1161566.82
 10
-604108.44
 20
-1161591.125
 10
-604128.75
 20
-1161613.57
 10
-604177.66
 20
-1161661.9
 10
-604160.6
 20
-1161675.24
 10
-604182.38
 20
-1161700.245
 10
-604204.16
 20
-1161725.25
 10
-604214.46
 20
-1161725.02
 10
-604229.94
 20
-1161730.81
 10
-604245.42
 20
-1161736.6
 10
-604267.45
 20
-1161749.21
 10
-604281.33
 20
-1161765.34
 10
-604259.5
 20
-1161815.43
 10
-604252.43
 20
-1161831.67
 10
-604232.39
 20
-1161857.76
 10
-604220.07
 20
-1161880.02
 97
0
 75
0
 76
1
 98
0
  0
HATCH
  5
20007
100
AcDbEntity
  8
skládky a antropogenní uloženiny
100
AcDbHatch
 10
0
 20
0
 30
0
210
0
220
0
230
1
  2
SOLID
 70
1
 71
0
 91
1
 92
2
 72
0
 73
1
 93
5
 10
-604683.963
 20
-1161517.418
 10
-604700.7467
 20
-1161528.3117
 10
-604646.65
 20
-1161593.64
 10
-604628.805
 20
-1161586.25
 10
-604683.963
 20
-1161517.418
 97
0
 75
0
 76
1
 98
0
  0
HATCH
  5
20008
100
AcDbEntity
  8
skládky a antropogenní uloženiny
100
AcDbHatch
 10
0
 20
0
 30
0
210
0
220
0
230
1
  2
SOLID
 70
1
 71
0
 91
1
 92
2
 72
0
 73
1
 93
6
 10
-604899.84
 20
-1161410.37
 10
-604881.38
 20
-1161433.71
 10
-604816.4
 20
-1161367.92
 10
-604786.22
 20
-1161337.14
 10
-604804.7
 20
-1161318.03
 10
-604899.84
 20
-1161410.37
 97
0
 75
0
 76
1
 98
0
  0
HATCH
  5
20009
100
AcDbEntity
  8
skládky a antropogenní uloženiny
100
AcDbHatch
 10
0
 20
0
 30
0
210
0
220
0
230
1
  2
SOLID
 70
1
 71
0
 91
1
 92
2
 72
0
 73
1
 93
37
 10
-605085.96
 20
-1161163.6649
 10
-605086.1541
 20
-1161161.4458
 10
-605086.7307
 20
-1161159.2941
 10
-605087.6721
 20
-1161157.2752
 10
-605088.9498
 20
-1161155.4505
 10
-605090.5249
 20
-1161153.8753
 10
-605092.3497
 20
-1161152.5976
 10
-605094.3686
 20
-1161151.6562
 10
-605096.5203
 20
-1161151.0797
 10
-605098.7394
 20
-1161150.8855
 10
-605100.9585
 20
-1161151.0797
 10
-605103.1102
 20
-1161151.6562
 10
-605105.1291
 20
-1161152.5976
 10
-605106.9538
 20
-1161153.8753
 10
-605108.5289
 20
-1161155.4505
 10
-605109.8066
 20
-1161157.2752
 10
-605110.748
 20
-1161159.2941
 10
-605111.3246
 20
-1161161.4458
 10
-605111.5187
 20
-1161163.6649
 10
-605111.3246
 20
-1161165.884
 10
-605110.748
 20
-1161168.0357
 10
-605109.8066
 20
-1161170.0546
 10
-605108.5289
 20
-1161171.8793
 10
-605106.9538
 20
-1161173.4545
 10
-605105.1291
 20
-1161174.7322
 10
-605103.1102
 20
-1161175.6736
 10
-605100.9585
 20
-1161176.2501
 10
-605098.7394
 20
-1161176.4443
 10
-605096.5203
 20
-1161176.2501
 10
-605094.3686
 20
-1161175.6736
 10
-605092.3497
 20
-1161174.7322
 10
-605090.5249
 20
-1161173.4545
 10
-605088.9498
 20
-1161171.8793
 10
-605087.6721
 20
-1161170.0546
 10
-605086.7307
 20
-1161168.0357
 10
-605086.1541
 20
-1161165.884
 10
-605085.96
 20
-1161163.6649
 97
0
 75
0
 76
1
 98
0
  0
HATCH
  5
2000A
100
AcDbEntity
  8
skládky a antropogenní uloženiny
100
AcDbHatch
 10
0
 20
0
 30
0
210
0
220
0
230
1
  2
SOLID
 70
1
 71
0
 91
1
 92
2
 72
0
 73
1
 93
19
 10
-605108.12
 20
-1161146.32
 10
-605078.27
 20
-1161124.23
 10
-605058.16
 20
-1161118.05
 10
-604999.85
 20
-1161099.53
 10
-604923.24
 20
-1161044.98
 10
-604894.83
 20
-1161033.29
 10
-604898.37
 20
-1161020.03
 10
-604911.63
 20
-1161023.57
 10
-604899.5123
 20
-1161007.7962
 10
-604900.93
 20
-1160999.09
 10
-604965.7356
 20
-1161055.0809
 10
-605017.67
 20
-1161092.72
 10
-605011.2873
 20
-1161054.0906
 10
-605018.3576
 20
-1161046.9113
 10
-605025.4278
 20
-1161051.7542
 10
-605032.1643
 20
-1161092.5249
 10
-605079.6149
 20
-1161109.5449
 10
-605117.2445
 20
-1161135.2915
 10
-605108.12
 20
-1161146.32
 97
0
 75
0
 76
1
 98
0
  0
HATCH
  5
2000B
100
AcDbEntity
  8
skládky a antropogenní uloženiny
100
AcDbHatch
 10
0
 20
0
 30
0
210
0
220
0
230
1
  2
SOLID
 70
1
 71
0
 91
1
 92
2
 72
0
 73
1
 93
7
 10
-605321.7321
 20
-1161429.3971
 10
-605318.1534
 20
-1161440.4196
 10
-605283.3396
 20
-1161444.0615
 10
-605264.3646
 20
-1161446.0465
 10
-605262.3796
 20
-1161427.0715
 10
-605281.3546
 20
-1161425.0865
 10
-605321.7321
 20
-1161429.3971
 97
0
 75
0
 76
1
 98
0
  0
HATCH
  5
2000C
100
AcDbEntity
  8
skládky a antropogenní uloženiny
100
AcDbHatch
 10
0
 20
0
 30
0
210
0
220
0
230
1
  2
SOLID
 70
1
 71
0
 91
1
 92
2
 72
0
 73
1
 93
5
 10
-605252.4143
 20
-1161561.1009
 10
-605200.921
 20
-1161546.2471
 10
-605200.921
 20
-1161531.3933
 10
-605254.3948
 20
-1161531.3933
 10
-605252.4143
 20
-1161561.1009
 97
0
 75
0
 76
1
 98
0
  0
HATCH
  5
2000D
100
AcDbEntity
  8
skládky a antropogenní uloženiny
100
AcDbHatch
 10
0
 20
0
 30
0
210
0
220
0
230
1
  2
SOLID
 70
1
 71
0
 91
1
 92
2
 72
0
 73
1
 93
9
 10
-606175.101
 20
-1160868.8248
 10
-606177.0815
 20
-1160852.9807
 10
-606259.2726
 20
-1160847.0392
 10
-606289.6352
 20
-1160824.1968
 10
-606280.9345
 20
-1160836.394
 10
-606323.6392
 20
-1160838.1269
 10
-606284.029
 20
-1160851.0002
 10
-606310.3625
 20
-1160865.4048
 10
-606175.101
 20
-1160868.8248
 97
0
 75
0
 76
1
 98
0
  0
HATCH
  5
2000E
100
AcDbEntity
  8
skládky a antropogenní uloženiny
100
AcDbHatch
 10
0
 20
0
 30
0
210
0
220
0
230
1
  2
SOLID
 70
1
 71
0
 91
1
 92
2
 72
0
 73
1
 93
7
 10
-606177.0815
 20
-1160852.9807
 10
-606175.3486
 20
-1160841.5928
 10
-606300.1206
 20
-1160785.1483
 10
-606316.0985
 20
-1160796.451
 10
-606296.4072
 20
-1160804.4582
 10
-606236.7444
 20
-1160828.7195
 10
-606177.0815
 20
-1160852.9807
 97
0
 75
0
 76
1
 98
0
  0
HATCH
  5
2000F
100
AcDbEntity
  8
skládky a antropogenní uloženiny
100
AcDbHatch
 10
0
 20
0
 30
0
210
0
220
0
230
1
  2
SOLID
 70
1
 71
0
 91
1
 92
2
 72
0
 73
1
 93
47
 10
-606059.4039
 20
-1160715.7923
 10
-606045.3239
 20
-1160693.3473
 10
-606037.8974
 20
-1160672.6054
 10
-606026.1745
 20
-1160569.8962
 10
-606029.108
 20
-1160541.4899
 10
-606062.4433
 20
-1160457.8896
 10
-606048.3091
 20
-1160531.7606
 10
-606050.441
 20
-1160554.7843
 10
-606056.5669
 20
-1160568.9939
 10
-606057.1096
 20
-1160584.8304
 10
-606084.7997
 20
-1160552.967
 10
-606090.4449
 20
-1160500.8255
 10
-606091.5117
 20
-1160467.7569
 10
-606103.6231
 20
-1160428.2879
 10
-606125.2
 20
-1160389.58
 10
-606113.3796
 20
-1160434.1906
 10
-606103.779
 20
-1160476.8241
 10
-606104.8458
 20
-1160542.9613
 10
-606184.1463
 20
-1160460.0231
 10
-606212.1834
 20
-1160411.5057
 10
-606237.3868
 20
-1160384.2854
 10
-606221.3859
 20
-1160452.556
 10
-606287.5231
 20
-1160310.6811
 10
-606295.5235
 20
-1160268.1516
 10
-606303.524
 20
-1160160.2723
 10
-606325.9245
 20
-1160228.5429
 10
-606360.9309
 20
-1160174.6097
 10
-606303.425
 20
-1160382.535
 10
-606379.885
 20
-1160270.61
 10
-606334.7277
 20
-1160379.6116
 10
-606385.6621
 20
-1160345.8831
 10
-606355.7937
 20
-1160400.2863
 10
-606410.78
 20
-1160406.84
 10
-606352.3268
 20
-1160429.3546
 10
-606413.17
 20
-1160462.15
 10
-606257.388
 20
-1160480.5576
 10
-606361.1274
 20
-1160512.9204
 10
-606217.8529
 20
-1160522.1363
 10
-606333.3924
 20
-1160558.1622
 10
-606186.9839
 20
-1160554.1619
 10
-606281.11
 20
-1160613.8
 10
-606140.0478
 20
-1160597.8978
 10
-606202.076
 20
-1160643.9914
 10
-606100.5788
 20
-1160630.9664
 10
-606220.3192
 20
-1160665.4859
 10
-606092.045
 20
-1160664.035
 10
-606059.4039
 20
-1160715.7923
 97
0
 75
0
 76
1
 98
0
  0
HATCH
  5
20010
100
AcDbEntity
  8
skládky a antropogenní uloženiny
100
AcDbHatch
 10
0
 20
0
 30
0
210
0
220
0
230
1
  2
SOLID
 70
1
 71
0
 91
1
 92
2
 72
0
 73
1
 93
4
 10
-605610.26
 20
-1161004.455
 10
-605762.23
 20
-1161303.44
 10
-605497.3437
 20
-1161336.6075
 10
-605610.26
 20
-1161004.455
 97
0
 75
0
 76
1
 98
0
  0
HATCH
  5
20011
100
AcDbEntity
  8
skládky a antropogenní uloženiny
100
AcDbHatch
 10
0
 20
0
 30
0
210
0
220
0
230
1
  2
SOLID
 70
1
 71
0
 91
1
 92
2
 72
0
 73
1
 93
6
 10
-605415.0192
 20
-1161575.5301
 10
-605390.9375
 20
-1161599.8228
 10
-605355.291
 20
-1161610.8262
 10
-605351.6429
 20
-1161597.3157
 10
-605381.9314
 20
-1161590.8195
 10
-605415.0192
 20
-1161575.5301
 97
0
 75
0
 76
1
 98
0
  0
HATCH
  5
20012
100
AcDbEntity
  8
skládky a antropogenní uloženiny
100
AcDbHatch
 10
0
 20
0
 30
0
210
0
220
0
230
1
  2
SOLID
 70
1
 71
0
 91
1
 92
2
 72
0
 73
1
 93
7
 10
-604439.475
 20
-1163123.6
 10
-604430.91
 20
-1163138.6
 10
-604324.3
 20
-1163013.955
 10
-604267.385
 20
-1162950.255
 10
-604288.4733
 20
-1162955.6352
 10
-604355.273
 20
-1163018.2272
 10
-604439.475
 20
-1163123.6
 97
0
 75
0
 76
1
 98
0
  0
HATCH
  5
20013
100
AcDbEntity
  8
skládky a antropogenní uloženiny
100
AcDbHatch
 10
0
 20
0
 30
0
210
0
220
0
230
1
  2
SOLID
 70
1
 71
0
 91
1
 92
2
 72
0
 73
1
 93
8
 10
-604463.865
 20
-1163088.135
 10
-604451.2267
 20
-1163101.6898
 10
-604388.0135
 20
-1163003.1732
 10
-604318.58
 20
-1162953.805
 10
-604293.5216
 20
-1162924.9278
 10
-604332.6623
 20
-1162941.0208
 10
-604396.6682
 20
-1162986.7555
 10
-604463.865
 20
-1163088.135
 97
0
 75
0
 76
1
 98
0
  0
HATCH
  5
20014
100
AcDbEntity
  8
skládky a antropogenní uloženiny
100
AcDbHatch
 10
0
 20
0
 30
0
210
0
220
0
230
1
  2
SOLID
 70
1
 71
0
 91
1
 92
2
 72
0
 73
1
 93
9
 10
-603413.2211
 20
-1162383.1538
 10
-603422.0228
 20
-1162393.0797
 10
-603395.2819
 20
-1162416.2881
 10
-603384.6411
 20
-1162403.3838
 10
-603376.2611
 20
-1162392.4538
 10
-603385.9611
 20
-1162385.1738
 10
-603398.5411
 20
-1162382.4438
 10
-603408.3011
 20
-1162379.0638
 10
-603413.2211
 20
-1162383.1538
 97
0
 75
0
 76
1
 98
0
  0
HATCH
  5
20015
100
AcDbEntity
  8
skládky a antropogenní uloženiny
100
AcDbHatch
 10
0
 20
0
 30
0
210
0
220
0
230
1
  2
SOLID
 70
1
 71
0
 91
1
 92
2
 72
0
 73
1
 93
37
 10
-605040.7574
 20
-1161207.0718
 10
-605040.9515
 20
-1161204.8527
 10
-605041.5281
 20
-1161202.701
 10
-605042.4695
 20
-1161200.6821
 10
-605043.7472
 20
-1161198.8574
 10
-605045.3223
 20
-1161197.2822
 10
-605047.1471
 20
-1161196.0045
 10
-605049.166
 20
-1161195.0631
 10
-605051.3177
 20
-1161194.4866
 10
-605053.5368
 20
-1161194.2924
 10
-605055.7559
 20
-1161194.4866
 10
-605057.9076
 20
-1161195.0631
 10
-605059.9265
 20
-1161196.0045
 10
-605061.7512
 20
-1161197.2822
 10
-605063.3263
 20
-1161198.8574
 10
-605064.604
 20
-1161200.6821
 10
-605065.5454
 20
-1161202.701
 10
-605066.122
 20
-1161204.8527
 10
-605066.3161
 20
-1161207.0718
 10
-605066.122
 20
-1161209.2909
 10
-605065.5454
 20
-1161211.4426
 10
-605064.604
 20
-1161213.4615
 10
-605063.3263
 20
-1161215.2862
 10
-605061.7512
 20
-1161216.8614
 10
-605059.9265
 20
-1161218.1391
 10
-605057.9076
 20
-1161219.0805
 10
-605055.7559
 20
-1161219.657
 10
-605053.5368
 20
-1161219.8512
 10
-605051.3177
 20
-1161219.657
 10
-605049.166
 20
-1161219.0805
 10
-605047.1471
 20
-1161218.1391
 10
-605045.3223
 20
-1161216.8614
 10
-605043.7472
 20
-1161215.2862
 10
-605042.4695
 20
-1161213.4615
 10
-605041.5281
 20
-1161211.4426
 10
-605040.9515
 20
-1161209.2909
 10
-605040.7574
 20
-1161207.0718
 97
0
 75
0
 76
1
 98
0
  0
HATCH
  5
20016
100
AcDbEntity
  8
skládky a antropogenní uloženiny
100
AcDbHatch
 10
0
 20
0
 30
0
210
0
220
0
230
1
  2
SOLID
 70
1
 71
0
 91
1
 92
2
 72
0
 73
1
 93
37
 10
-605010.6377
 20
-1161263.0085
 10
-605010.8318
 20
-1161260.7894
 10
-605011.4084
 20
-1161258.6377
 10
-605012.3498
 20
-1161256.6188
 10
-605013.6275
 20
-1161254.7941
 10
-605015.2026
 20
-1161253.2189
 10
-605017.0274
 20
-1161251.9412
 10
-605019.0463
 20
-1161250.9998
 10
-605021.198
 20
-1161250.4233
 10
-605023.4171
 20
-1161250.2291
 10
-605025.6362
 20
-1161250.4233
 10
-605027.7879
 20
-1161250.9998
 10
-605029.8068
 20
-1161251.9412
 10
-605031.6315
 20
-1161253.2189
 10
-605033.2066
 20
-1161254.7941
 10
-605034.4843
 20
-1161256.6188
 10
-605035.4257
 20
-1161258.6377
 10
-605036.0023
 20
-1161260.7894
 10
-605036.1964
 20
-1161263.0085
 10
-605036.0023
 20
-1161265.2276
 10
-605035.4257
 20
-1161267.3793
 10
-605034.4843
 20
-1161269.3982
 10
-605033.2066
 20
-1161271.2229
 10
-605031.6315
 20
-1161272.7981
 10
-605029.8068
 20
-1161274.0758
 10
-605027.7879
 20
-1161275.0172
 10
-605025.6362
 20
-1161275.5937
 10
-605023.4171
 20
-1161275.7879
 10
-605021.198
 20
-1161275.5937
 10
-605019.0463
 20
-1161275.0172
 10
-605017.0274
 20
-1161274.0758
 10
-605015.2026
 20
-1161272.7981
 10
-605013.6275
 20
-1161271.2229
 10
-605012.3498
 20
-1161269.3982
 10
-605011.4084
 20
-1161267.3793
 10
-605010.8318
 20
-1161265.2276
 10
-605010.6377
 20
-1161263.0085
 97
0
 75
0
 76
1
 98
0
  0
HATCH
  5
20017
100
AcDbEntity
  8
skládky a antropogenní uloženiny
100
AcDbHatch
 10
0
 20
0
 30
0
210
0
220
0
230
1
  2
SOLID
 70
1
 71
0
 91
1
 92
2
 72
0
 73
1
 93
37
 10
-604951.8325
 20
-1161343.3277
 10
-604952.0266
 20
-1161341.1086
 10
-604952.6032
 20
-1161338.9569
 10
-604953.5446
 20
-1161336.938
 10
-604954.8223
 20
-1161335.1133
 10
-604956.3974
 20
-1161333.5381
 10
-604958.2222
 20
-1161332.2604
 10
-604960.2411
 20
-1161331.319
 10
-604962.3928
 20
-1161330.7425
 10
-604964.6119
 20
-1161330.5483
 10
-604966.831
 20
-1161330.7425
 10
-604968.9827
 20
-1161331.319
 10
-604971.0016
 20
-1161332.2604
 10
-604972.8263
 20
-1161333.5381
 10
-604974.4014
 20
-1161335.1133
 10
-604975.6791
 20
-1161336.938
 10
-604976.6205
 20
-1161338.9569
 10
-604977.1971
 20
-1161341.1086
 10
-604977.3912
 20
-1161343.3277
 10
-604977.1971
 20
-1161345.5468
 10
-604976.6205
 20
-1161347.6985
 10
-604975.6791
 20
-1161349.7174
 10
-604974.4014
 20
-1161351.5421
 10
-604972.8263
 20
-1161353.1173
 10
-604971.0016
 20
-1161354.395
 10
-604968.9827
 20
-1161355.3364
 10
-604966.831
 20
-1161355.9129
 10
-604964.6119
 20
-1161356.1071
 10
-604962.3928
 20
-1161355.9129
 10
-604960.2411
 20
-1161355.3364
 10
-604958.2222
 20
-1161354.395
 10
-604956.3974
 20
-1161353.1173
 10
-604954.8223
 20
-1161351.5421
 10
-604953.5446
 20
-1161349.7174
 10
-604952.6032
 20
-1161347.6985
 10
-604952.0266
 20
-1161345.5468
 10
-604951.8325
 20
-1161343.3277
 97
0
 75
0
 76
1
 98
0
  0
HATCH
  5
20018
100
AcDbEntity
  8
skládky a antropogenní uloženiny
100
AcDbHatch
 10
0
 20
0
 30
0
210
0
220
0
230
1
  2
SOLID
 70
1
 71
0
 91
1
 92
2
 72
0
 73
1
 93
37
 10
-604465.6142
 20
-1162005.9616
 10
-604465.8083
 20
-1162003.7425
 10
-604466.3849
 20
-1162001.5908
 10
-604467.3263
 20
-1161999.5719
 10
-604468.604
 20
-1161997.7472
 10
-604470.1791
 20
-1161996.172
 10
-604472.0039
 20
-1161994.8943
 10
-604474.0228
 20
-1161993.9529
 10
-604476.1745
 20
-1161993.3764
 10
-604478.3936
 20
-1161993.1822
 10
-604480.6127
 20
-1161993.3764
 10
-604482.7644
 20
-1161993.9529
 10
-604484.7833
 20
-1161994.8943
 10
-604486.608
 20
-1161996.172
 10
-604488.1831
 20
-1161997.7472
 10
-604489.4608
 20
-1161999.5719
 10
-604490.4022
 20
-1162001.5908
 10
-604490.9788
 20
-1162003.7425
 10
-604491.1729
 20
-1162005.9616
 10
-604490.9788
 20
-1162008.1807
 10
-604490.4022
 20
-1162010.3324
 10
-604489.4608
 20
-1162012.3513
 10
-604488.1831
 20
-1162014.176
 10
-604486.608
 20
-1162015.7512
 10
-604484.7833
 20
-1162017.0289
 10
-604482.7644
 20
-1162017.9703
 10
-604480.6127
 20
-1162018.5468
 10
-604478.3936
 20
-1162018.741
 10
-604476.1745
 20
-1162018.5468
 10
-604474.0228
 20
-1162017.9703
 10
-604472.0039
 20
-1162017.0289
 10
-604470.1791
 20
-1162015.7512
 10
-604468.604
 20
-1162014.176
 10
-604467.3263
 20
-1162012.3513
 10
-604466.3849
 20
-1162010.3324
 10
-604465.8083
 20
-1162008.1807
 10
-604465.6142
 20
-1162005.9616
 97
0
 75
0
 76
1
 98
0
  0
HATCH
  5
20019
100
AcDbEntity
  8
skládky a antropogenní uloženiny
100
AcDbHatch
 10
0
 20
0
 30
0
210
0
220
0
230
1
  2
SOLID
 70
1
 71
0
 91
1
 92
2
 72
0
 73
1
 93
37
 10
-603313.8933
 20
-1162053.2926
 10
-603314.0874
 20
-1162051.0735
 10
-603314.664
 20
-1162048.9218
 10
-603315.6054
 20
-1162046.9029
 10
-603316.8831
 20
-1162045.0782
 10
-603318.4582
 20
-1162043.503
 10
-603320.283
 20
-1162042.2253
 10
-603322.3019
 20
-1162041.2839
 10
-603324.4536
 20
-1162040.7074
 10
-603326.6727
 20
-1162040.5132
 10
-603328.8918
 20
-1162040.7074
 10
-603331.0435
 20
-1162041.2839
 10
-603333.0624
 20
-1162042.2253
 10
-603334.8871
 20
-1162043.503
 10
-603336.4622
 20
-1162045.0782
 10
-603337.7399
 20
-1162046.9029
 10
-603338.6813
 20
-1162048.9218
 10
-603339.2579
 20
-1162051.0735
 10
-603339.452
 20
-1162053.2926
 10
-603339.2579
 20
-1162055.5117
 10
-603338.6813
 20
-1162057.6634
 10
-603337.7399
 20
-1162059.6823
 10
-603336.4622
 20
-1162061.507
 10
-603334.8871
 20
-1162063.0822
 10
-603333.0624
 20
-1162064.3599
 10
-603331.0435
 20
-1162065.3013
 10
-603328.8918
 20
-1162065.8778
 10
-603326.6727
 20
-1162066.072
 10
-603324.4536
 20
-1162065.8778
 10
-603322.3019
 20
-1162065.3013
 10
-603320.283
 20
-1162064.3599
 10
-603318.4582
 20
-1162063.0822
 10
-603316.8831
 20
-1162061.507
 10
-603315.6054
 20
-1162059.6823
 10
-603314.664
 20
-1162057.6634
 10
-603314.0874
 20
-1162055.5117
 10
-603313.8933
 20
-1162053.2926
 97
0
 75
0
 76
1
 98
0
  0
HATCH
  5
2001A
100
AcDbEntity
  8
skládky a antropogenní uloženiny
100
AcDbHatch
 10
0
 20
0
 30
0
210
0
220
0
230
1
  2
SOLID
 70
1
 71
0
 91
1
 92
2
 72
0
 73
1
 93
37
 10
-603121.7008
 20
-1162279.9077
 10
-603121.8949
 20
-1162277.6886
 10
-603122.4715
 20
-1162275.5369
 10
-603123.4129
 20
-1162273.518
 10
-603124.6906
 20
-1162271.6933
 10
-603126.2657
 20
-1162270.1181
 10
-603128.0905
 20
-1162268.8404
 10
-603130.1094
 20
-1162267.899
 10
-603132.2611
 20
-1162267.3225
 10
-603134.4802
 20
-1162267.1283
 10
-603136.6993
 20
-1162267.3225
 10
-603138.851
 20
-1162267.899
 10
-603140.8699
 20
-1162268.8404
 10
-603142.6946
 20
-1162270.1181
 10
-603144.2697
 20
-1162271.6933
 10
-603145.5474
 20
-1162273.518
 10
-603146.4888
 20
-1162275.5369
 10
-603147.0654
 20
-1162277.6886
 10
-603147.2595
 20
-1162279.9077
 10
-603147.0654
 20
-1162282.1268
 10
-603146.4888
 20
-1162284.2785
 10
-603145.5474
 20
-1162286.2974
 10
-603144.2697
 20
-1162288.1221
 10
-603142.6946
 20
-1162289.6973
 10
-603140.8699
 20
-1162290.975
 10
-603138.851
 20
-1162291.9164
 10
-603136.6993
 20
-1162292.4929
 10
-603134.4802
 20
-1162292.6871
 10
-603132.2611
 20
-1162292.4929
 10
-603130.1094
 20
-1162291.9164
 10
-603128.0905
 20
-1162290.975
 10
-603126.2657
 20
-1162289.6973
 10
-603124.6906
 20
-1162288.1221
 10
-603123.4129
 20
-1162286.2974
 10
-603122.4715
 20
-1162284.2785
 10
-603121.8949
 20
-1162282.1268
 10
-603121.7008
 20
-1162279.9077
 97
0
 75
0
 76
1
 98
0
  0
HATCH
  5
2001B
100
AcDbEntity
  8
skládky a antropogenní uloženiny
100
AcDbHatch
 10
0
 20
0
 30
0
210
0
220
0
230
1
  2
SOLID
 70
1
 71
0
 91
1
 92
2
 72
0
 73
1
 93
42
 10
-604568.81
 20
-1161850.13
 10
-604557.825
 20
-1161820.915
 10
-604558.71
 20
-1161810.08
 10
-604563.57
 20
-1161801.38
 10
-604565.745
 20
-1161788.195
 10
-604569
 20
-1161771.38
 10
-604580.37
 20
-1161749.36
 10
-604581.91
 20
-1161742.4
 10
-604579.16
 20
-1161730.08
 10
-604577.37
 20
-1161713.89
 10
-604574.96
 20
-1161709.12
 10
-604573.27
 20
-1161708.57
 10
-604567.73
 20
-1161712.38
 10
-604551.31
 20
-1161698.09
 10
-604539.8024
 20
-1161689.0913
 10
-604534.45
 20
-1161676.62
 10
-604533.365
 20
-1161653.1
 10
-604495.565
 20
-1161564.855
 10
-604521.042
 20
-1161546.74
 10
-604582.12
 20
-1161672.55
 10
-604589.0675
 20
-1161678.6937
 10
-604577.4234
 20
-1161643.4254
 10
-604572.8898
 20
-1161623.6909
 10
-604569.823
 20
-1161565.9542
 10
-604535.37
 20
-1161516.55
 10
-604555.05
 20
-1161499.695
 10
-604589.795
 20
-1161559.86
 10
-604594.1665
 20
-1161632.8527
 10
-604605.22
 20
-1161666.2
 10
-604610.85
 20
-1161685.15
 10
-604613.76
 20
-1161700.81
 10
-604618.72
 20
-1161709.22
 10
-604621.92
 20
-1161716.81
 10
-604622.71
 20
-1161723.73
 10
-604614.44
 20
-1161743.84
 10
-604611.07
 20
-1161759.15
 10
-604608.62
 20
-1161773.1
 10
-604598.55
 20
-1161798.53
 10
-604588.89
 20
-1161818.03
 10
-604580.41
 20
-1161836.17
 10
-604576.84
 20
-1161854.38
 10
-604568.81
 20
-1161850.13
 97
0
 75
0
 76
1
 98
0
  0
HATCH
  5
2001C
100
AcDbEntity
  8
skládky a antropogenní uloženiny
100
AcDbHatch
 10
0
 20
0
 30
0
210
0
220
0
230
1
  2
SOLID
 70
1
 71
0
 91
1
 92
2
 72
0
 73
1
 93
29
 10
-604622.71
 20
-1161723.73
 10
-604629.15
 20
-1161731.91
 10
-604642.28
 20
-1161749
 10
-604637.35
 20
-1161764.3775
 10
-604627.49
 20
-1161795.1325
 10
-604622.91
 20
-1161810.49
 10
-604610.95
 20
-1161831.3625
 10
-604604.71
 20
-1161842.84
 10
-604598.585
 20
-1161853.325
 10
-604592.74
 20
-1161863.89
 10
-604588.725
 20
-1161872.84
 10
-604584.71
 20
-1161881.79
 10
-604582.43
 20
-1161888.105
 10
-604580.15
 20
-1161894.42
 10
-604577.3
 20
-1161902.32
 10
-604572.31
 20
-1161901.27
 10
-604571.745
 20
-1161901.025
 10
-604572.955
 20
-1161896.99
 10
-604573.66
 20
-1161887.11
 10
-604572.54
 20
-1161879.65
 10
-604572.447
 20
-1161876.7882
 10
-604576.84
 20
-1161854.38
 10
-604580.41
 20
-1161836.17
 10
-604584.65
 20
-1161827.1
 10
-604598.55
 20
-1161798.53
 10
-604608.62
 20
-1161773.1
 10
-604611.07
 20
-1161759.15
 10
-604614.44
 20
-1161743.84
 10
-604622.71
 20
-1161723.73
 97
0
 75
0
 76
1
 98
0
  0
HATCH
  5
2001D
100
AcDbEntity
  8
skládky a antropogenní uloženiny
100
AcDbHatch
 10
0
 20
0
 30
0
210
0
220
0
230
1
  2
SOLID
 70
1
 71
0
 91
1
 92
2
 72
0
 73
1
 93
45
 10
-595086.8068
 20
-1164106.2024
 10
-595291.82
 20
-1164103.7
 10
-595289.7023
 20
-1164226.8193
 10
-595288.3018
 20
-1164265.7376
 10
-595267.3736
 20
-1164266.6219
 10
-595265.3688
 20
-1164344.6353
 10
-595241.5605
 20
-1164344.9854
 10
-595241.5605
 20
-1164381.0479
 10
-595204.7912
 20
-1164383.6645
 10
-595190.4231
 20
-1164389.5968
 10
-595183.6154
 20
-1164401.1799
 10
-595176.613
 20
-1164440.3935
 10
-595162.6081
 20
-1164502.015
 10
-595151.733
 20
-1164526.5235
 10
-595141.6374
 20
-1164542.5864
 10
-595128.3415
 20
-1164554.33
 10
-595109.3896
 20
-1164567.8378
 10
-595091.1833
 20
-1164570.6388
 10
-595080.9114
 20
-1164569.7592
 10
-595077.0471
 20
-1164568.6694
 10
-595067.9329
 20
-1164565.753
 10
-595056.2133
 20
-1164545.43
 10
-594970.7414
 20
-1164545.43
 10
-594960.938
 20
-1164474.0052
 10
-594953.9356
 20
-1164456.8835
 10
-594941.55
 20
-1164447.7899
 10
-594938.0967
 20
-1164445.6924
 10
-594924.5503
 20
-1164439.9844
 10
-594886.7122
 20
-1164441.794
 10
-594841.8967
 20
-1164447.396
 10
-594818.3712
 20
-1164450.197
 10
-594777.8996
 20
-1164439.9445
 10
-594703.8612
 20
-1164391.6391
 10
-594653.3137
 20
-1164330.6848
 10
-594665.23
 20
-1164263.9612
 10
-594684.8202
 20
-1164118.4464
 10
-594772.2625
 20
-1164113.91
 10
-594816.555
 20
-1164112.91
 10
-594875.33
 20
-1164110.845
 10
-594899.99
 20
-1164109.82
 10
-594957.625
 20
-1164107.435
 10
-595015.26
 20
-1164105.05
 10
-595045.9
 20
-1164106.95
 10
-595065.15
 20
-1164107.14
 10
-595086.8068
 20
-1164106.2024
 97
0
 75
0
 76
1
 98
0
  0
HATCH
  5
2001E
100
AcDbEntity
  8
skládky a antropogenní uloženiny
100
AcDbHatch
 10
0
 20
0
 30
0
210
0
220
0
230
1
  2
SOLID
 70
1
 71
0
 91
1
 92
2
 72
0
 73
1
 93
5
 10
-595337.2665
 20
-1164341.4842
 10
-595338.3692
 20
-1164381.223
 10
-595241.7356
 20
-1164381.223
 10
-595241.7356
 20
-1164341.4842
 10
-595337.2665
 20
-1164341.4842
 97
0
 75
0
 76
1
 98
0
  0
HATCH
  5
2001F
100
AcDbEntity
  8
skládky a antropogenní uloženiny
100
AcDbHatch
 10
0
 20
0
 30
0
210
0
220
0
230
1
  2
SOLID
 70
1
 71
0
 91
1
 92
2
 72
0
 73
1
 93
18
 10
-595081.0297
 20
-1164582.1928
 10
-594973.6959
 20
-1164566.3283
 10
-594948.8588
 20
-1164564.1616
 10
-594932.0967
 20
-1164561.7545
 10
-594917.3605
 20
-1164557.5259
 10
-594916.5445
 20
-1164556.5902
 10
-594915.7286
 20
-1164553.8413
 10
-594915.5535
 20
-1164551.999
 10
-594915.641
 20
-1164551.0778
 10
-594917.698
 20
-1164550.1567
 10
-594937.7425
 20
-1164553.0452
 10
-594963.5639
 20
-1164552.2574
 10
-594988.5206
 20
-1164545.5176
 10
-595013.4773
 20
-1164545.43
 10
-595055.996
 20
-1164545.9552
 10
-595067.8856
 20
-1164565.1917
 10
-595084.706
 20
-1164570.4637
 10
-595081.0297
 20
-1164582.1928
 97
0
 75
0
 76
1
 98
0
  0
HATCH
  5
20020
100
AcDbEntity
  8
skládky a antropogenní uloženiny
100
AcDbHatch
 10
0
 20
0
 30
0
210
0
220
0
230
1
  2
SOLID
 70
1
 71
0
 91
1
 92
2
 72
0
 73
1
 93
20
 10
-595080.9422
 20
-1164581.9302
 10
-595084.706
 20
-1164570.4637
 10
-595091.1833
 20
-1164570.6388
 10
-595109.3896
 20
-1164567.8378
 10
-595118.8656
 20
-1164561.0839
 10
-595141.6374
 20
-1164542.5864
 10
-595151.733
 20
-1164526.5235
 10
-595162.6081
 20
-1164502.015
 10
-595169.6105
 20
-1164471.2043
 10
-595182.3637
 20
-1164465.2522
 10
-595195.1169
 20
-1164463.9498
 10
-595202.8896
 20
-1164473.8302
 10
-595210.6623
 20
-1164488.2727
 10
-595204.1886
 20
-1164534.8661
 10
-595207.1611
 20
-1164553.2016
 10
-595225.6239
 20
-1164571.537
 10
-595244.2272
 20
-1164583.2984
 10
-595233.34
 20
-1164606.14
 10
-595186.97
 20
-1164598.3
 10
-595080.9422
 20
-1164581.9302
 97
0
 75
0
 76
1
 98
0
  0
HATCH
  5
20021
100
AcDbEntity
  8
skládky a antropogenní uloženiny
100
AcDbHatch
 10
0
 20
0
 30
0
210
0
220
0
230
1
  2
SOLID
 70
1
 71
0
 91
1
 92
2
 72
0
 73
1
 93
11
 10
-596042.568
 20
-1164337.9628
 10
-596030.948
 20
-1164338.8028
 10
-596027.77
 20
-1164338.46
 10
-596032.235
 20
-1164316.415
 10
-596036.7
 20
-1164294.37
 10
-596047.87
 20
-1164247.31
 10
-596051.538
 20
-1164244.9928
 10
-596058.26
 20
-1164244.44
 10
-596061.14
 20
-1164259.66
 10
-596050.18
 20
-1164311.38
 10
-596042.568
 20
-1164337.9628
 97
0
 75
0
 76
1
 98
0
  0
HATCH
  5
20022
100
AcDbEntity
  8
skládky a antropogenní uloženiny
100
AcDbHatch
 10
0
 20
0
 30
0
210
0
220
0
230
1
  2
SOLID
 70
1
 71
0
 91
1
 92
2
 72
0
 73
1
 93
9
 10
-595990.7686
 20
-1164720.6195
 10
-595989.3041
 20
-1164739.6966
 10
-595969.8933
 20
-1164738.8924
 10
-595970.6333
 20
-1164712.5224
 10
-595974.0035
 20
-1164706.8342
 10
-595981.2644
 20
-1164705.3418
 10
-595987.1884
 20
-1164707.055
 10
-595991.1461
 20
-1164711.9236
 10
-595990.7686
 20
-1164720.6195
 97
0
 75
0
 76
1
 98
0
  0
HATCH
  5
20023
100
AcDbEntity
  8
skládky a antropogenní uloženiny
100
AcDbHatch
 10
0
 20
0
 30
0
210
0
220
0
230
1
  2
SOLID
 70
1
 71
0
 91
1
 92
2
 72
0
 73
1
 93
39
 10
-595035.12
 20
-1165640.4989
 10
-595056.6435
 20
-1165656.3103
 10
-595068.6313
 20
-1165668.4141
 10
-595089.1956
 20
-1165688.0767
 10
-595085.8526
 20
-1165726.0649
 10
-595087.368
 20
-1165760.8139
 10
-595082.9818
 20
-1165840.496
 10
-595082.0174
 20
-1165875.2539
 10
-595081.7005
 20
-1165888.0354
 10
-595056.8904
 20
-1165900.3992
 10
-595033.9287
 20
-1165910.5188
 10
-595009.9704
 20
-1165922.0969
 10
-594980.9121
 20
-1165935.9865
 10
-594970.0381
 20
-1165941.3778
 10
-594942.7932
 20
-1165959.541
 10
-594914.8455
 20
-1165958.9225
 10
-594873.9079
 20
-1165958.9225
 10
-594808.0576
 20
-1165957.7321
 10
-594775.85
 20
-1165955.2929
 10
-594777.0173
 20
-1165941.6415
 10
-594781.4329
 20
-1165883.2611
 10
-594756.9435
 20
-1165860.2337
 10
-594739.7643
 20
-1165843.7856
 10
-594734.1902
 20
-1165838.9425
 10
-594737.08
 20
-1165822.17
 10
-594745.24
 20
-1165788.08
 10
-594760.49
 20
-1165725.7
 10
-594770.275
 20
-1165687.645
 10
-594779.82
 20
-1165650.87
 10
-594791.66
 20
-1165609.79
 10
-594803.27
 20
-1165562.5
 10
-594814.45
 20
-1165516.93
 10
-594824.93
 20
-1165472.46
 10
-594863.87
 20
-1165503.09
 10
-594937.39
 20
-1165563.01
 10
-594961.5866
 20
-1165579.9482
 10
-594992.4782
 20
-1165606.4246
 10
-595010.8102
 20
-1165623.0062
 10
-595035.12
 20
-1165640.4989
 97
0
 75
0
 76
1
 98
0
  0
HATCH
  5
20024
100
AcDbEntity
  8
skládky a antropogenní uloženiny
100
AcDbHatch
 10
0
 20
0
 30
0
210
0
220
0
230
1
  2
SOLID
 70
1
 71
0
 91
1
 92
2
 72
0
 73
1
 93
12
 10
-595278.349
 20
-1165147.2988
 10
-595290.8679
 20
-1165151.9592
 10
-595294.4316
 20
-1165161.9194
 10
-595290.3196
 20
-1165173.5245
 10
-595279.8111
 20
-1165179.4641
 10
-595231.7013
 20
-1165181.7017
 10
-595231.5632
 20
-1165174.3469
 10
-595230.8322
 20
-1165169.2297
 10
-595230.1113
 20
-1165161.0923
 10
-595230.1012
 20
-1165149.4919
 10
-595247.6972
 20
-1165148.1448
 10
-595278.349
 20
-1165147.2988
 97
0
 75
0
 76
1
 98
0
  0
HATCH
  5
20025
100
AcDbEntity
  8
skládky a antropogenní uloženiny
100
AcDbHatch
 10
0
 20
0
 30
0
210
0
220
0
230
1
  2
SOLID
 70
1
 71
0
 91
1
 92
2
 72
0
 73
1
 93
6
 10
-605633.6255
 20
-1157458.3569
 10
-605659.1755
 20
-1157475.4069
 10
-605657.7355
 20
-1157508.5669
 10
-605623.6855
 20
-1157486.2869
 10
-605628.2955
 20
-1157469.5769
 10
-605633.6255
 20
-1157458.3569
 97
0
 75
0
 76
1
 98
0
  0
HATCH
  5
20026
100
AcDbEntity
  8
skládky a antropogenní uloženiny
100
AcDbHatch
 10
0
 20
0
 30
0
210
0
220
0
230
1
  2
SOLID
 70
1
 71
0
 91
1
 92
2
 72
0
 73
1
 93
65
 10
-594957.0623
 20
-1165180.6853
 10
-594960.7275
 20
-1165180.7932
 10
-594964.3768
 20
-1165181.1183
 10
-594967.9365
 20
-1165181.654
 10
-594971.4102
 20
-1165182.4008
 10
-594974.7277
 20
-1165183.3437
 10
-594977.8922
 20
-1165184.4835
 10
-594980.8399
 20
-1165185.7973
 10
-594983.5738
 20
-1165187.2863
 10
-594986.0385
 20
-1165188.9205
 10
-594988.2365
 20
-1165190.7015
 10
-594990.1234
 20
-1165192.5933
 10
-594991.7012
 20
-1165194.5979
 10
-594992.9379
 20
-1165196.6746
 10
-594993.8348
 20
-1165198.8257
 10
-594994.3737
 20
-1165201.0076
 10
-594994.5552
 20
-1165203.2225
 10
-594994.3756
 20
-1165205.4256
 10
-594993.8348
 20
-1165207.6193
 10
-594992.9436
 20
-1165209.759
 10
-594991.7012
 20
-1165211.8471
 10
-594990.1327
 20
-1165213.8412
 10
-594988.2365
 20
-1165215.7435
 10
-594986.0509
 20
-1165217.5154
 10
-594983.5738
 20
-1165219.1587
 10
-594980.8551
 20
-1165220.6402
 10
-594977.8922
 20
-1165221.9615
 10
-594974.745
 20
-1165223.0957
 10
-594971.4102
 20
-1165224.0441
 10
-594967.9553
 20
-1165224.7875
 10
-594964.3768
 20
-1165225.3266
 10
-594960.747
 20
-1165225.6506
 10
-594957.0623
 20
-1165225.7597
 10
-594953.3971
 20
-1165225.6517
 10
-594949.7478
 20
-1165225.3266
 10
-594946.1881
 20
-1165224.7909
 10
-594942.7144
 20
-1165224.0441
 10
-594939.3969
 20
-1165223.1013
 10
-594936.2324
 20
-1165221.9615
 10
-594933.2847
 20
-1165220.6477
 10
-594930.5508
 20
-1165219.1587
 10
-594928.0861
 20
-1165217.5245
 10
-594925.8881
 20
-1165215.7435
 10
-594924.0012
 20
-1165213.8516
 10
-594922.4234
 20
-1165211.8471
 10
-594921.1867
 20
-1165209.7703
 10
-594920.2898
 20
-1165207.6193
 10
-594919.7509
 20
-1165205.4374
 10
-594919.5694
 20
-1165203.2225
 10
-594919.749
 20
-1165201.0193
 10
-594920.2898
 20
-1165198.8257
 10
-594921.181
 20
-1165196.6859
 10
-594922.4234
 20
-1165194.5979
 10
-594923.9919
 20
-1165192.6037
 10
-594925.8881
 20
-1165190.7015
 10
-594928.0737
 20
-1165188.9296
 10
-594930.5508
 20
-1165187.2863
 10
-594933.2695
 20
-1165185.8047
 10
-594936.2324
 20
-1165184.4835
 10
-594939.3796
 20
-1165183.3492
 10
-594942.7144
 20
-1165182.4008
 10
-594946.1693
 20
-1165181.6575
 10
-594949.7478
 20
-1165181.1183
 10
-594953.3776
 20
-1165180.7944
 10
-594957.0623
 20
-1165180.6853
 97
0
 75
0
 76
1
 98
0
  0
HATCH
  5
20027
100
AcDbEntity
  8
skládky a antropogenní uloženiny
100
AcDbHatch
 10
0
 20
0
 30
0
210
0
220
0
230
1
  2
SOLID
 70
1
 71
0
 91
1
 92
2
 72
0
 73
1
 93
14
 10
-595217.8565
 20
-1165396.7621
 10
-595225.715
 20
-1165389.269
 10
-595240.7757
 20
-1165377.4701
 10
-595259.4502
 20
-1165369.8929
 10
-595271.8915
 20
-1165368.0473
 10
-595284.9283
 20
-1165369.679
 10
-595289.4037
 20
-1165373.8767
 10
-595293.3351
 20
-1165382.7012
 10
-595294.3532
 20
-1165391.6018
 10
-595291.5075
 20
-1165404.9861
 10
-595280.646
 20
-1165412.4649
 10
-595261.2438
 20
-1165412.7551
 10
-595240.7011
 20
-1165407.1792
 10
-595217.8565
 20
-1165396.7621
 97
0
 75
0
 76
1
 98
0
  0
HATCH
  5
20028
100
AcDbEntity
  8
skládky a antropogenní uloženiny
100
AcDbHatch
 10
0
 20
0
 30
0
210
0
220
0
230
1
  2
SOLID
 70
1
 71
0
 91
1
 92
2
 72
0
 73
1
 93
18
 10
-595100.892
 20
-1165413.5757
 10
-595095.0438
 20
-1165436.9686
 10
-595088.81
 20
-1165460.7717
 10
-595057.2453
 20
-1165463.4537
 10
-595065.8027
 20
-1165564.1674
 10
-594978.8104
 20
-1165563.4364
 10
-594944.2914
 20
-1165550.4718
 10
-594907.9007
 20
-1165520.3058
 10
-594852.3426
 20
-1165474.251
 10
-594838.4455
 20
-1165458.1876
 10
-594857.4598
 20
-1165409.9206
 10
-594866.9631
 20
-1165385.7967
 10
-594874.7801
 20
-1165378.1341
 10
-594972.9622
 20
-1165382.1415
 10
-595044.6029
 20
-1165385.0656
 10
-595075.3061
 20
-1165390.1828
 10
-595092.1197
 20
-1165400.4172
 10
-595100.892
 20
-1165413.5757
 97
0
 75
0
 76
1
 98
0
  0
HATCH
  5
20029
100
AcDbEntity
  8
skládky a antropogenní uloženiny
100
AcDbHatch
 10
0
 20
0
 30
0
210
0
220
0
230
1
  2
SOLID
 70
1
 71
0
 91
1
 92
2
 72
0
 73
1
 93
34
 10
-595478.2851
 20
-1165240.8704
 10
-595471.6546
 20
-1165249.6229
 10
-595444.6578
 20
-1165240.1394
 10
-595421.6305
 20
-1165225.8843
 10
-595405.1823
 20
-1165217.843
 10
-595366.6206
 20
-1165220.9499
 10
-595369.7401
 20
-1165345.7269
 10
-595380.4803
 20
-1165367.261
 10
-595421.6579
 20
-1165360.4848
 10
-595426.7477
 20
-1165361.49
 10
-595440.5458
 20
-1165378.5778
 10
-595443.1044
 20
-1165393.5219
 10
-595438.17
 20
-1165408.1718
 10
-595436.7993
 20
-1165411.0171
 10
-595426.3978
 20
-1165416.5912
 10
-595392.0238
 20
-1165423.6274
 10
-595423.1499
 20
-1165578.2532
 10
-595408.8575
 20
-1165580.4187
 10
-595400.2479
 20
-1165523.5954
 10
-595379.9526
 20
-1165414.9299
 10
-595422.555
 20
-1165407.0879
 10
-595427.3506
 20
-1165405.5079
 10
-595428.6666
 20
-1165404.1637
 10
-595434.5148
 20
-1165393.3811
 10
-595432.139
 20
-1165381.6846
 10
-595423.5494
 20
-1165371.8158
 10
-595418.615
 20
-1165369.4399
 10
-595376.1547
 20
-1165377.7447
 10
-595361.7567
 20
-1165350.4593
 10
-595354.9242
 20
-1165209.2535
 10
-595403.2681
 20
-1165206.9142
 10
-595425.2856
 20
-1165218.2085
 10
-595450.8716
 20
-1165232.8291
 10
-595478.2851
 20
-1165240.8704
 97
0
 75
0
 76
1
 98
0
  0
HATCH
  5
2002A
100
AcDbEntity
  8
skládky a antropogenní uloženiny
100
AcDbHatch
 10
0
 20
0
 30
0
210
0
220
0
230
1
  2
SOLID
 70
1
 71
0
 91
1
 92
2
 72
0
 73
1
 93
5
 10
-595579.7581
 20
-1166289.5723
 10
-595593.649
 20
-1166310.5047
 10
-595584.7764
 20
-1166344.3317
 10
-595566.0998
 20
-1166344.4482
 10
-595579.7581
 20
-1166289.5723
 97
0
 75
0
 76
1
 98
0
  0
HATCH
  5
2002B
100
AcDbEntity
  8
skládky a antropogenní uloženiny
100
AcDbHatch
 10
0
 20
0
 30
0
210
0
220
0
230
1
  2
SOLID
 70
1
 71
0
 91
1
 92
2
 72
0
 73
1
 93
5
 10
-595941.9395
 20
-1165543.6987
 10
-595943.4016
 20
-1165559.7813
 10
-595826.4371
 20
-1165559.7813
 10
-595826.4371
 20
-1165543.6987
 10
-595941.9395
 20
-1165543.6987
 97
0
 75
0
 76
1
 98
0
  0
HATCH
  5
2002C
100
AcDbEntity
  8
skládky a antropogenní uloženiny
100
AcDbHatch
 10
0
 20
0
 30
0
210
0
220
0
230
1
  2
SOLID
 70
1
 71
0
 91
1
 92
2
 72
0
 73
1
 93
15
 10
-596378.7286
 20
-1165286.0114
 10
-596370.3207
 20
-1165290.7408
 10
-596361.9993
 20
-1165276.1088
 10
-596350.7829
 20
-1165261.3956
 10
-596328.4816
 20
-1165243.0635
 10
-596310.1947
 20
-1165233.1946
 10
-596243.6859
 20
-1165200.7462
 10
-596248.1379
 20
-1165192.5331
 10
-596269.0744
 20
-1165202.6742
 10
-596315.8602
 20
-1165225.3361
 10
-596338.2648
 20
-1165238.3118
 10
-596347.5127
 20
-1165245.7906
 10
-596359.5724
 20
-1165256.5875
 10
-596369.9563
 20
-1165270.6598
 10
-596378.7286
 20
-1165286.0114
 97
0
 75
0
 76
1
 98
0
  0
HATCH
  5
2002D
100
AcDbEntity
  8
skládky a antropogenní uloženiny
100
AcDbHatch
 10
0
 20
0
 30
0
210
0
220
0
230
1
  2
SOLID
 70
1
 71
0
 91
1
 92
2
 72
0
 73
1
 93
27
 10
-594985.5724
 20
-1165222.9602
 10
-595049.9028
 20
-1165252.2013
 10
-595073.6281
 20
-1165274.8991
 10
-595085.906
 20
-1165293.6872
 10
-595089.2999
 20
-1165312.5234
 10
-595084.9922
 20
-1165322.38
 10
-595077.3209
 20
-1165335.1772
 10
-595074.7395
 20
-1165351.1475
 10
-595068.8593
 20
-1165360.1167
 10
-595054.4718
 20
-1165371.5416
 10
-595041.3133
 20
-1165377.7554
 10
-595032.5014
 20
-1165380.1516
 10
-595017.1893
 20
-1165382.1415
 10
-595004.7619
 20
-1165377.0243
 10
-594993.7965
 20
-1165363.8658
 10
-594988.1167
 20
-1165324.7248
 10
-594977.7358
 20
-1165325.4869
 10
-594973.3939
 20
-1165347.4177
 10
-594965.9984
 20
-1165361.0951
 10
-594947.7417
 20
-1165355.459
 10
-594943.1728
 20
-1165304.8353
 10
-594919.7799
 20
-1165271.2081
 10
-594918.6833
 20
-1165249.8153
 10
-594927.1815
 20
-1165237.8549
 10
-594934.766
 20
-1165230.6171
 10
-594957.4492
 20
-1165222.9602
 10
-594985.5724
 20
-1165222.9602
 97
0
 75
0
 76
1
 98
0
  0
HATCH
  5
2002E
100
AcDbEntity
  8
skládky a antropogenní uloženiny
100
AcDbHatch
 10
0
 20
0
 30
0
210
0
220
0
230
1
  2
SOLID
 70
1
 71
0
 91
1
 92
2
 72
0
 73
1
 93
8
 10
-594891.6353
 20
-1165136.3334
 10
-594822.9187
 20
-1165455.0615
 10
-594657.7064
 20
-1165383.4208
 10
-594488.108
 20
-1165292.7734
 10
-594527.5835
 20
-1165079.3133
 10
-594596.331
 20
-1165075.0439
 10
-594736.6574
 20
-1165104.1682
 10
-594891.6353
 20
-1165136.3334
 97
0
 75
0
 76
1
 98
0
  0
HATCH
  5
2002F
100
AcDbEntity
  8
skládky a antropogenní uloženiny
100
AcDbHatch
 10
0
 20
0
 30
0
210
0
220
0
230
1
  2
SOLID
 70
1
 71
0
 91
1
 92
2
 72
0
 73
1
 93
19
 10
-606075.7996
 20
-1157564.0755
 10
-606038.4203
 20
-1157594.1967
 10
-606041.52
 20
-1157607.82
 10
-606031.43
 20
-1157611.52
 10
-606024.485
 20
-1157617.425
 10
-606027.895
 20
-1157599.85
 10
-606023.4333
 20
-1157573.7066
 10
-606004.7488
 20
-1157565.3956
 10
-606005.447
 20
-1157558.61
 10
-606022.02
 20
-1157560.7
 10
-606040.9607
 20
-1157559.3577
 10
-606042.2529
 20
-1157549.9556
 10
-605991.1776
 20
-1157521.1877
 10
-605955.6225
 20
-1157499.285
 10
-605963.18
 20
-1157484.1
 10
-606017.26
 20
-1157511.06
 10
-606042.7
 20
-1157526.16
 10
-606069.39
 20
-1157547.63
 10
-606075.7996
 20
-1157564.0755
 97
0
 75
0
 76
1
 98
0
  0
HATCH
  5
20030
100
AcDbEntity
  8
skládky a antropogenní uloženiny
100
AcDbHatch
 10
0
 20
0
 30
0
210
0
220
0
230
1
  2
SOLID
 70
1
 71
0
 91
1
 92
2
 72
0
 73
1
 93
7
 10
-595176.39
 20
-1164717.82
 10
-595158.12
 20
-1164922.55
 10
-594917.33
 20
-1164862.92
 10
-594925.07
 20
-1164801.47
 10
-594942.7957
 20
-1164710.2072
 10
-595064.14
 20
-1164705.59
 10
-595176.39
 20
-1164717.82
 97
0
 75
0
 76
1
 98
0
  0
HATCH
  5
20031
100
AcDbEntity
  8
skládky a antropogenní uloženiny
100
AcDbHatch
 10
0
 20
0
 30
0
210
0
220
0
230
1
  2
SOLID
 70
1
 71
0
 91
1
 92
2
 72
0
 73
1
 93
21
 10
-595294.97
 20
-1164105.72
 10
-595296.39
 20
-1164114.19
 10
-595298.14
 20
-1164126.05
 10
-595299.31
 20
-1164134.34
 10
-595300.6
 20
-1164149.565
 10
-595300.85
 20
-1164168.32
 10
-595300.875
 20
-1164203.595
 10
-595302.39
 20
-1164227.94
 10
-595313.44
 20
-1164266.34
 10
-595333.43
 20
-1164309.84
 10
-595334.11
 20
-1164317.385
 10
-595309.2046
 20
-1164329.6161
 10
-595289.5142
 20
-1164335.1341
 10
-595268.9094
 20
-1164340.3087
 10
-595247.7137
 20
-1164342.5125
 10
-595227.57
 20
-1164269.81
 10
-595214.1741
 20
-1164219.5276
 10
-595209.1137
 20
-1164195.9184
 10
-595193.2484
 20
-1164156.3026
 10
-595173.2559
 20
-1164110.5253
 10
-595294.97
 20
-1164105.72
 97
0
 75
0
 76
1
 98
0
  0
HATCH
  5
20032
100
AcDbEntity
  8
skládky a antropogenní uloženiny
100
AcDbHatch
 10
0
 20
0
 30
0
210
0
220
0
230
1
  2
SOLID
 70
1
 71
0
 91
1
 92
2
 72
0
 73
1
 93
12
 10
-595176.39
 20
-1164717.82
 10
-595170.52
 20
-1164782.27
 10
-595164.32
 20
-1164852.41
 10
-595158.12
 20
-1164922.55
 10
-595037.725
 20
-1164892.735
 10
-594917.33
 20
-1164862.92
 10
-594925.07
 20
-1164801.47
 10
-594943.31
 20
-1164709.35
 10
-595004.23
 20
-1164708.26
 10
-595064.14
 20
-1164705.59
 10
-595101.135
 20
-1164708.94
 10
-595176.39
 20
-1164717.82
 97
0
 75
0
 76
1
 98
0
  0
HATCH
  5
20033
100
AcDbEntity
  8
skládky a antropogenní uloženiny
100
AcDbHatch
 10
0
 20
0
 30
0
210
0
220
0
230
1
  2
SOLID
 70
1
 71
0
 91
1
 92
2
 72
0
 73
1
 93
35
 10
-595173.2559
 20
-1164110.5253
 10
-595193.2484
 20
-1164156.3026
 10
-595209.1137
 20
-1164195.9184
 10
-595227.57
 20
-1164269.81
 10
-595248.69
 20
-1164349.08
 10
-595247.2746
 20
-1164419.6847
 10
-595244.2272
 20
-1164583.2984
 10
-595245.1019
 20
-1164611.1209
 10
-595186.97
 20
-1164598.3
 10
-595185.575
 20
-1164613.355
 10
-595184.18
 20
-1164628.41
 10
-595138.15
 20
-1164627.89
 10
-595101.925
 20
-1164627.39
 10
-595040.6
 20
-1164625.48
 10
-595015.5
 20
-1164624.07
 10
-594966.2
 20
-1164625.56
 10
-594970.19
 20
-1164606.9
 10
-594974.88
 20
-1164585.33
 10
-594930.255
 20
-1164578.945
 10
-594885.63
 20
-1164572.56
 10
-594766.24
 20
-1164564.49
 10
-594646.85
 20
-1164556.42
 10
-594615.16
 20
-1164550
 10
-594638.64
 20
-1164415.25
 10
-594651.875
 20
-1164336.575
 10
-594675.52
 20
-1164197.755
 10
-594687.41
 20
-1164127.94
 10
-594686.2
 20
-1164117.27
 10
-594794.4087
 20
-1164113.41
 10
-594862.39
 20
-1164111.38
 10
-594946.35
 20
-1164106.895
 10
-594979.9875
 20
-1164106.51
 10
-595058.675
 20
-1164106.1275
 10
-595092.765
 20
-1164106.675
 10
-595173.2559
 20
-1164110.5253
 97
0
 75
0
 76
1
 98
0
  0
HATCH
  5
20034
100
AcDbEntity
  8
skládky a antropogenní uloženiny
100
AcDbHatch
 10
0
 20
0
 30
0
210
0
220
0
230
1
  2
SOLID
 70
1
 71
0
 91
1
 92
2
 72
0
 73
1
 93
6
 10
-605560.49
 20
-1155409.22
 10
-605578.51
 20
-1155406.31
 10
-605588.9431
 20
-1155424.2829
 10
-605539.27
 20
-1155425.75
 10
-605536.4
 20
-1155409.49
 10
-605560.49
 20
-1155409.22
 97
0
 75
0
 76
1
 98
0
  0
HATCH
  5
20035
100
AcDbEntity
  8
skládky a antropogenní uloženiny
100
AcDbHatch
 10
0
 20
0
 30
0
210
0
220
0
230
1
  2
SOLID
 70
1
 71
0
 91
1
 92
2
 72
0
 73
1
 93
9
 10
-604898.0841
 20
-1155666.4246
 10
-604881.165
 20
-1155708.535
 10
-604872.5097
 20
-1155748.9748
 10
-604873.6419
 20
-1155771.4749
 10
-604855.2945
 20
-1155763.764
 10
-604864.9545
 20
-1155737.774
 10
-604872.62
 20
-1155716.25
 10
-604896.875
 20
-1155656.34
 10
-604898.0841
 20
-1155666.4246
 97
0
 75
0
 76
1
 98
0
  0
HATCH
  5
20036
100
AcDbEntity
  8
skládky a antropogenní uloženiny
100
AcDbHatch
 10
0
 20
0
 30
0
210
0
220
0
230
1
  2
SOLID
 70
1
 71
0
 91
1
 92
2
 72
0
 73
1
 93
11
 10
-605606.5394
 20
-1156155.5476
 10
-605536.5394
 20
-1156205.1126
 10
-605479.9085
 20
-1156226.7682
 10
-605444.0544
 20
-1156245.2076
 10
-605391.641
 20
-1156265.618
 10
-605399.3435
 20
-1156246.3651
 10
-605469.9097
 20
-1156218.27
 10
-605527.813
 20
-1156194.8325
 10
-605558.2962
 20
-1156175.2356
 10
-605599.8373
 20
-1156144.1616
 10
-605606.5394
 20
-1156155.5476
 97
0
 75
0
 76
1
 98
0
  0
HATCH
  5
20037
100
AcDbEntity
  8
skládky a antropogenní uloženiny
100
AcDbHatch
 10
0
 20
0
 30
0
210
0
220
0
230
1
  2
SOLID
 70
1
 71
0
 91
1
 92
2
 72
0
 73
1
 93
11
 10
-605005.2978
 20
-1155901.1977
 10
-604991.805
 20
-1155909.66
 10
-604944.38
 20
-1155970.7
 10
-604894.01
 20
-1156052.57
 10
-604892.43
 20
-1156038.86
 10
-604925.755
 20
-1155992.705
 10
-604941.505
 20
-1155962.665
 10
-604978.1
 20
-1155917.5
 10
-604990.05
 20
-1155899.05
 10
-605001.3957
 20
-1155893.9899
 10
-605005.2978
 20
-1155901.1977
 97
0
 75
0
 76
1
 98
0
  0
HATCH
  5
20038
100
AcDbEntity
  8
skládky a antropogenní uloženiny
100
AcDbHatch
 10
0
 20
0
 30
0
210
0
220
0
230
1
  2
SOLID
 70
1
 71
0
 91
1
 92
2
 72
0
 73
1
 93
25
 10
-605285.1
 20
-1156806.86
 10
-605292.97
 20
-1156826.65
 10
-605286.235
 20
-1156827.665
 10
-605246.7417
 20
-1156792.6175
 10
-605221.0212
 20
-1156761.7469
 10
-605177.7896
 20
-1156701.4488
 10
-605161.0959
 20
-1156675.3196
 10
-605129.2153
 20
-1156605.2919
 10
-605097.9503
 20
-1156550.4801
 10
-605052.2242
 20
-1156518.5444
 10
-605030.3684
 20
-1156510.793
 10
-605000
 20
-1156504.42
 10
-605007.97
 20
-1156493.24
 10
-605024.84
 20
-1156490.72
 10
-605051.605
 20
-1156493.655
 10
-605072.662
 20
-1156504.87
 10
-605089.6035
 20
-1156515.6411
 10
-605120.52
 20
-1156540.445
 10
-605142.69
 20
-1156590.31
 10
-605179.505
 20
-1156661.59
 10
-605187.48
 20
-1156678.61
 10
-605207.87
 20
-1156701.68
 10
-605242.3868
 20
-1156750.804
 10
-605261.9837
 20
-1156777.659
 10
-605285.1
 20
-1156806.86
 97
0
 75
0
 76
1
 98
0
  0
HATCH
  5
20039
100
AcDbEntity
  8
skládky a antropogenní uloženiny
100
AcDbHatch
 10
0
 20
0
 30
0
210
0
220
0
230
1
  2
SOLID
 70
1
 71
0
 91
1
 92
2
 72
0
 73
1
 93
29
 10
-604497.97
 20
-1156665.465
 10
-604488.9947
 20
-1156660.8034
 10
-604471.445
 20
-1156623.545
 10
-604472.045
 20
-1156550.555
 10
-604478.64
 20
-1156504.655
 10
-604473.15
 20
-1156499.01
 10
-604460.52
 20
-1156575.7
 10
-604451.4855
 20
-1156673.2813
 10
-604435.4661
 20
-1156685.8439
 10
-604420.2241
 20
-1156713.4247
 10
-604407.15
 20
-1156712.5
 10
-604406.85
 20
-1156704.125
 10
-604406.55
 20
-1156695.75
 10
-604423.68
 20
-1156663.925
 10
-604426.0464
 20
-1156656.5532
 10
-604426.73
 20
-1156641.75
 10
-604424.9418
 20
-1156625.2386
 10
-604425
 20
-1156603.68
 10
-604423.52
 20
-1156563.12
 10
-604431.3785
 20
-1156535.1861
 10
-604449.54
 20
-1156509.24
 10
-604458.115
 20
-1156438.51
 10
-604479.36
 20
-1156432.425
 10
-604498.55
 20
-1156478.22
 10
-604506.42
 20
-1156505.09
 10
-604503.3
 20
-1156564.515
 10
-604493.51
 20
-1156612.08
 10
-604497.6375
 20
-1156650.1226
 10
-604497.97
 20
-1156665.465
 97
0
 75
0
 76
1
 98
0
  0
HATCH
  5
2003A
100
AcDbEntity
  8
skládky a antropogenní uloženiny
100
AcDbHatch
 10
0
 20
0
 30
0
210
0
220
0
230
1
  2
SOLID
 70
1
 71
0
 91
1
 92
2
 72
0
 73
1
 93
15
 10
-604399.97
 20
-1156951.747
 10
-604449.07
 20
-1156973.98
 10
-604442.885
 20
-1156991.505
 10
-604431.36
 20
-1156989.22
 10
-604389.46
 20
-1156966.9
 10
-604359.79
 20
-1156949.57
 10
-604308.56
 20
-1156932.205
 10
-604256.65
 20
-1156878.9
 10
-604200.91
 20
-1156822.53
 10
-604197.915
 20
-1156791.025
 10
-604209.225
 20
-1156769.025
 10
-604255.855
 20
-1156821.51
 10
-604335.395
 20
-1156907.47
 10
-604353.955
 20
-1156925.955
 10
-604399.97
 20
-1156951.747
 97
0
 75
0
 76
1
 98
0
  0
HATCH
  5
2003B
100
AcDbEntity
  8
skládky a antropogenní uloženiny
100
AcDbHatch
 10
0
 20
0
 30
0
210
0
220
0
230
1
  2
SOLID
 70
1
 71
0
 91
1
 92
2
 72
0
 73
1
 93
7
 10
-605453.2023
 20
-1157296.3395
 10
-605455.29
 20
-1157304.755
 10
-605415.1718
 20
-1157302.0576
 10
-605378.5695
 20
-1157312.3159
 10
-605376.3102
 20
-1157299.8965
 10
-605417.12
 20
-1157286.85
 10
-605453.2023
 20
-1157296.3395
 97
0
 75
0
 76
1
 98
0
  0
HATCH
  5
2003C
100
AcDbEntity
  8
skládky a antropogenní uloženiny
100
AcDbHatch
 10
0
 20
0
 30
0
210
0
220
0
230
1
  2
SOLID
 70
1
 71
0
 91
1
 92
2
 72
0
 73
1
 93
9
 10
-605346.02
 20
-1157253.78
 10
-605353.815
 20
-1157265.585
 10
-605300.287
 20
-1157308.4015
 10
-605299.975
 20
-1157330.02
 10
-605305.82
 20
-1157346.62
 10
-605271.22
 20
-1157389.65
 10
-605258.6093
 20
-1157382.6058
 10
-605293.17
 20
-1157285.83
 10
-605346.02
 20
-1157253.78
 97
0
 75
0
 76
1
 98
0
  0
HATCH
  5
2003D
100
AcDbEntity
  8
skládky a antropogenní uloženiny
100
AcDbHatch
 10
0
 20
0
 30
0
210
0
220
0
230
1
  2
SOLID
 70
1
 71
0
 91
1
 92
2
 72
0
 73
1
 93
17
 10
-605056.71
 20
-1157464.595
 10
-605026.27
 20
-1157496.55
 10
-605000
 20
-1157533.43
 10
-604967.3
 20
-1157607.53
 10
-604926.1117
 20
-1157725.8085
 10
-604884.9235
 20
-1157778.947
 10
-604802.547
 20
-1157889.4705
 10
-604740.44
 20
-1157929.62
 10
-604739.08
 20
-1157902.8
 10
-604786.07
 20
-1157877.22
 10
-604884.9247
 20
-1157707.4232
 10
-604909.2985
 20
-1157671.8804
 10
-604930.5555
 20
-1157635.2548
 10
-604947.4
 20
-1157601.3
 10
-604977.692
 20
-1157539.15
 10
-605015.56
 20
-1157480.41
 10
-605056.71
 20
-1157464.595
 97
0
 75
0
 76
1
 98
0
  0
HATCH
  5
2003E
100
AcDbEntity
  8
skládky a antropogenní uloženiny
100
AcDbHatch
 10
0
 20
0
 30
0
210
0
220
0
230
1
  2
SOLID
 70
1
 71
0
 91
1
 92
2
 72
0
 73
1
 93
21
 10
-604665.63
 20
-1157852.245
 10
-604589.29
 20
-1157835
 10
-604595.74
 20
-1157816.38
 10
-604615.79
 20
-1157811.585
 10
-604625.52
 20
-1157798.06
 10
-604629.765
 20
-1157783.145
 10
-604624.63
 20
-1157773.545
 10
-604602.06
 20
-1157741.59
 10
-604556.36
 20
-1157687.25
 10
-604534.683
 20
-1157665.269
 10
-604495.29
 20
-1157637.4
 10
-604471.49
 20
-1157607.85
 10
-604475.13
 20
-1157603.66
 10
-604494.44
 20
-1157587.94
 10
-604594.05
 20
-1157623.54
 10
-604626.017
 20
-1157684
 10
-604645.95
 20
-1157749.01
 10
-604658.78
 20
-1157755.86
 10
-604688.175
 20
-1157792.25
 10
-604662.25
 20
-1157818.05
 10
-604665.63
 20
-1157852.245
 97
0
 75
0
 76
1
 98
0
  0
HATCH
  5
2003F
100
AcDbEntity
  8
skládky a antropogenní uloženiny
100
AcDbHatch
 10
0
 20
0
 30
0
210
0
220
0
230
1
  2
SOLID
 70
1
 71
0
 91
1
 92
2
 72
0
 73
1
 93
15
 10
-604123.02
 20
-1157058.75
 10
-604123.88
 20
-1157102.46
 10
-604135.6681
 20
-1157171.744
 10
-604096.64
 20
-1157134.11
 10
-604068.575
 20
-1157094.31
 10
-604026
 20
-1157057.72
 10
-603984.57
 20
-1157042.11
 10
-603949.17
 20
-1157021.37
 10
-603911.46
 20
-1156998.51
 10
-603881.7385
 20
-1156974.4192
 10
-603847.9
 20
-1156945.62
 10
-603989.155
 20
-1156989.105
 10
-604039.295
 20
-1157012
 10
-604096.3681
 20
-1157035.714
 10
-604123.02
 20
-1157058.75
 97
0
 75
0
 76
1
 98
0
  0
HATCH
  5
20040
100
AcDbEntity
  8
skládky a antropogenní uloženiny
100
AcDbHatch
 10
0
 20
0
 30
0
210
0
220
0
230
1
  2
SOLID
 70
1
 71
0
 91
1
 92
2
 72
0
 73
1
 93
14
 10
-603319.81
 20
-1157091.5
 10
-603315.6016
 20
-1157100.4836
 10
-603301.6581
 20
-1157113.1653
 10
-603294.9966
 20
-1157115.5174
 10
-603289.9
 20
-1157117.7485
 10
-603271.3092
 20
-1157123.4833
 10
-603261.93
 20
-1157124.07
 10
-603263.1901
 20
-1157110.8099
 10
-603281.7466
 20
-1157092.9574
 10
-603293.195
 20
-1157085.51
 10
-603300.91
 20
-1157083.07
 10
-603311.8083
 20
-1157080.89
 10
-603317.7128
 20
-1157084.4719
 10
-603319.81
 20
-1157091.5
 97
0
 75
0
 76
1
 98
0
  0
HATCH
  5
20041
100
AcDbEntity
  8
skládky a antropogenní uloženiny
100
AcDbHatch
 10
0
 20
0
 30
0
210
0
220
0
230
1
  2
SOLID
 70
1
 71
0
 91
1
 92
2
 72
0
 73
1
 93
5
 10
-603307.66
 20
-1157293.27
 10
-603306.01
 20
-1157340.19
 10
-603250.525
 20
-1157316.685
 10
-603263.51
 20
-1157279.22
 10
-603307.66
 20
-1157293.27
 97
0
 75
0
 76
1
 98
0
  0
HATCH
  5
20042
100
AcDbEntity
  8
skládky a antropogenní uloženiny
100
AcDbHatch
 10
0
 20
0
 30
0
210
0
220
0
230
1
  2
SOLID
 70
1
 71
0
 91
1
 92
2
 72
0
 73
1
 93
5
 10
-605689.12
 20
-1154273.27
 10
-605756.245
 20
-1154317.31
 10
-605718.16
 20
-1154310.105
 10
-605654.6
 20
-1154269.49
 10
-605689.12
 20
-1154273.27
 97
0
 75
0
 76
1
 98
0
  0
HATCH
  5
20043
100
AcDbEntity
  8
skládky a antropogenní uloženiny
100
AcDbHatch
 10
0
 20
0
 30
0
210
0
220
0
230
1
  2
SOLID
 70
1
 71
0
 91
1
 92
2
 72
0
 73
1
 93
5
 10
-605298.427
 20
-1154906.9603
 10
-605306.802
 20
-1154924.5178
 10
-605287.8053
 20
-1154948.9291
 10
-605271.857
 20
-1154938.2853
 10
-605298.427
 20
-1154906.9603
 97
0
 75
0
 76
1
 98
0
  0
HATCH
  5
20044
100
AcDbEntity
  8
skládky a antropogenní uloženiny
100
AcDbHatch
 10
0
 20
0
 30
0
210
0
220
0
230
1
  2
SOLID
 70
1
 71
0
 91
1
 92
2
 72
0
 73
1
 93
9
 10
-605549.86
 20
-1155145.62
 10
-605595.6532
 20
-1155170.2484
 10
-605600.5415
 20
-1155180.47
 10
-605599.39
 20
-1155184.055
 10
-605591.6354
 20
-1155186.7627
 10
-605578.5786
 20
-1155185.4055
 10
-605560.8108
 20
-1155173.0668
 10
-605537.5596
 20
-1155154.5048
 10
-605549.86
 20
-1155145.62
 97
0
 75
0
 76
1
 98
0
  0
HATCH
  5
20045
100
AcDbEntity
  8
skládky a antropogenní uloženiny
100
AcDbHatch
 10
0
 20
0
 30
0
210
0
220
0
230
1
  2
SOLID
 70
1
 71
0
 91
1
 92
2
 72
0
 73
1
 93
6
 10
-603381.29
 20
-1156447.59
 10
-603361.93
 20
-1156440.21
 10
-603507.5346
 20
-1156250.4513
 10
-603528.605
 20
-1156268.58
 10
-603472.96
 20
-1156336.37
 10
-603381.29
 20
-1156447.59
 97
0
 75
0
 76
1
 98
0
  0
HATCH
  5
20046
100
AcDbEntity
  8
skládky a antropogenní uloženiny
100
AcDbHatch
 10
0
 20
0
 30
0
210
0
220
0
230
1
  2
SOLID
 70
1
 71
0
 91
1
 92
2
 72
0
 73
1
 93
7
 10
-599464.2698
 20
-1152961.8816
 10
-599460.09
 20
-1152986.74
 10
-599423.38
 20
-1152988.61
 10
-599413.1461
 20
-1152971.5557
 10
-599421.51
 20
-1152951.9
 10
-599450.2293
 20
-1152951.6027
 10
-599464.2698
 20
-1152961.8816
 97
0
 75
0
 76
1
 98
0
  0
HATCH
  5
20047
100
AcDbEntity
  8
skládky a antropogenní uloženiny
100
AcDbHatch
 10
0
 20
0
 30
0
210
0
220
0
230
1
  2
SOLID
 70
1
 71
0
 91
1
 92
2
 72
0
 73
1
 93
30
 10
-595686.3542
 20
-1163482.7105
 10
-595651.1094
 20
-1163460.8923
 10
-595663.02
 20
-1163441.6522
 10
-595663.487
 20
-1163427.2563
 10
-595652.7878
 20
-1163415.5777
 10
-595627.613
 20
-1163405.5078
 10
-595616.0745
 20
-1163399.2542
 10
-595612.8933
 20
-1163392.9257
 10
-595612.7179
 20
-1163384.0805
 10
-595626.9689
 20
-1163364.514
 10
-595633.6969
 20
-1163333.34
 10
-595637.0273
 20
-1163312.2125
 10
-595643.8425
 20
-1163304.2199
 10
-595655.6112
 20
-1163303.9898
 10
-595666.4241
 20
-1163307.3261
 10
-595675.2353
 20
-1163316.9764
 10
-595698.2873
 20
-1163324.6724
 10
-595727.9803
 20
-1163324.486
 10
-595745.2744
 20
-1163314.1736
 10
-595760.8225
 20
-1163296.8524
 10
-595773.4938
 20
-1163296.5825
 10
-595786.0044
 20
-1163303.7326
 10
-595790.7247
 20
-1163306.9853
 10
-595796.4939
 20
-1163327.4659
 10
-595794.5943
 20
-1163348.0499
 10
-595791.4925
 20
-1163362.1064
 10
-595783.0673
 20
-1163378.6547
 10
-595768.9359
 20
-1163398.7945
 10
-595740.0604
 20
-1163430.6826
 10
-595686.3542
 20
-1163482.7105
 97
0
 75
0
 76
1
 98
0
  0
HATCH
  5
20048
100
AcDbEntity
  8
skládky a antropogenní uloženiny
100
AcDbHatch
 10
0
 20
0
 30
0
210
0
220
0
230
1
  2
SOLID
 70
1
 71
0
 91
1
 92
2
 72
0
 73
1
 93
34
 10
-596001.4587
 20
-1163753.7591
 10
-595970.62
 20
-1163767.85
 10
-595941.18
 20
-1163785.45
 10
-595938.5217
 20
-1163827.6052
 10
-595939.3609
 20
-1163862.8499
 10
-595950.4
 20
-1163896.35
 10
-595821.11
 20
-1163987.975
 10
-595753.725
 20
-1164051.335
 10
-595726.01
 20
-1164082.21
 10
-595696.1
 20
-1164122.42
 10
-595674.11
 20
-1164161.82
 10
-595636.265
 20
-1164231.21
 10
-595539.945
 20
-1164203.955
 10
-595517.13
 20
-1164097.055
 10
-595516.14
 20
-1164012.05
 10
-595525.76
 20
-1163886.08
 10
-595548.3123
 20
-1163839.3535
 10
-595623.88
 20
-1163735.225
 10
-595666.54
 20
-1163609.89
 10
-595679.87
 20
-1163581.75
 10
-595738.165
 20
-1163490.4
 10
-595774.26
 20
-1163436.86
 10
-595830.48
 20
-1163354.76
 10
-595904.25
 20
-1163302.455
 10
-595989.7105
 20
-1163280.4729
 10
-596008.6509
 20
-1163365.4491
 10
-596055.1649
 20
-1163436.5567
 10
-596066.9132
 20
-1163468.4448
 10
-596078.6614
 20
-1163500.3328
 10
-596048.4517
 20
-1163562.4307
 10
-596090.4097
 20
-1163656.4166
 10
-596090.4097
 20
-1163695.018
 10
-596070.2698
 20
-1163725.2277
 10
-596001.4587
 20
-1163753.7591
 97
0
 75
0
 76
1
 98
0
  0
HATCH
  5
20049
100
AcDbEntity
  8
skládky a antropogenní uloženiny
100
AcDbHatch
 10
0
 20
0
 30
0
210
0
220
0
230
1
  2
SOLID
 70
1
 71
0
 91
1
 92
2
 72
0
 73
1
 93
24
 10
-594342.31
 20
-1162380.78
 10
-594355.7
 20
-1162376.22
 10
-594384.57
 20
-1162413.34
 10
-594399.285
 20
-1162447.2
 10
-594402.859
 20
-1162467.327
 10
-594386.935
 20
-1162520.975
 10
-594373.55
 20
-1162554.41
 10
-594333.38
 20
-1162618.215
 10
-594312.37
 20
-1162645.72
 10
-594285.975
 20
-1162664.705
 10
-594268.68
 20
-1162671.54
 10
-594233.2775
 20
-1162680.87
 10
-594220.1475
 20
-1162649.0427
 10
-594208.62
 20
-1162616.52
 10
-594217.58
 20
-1162603.49
 10
-594237.85
 20
-1162571.74
 10
-594271.9501
 20
-1162562.9912
 10
-594283.3075
 20
-1162548.998
 10
-594291.4605
 20
-1162526.9073
 10
-594292.4564
 20
-1162493.9048
 10
-594302.9044
 20
-1162473.8377
 10
-594315.4651
 20
-1162471.9762
 10
-594332.7001
 20
-1162478.0524
 10
-594342.31
 20
-1162380.78
 97
0
 75
0
 76
1
 98
0
  0
HATCH
  5
2004A
100
AcDbEntity
  8
skládky a antropogenní uloženiny
100
AcDbHatch
 10
0
 20
0
 30
0
210
0
220
0
230
1
  2
SOLID
 70
1
 71
0
 91
1
 92
2
 72
0
 73
1
 93
75
 10
-594956.7046
 20
-1163701.7312
 10
-594958.11
 20
-1163718.987
 10
-594960.7634
 20
-1163758.3059
 10
-594962.1834
 20
-1163838.1109
 10
-595032.3722
 20
-1163835.4805
 10
-595102.5611
 20
-1163832.85
 10
-595117.9806
 20
-1163826.5563
 10
-595136.075
 20
-1163813.7591
 10
-595150.603
 20
-1163790.0528
 10
-595159.4142
 20
-1163762.7801
 10
-595151.8617
 20
-1163742.6403
 10
-595160.4107
 20
-1163704.2487
 10
-595175.38
 20
-1163693.895
 10
-595208.0769
 20
-1163689.8148
 10
-595203.635
 20
-1163876.595
 10
-595279.98
 20
-1163887.17
 10
-595283.83
 20
-1163920.36
 10
-595285.54
 20
-1164012.27
 10
-595291.82
 20
-1164103.7
 10
-595086.617
 20
-1164106.6259
 10
-595095.4259
 20
-1163963.0834
 10
-595101.7219
 20
-1163855.9269
 10
-594975.29
 20
-1163857.79
 10
-594851.6092
 20
-1163863.3506
 10
-594747.63
 20
-1163870.39
 10
-594668.4531
 20
-1163876.2765
 10
-594651.6699
 20
-1164047.4651
 10
-594302.5972
 20
-1163920.4503
 10
-594310.5435
 20
-1163892.1434
 10
-594334.8
 20
-1163851.685
 10
-594362.944
 20
-1163776.7103
 10
-594418
 20
-1163625
 10
-594501.6524
 20
-1163523.4501
 10
-594618.6646
 20
-1163384.0505
 10
-594769.9976
 20
-1163175.2432
 10
-594837.51
 20
-1163084.485
 10
-594906.06
 20
-1162966.15
 10
-594944.0561
 20
-1162906.9108
 10
-595026.15
 20
-1162887.54
 10
-595125.5335
 20
-1162895.4303
 10
-595174.1407
 20
-1162905.8539
 10
-595336.685
 20
-1162942.245
 10
-595378.3224
 20
-1162957.6418
 10
-595469.699
 20
-1163085.2426
 10
-595407.0817
 20
-1163242.3922
 10
-595354.85
 20
-1163375.4
 10
-595298.6098
 20
-1163505.9972
 10
-595247.3162
 20
-1163623.06
 10
-595214.1693
 20
-1163645.7173
 10
-595201.5819
 20
-1163565.9971
 10
-595188.575
 20
-1163528.2349
 10
-595164.9081
 20
-1163508.0951
 10
-595139.9037
 20
-1163504.7384
 10
-595109.2744
 20
-1163519.037
 10
-595092.7009
 20
-1163543.3398
 10
-595077.1765
 20
-1163555.088
 10
-595051.66
 20
-1163554.75
 10
-595047.134
 20
-1163515.1009
 10
-595038.1512
 20
-1163456.9063
 10
-595030.708
 20
-1163448.5147
 10
-595018.02
 20
-1163445.1581
 10
-595011.2412
 20
-1163446.5787
 10
-595004.4312
 20
-1163448.1457
 10
-594987.1766
 20
-1163489.6336
 10
-594987.7011
 20
-1163516.4867
 10
-594988.2255
 20
-1163543.3398
 10
-594993.0507
 20
-1163562.4398
 10
-594997.8759
 20
-1163581.5399
 10
-594995.0437
 20
-1163587.6146
 10
-594992.2115
 20
-1163593.6894
 10
-594978.7137
 20
-1163597.9274
 10
-594973.5028
 20
-1163599.5635
 10
-594953.0833
 20
-1163599.5839
 10
-594956.9234
 20
-1163678.9449
 10
-594956.7046
 20
-1163701.7312
 97
0
 75
0
 76
1
 98
0
  0
HATCH
  5
2004B
100
AcDbEntity
  8
skládky a antropogenní uloženiny
100
AcDbHatch
 10
0
 20
0
 30
0
210
0
220
0
230
1
  2
SOLID
 70
1
 71
0
 91
1
 92
2
 72
0
 73
1
 93
32
 10
-595101.7219
 20
-1163855.9269
 10
-595099.2044
 20
-1163902.0807
 10
-595091.6474
 20
-1164024.0862
 10
-595087.0707
 20
-1164098.3296
 10
-595086.617
 20
-1164106.6259
 10
-595052.27
 20
-1164107.34
 10
-595038.67
 20
-1164106.5
 10
-595015.26
 20
-1164105.05
 10
-594944.715
 20
-1164107.97
 10
-594816.555
 20
-1164112.91
 10
-594739
 20
-1164115.5
 10
-594727.919
 20
-1164115.8632
 10
-594725.675
 20
-1164091.77
 10
-594725.1354
 20
-1164084.8907
 10
-594723.38
 20
-1164068.63
 10
-594721.03
 20
-1164047.55
 10
-594687.3304
 20
-1164048.3737
 10
-594651.6904
 20
-1164049.2449
 10
-594653.2861
 20
-1164031.182
 10
-594654.5351
 20
-1164016.8323
 10
-594656.8412
 20
-1163994.7724
 10
-594660.0615
 20
-1163961.8708
 10
-594666.6012
 20
-1163876.8951
 10
-594698.0685
 20
-1163873.3297
 10
-594729.5359
 20
-1163869.7643
 10
-594810.9181
 20
-1163865.4885
 10
-594892.3004
 20
-1163861.2127
 10
-594956.1653
 20
-1163858.2016
 10
-595020.0302
 20
-1163855.1906
 10
-595051.7459
 20
-1163854.6099
 10
-595083.4617
 20
-1163854.0292
 10
-595101.7219
 20
-1163855.9269
 97
0
 75
0
 76
1
 98
0
  0
HATCH
  5
2004C
100
AcDbEntity
  8
skládky a antropogenní uloženiny
100
AcDbHatch
 10
0
 20
0
 30
0
210
0
220
0
230
1
  2
SOLID
 70
1
 71
0
 91
1
 92
2
 72
0
 73
1
 93
5
 10
-599587.02
 20
-1152240.42
 10
-599585.4017
 20
-1152252.5999
 10
-599434.4331
 20
-1152268.7585
 10
-599433.5
 20
-1152258.16
 10
-599587.02
 20
-1152240.42
 97
0
 75
0
 76
1
 98
0
  0
HATCH
  5
2004D
100
AcDbEntity
  8
skládky a antropogenní uloženiny
100
AcDbHatch
 10
0
 20
0
 30
0
210
0
220
0
230
1
  2
SOLID
 70
1
 71
0
 91
1
 92
2
 72
0
 73
1
 93
37
 10
-595208.0769
 20
-1163689.8148
 10
-595175.8296
 20
-1163692.9769
 10
-595161.0925
 20
-1163702.7802
 10
-595151.8617
 20
-1163742.6403
 10
-595159.4142
 20
-1163762.7801
 10
-595150.603
 20
-1163790.0528
 10
-595135.1292
 20
-1163814.6073
 10
-595117.9806
 20
-1163826.5563
 10
-595102.5611
 20
-1163832.85
 10
-594962.1834
 20
-1163838.1109
 10
-594960.7634
 20
-1163758.3059
 10
-594953.0833
 20
-1163599.5839
 10
-594973.5028
 20
-1163599.5635
 10
-594983.9245
 20
-1163596.2913
 10
-594984.3064
 20
-1163596.1714
 10
-594992.2115
 20
-1163593.6894
 10
-594997.8759
 20
-1163581.5399
 10
-594988.2255
 20
-1163543.3398
 10
-594987.1766
 20
-1163489.6336
 10
-595004.4624
 20
-1163447.9993
 10
-595018.02
 20
-1163445.1581
 10
-595030.708
 20
-1163448.5147
 10
-595038.1512
 20
-1163456.9063
 10
-595047.134
 20
-1163515.1009
 10
-595051.66
 20
-1163554.75
 10
-595062.701
 20
-1163555.088
 10
-595077.1765
 20
-1163555.088
 10
-595092.7009
 20
-1163543.3398
 10
-595101.3023
 20
-1163529.9132
 10
-595105.7079
 20
-1163522.3608
 10
-595109.2744
 20
-1163519.037
 10
-595139.9037
 20
-1163504.7384
 10
-595164.9081
 20
-1163508.0951
 10
-595188.575
 20
-1163528.2349
 10
-595201.5819
 20
-1163565.9971
 10
-595214.1693
 20
-1163645.7173
 10
-595208.0769
 20
-1163689.8148
 97
0
 75
0
 76
1
 98
0
  0
HATCH
  5
2004E
100
AcDbEntity
  8
skládky a antropogenní uloženiny
100
AcDbHatch
 10
0
 20
0
 30
0
210
0
220
0
230
1
  2
SOLID
 70
1
 71
0
 91
1
 92
2
 72
0
 73
1
 93
25
 10
-595485.8474
 20
-1163872.2905
 10
-595423.7495
 20
-1163820.2626
 10
-595407.0712
 20
-1163804.1087
 10
-595363.5933
 20
-1163764.1713
 10
-595381.5643
 20
-1163696.318
 10
-595291.319
 20
-1163698.9496
 10
-595274.9554
 20
-1163672.5161
 10
-595265.0017
 20
-1163656.1861
 10
-595255.6547
 20
-1163639.7889
 10
-595247.3162
 20
-1163623.06
 10
-595349.9035
 20
-1163388.9344
 10
-595415.3426
 20
-1163215.2499
 10
-595464.26
 20
-1163095.85
 10
-595612.515
 20
-1163145.915
 10
-595566.87
 20
-1163268.87
 10
-595513.32
 20
-1163359.68
 10
-595562.3677
 20
-1163449.2995
 10
-595590.8991
 20
-1163449.2995
 10
-595663.34
 20
-1163482.68
 10
-595626.4067
 20
-1163551.6705
 10
-595616.5336
 20
-1163594.7304
 10
-595558.0151
 20
-1163667.5355
 10
-595547.9452
 20
-1163727.955
 10
-595537.8753
 20
-1163788.3745
 10
-595485.8474
 20
-1163872.2905
 97
0
 75
0
 76
1
 98
0
  0
HATCH
  5
2004F
100
AcDbEntity
  8
skládky a antropogenní uloženiny
100
AcDbHatch
 10
0
 20
0
 30
0
210
0
220
0
230
1
  2
SOLID
 70
1
 71
0
 91
1
 92
2
 72
0
 73
1
 93
14
 10
-595219.72
 20
-1163819.91
 10
-595250.99
 20
-1163823.36
 10
-595259.47
 20
-1163830.64
 10
-595276.81
 20
-1163862.92
 10
-595283.83
 20
-1163924.17
 10
-595284.37
 20
-1163971.49
 10
-595285.54
 20
-1164012.27
 10
-595294.53
 20
-1164052.73
 10
-595293.09
 20
-1164103.685
 10
-595171
 20
-1164105.36
 10
-595157.4123
 20
-1164001.9479
 10
-595143.8245
 20
-1163898.5358
 10
-595165.9656
 20
-1163810.5927
 10
-595219.72
 20
-1163819.91
 97
0
 75
0
 76
1
 98
0
  0
HATCH
  5
20050
100
AcDbEntity
  8
skládky a antropogenní uloženiny
100
AcDbHatch
 10
0
 20
0
 30
0
210
0
220
0
230
1
  2
SOLID
 70
1
 71
0
 91
1
 92
2
 72
0
 73
1
 93
16
 10
-594842.9531
 20
-1163104.8464
 10
-594881.805
 20
-1163079.574
 10
-594875.85
 20
-1163311.2
 10
-594770.0079
 20
-1163361.5784
 10
-594661.5259
 20
-1163413.1856
 10
-594514.8166
 20
-1163558.3141
 10
-594517.07
 20
-1163662.785
 10
-594450.3203
 20
-1163756.5045
 10
-594394.0662
 20
-1163763.2499
 10
-594379.0873
 20
-1163819.9091
 10
-594360.21
 20
-1163842.78
 10
-594332.28
 20
-1163848.42
 10
-594418
 20
-1163625
 10
-594638.5
 20
-1163355
 10
-594748.75
 20
-1163220
 10
-594842.9531
 20
-1163104.8464
 97
0
 75
0
 76
1
 98
0
  0
HATCH
  5
20051
100
AcDbEntity
  8
skládky a antropogenní uloženiny
100
AcDbHatch
 10
0
 20
0
 30
0
210
0
220
0
230
1
  2
SOLID
 70
1
 71
0
 91
1
 92
2
 72
0
 73
1
 93
11
 10
-594691.6381
 20
-1163744.1718
 10
-594693.2571
 20
-1163784.8533
 10
-594578.5426
 20
-1163776.753
 10
-594519.9298
 20
-1163789.7205
 10
-594466.9813
 20
-1163800.8915
 10
-594406.4841
 20
-1163813.9721
 10
-594379.0873
 20
-1163819.9091
 10
-594394.0662
 20
-1163763.2499
 10
-594450.3203
 20
-1163756.5045
 10
-594579.0745
 20
-1163734.7378
 10
-594691.6381
 20
-1163744.1718
 97
0
 75
0
 76
1
 98
0
  0
HATCH
  5
20052
100
AcDbEntity
  8
skládky a antropogenní uloženiny
100
AcDbHatch
 10
0
 20
0
 30
0
210
0
220
0
230
1
  2
SOLID
 70
1
 71
0
 91
1
 92
2
 72
0
 73
1
 93
30
 10
-595074.7402
 20
-1163476.6915
 10
-595064.2256
 20
-1163389.0697
 10
-595031.8055
 20
-1163348.7637
 10
-595014.0621
 20
-1163327.2963
 10
-594999.3854
 20
-1163308.4576
 10
-594987.8832
 20
-1163240.9728
 10
-594976.381
 20
-1163173.4879
 10
-594996.5206
 20
-1163149.9884
 10
-594988.2161
 20
-1163128.0691
 10
-594959.8735
 20
-1163111.199
 10
-594907.7444
 20
-1163113.1608
 10
-594933.48
 20
-1163092.185
 10
-594969.5119
 20
-1163057.7497
 10
-595023.382
 20
-1163096.4844
 10
-595105.8689
 20
-1163092.2084
 10
-595122.85
 20
-1163127.8472
 10
-595094.8111
 20
-1163159.391
 10
-595152.6415
 20
-1163228.6123
 10
-595205.9018
 20
-1163208.0348
 10
-595235.5837
 20
-1163217.4542
 10
-595264.7974
 20
-1163232.9933
 10
-595305.1034
 20
-1163231.2409
 10
-595337.353
 20
-1163273.2241
 10
-595308.6083
 20
-1163371.4358
 10
-595294.5888
 20
-1163406.4845
 10
-595217.65
 20
-1163421.17
 10
-595185.9377
 20
-1163406.4845
 10
-595162.84
 20
-1163415.99
 10
-595135.9933
 20
-1163481.8393
 10
-595074.7402
 20
-1163476.6915
 97
0
 75
0
 76
1
 98
0
  0
HATCH
  5
20053
100
AcDbEntity
  8
skládky a antropogenní uloženiny
100
AcDbHatch
 10
0
 20
0
 30
0
210
0
220
0
230
1
  2
SOLID
 70
1
 71
0
 91
1
 92
2
 72
0
 73
1
 93
32
 10
-595610.69
 20
-1163148.43
 10
-595611.43
 20
-1163154.22
 10
-595611.59
 20
-1163158.71
 10
-595611.24
 20
-1163164.06
 10
-595609.3
 20
-1163169.95
 10
-595606.97
 20
-1163173.29
 10
-595605.89
 20
-1163175.75
 10
-595600.95
 20
-1163180.54
 10
-595602.26
 20
-1163182.7
 10
-595589.72
 20
-1163211.04
 10
-595577.98
 20
-1163246.54
 10
-595576.47
 20
-1163250.26
 10
-595576.28
 20
-1163251.95
 10
-595574.28
 20
-1163257.42
 10
-595571.9
 20
-1163261.81
 10
-595566.87
 20
-1163268.87
 10
-595562.83
 20
-1163272.45
 10
-595561.1713
 20
-1163272.5011
 10
-595544.6793
 20
-1163300.1628
 10
-595534.7986
 20
-1163322.0871
 10
-595511.1556
 20
-1163363.3494
 10
-595495.9979
 20
-1163432.5999
 10
-595497.81
 20
-1163477.58
 10
-595482.9757
 20
-1163476.582
 10
-595444.4221
 20
-1163371.4358
 10
-595453.1843
 20
-1163289.0713
 10
-595446.1745
 20
-1163161.1435
 10
-595445.2983
 20
-1163148.8764
 10
-595465.2993
 20
-1163096.0434
 10
-595491.645
 20
-1163104.215
 10
-595537.84
 20
-1163119.04
 10
-595610.69
 20
-1163148.43
 97
0
 75
0
 76
1
 98
0
  0
HATCH
  5
20054
100
AcDbEntity
  8
skládky a antropogenní uloženiny
100
AcDbHatch
 10
0
 20
0
 30
0
210
0
220
0
230
1
  2
SOLID
 70
1
 71
0
 91
1
 92
2
 72
0
 73
1
 93
27
 10
-595074.7402
 20
-1163476.6915
 10
-595046.7012
 20
-1163473.1867
 10
-595068.1685
 20
-1163724.6613
 10
-595035.405
 20
-1163727.14
 10
-595013.843
 20
-1163678.2217
 10
-594963.0224
 20
-1163683.479
 10
-594963.1388
 20
-1163702.4894
 10
-594962.7174
 20
-1163742.1856
 10
-594938.4883
 20
-1163752.7003
 10
-594893.59
 20
-1163754.84
 10
-594842.3467
 20
-1163725.8063
 10
-594722.8564
 20
-1163645.6921
 10
-594691.3126
 20
-1163600.1288
 10
-594675.5407
 20
-1163566.8325
 10
-594693.065
 20
-1163524.774
 10
-594707.0845
 20
-1163503.7448
 10
-594765.1887
 20
-1163450.9526
 10
-594880.18
 20
-1163312.46
 10
-594907.8321
 20
-1163121.6566
 10
-594907.7444
 20
-1163113.1608
 10
-594959.8735
 20
-1163111.199
 10
-594988.2161
 20
-1163128.0691
 10
-594996.5206
 20
-1163149.9884
 10
-594976.381
 20
-1163173.4879
 10
-594999.3854
 20
-1163308.4576
 10
-595064.2256
 20
-1163389.0697
 10
-595074.7402
 20
-1163476.6915
 97
0
 75
0
 76
1
 98
0
  0
HATCH
  5
20055
100
AcDbEntity
  8
skládky a antropogenní uloženiny
100
AcDbHatch
 10
0
 20
0
 30
0
210
0
220
0
230
1
  2
SOLID
 70
1
 71
0
 91
1
 92
2
 72
0
 73
1
 93
24
 10
-594842.3467
 20
-1163725.8063
 10
-594752.73
 20
-1163743.9381
 10
-594706.7285
 20
-1163707.1369
 10
-594691.6381
 20
-1163744.1718
 10
-594693.2571
 20
-1163784.8533
 10
-594578.5426
 20
-1163776.753
 10
-594379.0873
 20
-1163819.9091
 10
-594394.0662
 20
-1163763.2499
 10
-594450.3203
 20
-1163756.5045
 10
-594517.07
 20
-1163662.785
 10
-594514.8166
 20
-1163558.3141
 10
-594541.4245
 20
-1163532.2219
 10
-594588.1713
 20
-1163485.7499
 10
-594661.5259
 20
-1163413.1856
 10
-594770.0079
 20
-1163361.5784
 10
-594880.18
 20
-1163312.46
 10
-594880.2197
 20
-1163312.4554
 10
-594765.1887
 20
-1163450.9526
 10
-594721.104
 20
-1163482.7155
 10
-594693.065
 20
-1163524.774
 10
-594675.5407
 20
-1163566.8325
 10
-594691.3126
 20
-1163600.1288
 10
-594722.8564
 20
-1163645.6921
 10
-594842.3467
 20
-1163725.8063
 97
0
 75
0
 76
1
 98
0
  0
HATCH
  5
20056
100
AcDbEntity
  8
skládky a antropogenní uloženiny
100
AcDbHatch
 10
0
 20
0
 30
0
210
0
220
0
230
1
  2
SOLID
 70
1
 71
0
 91
1
 92
2
 72
0
 73
1
 93
22
 10
-595179.13
 20
-1163774.065
 10
-595167.0443
 20
-1163806.0948
 10
-595143.8245
 20
-1163898.5358
 10
-595171
 20
-1164105.36
 10
-594946.35
 20
-1164106.895
 10
-594727.97
 20
-1164114.91
 10
-594725.675
 20
-1164091.77
 10
-594727.1825
 20
-1164085.3731
 10
-594721.03
 20
-1164047.55
 10
-594607.14
 20
-1164032.42
 10
-594493.29
 20
-1164047.3
 10
-594398.77
 20
-1164051.94
 10
-594360.21
 20
-1163842.78
 10
-594379.0873
 20
-1163819.9091
 10
-594578.5426
 20
-1163776.753
 10
-594698.595
 20
-1163785.315
 10
-594894.32
 20
-1163787.6
 10
-595022.3
 20
-1163861.78
 10
-595065.64
 20
-1163854.36
 10
-595066.7998
 20
-1163809.6974
 10
-595180.24
 20
-1163719
 10
-595179.13
 20
-1163774.065
 97
0
 75
0
 76
1
 98
0
  0
HATCH
  5
20057
100
AcDbEntity
  8
skládky a antropogenní uloženiny
100
AcDbHatch
 10
0
 20
0
 30
0
210
0
220
0
230
1
  2
SOLID
 70
1
 71
0
 91
1
 92
2
 72
0
 73
1
 93
27
 10
-595442.5088
 20
-1163050.4292
 10
-595464.26
 20
-1163095.85
 10
-595391.7052
 20
-1163282.3745
 10
-595410.9753
 20
-1163326.0415
 10
-595450.5556
 20
-1163335.5109
 10
-595360.6418
 20
-1163330.3697
 10
-595337.5235
 20
-1163250.5177
 10
-595321.7516
 20
-1163170.7819
 10
-595265.6736
 20
-1163087.5411
 10
-595148.9586
 20
-1163062.302
 10
-595045.7428
 20
-1163038.4729
 10
-594969.5119
 20
-1163017.4437
 10
-594939.8115
 20
-1163050.9486
 10
-594907.3004
 20
-1163056.8735
 10
-594916.0625
 20
-1162992.0333
 10
-594923.9479
 20
-1162933.3295
 10
-594944.0561
 20
-1162906.9108
 10
-594969.196
 20
-1162899.0729
 10
-595026.15
 20
-1162887.54
 10
-595125.5335
 20
-1162895.4303
 10
-595336.685
 20
-1162942.245
 10
-595477.7732
 20
-1162994.4429
 10
-595476.8969
 20
-1163007.5862
 10
-595447.9817
 20
-1162998.824
 10
-595431.3336
 20
-1163015.4981
 10
-595436.739
 20
-1163032.1721
 10
-595442.5088
 20
-1163050.4292
 97
0
 75
0
 76
1
 98
0
  0
HATCH
  5
20058
100
AcDbEntity
  8
skládky a antropogenní uloženiny
100
AcDbHatch
 10
0
 20
0
 30
0
210
0
220
0
230
1
  2
SOLID
 70
1
 71
0
 91
1
 92
2
 72
0
 73
1
 93
21
 10
-595106.4503
 20
-1168541.2503
 10
-595109.9657
 20
-1168544.2891
 10
-595112.1107
 20
-1168548.6387
 10
-595113.6003
 20
-1168553.101
 10
-595113.5853
 20
-1168556.7625
 10
-595113.0641
 20
-1168561.6123
 10
-595110.9191
 20
-1168566.752
 10
-595104.5436
 20
-1168573.6636
 10
-595042.6664
 20
-1168568.585
 10
-594965.3571
 20
-1168573.6636
 10
-594961.8399
 20
-1168570.9824
 10
-594958.6647
 20
-1168567.2135
 10
-594956.0025
 20
-1168562.6407
 10
-594954.9231
 20
-1168555.9559
 10
-594956.1813
 20
-1168551.0816
 10
-594958.7434
 20
-1168547.6853
 10
-594961.2459
 20
-1168544.5093
 10
-594965.3571
 20
-1168541.2503
 10
-595032.4181
 20
-1168538.0924
 10
-595042.6664
 20
-1168538.0924
 10
-595106.4503
 20
-1168541.2503
 97
0
 75
0
 76
1
 98
0
  0
HATCH
  5
20059
100
AcDbEntity
  8
skládky a antropogenní uloženiny
100
AcDbHatch
 10
0
 20
0
 30
0
210
0
220
0
230
1
  2
SOLID
 70
1
 71
0
 91
1
 92
2
 72
0
 73
1
 93
20
 10
-595026.2846
 20
-1168508.0085
 10
-595029.4091
 20
-1168510.5054
 10
-595031.1298
 20
-1168514.0989
 10
-595032.3014
 20
-1168519.953
 10
-595032.4479
 20
-1168524.348
 10
-595031.435
 20
-1168527.1887
 10
-595030.72
 20
-1168529.0073
 10
-595027.6549
 20
-1168530.9572
 10
-594994.2848
 20
-1168528.5591
 10
-594963.292
 20
-1168530.7472
 10
-594959.2796
 20
-1168529.8699
 10
-594957.0452
 20
-1168527.2483
 10
-594955.1684
 20
-1168523.137
 10
-594955.0621
 20
-1168518.4787
 10
-594955.0492
 20
-1168515.7807
 10
-594956.6282
 20
-1168512.5908
 10
-594959.0027
 20
-1168509.9095
 10
-594962.1694
 20
-1168508.0624
 10
-594997.6214
 20
-1168505.6791
 10
-595026.2846
 20
-1168508.0085
 97
0
 75
0
 76
1
 98
0
  0
HATCH
  5
2005A
100
AcDbEntity
  8
skládky a antropogenní uloženiny
100
AcDbHatch
 10
0
 20
0
 30
0
210
0
220
0
230
1
  2
SOLID
 70
1
 71
0
 91
1
 92
2
 72
0
 73
1
 93
8
 10
-595181.1742
 20
-1168576.7437
 10
-595151.7852
 20
-1168575.4914
 10
-595144.7951
 20
-1168569.0145
 10
-595144.7951
 20
-1168560.9239
 10
-595148.6397
 20
-1168551.4189
 10
-595154.4809
 20
-1168546.2371
 10
-595183.9397
 20
-1168547.531
 10
-595181.1742
 20
-1168576.7437
 97
0
 75
0
 76
1
 98
0
  0
HATCH
  5
2005B
100
AcDbEntity
  8
skládky a antropogenní uloženiny
100
AcDbHatch
 10
0
 20
0
 30
0
210
0
220
0
230
1
  2
SOLID
 70
1
 71
0
 91
1
 92
2
 72
0
 73
1
 93
17
 10
-595925.01
 20
-1167715.59
 10
-595928.835
 20
-1167719.295
 10
-595932.66
 20
-1167723
 10
-595937.84
 20
-1167729.84
 10
-595946.945
 20
-1167741.835
 10
-595956.05
 20
-1167753.83
 10
-595943.835
 20
-1167780.185
 10
-595932.28
 20
-1167805.14
 10
-595887.037
 20
-1167788.7845
 10
-595884.26
 20
-1167787.75
 10
-595888.71
 20
-1167775.805
 10
-595893.16
 20
-1167763.86
 10
-595902.49
 20
-1167738.465
 10
-595911.7947
 20
-1167713.1212
 10
-595919.4139
 20
-1167715.2376
 10
-595920.73
 20
-1167712.3
 10
-595925.01
 20
-1167715.59
 97
0
 75
0
 76
1
 98
0
  0
HATCH
  5
2005C
100
AcDbEntity
  8
skládky a antropogenní uloženiny
100
AcDbHatch
 10
0
 20
0
 30
0
210
0
220
0
230
1
  2
SOLID
 70
1
 71
0
 91
1
 92
2
 72
0
 73
1
 93
8
 10
-598384.6784
 20
-1165041.8115
 10
-598328.2066
 20
-1165078.1698
 10
-598270.6421
 20
-1164805.4657
 10
-598314.909
 20
-1164801.6164
 10
-598317.4742
 20
-1164855.5979
 10
-598329.6597
 20
-1164899.0011
 10
-598363.7766
 20
-1164920.5278
 10
-598384.6784
 20
-1165041.8115
 97
0
 75
0
 76
1
 98
0
  0
HATCH
  5
2005D
100
AcDbEntity
  8
skládky a antropogenní uloženiny
100
AcDbHatch
 10
0
 20
0
 30
0
210
0
220
0
230
1
  2
SOLID
 70
1
 71
0
 91
1
 92
2
 72
0
 73
1
 93
11
 10
-598442.6715
 20
-1165521.5801
 10
-598450
 20
-1165533.61
 10
-598407.0402
 20
-1165544.7191
 10
-598382.73
 20
-1165549.55
 10
-598356.455
 20
-1165552.79
 10
-598342.57
 20
-1165552.29
 10
-598298.78
 20
-1165556.56
 10
-598295.68
 20
-1165542.32
 10
-598373.08
 20
-1165527.94
 10
-598411.78
 20
-1165521.31
 10
-598442.6715
 20
-1165521.5801
 97
0
 75
0
 76
1
 98
0
  0
HATCH
  5
2005E
100
AcDbEntity
  8
skládky a antropogenní uloženiny
100
AcDbHatch
 10
0
 20
0
 30
0
210
0
220
0
230
1
  2
SOLID
 70
1
 71
0
 91
1
 92
2
 72
0
 73
1
 93
46
 10
-597213.6015
 20
-1165732.1627
 10
-597193.05
 20
-1165728.43
 10
-597170.56
 20
-1165726.715
 10
-597152.055
 20
-1165726.46
 10
-597130.18
 20
-1165729.03
 10
-597110.17
 20
-1165733.15
 10
-597093.82
 20
-1165737.88
 10
-597048.19
 20
-1165753.07
 10
-597031.015
 20
-1165758.7
 10
-597017.11
 20
-1165763.31
 10
-597012.45
 20
-1165763.395
 10
-596991.39
 20
-1165763.65
 10
-596981.405
 20
-1165763.955
 10
-596971.42
 20
-1165764.26
 10
-596953.51
 20
-1165763.09
 10
-596945.22
 20
-1165762.26
 10
-596917.535
 20
-1165759.695
 10
-596909.145
 20
-1165761.325
 10
-596898.16
 20
-1165767.1
 10
-596892.39
 20
-1165768.6
 10
-596884.11
 20
-1165756.05
 10
-596877.76
 20
-1165742.53
 10
-596901.88
 20
-1165736.39
 10
-596905.23
 20
-1165738.64
 10
-596930.74
 20
-1165735.985
 10
-596939.7
 20
-1165734.83
 10
-596946.305
 20
-1165735.105
 10
-596952.91
 20
-1165735.38
 10
-596967.29
 20
-1165738.2
 10
-596975.47
 20
-1165739.8
 10
-596996.28
 20
-1165743.87
 10
-597003.945
 20
-1165743.395
 10
-597011.61
 20
-1165742.92
 10
-597021.86
 20
-1165740.645
 10
-597047.32
 20
-1165731.28
 10
-597059.01
 20
-1165725.26
 10
-597097.61
 20
-1165712.91
 10
-597114.81
 20
-1165709.05
 10
-597158.78
 20
-1165697.62
 10
-597169.45
 20
-1165696.73
 10
-597179.74
 20
-1165695.945
 10
-597190.03
 20
-1165695.16
 10
-597206.58
 20
-1165698.39
 10
-597211.37
 20
-1165699.32
 10
-597220.83
 20
-1165702.96
 10
-597213.6015
 20
-1165732.1627
 97
0
 75
0
 76
1
 98
0
  0
HATCH
  5
2005F
100
AcDbEntity
  8
skládky a antropogenní uloženiny
100
AcDbHatch
 10
0
 20
0
 30
0
210
0
220
0
230
1
  2
SOLID
 70
1
 71
0
 91
1
 92
2
 72
0
 73
1
 93
10
 10
-597271.25
 20
-1166494.115
 10
-597242.8069
 20
-1166491.9061
 10
-597225.9528
 20
-1166491.1103
 10
-597222.5778
 20
-1166489.7527
 10
-597219.2027
 20
-1166483.2672
 10
-597217.9001
 20
-1166476.4662
 10
-597223.0644
 20
-1166474.9614
 10
-597240.1873
 20
-1166475.5437
 10
-597268
 20
-1166478.35
 10
-597271.25
 20
-1166494.115
 97
0
 75
0
 76
1
 98
0
  0
HATCH
  5
20060
100
AcDbEntity
  8
skládky a antropogenní uloženiny
100
AcDbHatch
 10
0
 20
0
 30
0
210
0
220
0
230
1
  2
SOLID
 70
1
 71
0
 91
1
 92
2
 72
0
 73
1
 93
11
 10
-591815.84
 20
-1167125.61
 10
-591810.151
 20
-1167146.236
 10
-591804.6
 20
-1167166.62
 10
-591705.59
 20
-1167150.755
 10
-591606.58
 20
-1167134.89
 10
-591611.18
 20
-1167110.625
 10
-591616.2
 20
-1167086.38
 10
-591702.88
 20
-1167098.72
 10
-591729.12
 20
-1167104.69
 10
-591772.48
 20
-1167115.15
 10
-591815.84
 20
-1167125.61
 97
0
 75
0
 76
1
 98
0
  0
HATCH
  5
20061
100
AcDbEntity
  8
skládky a antropogenní uloženiny
100
AcDbHatch
 10
0
 20
0
 30
0
210
0
220
0
230
1
  2
SOLID
 70
1
 71
0
 91
1
 92
2
 72
0
 73
1
 93
5
 10
-591769.6026
 20
-1167324.8556
 10
-591775.5
 20
-1167344.42
 10
-591751.59
 20
-1167348.55
 10
-591748.31
 20
-1167328.7
 10
-591769.6026
 20
-1167324.8556
 97
0
 75
0
 76
1
 98
0
  0
HATCH
  5
20062
100
AcDbEntity
  8
skládky a antropogenní uloženiny
100
AcDbHatch
 10
0
 20
0
 30
0
210
0
220
0
230
1
  2
SOLID
 70
1
 71
0
 91
1
 92
2
 72
0
 73
1
 93
22
 10
-591968.53
 20
-1167588.43
 10
-591980.27
 20
-1167599.35
 10
-591993.92
 20
-1167611.61
 10
-592009.75
 20
-1167619.045
 10
-592025.58
 20
-1167626.48
 10
-592028.99
 20
-1167640.69
 10
-592017.07
 20
-1167657.37
 10
-591999.9863
 20
-1167670.1977
 10
-591984.0185
 20
-1167674.9155
 10
-591973.275
 20
-1167677.0909
 10
-591956.77
 20
-1167674.58
 10
-591941.625
 20
-1167660.85
 10
-591926.48
 20
-1167647.12
 10
-591905.32
 20
-1167648.31
 10
-591884.16
 20
-1167649.5
 10
-591872.2435
 20
-1167644.0685
 10
-591866.437
 20
-1167635.327
 10
-591871.81
 20
-1167627.38
 10
-591881.3162
 20
-1167617.615
 10
-591900.2
 20
-1167607.85
 10
-591934.365
 20
-1167598.14
 10
-591968.53
 20
-1167588.43
 97
0
 75
0
 76
1
 98
0
  0
HATCH
  5
20063
100
AcDbEntity
  8
skládky a antropogenní uloženiny
100
AcDbHatch
 10
0
 20
0
 30
0
210
0
220
0
230
1
  2
SOLID
 70
1
 71
0
 91
1
 92
2
 72
0
 73
1
 93
16
 10
-591675.6
 20
-1167315.19
 10
-591734.9875
 20
-1167308.4425
 10
-591794.375
 20
-1167301.695
 10
-591796.32
 20
-1167319.79
 10
-591732.41
 20
-1167331.65
 10
-591724.3088
 20
-1167333.1147
 10
-591710.8029
 20
-1167334.9247
 10
-591698.96
 20
-1167336.5183
 10
-591690.0143
 20
-1167337.5259
 10
-591678.94
 20
-1167339.24
 10
-591640.94
 20
-1167343.63
 10
-591634.7218
 20
-1167341.2238
 10
-591631.048
 20
-1167333.7636
 10
-591632.1814
 20
-1167324.893
 10
-591639.88
 20
-1167320.12
 10
-591675.6
 20
-1167315.19
 97
0
 75
0
 76
1
 98
0
  0
HATCH
  5
20064
100
AcDbEntity
  8
skládky a antropogenní uloženiny
100
AcDbHatch
 10
0
 20
0
 30
0
210
0
220
0
230
1
  2
SOLID
 70
1
 71
0
 91
1
 92
2
 72
0
 73
1
 93
14
 10
-591748.31
 20
-1167328.7
 10
-591751.59
 20
-1167348.55
 10
-591723.7913
 20
-1167352.7366
 10
-591702.56
 20
-1167355.83
 10
-591682.11
 20
-1167359.22
 10
-591678.089
 20
-1167356.6472
 10
-591675.9116
 20
-1167352.6553
 10
-591674.5338
 20
-1167345.2221
 10
-591678.94
 20
-1167339.24
 10
-591694.4872
 20
-1167337.0221
 10
-591710.8029
 20
-1167334.9247
 10
-591724.3088
 20
-1167333.1147
 10
-591732.41
 20
-1167331.65
 10
-591748.31
 20
-1167328.7
 97
0
 75
0
 76
1
 98
0
  0
HATCH
  5
20065
100
AcDbEntity
  8
skládky a antropogenní uloženiny
100
AcDbHatch
 10
0
 20
0
 30
0
210
0
220
0
230
1
  2
SOLID
 70
1
 71
0
 91
1
 92
2
 72
0
 73
1
 93
10
 10
-591768.33
 20
-1167271.84
 10
-591792.56
 20
-1167285.82
 10
-591794.375
 20
-1167301.695
 10
-591675.6
 20
-1167315.19
 10
-591667.0204
 20
-1167306.2034
 10
-591663.7542
 20
-1167293.8646
 10
-591668.472
 20
-1167282.3697
 10
-591673.85
 20
-1167271.32
 10
-591721.09
 20
-1167271.58
 10
-591768.33
 20
-1167271.84
 97
0
 75
0
 76
1
 98
0
  0
HATCH
  5
20066
100
AcDbEntity
  8
skládky a antropogenní uloženiny
100
AcDbHatch
 10
0
 20
0
 30
0
210
0
220
0
230
1
  2
SOLID
 70
1
 71
0
 91
1
 92
2
 72
0
 73
1
 93
12
 10
-591708.11
 20
-1167242.19
 10
-591768.33
 20
-1167271.84
 10
-591673.85
 20
-1167271.32
 10
-591618.42
 20
-1167275.95
 10
-591569.1941
 20
-1167278.9702
 10
-591564.495
 20
-1167274.065
 10
-591560.9
 20
-1167265.88
 10
-591562.28
 20
-1167256.22
 10
-591565.19
 20
-1167248.38
 10
-591568.605
 20
-1167244.235
 10
-591616.66
 20
-1167243.62
 10
-591708.11
 20
-1167242.19
 97
0
 75
0
 76
1
 98
0
  0
HATCH
  5
20067
100
AcDbEntity
  8
skládky a antropogenní uloženiny
100
AcDbHatch
 10
0
 20
0
 30
0
210
0
220
0
230
1
  2
SOLID
 70
1
 71
0
 91
1
 92
2
 72
0
 73
1
 93
18
 10
-598393.7675
 20
-1162669.7557
 10
-598402.3348
 20
-1162734.5814
 10
-598410.793
 20
-1162796.7605
 10
-598429.7558
 20
-1162876.9007
 10
-598449.605
 20
-1162991.785
 10
-598469.5653
 20
-1163135.3842
 10
-598481.8668
 20
-1163261.7541
 10
-598507.905
 20
-1163421.495
 10
-598436.95
 20
-1163307.39
 10
-598360.9408
 20
-1163185.1667
 10
-598309.7738
 20
-1163094.4886
 10
-598262.1737
 20
-1163001.4422
 10
-598198.235
 20
-1162883.81
 10
-598237.38
 20
-1162848.22
 10
-598297.8749
 20
-1162779.5369
 10
-598337.74
 20
-1162710.255
 10
-598370.7776
 20
-1162651.3147
 10
-598393.7675
 20
-1162669.7557
 97
0
 75
0
 76
1
 98
0
  0
HATCH
  5
20068
100
AcDbEntity
  8
skládky a antropogenní uloženiny
100
AcDbHatch
 10
0
 20
0
 30
0
210
0
220
0
230
1
  2
SOLID
 70
1
 71
0
 91
1
 92
2
 72
0
 73
1
 93
8
 10
-598216.624
 20
-1163057.0327
 10
-598040.7356
 20
-1163033.7285
 10
-598068.2054
 20
-1163009.839
 10
-598113.353
 20
-1162968.377
 10
-598161.7452
 20
-1162921.1886
 10
-598186.81
 20
-1162972.69
 10
-598200.08
 20
-1162999.87
 10
-598216.624
 20
-1163057.0327
 97
0
 75
0
 76
1
 98
0
  0
HATCH
  5
20069
100
AcDbEntity
  8
skládky a antropogenní uloženiny
100
AcDbHatch
 10
0
 20
0
 30
0
210
0
220
0
230
1
  2
SOLID
 70
1
 71
0
 91
1
 92
2
 72
0
 73
1
 93
6
 10
-598603.6816
 20
-1163528.1189
 10
-598551.49
 20
-1163538.14
 10
-598548.2
 20
-1163511.71
 10
-598545.49
 20
-1163492.33
 10
-598592.65
 20
-1163513.86
 10
-598603.6816
 20
-1163528.1189
 97
0
 75
0
 76
1
 98
0
  0
HATCH
  5
2006A
100
AcDbEntity
  8
skládky a antropogenní uloženiny
100
AcDbHatch
 10
0
 20
0
 30
0
210
0
220
0
230
1
  2
SOLID
 70
1
 71
0
 91
1
 92
2
 72
0
 73
1
 93
20
 10
-598830.4289
 20
-1164547.8452
 10
-598834.825
 20
-1164550.4723
 10
-598835.0394
 20
-1164553.3833
 10
-598834.8913
 20
-1164556.679
 10
-598826.9073
 20
-1164561.128
 10
-598789.2553
 20
-1164590.7344
 10
-598767.0054
 20
-1164587.8288
 10
-598752.7992
 20
-1164585.451
 10
-598746.4001
 20
-1164584.2601
 10
-598741.1122
 20
-1164583.1576
 10
-598738.512
 20
-1164582.7999
 10
-598738.3244
 20
-1164576.5809
 10
-598738.3244
 20
-1164567.5245
 10
-598738.9945
 20
-1164560.3367
 10
-598739.4651
 20
-1164551.4202
 10
-598739.442
 20
-1164549.03
 10
-598739.611
 20
-1164544.414
 10
-598763.17
 20
-1164544.9487
 10
-598800.1351
 20
-1164546.5339
 10
-598830.4289
 20
-1164547.8452
 97
0
 75
0
 76
1
 98
0
  0
HATCH
  5
2006B
100
AcDbEntity
  8
skládky a antropogenní uloženiny
100
AcDbHatch
 10
0
 20
0
 30
0
210
0
220
0
230
1
  2
SOLID
 70
1
 71
0
 91
1
 92
2
 72
0
 73
1
 93
5
 10
-598928.9253
 20
-1164530.0233
 10
-598907.8438
 20
-1164553.4208
 10
-598884.6837
 20
-1164560.7119
 10
-598890.4737
 20
-1164532.4051
 10
-598928.9253
 20
-1164530.0233
 97
0
 75
0
 76
1
 98
0
  0
HATCH
  5
2006C
100
AcDbEntity
  8
skládky a antropogenní uloženiny
100
AcDbHatch
 10
0
 20
0
 30
0
210
0
220
0
230
1
  2
SOLID
 70
1
 71
0
 91
1
 92
2
 72
0
 73
1
 93
8
 10
-595326.58
 20
-1166759.76
 10
-595196.62
 20
-1166787.61
 10
-595194.26
 20
-1166776.32
 10
-595197.78
 20
-1166772.62
 10
-595236.48
 20
-1166762.49
 10
-595267.02
 20
-1166755.67
 10
-595324.06
 20
-1166744.12
 10
-595326.58
 20
-1166759.76
 97
0
 75
0
 76
1
 98
0
  0
HATCH
  5
2006D
100
AcDbEntity
  8
skládky a antropogenní uloženiny
100
AcDbHatch
 10
0
 20
0
 30
0
210
0
220
0
230
1
  2
SOLID
 70
1
 71
0
 91
1
 92
2
 72
0
 73
1
 93
13
 10
-596111.6066
 20
-1166279.4882
 10
-596136.6908
 20
-1166278.9071
 10
-596144.4388
 20
-1166287.563
 10
-596148.7003
 20
-1166297.1149
 10
-596142.3081
 20
-1166307.5748
 10
-596112.3814
 20
-1166318.2283
 10
-596102.6177
 20
-1166319.1968
 10
-596092.2365
 20
-1166315.9039
 10
-596085.1664
 20
-1166305.6283
 10
-596082.842
 20
-1166295.4739
 10
-596083.7137
 20
-1166288.011
 10
-596099.6052
 20
-1166283.4298
 10
-596111.6066
 20
-1166279.4882
 97
0
 75
0
 76
1
 98
0
  0
HATCH
  5
2006E
100
AcDbEntity
  8
skládky a antropogenní uloženiny
100
AcDbHatch
 10
0
 20
0
 30
0
210
0
220
0
230
1
  2
SOLID
 70
1
 71
0
 91
1
 92
2
 72
0
 73
1
 93
9
 10
-595231.3559
 20
-1166933.6158
 10
-595261.1488
 20
-1166936.9624
 10
-595259.3688
 20
-1166948.5397
 10
-595223.2585
 20
-1166943.3023
 10
-595190.3274
 20
-1166941.5286
 10
-595167.5537
 20
-1166942.7332
 10
-595163.5617
 20
-1166930.0315
 10
-595188.2393
 20
-1166930.7573
 10
-595231.3559
 20
-1166933.6158
 97
0
 75
0
 76
1
 98
0
  0
HATCH
  5
2006F
100
AcDbEntity
  8
skládky a antropogenní uloženiny
100
AcDbHatch
 10
0
 20
0
 30
0
210
0
220
0
230
1
  2
SOLID
 70
1
 71
0
 91
1
 92
2
 72
0
 73
1
 93
55
 10
-595148.1017
 20
-1166901.1647
 10
-595164.85
 20
-1166930.46
 10
-595167.5537
 20
-1166942.7332
 10
-595173.07
 20
-1166962.26
 10
-595181.93
 20
-1166994.49
 10
-595189.47
 20
-1167014.22
 10
-595195.27
 20
-1167029.38
 10
-595201.5901
 20
-1167044.8004
 10
-595240.6931
 20
-1167028.091
 10
-595282.0022
 20
-1167049.3367
 10
-595407.0918
 20
-1167095.2646
 10
-595425.6703
 20
-1167103.1375
 10
-595434.1825
 20
-1167103.6426
 10
-595439.6876
 20
-1167098.0568
 10
-595446.9457
 20
-1167099.0548
 10
-595442.1826
 20
-1167104.2052
 10
-595436.9204
 20
-1167108.944
 10
-595423.2661
 20
-1167108.1274
 10
-595362.7145
 20
-1167085.3492
 10
-595279.0111
 20
-1167056.7763
 10
-595242.902
 20
-1167035.7277
 10
-595203.6339
 20
-1167050.5533
 10
-595160.32
 20
-1167081.43
 10
-595106.07
 20
-1167118.88
 10
-595099.575
 20
-1167095.355
 10
-595088.79
 20
-1167056.6
 10
-595070.03
 20
-1167013.08
 10
-595048.52
 20
-1166961.5
 10
-595035.38
 20
-1166929.34
 10
-595045.3887
 20
-1166851.2322
 10
-595048.2
 20
-1166821.19
 10
-595048.49
 20
-1166812.36
 10
-595048.775
 20
-1166806.56
 10
-595049.9288
 20
-1166785.886
 10
-595051.3206
 20
-1166778.6571
 10
-595052.6859
 20
-1166748.5396
 10
-595046.65
 20
-1166708.89
 10
-595046.67
 20
-1166694.36
 10
-595050.06
 20
-1166688.95
 10
-595059.2
 20
-1166685.1
 10
-595129.19
 20
-1166670.56
 10
-595173.35
 20
-1166661.305
 10
-595222.18
 20
-1166650.71
 10
-595239.18
 20
-1166636.53
 10
-595256.2844
 20
-1166615.385
 10
-595321.3803
 20
-1166643.4267
 10
-595332.31
 20
-1166649.29
 10
-595274.8898
 20
-1166672.1383
 10
-595239.0461
 20
-1166694.8686
 10
-595214.7804
 20
-1166709.8989
 10
-595186.5609
 20
-1166734.5161
 10
-595166.964
 20
-1166755.9275
 10
-595157.448
 20
-1166802.9909
 10
-595147.891
 20
-1166851.1598
 10
-595148.1017
 20
-1166901.1647
 97
0
 75
0
 76
1
 98
0
  0
HATCH
  5
20070
100
AcDbEntity
  8
skládky a antropogenní uloženiny
100
AcDbHatch
 10
0
 20
0
 30
0
210
0
220
0
230
1
  2
SOLID
 70
1
 71
0
 91
1
 92
2
 72
0
 73
1
 93
7
 10
-599444.568
 20
-1152067.1731
 10
-599458.3189
 20
-1152196.9204
 10
-599289.6118
 20
-1152220.3623
 10
-599283.8235
 20
-1152180.5092
 10
-599242.6391
 20
-1152185.1257
 10
-599241.37
 20
-1152081.73
 10
-599444.568
 20
-1152067.1731
 97
0
 75
0
 76
1
 98
0
  0
HATCH
  5
20071
100
AcDbEntity
  8
skládky a antropogenní uloženiny
100
AcDbHatch
 10
0
 20
0
 30
0
210
0
220
0
230
1
  2
SOLID
 70
1
 71
0
 91
1
 92
2
 72
0
 73
1
 93
5
 10
-599278.4394
 20
-1152040.0331
 10
-599278.4394
 20
-1152053.0169
 10
-599265.4556
 20
-1152053.0169
 10
-599265.4556
 20
-1152040.0331
 10
-599278.4394
 20
-1152040.0331
 97
0
 75
0
 76
1
 98
0
  0
HATCH
  5
20072
100
AcDbEntity
  8
skládky a antropogenní uloženiny
100
AcDbHatch
 10
0
 20
0
 30
0
210
0
220
0
230
1
  2
SOLID
 70
1
 71
0
 91
1
 92
2
 72
0
 73
1
 93
5
 10
-599725.11
 20
-1152241.49
 10
-599724.79
 20
-1152252.04
 10
-599646.254
 20
-1152253.7229
 10
-599646.0427
 20
-1152241.49
 10
-599725.11
 20
-1152241.49
 97
0
 75
0
 76
1
 98
0
  0
HATCH
  5
20073
100
AcDbEntity
  8
skládky a antropogenní uloženiny
100
AcDbHatch
 10
0
 20
0
 30
0
210
0
220
0
230
1
  2
SOLID
 70
1
 71
0
 91
1
 92
2
 72
0
 73
1
 93
13
 10
-600707.1811
 20
-1153385.3394
 10
-600722.53
 20
-1153443.32
 10
-600730.23
 20
-1153592.36
 10
-600632.9
 20
-1153534.73
 10
-600614.89
 20
-1153525.26
 10
-600598.89
 20
-1153518.1
 10
-600575.07
 20
-1153507.45
 10
-600551.86
 20
-1153487.48
 10
-600573.86
 20
-1153472.71
 10
-600608.35
 20
-1153449.56
 10
-600627.82
 20
-1153436.48
 10
-600669.31
 20
-1153408.64
 10
-600707.1811
 20
-1153385.3394
 97
0
 75
0
 76
1
 98
0
  0
HATCH
  5
20074
100
AcDbEntity
  8
skládky a antropogenní uloženiny
100
AcDbHatch
 10
0
 20
0
 30
0
210
0
220
0
230
1
  2
SOLID
 70
1
 71
0
 91
1
 92
2
 72
0
 73
1
 93
14
 10
-600216.7643
 20
-1153455.3608
 10
-600223.3419
 20
-1153450.6742
 10
-600234.8562
 20
-1153442.998
 10
-600245.4764
 20
-1153452.5496
 10
-600262.0281
 20
-1153478.3695
 10
-600276.5518
 20
-1153505.5414
 10
-600279.3868
 20
-1153538.4269
 10
-600273.7307
 20
-1153552.754
 10
-600243.9498
 20
-1153556.5706
 10
-600222.6877
 20
-1153553.7356
 10
-600208.5129
 20
-1153547.4987
 10
-600211.3479
 20
-1153481.7278
 10
-600214.2264
 20
-1153463.2507
 10
-600216.7643
 20
-1153455.3608
 97
0
 75
0
 76
1
 98
0
  0
HATCH
  5
20075
100
AcDbEntity
  8
skládky a antropogenní uloženiny
100
AcDbHatch
 10
0
 20
0
 30
0
210
0
220
0
230
1
  2
SOLID
 70
1
 71
0
 91
1
 92
2
 72
0
 73
1
 93
4
 10
-598726.7539
 20
-1151931.7402
 10
-598696.0598
 20
-1151927.7846
 10
-598719.748
 20
-1151757.9948
 10
-598726.7539
 20
-1151931.7402
 97
0
 75
0
 76
1
 98
0
  0
HATCH
  5
20076
100
AcDbEntity
  8
skládky a antropogenní uloženiny
100
AcDbHatch
 10
0
 20
0
 30
0
210
0
220
0
230
1
  2
SOLID
 70
1
 71
0
 91
1
 92
2
 72
0
 73
1
 93
4
 10
-598652.4917
 20
-1151921.4649
 10
-598634.7435
 20
-1151921.4649
 10
-598648.7553
 20
-1151778.5453
 10
-598652.4917
 20
-1151921.4649
 97
0
 75
0
 76
1
 98
0
  0
HATCH
  5
20077
100
AcDbEntity
  8
skládky a antropogenní uloženiny
100
AcDbHatch
 10
0
 20
0
 30
0
210
0
220
0
230
1
  2
SOLID
 70
1
 71
0
 91
1
 92
2
 72
0
 73
1
 93
8
 10
-598583.8343
 20
-1151920.9978
 10
-598567.9078
 20
-1151922.3141
 10
-598562.6678
 20
-1151872.516
 10
-598557.1081
 20
-1151853.2675
 10
-598549.43
 20
-1151828.6599
 10
-598563.9084
 20
-1151850.2681
 10
-598574.4931
 20
-1151870.5556
 10
-598583.8343
 20
-1151920.9978
 97
0
 75
0
 76
1
 98
0
  0
HATCH
  5
20078
100
AcDbEntity
  8
skládky a antropogenní uloženiny
100
AcDbHatch
 10
0
 20
0
 30
0
210
0
220
0
230
1
  2
SOLID
 70
1
 71
0
 91
1
 92
2
 72
0
 73
1
 93
10
 10
-599070.041
 20
-1151732.7737
 10
-599072.4496
 20
-1151745.1073
 10
-598952.3426
 20
-1151759.863
 10
-598878.0805
 20
-1151778.5453
 10
-598757.5866
 20
-1151719.943
 10
-598763.1765
 20
-1151707.549
 10
-598817.363
 20
-1151734.2518
 10
-598879.8911
 20
-1151761.8848
 10
-598950.4744
 20
-1151743.049
 10
-599070.041
 20
-1151732.7737
 97
0
 75
0
 76
1
 98
0
  0
HATCH
  5
20079
100
AcDbEntity
  8
skládky a antropogenní uloženiny
100
AcDbHatch
 10
0
 20
0
 30
0
210
0
220
0
230
1
  2
SOLID
 70
1
 71
0
 91
1
 92
2
 72
0
 73
1
 93
13
 10
-598615.1271
 20
-1151419.8452
 10
-598671.174
 20
-1151361.9301
 10
-598695.5078
 20
-1151342.7443
 10
-598719.8725
 20
-1151324.5655
 10
-598751.6454
 20
-1151278.7763
 10
-598782.3337
 20
-1151263.8481
 10
-598815.2168
 20
-1151205.8677
 10
-598792.6089
 20
-1151273.1892
 10
-598761.5496
 20
-1151289.5362
 10
-598728.3895
 20
-1151333.9067
 10
-598679.2013
 20
-1151367.8597
 10
-598630.3065
 20
-1151419.8452
 10
-598615.1271
 20
-1151419.8452
 97
0
 75
0
 76
1
 98
0
  0
HATCH
  5
2007A
100
AcDbEntity
  8
skládky a antropogenní uloženiny
100
AcDbHatch
 10
0
 20
0
 30
0
210
0
220
0
230
1
  2
SOLID
 70
1
 71
0
 91
1
 92
2
 72
0
 73
1
 93
26
 10
-599067.6774
 20
-1151177.7871
 10
-599097.5974
 20
-1151190.9871
 10
-599066.3097
 20
-1151173.6878
 10
-599057.3271
 20
-1151146.7657
 10
-599033.6876
 20
-1151124.1686
 10
-599001.1501
 20
-1151112.9885
 10
-598968.6003
 20
-1151107.7393
 10
-598924.2748
 20
-1151104.8405
 10
-598997.6471
 20
-1151103.1803
 10
-599035.0117
 20
-1151114.3897
 10
-599063.9175
 20
-1151140.5855
 10
-599078.4408
 20
-1151179.3841
 10
-599099.4657
 20
-1151189.1189
 10
-599092.9269
 20
-1151200.3282
 10
-599058.1091
 20
-1151181.933
 10
-599036.4191
 20
-1151171.3707
 10
-598978.9483
 20
-1151153.3959
 10
-598909.0917
 20
-1151169.7376
 10
-598827.4725
 20
-1151188.831
 10
-598851.9252
 20
-1151171.3707
 10
-598928.5227
 20
-1151151.7543
 10
-598970.8891
 20
-1151140.9043
 10
-599002.3177
 20
-1151148.9519
 10
-599042.6903
 20
-1151160.6284
 10
-599066.3097
 20
-1151173.6878
 10
-599067.6774
 20
-1151177.7871
 97
0
 75
0
 76
1
 98
0
  0
HATCH
  5
2007B
100
AcDbEntity
  8
skládky a antropogenní uloženiny
100
AcDbHatch
 10
0
 20
0
 30
0
210
0
220
0
230
1
  2
SOLID
 70
1
 71
0
 91
1
 92
2
 72
0
 73
1
 93
6
 10
-605030.5793
 20
-1154316.4426
 10
-605007.58
 20
-1154324.62
 10
-604994.575
 20
-1154268.095
 10
-605002.86
 20
-1154266.25
 10
-605005.55
 20
-1154265.55
 10
-605030.5793
 20
-1154316.4426
 97
0
 75
0
 76
1
 98
0
  0
HATCH
  5
2007C
100
AcDbEntity
  8
skládky a antropogenní uloženiny
100
AcDbHatch
 10
0
 20
0
 30
0
210
0
220
0
230
1
  2
SOLID
 70
1
 71
0
 91
1
 92
2
 72
0
 73
1
 93
12
 10
-599051.5923
 20
-1151688.4032
 10
-599046.4546
 20
-1151695.8762
 10
-598952.3426
 20
-1151648.7034
 10
-598892.7928
 20
-1151617.4105
 10
-598786.3037
 20
-1151593.1235
 10
-598719.0474
 20
-1151553.8907
 10
-598818.0636
 20
-1151589.3871
 10
-598894.8011
 20
-1151604.0527
 10
-598922.6844
 20
-1151548.286
 10
-598912.148
 20
-1151610.4131
 10
-598960.4433
 20
-1151637.3321
 10
-599051.5923
 20
-1151688.4032
 97
0
 75
0
 76
1
 98
0
  0
HATCH
  5
2007D
100
AcDbEntity
  8
skládky a antropogenní uloženiny
100
AcDbHatch
 10
0
 20
0
 30
0
210
0
220
0
230
1
  2
SOLID
 70
1
 71
0
 91
1
 92
2
 72
0
 73
1
 93
9
 10
-598489.2822
 20
-1151987.0654
 10
-598479.6805
 20
-1151998.0623
 10
-598454.4594
 20
-1151969.2093
 10
-598435.9295
 20
-1151931.0674
 10
-598378.4981
 20
-1151854.9154
 10
-598396.3107
 20
-1151847.2028
 10
-598452.4864
 20
-1151927.1369
 10
-598466.6029
 20
-1151963.033
 10
-598489.2822
 20
-1151987.0654
 97
0
 75
0
 76
1
 98
0
  0
HATCH
  5
2007E
100
AcDbEntity
  8
skládky a antropogenní uloženiny
100
AcDbHatch
 10
0
 20
0
 30
0
210
0
220
0
230
1
  2
SOLID
 70
1
 71
0
 91
1
 92
2
 72
0
 73
1
 93
5
 10
-598463.3335
 20
-1151987.787
 10
-598434.6723
 20
-1151996.2611
 10
-598430.0082
 20
-1151983.1579
 10
-598448.6518
 20
-1151974.209
 10
-598463.3335
 20
-1151987.787
 97
0
 75
0
 76
1
 98
0
  0
HATCH
  5
2007F
100
AcDbEntity
  8
skládky a antropogenní uloženiny
100
AcDbHatch
 10
0
 20
0
 30
0
210
0
220
0
230
1
  2
SOLID
 70
1
 71
0
 91
1
 92
2
 72
0
 73
1
 93
8
 10
-598380.486
 20
-1152061.3238
 10
-598357.7228
 20
-1152072.335
 10
-598330.2221
 20
-1152088.2044
 10
-598284.5416
 20
-1152111.8226
 10
-598270.6723
 20
-1152106.8867
 10
-598323.9168
 20
-1152078.8632
 10
-598367.5867
 20
-1152057.3786
 10
-598380.486
 20
-1152061.3238
 97
0
 75
0
 76
1
 98
0
  0
HATCH
  5
20080
100
AcDbEntity
  8
skládky a antropogenní uloženiny
100
AcDbHatch
 10
0
 20
0
 30
0
210
0
220
0
230
1
  2
SOLID
 70
1
 71
0
 91
1
 92
2
 72
0
 73
1
 93
19
 10
-598341.4315
 20
-1152534.2442
 10
-598308.2176
 20
-1152548.2757
 10
-598269.0376
 20
-1152551.5253
 10
-598234.4753
 20
-1152573.477
 10
-598232.8561
 20
-1152566.8743
 10
-598239.9617
 20
-1152555.0035
 10
-598248.02
 20
-1152537.0466
 10
-598275.2906
 20
-1152528.194
 10
-598291.3353
 20
-1152528.2071
 10
-598316.6258
 20
-1152534.8034
 10
-598336.9944
 20
-1152514.2018
 10
-598343.5941
 20
-1152492.2119
 10
-598357.3776
 20
-1152476.7949
 10
-598382.9267
 20
-1152471.5861
 10
-598403.3785
 20
-1152473.0635
 10
-598418.0455
 20
-1152484.6871
 10
-598435.6428
 20
-1152507.7058
 10
-598407.7536
 20
-1152515.5619
 10
-598341.4315
 20
-1152534.2442
 97
0
 75
0
 76
1
 98
0
  0
HATCH
  5
20081
100
AcDbEntity
  8
skládky a antropogenní uloženiny
100
AcDbHatch
 10
0
 20
0
 30
0
210
0
220
0
230
1
  2
SOLID
 70
1
 71
0
 91
1
 92
2
 72
0
 73
1
 93
12
 10
-598350.0721
 20
-1152289.0391
 10
-598355.9103
 20
-1152283.4344
 10
-598389.8485
 20
-1152317.6817
 10
-598442.1728
 20
-1152332.7343
 10
-598435.0765
 20
-1152337.613
 10
-598388.1372
 20
-1152325.0025
 10
-598416.6277
 20
-1152347.4212
 10
-598407.0531
 20
-1152355.3612
 10
-598377.4338
 20
-1152328.2317
 10
-598381.832
 20
-1152372.1753
 10
-598371.6591
 20
-1152329.9186
 10
-598350.0721
 20
-1152289.0391
 97
0
 75
0
 76
1
 98
0
  0
HATCH
  5
20082
100
AcDbEntity
  8
skládky a antropogenní uloženiny
100
AcDbHatch
 10
0
 20
0
 30
0
210
0
220
0
230
1
  2
SOLID
 70
1
 71
0
 91
1
 92
2
 72
0
 73
1
 93
6
 10
-599028.4
 20
-1152041.98
 10
-598984.7588
 20
-1152002.9477
 10
-598958.39
 20
-1151971.65
 10
-598999.05
 20
-1151967
 10
-599016.6797
 20
-1151995.727
 10
-599028.4
 20
-1152041.98
 97
0
 75
0
 76
1
 98
0
  0
HATCH
  5
20083
100
AcDbEntity
  8
skládky a antropogenní uloženiny
100
AcDbHatch
 10
0
 20
0
 30
0
210
0
220
0
230
1
  2
SOLID
 70
1
 71
0
 91
1
 92
2
 72
0
 73
1
 93
5
 10
-599058.07
 20
-1151967.57
 10
-599045.22
 20
-1151995.61
 10
-599026.2544
 20
-1151982.6494
 10
-599042.9578
 20
-1151961.6555
 10
-599058.07
 20
-1151967.57
 97
0
 75
0
 76
1
 98
0
  0
HATCH
  5
20084
100
AcDbEntity
  8
skládky a antropogenní uloženiny
100
AcDbHatch
 10
0
 20
0
 30
0
210
0
220
0
230
1
  2
SOLID
 70
1
 71
0
 91
1
 92
2
 72
0
 73
1
 93
6
 10
-599022.2844
 20
-1152137.7125
 10
-599020.76
 20
-1152189.04
 10
-598997.5217
 20
-1152182.55
 10
-598985.1534
 20
-1152160.5983
 10
-598992.8579
 20
-1152142.4319
 10
-599022.2844
 20
-1152137.7125
 97
0
 75
0
 76
1
 98
0
  0
HATCH
  5
20085
100
AcDbEntity
  8
skládky a antropogenní uloženiny
100
AcDbHatch
 10
0
 20
0
 30
0
210
0
220
0
230
1
  2
SOLID
 70
1
 71
0
 91
1
 92
2
 72
0
 73
1
 93
5
 10
-597670.51
 20
-1150395.77
 10
-597614.8
 20
-1150445.36
 10
-597600.574
 20
-1150391.276
 10
-597622.32
 20
-1150341.59
 10
-597670.51
 20
-1150395.77
 97
0
 75
0
 76
1
 98
0
  0
HATCH
  5
20086
100
AcDbEntity
  8
skládky a antropogenní uloženiny
100
AcDbHatch
 10
0
 20
0
 30
0
210
0
220
0
230
1
  2
SOLID
 70
1
 71
0
 91
1
 92
2
 72
0
 73
1
 93
5
 10
-605389.5124
 20
-1152890.8281
 10
-605478.0876
 20
-1153028.9315
 10
-605436.893
 20
-1153048.7635
 10
-605360.8592
 20
-1152890.8281
 10
-605389.5124
 20
-1152890.8281
 97
0
 75
0
 76
1
 98
0
  0
HATCH
  5
20087
100
AcDbEntity
  8
skládky a antropogenní uloženiny
100
AcDbHatch
 10
0
 20
0
 30
0
210
0
220
0
230
1
  2
SOLID
 70
1
 71
0
 91
1
 92
2
 72
0
 73
1
 93
5
 10
-605417.1511
 20
-1154062.5119
 10
-605394.053
 20
-1154076.5287
 10
-605365.4272
 20
-1154019.2771
 10
-605389.5124
 20
-1154007.2345
 10
-605417.1511
 20
-1154062.5119
 97
0
 75
0
 76
1
 98
0
  0
HATCH
  5
20088
100
AcDbEntity
  8
skládky a antropogenní uloženiny
100
AcDbHatch
 10
0
 20
0
 30
0
210
0
220
0
230
1
  2
SOLID
 70
1
 71
0
 91
1
 92
2
 72
0
 73
1
 93
5
 10
-605252.1
 20
-1154153.34
 10
-605221.34
 20
-1154170.13
 10
-605135.8234
 20
-1153977.4616
 10
-605157.0511
 20
-1153958.1265
 10
-605252.1
 20
-1154153.34
 97
0
 75
0
 76
1
 98
0
  0
HATCH
  5
20089
100
AcDbEntity
  8
skládky a antropogenní uloženiny
100
AcDbHatch
 10
0
 20
0
 30
0
210
0
220
0
230
1
  2
SOLID
 70
1
 71
0
 91
1
 92
2
 72
0
 73
1
 93
8
 10
-604856.5628
 20
-1154161.1204
 10
-604653.73
 20
-1153863.52
 10
-604705.9277
 20
-1153798.8086
 10
-604799.5001
 20
-1153714.4879
 10
-604755.47
 20
-1153783.21
 10
-604690.945
 20
-1153863.67
 10
-604867.8317
 20
-1154136.9144
 10
-604856.5628
 20
-1154161.1204
 97
0
 75
0
 76
1
 98
0
  0
HATCH
  5
2008A
100
AcDbEntity
  8
skládky a antropogenní uloženiny
100
AcDbHatch
 10
0
 20
0
 30
0
210
0
220
0
230
1
  2
SOLID
 70
1
 71
0
 91
1
 92
2
 72
0
 73
1
 93
29
 10
-605131.2
 20
-1153981.55
 10
-605098.475
 20
-1153988.66
 10
-605071.52
 20
-1153998.76
 10
-605047.9769
 20
-1154031.9119
 10
-605020.14
 20
-1154050.23
 10
-604964.06
 20
-1154070.36
 10
-604955.62
 20
-1154088.13
 10
-604944.615
 20
-1154104.51
 10
-604936.76
 20
-1154110.58
 10
-604926.605
 20
-1154118.175
 10
-604909.8475
 20
-1154130.555
 10
-604896.53
 20
-1154148.42
 10
-604895.06
 20
-1154238.56
 10
-604908.505
 20
-1154298.405
 10
-604885.36
 20
-1154313.33
 10
-604851.12
 20
-1154171.13
 10
-604874.34
 20
-1154124.23
 10
-604951.93
 20
-1154033.145
 10
-605003.99
 20
-1154024.11
 10
-605036.52
 20
-1153948.84
 10
-605114.415
 20
-1153930.515
 10
-605118.77
 20
-1153861.91
 10
-605057.685
 20
-1153722.525
 10
-604984.82
 20
-1153590.1
 10
-605006.5188
 20
-1153583.77
 10
-605101.2801
 20
-1153731.8345
 10
-605154.5833
 20
-1153862.1313
 10
-605156.71
 20
-1153958.77
 10
-605131.2
 20
-1153981.55
 97
0
 75
0
 76
1
 98
0
  0
HATCH
  5
2008B
100
AcDbEntity
  8
skládky a antropogenní uloženiny
100
AcDbHatch
 10
0
 20
0
 30
0
210
0
220
0
230
1
  2
SOLID
 70
1
 71
0
 91
1
 92
2
 72
0
 73
1
 93
6
 10
-604957.966
 20
-1154032.0353
 10
-604952.0434
 20
-1154033.0841
 10
-604941.6683
 20
-1154045.3686
 10
-604813.96
 20
-1153797.88
 10
-604836.37
 20
-1153792.33
 10
-604957.966
 20
-1154032.0353
 97
0
 75
0
 76
1
 98
0
  0
HATCH
  5
2008C
100
AcDbEntity
  8
skládky a antropogenní uloženiny
100
AcDbHatch
 10
0
 20
0
 30
0
210
0
220
0
230
1
  2
SOLID
 70
1
 71
0
 91
1
 92
2
 72
0
 73
1
 93
11
 10
-605247.54
 20
-1154248.92
 10
-605220.26
 20
-1154259.98
 10
-605212.67
 20
-1154239.23
 10
-605202.37
 20
-1154230.73
 10
-605192.07
 20
-1154222.23
 10
-605184.8
 20
-1154208.77
 10
-605227.815
 20
-1154185.205
 10
-605238.058
 20
-1154191.21
 10
-605246.455
 20
-1154215.87
 10
-605249.66
 20
-1154231.52
 10
-605247.54
 20
-1154248.92
 97
0
 75
0
 76
1
 98
0
  0
HATCH
  5
2008D
100
AcDbEntity
  8
skládky a antropogenní uloženiny
100
AcDbHatch
 10
0
 20
0
 30
0
210
0
220
0
230
1
  2
SOLID
 70
1
 71
0
 91
1
 92
2
 72
0
 73
1
 93
8
 10
-605198.47
 20
-1154240.7
 10
-605195.105
 20
-1154274.505
 10
-605181.92
 20
-1154262.57
 10
-605175.06
 20
-1154270.78
 10
-605141.84
 20
-1154248.04
 10
-605134.11
 20
-1154235.94
 10
-605164.305
 20
-1154220.35
 10
-605198.47
 20
-1154240.7
 97
0
 75
0
 76
1
 98
0
  0
HATCH
  5
2008E
100
AcDbEntity
  8
skládky a antropogenní uloženiny
100
AcDbHatch
 10
0
 20
0
 30
0
210
0
220
0
230
1
  2
SOLID
 70
1
 71
0
 91
1
 92
2
 72
0
 73
1
 93
5
 10
-605046.857
 20
-1154263.9529
 10
-605079.832
 20
-1154314.1029
 10
-605041.152
 20
-1154321.8929
 10
-605036.0547
 20
-1154264.0659
 10
-605046.857
 20
-1154263.9529
 97
0
 75
0
 76
1
 98
0
  0
HATCH
  5
2008F
100
AcDbEntity
  8
skládky a antropogenní uloženiny
100
AcDbHatch
 10
0
 20
0
 30
0
210
0
220
0
230
1
  2
SOLID
 70
1
 71
0
 91
1
 92
2
 72
0
 73
1
 93
8
 10
-604413.5924
 20
-1154557.0189
 10
-604400.86
 20
-1154562.6
 10
-604379
 20
-1154518.4
 10
-604370.37
 20
-1154438.56
 10
-604355.7286
 20
-1154325.4087
 10
-604367.9442
 20
-1154321.0973
 10
-604395.925
 20
-1154517.005
 10
-604413.5924
 20
-1154557.0189
 97
0
 75
0
 76
1
 98
0
  0
HATCH
  5
20090
100
AcDbEntity
  8
skládky a antropogenní uloženiny
100
AcDbHatch
 10
0
 20
0
 30
0
210
0
220
0
230
1
  2
SOLID
 70
1
 71
0
 91
1
 92
2
 72
0
 73
1
 93
7
 10
-604352.3
 20
-1154903.34
 10
-604326.01
 20
-1154900.2
 10
-604299.21
 20
-1154873.345
 10
-604266.57
 20
-1154846.81
 10
-604240.25
 20
-1154836.72
 10
-604312.96
 20
-1154833.15
 10
-604352.3
 20
-1154903.34
 97
0
 75
0
 76
1
 98
0
  0
HATCH
  5
20091
100
AcDbEntity
  8
skládky a antropogenní uloženiny
100
AcDbHatch
 10
0
 20
0
 30
0
210
0
220
0
230
1
  2
SOLID
 70
1
 71
0
 91
1
 92
2
 72
0
 73
1
 93
12
 10
-604141.6986
 20
-1154910.6748
 10
-604152.56
 20
-1154949.7
 10
-604176.84
 20
-1154969.57
 10
-604156.44
 20
-1154969.91
 10
-604163.33
 20
-1155036.455
 10
-604149.84
 20
-1155041.5
 10
-604148
 20
-1155036.33
 10
-604133.81
 20
-1154959.24
 10
-604123.035
 20
-1154949.875
 10
-604129.32
 20
-1154872.73
 10
-604143.7
 20
-1154866.43
 10
-604141.6986
 20
-1154910.6748
 97
0
 75
0
 76
1
 98
0
  0
HATCH
  5
20092
100
AcDbEntity
  8
skládky a antropogenní uloženiny
100
AcDbHatch
 10
0
 20
0
 30
0
210
0
220
0
230
1
  2
SOLID
 70
1
 71
0
 91
1
 92
2
 72
0
 73
1
 93
12
 10
-603739.41
 20
-1155224.37
 10
-603763.285
 20
-1155262.035
 10
-603776.12
 20
-1155280.59
 10
-603789.15
 20
-1155300.06
 10
-603801.83
 20
-1155320.77
 10
-603778.447
 20
-1155330.191
 10
-603730.12
 20
-1155343.59
 10
-603724.86
 20
-1155333.84
 10
-603727.3648
 20
-1155317.6055
 10
-603731.9482
 20
-1155290.1453
 10
-603729.5857
 20
-1155230.9877
 10
-603739.41
 20
-1155224.37
 97
0
 75
0
 76
1
 98
0
  0
HATCH
  5
20093
100
AcDbEntity
  8
skládky a antropogenní uloženiny
100
AcDbHatch
 10
0
 20
0
 30
0
210
0
220
0
230
1
  2
SOLID
 70
1
 71
0
 91
1
 92
2
 72
0
 73
1
 93
6
 10
-603559.17
 20
-1155190.03
 10
-603570.19
 20
-1155189.4
 10
-603577.9502
 20
-1155205.276
 10
-603546.9728
 20
-1155228.7668
 10
-603544.25
 20
-1155201.7
 10
-603559.17
 20
-1155190.03
 97
0
 75
0
 76
1
 98
0
  0
HATCH
  5
20094
100
AcDbEntity
  8
skládky a antropogenní uloženiny
100
AcDbHatch
 10
0
 20
0
 30
0
210
0
220
0
230
1
  2
SOLID
 70
1
 71
0
 91
1
 92
2
 72
0
 73
1
 93
15
 10
-604286.3786
 20
-1154360.8607
 10
-604272.35
 20
-1154412.09
 10
-604259.845
 20
-1154461.78
 10
-604256.4
 20
-1154514.76
 10
-604261.33
 20
-1154729.15
 10
-604249.41
 20
-1154730.56
 10
-604239.636
 20
-1154474.4377
 10
-604247.9896
 20
-1154412.2295
 10
-604263.2743
 20
-1154347.9064
 10
-604282.13
 20
-1154276.74
 10
-604332.12
 20
-1154202.47
 10
-604364.7107
 20
-1154180.6173
 10
-604360.3993
 20
-1154202.1744
 10
-604314.62
 20
-1154277.54
 10
-604286.3786
 20
-1154360.8607
 97
0
 75
0
 76
1
 98
0
  0
HATCH
  5
20095
100
AcDbEntity
  8
skládky a antropogenní uloženiny
100
AcDbHatch
 10
0
 20
0
 30
0
210
0
220
0
230
1
  2
SOLID
 70
1
 71
0
 91
1
 92
2
 72
0
 73
1
 93
9
 10
-604943.75
 20
-1154380.32
 10
-604907.31
 20
-1154359.34
 10
-604917.68
 20
-1154397.31
 10
-604908.51
 20
-1154375.04
 10
-604885.9
 20
-1154340.4
 10
-604875.9716
 20
-1154333.313
 10
-604895.22
 20
-1154320.32
 10
-604897.87
 20
-1154335.71
 10
-604943.75
 20
-1154380.32
 97
0
 75
0
 76
1
 98
0
  0
HATCH
  5
20096
100
AcDbEntity
  8
skládky a antropogenní uloženiny
100
AcDbHatch
 10
0
 20
0
 30
0
210
0
220
0
230
1
  2
SOLID
 70
1
 71
0
 91
1
 92
2
 72
0
 73
1
 93
5
 10
-604141.19
 20
-1154507.7
 10
-604191.4982
 20
-1154690.205
 10
-604196.2066
 20
-1154764.4536
 10
-604111.45
 20
-1154520.34
 10
-604141.19
 20
-1154507.7
 97
0
 75
0
 76
1
 98
0
  0
HATCH
  5
20097
100
AcDbEntity
  8
skládky a antropogenní uloženiny
100
AcDbHatch
 10
0
 20
0
 30
0
210
0
220
0
230
1
  2
SOLID
 70
1
 71
0
 91
1
 92
2
 72
0
 73
1
 93
51
 10
-603447.6
 20
-1160610.55
 10
-603440.79
 20
-1160598.13
 10
-603472.14
 20
-1160586.2
 10
-603482.48
 20
-1160577.07
 10
-603490.22
 20
-1160573.67
 10
-603492.08
 20
-1160573.97
 10
-603497.3
 20
-1160571.78
 10
-603530.9224
 20
-1160555.7863
 10
-603553.14
 20
-1160543.97
 10
-603587.72
 20
-1160534.94
 10
-603610.44
 20
-1160530.55
 10
-603633.51
 20
-1160526.15
 10
-603640.13
 20
-1160523.89
 10
-603650.75
 20
-1160520.265
 10
-603661.37
 20
-1160516.64
 10
-603672.06
 20
-1160508.98
 10
-603675.31
 20
-1160503.13
 10
-603679.26
 20
-1160499.69
 10
-603690.84
 20
-1160491.3
 10
-603698.75
 20
-1160494.29
 10
-603707.64
 20
-1160493.54
 10
-603715.46
 20
-1160487.13
 10
-603721.1
 20
-1160479.76
 10
-603730.63
 20
-1160482.06
 10
-603732.3
 20
-1160492.72
 10
-603712.545
 20
-1160508.39
 10
-603698.3
 20
-1160519.79
 10
-603686.2
 20
-1160524.97
 10
-603678.76
 20
-1160528.7
 10
-603668.28
 20
-1160534.05
 10
-603659.22
 20
-1160540.37
 10
-603653.365
 20
-1160541.885
 10
-603644.55
 20
-1160544.735
 10
-603641.59
 20
-1160546.07
 10
-603629.55
 20
-1160550.9
 10
-603599.66
 20
-1160558.025
 10
-603586.69
 20
-1160562.43
 10
-603572.66
 20
-1160564.87
 10
-603558.63
 20
-1160567.31
 10
-603550.92
 20
-1160567.76
 10
-603545.58
 20
-1160569.75
 10
-603541.86
 20
-1160573.71
 10
-603538.77
 20
-1160576.73
 10
-603535.68
 20
-1160579.75
 10
-603511.85
 20
-1160588.19
 10
-603499.8
 20
-1160592.54
 10
-603479.59
 20
-1160599.01
 10
-603465.25
 20
-1160605.24
 10
-603456.38
 20
-1160609
 10
-603453.34
 20
-1160610.29
 10
-603447.6
 20
-1160610.55
 97
0
 75
0
 76
1
 98
0
  0
HATCH
  5
20098
100
AcDbEntity
  8
skládky a antropogenní uloženiny
100
AcDbHatch
 10
0
 20
0
 30
0
210
0
220
0
230
1
  2
SOLID
 70
1
 71
0
 91
1
 92
2
 72
0
 73
1
 93
23
 10
-602961.9
 20
-1160841.105
 10
-602967.5
 20
-1160827.16
 10
-602977.73
 20
-1160812.32
 10
-602984.55
 20
-1160807.67
 10
-602996.14
 20
-1160800.6
 10
-603010.11
 20
-1160792.02
 10
-603019.927
 20
-1160786.2003
 10
-603020.6
 20
-1160785.8
 10
-603031.07
 20
-1160780.59
 10
-603042.8
 20
-1160775.28
 10
-603054.19
 20
-1160770.13
 10
-603063.35
 20
-1160766.55
 10
-603062.99
 20
-1160778.5
 10
-603049.17
 20
-1160785.515
 10
-603035.35
 20
-1160792.53
 10
-603020.32
 20
-1160800.15
 10
-603012.9
 20
-1160803.92
 10
-603005.48
 20
-1160807.69
 10
-603000.175
 20
-1160812.025
 10
-602994.87
 20
-1160816.36
 10
-602985.04
 20
-1160824.4
 10
-602977.57
 20
-1160840.4
 10
-602961.9
 20
-1160841.105
 97
0
 75
0
 76
1
 98
0
  0
HATCH
  5
20099
100
AcDbEntity
  8
skládky a antropogenní uloženiny
100
AcDbHatch
 10
0
 20
0
 30
0
210
0
220
0
230
1
  2
SOLID
 70
1
 71
0
 91
1
 92
2
 72
0
 73
1
 93
35
 10
-603548.2052
 20
-1160320.9491
 10
-603507.5592
 20
-1160336.4472
 10
-603497.7971
 20
-1160339.8846
 10
-603412.45
 20
-1160371.995
 10
-603373.075
 20
-1160367.665
 10
-603369.632
 20
-1160364.12
 10
-603373.375
 20
-1160357.595
 10
-603403.43
 20
-1160343.38
 10
-603418.81
 20
-1160346.62
 10
-603431.02
 20
-1160337.95
 10
-603441.89
 20
-1160338.94
 10
-603449.04
 20
-1160338.48
 10
-603459.14
 20
-1160334.6
 10
-603467.17
 20
-1160328.69
 10
-603474.06
 20
-1160322.46
 10
-603481.18
 20
-1160317.81
 10
-603485.54
 20
-1160303.6
 10
-603503.74
 20
-1160307.12
 10
-603513.82
 20
-1160304.84
 10
-603526.3152
 20
-1160298.7182
 10
-603547.2525
 20
-1160290.3258
 10
-603562.31
 20
-1160264.05
 10
-603571.27
 20
-1160259.975
 10
-603577.92
 20
-1160264.01
 10
-603567.16
 20
-1160287.8
 10
-603596.9882
 20
-1160270.8907
 10
-603607.5891
 20
-1160273.541
 10
-603606.728
 20
-1160284.3595
 10
-603718.262
 20
-1160260.8655
 10
-603720.8706
 20
-1160270.0956
 10
-603730.1159
 20
-1160279.1261
 10
-603756.8858
 20
-1160294.3011
 10
-603754.6773
 20
-1160296.9514
 10
-603705.2062
 20
-1160288.7146
 10
-603548.2052
 20
-1160320.9491
 97
0
 75
0
 76
1
 98
0
  0
HATCH
  5
2009A
100
AcDbEntity
  8
skládky a antropogenní uloženiny
100
AcDbHatch
 10
0
 20
0
 30
0
210
0
220
0
230
1
  2
SOLID
 70
1
 71
0
 91
1
 92
2
 72
0
 73
1
 93
28
 10
-603552.57
 20
-1160778
 10
-603581.03
 20
-1160745.41
 10
-603619.2391
 20
-1160789.6746
 10
-603665.1766
 20
-1160806.9012
 10
-603669.1519
 20
-1160817.0604
 10
-603617.5275
 20
-1160818.3855
 10
-603637.41
 20
-1160858.11
 10
-603630.56
 20
-1160852.47
 10
-603624.84
 20
-1160845.96
 10
-603619.12
 20
-1160839.45
 10
-603614.315
 20
-1160834.17
 10
-603608.7291
 20
-1160830.1135
 10
-603601.4663
 20
-1160823.7559
 10
-603597.43
 20
-1160820.17
 10
-603591.3539
 20
-1160816.2115
 10
-603588.0077
 20
-1160813.2918
 10
-603585.134
 20
-1160810.3443
 10
-603582.6306
 20
-1160808.4556
 10
-603579.6133
 20
-1160806.0434
 10
-603576.2708
 20
-1160803.145
 10
-603571.81
 20
-1160798.22
 10
-603568.5
 20
-1160794.52
 10
-603565.145
 20
-1160791.455
 10
-603561.79
 20
-1160788.39
 10
-603559.39
 20
-1160785.405
 10
-603556.5434
 20
-1160781.9734
 10
-603554.78
 20
-1160780.21
 10
-603552.57
 20
-1160778
 97
0
 75
0
 76
1
 98
0
  0
HATCH
  5
2009B
100
AcDbEntity
  8
skládky a antropogenní uloženiny
100
AcDbHatch
 10
0
 20
0
 30
0
210
0
220
0
230
1
  2
SOLID
 70
1
 71
0
 91
1
 92
2
 72
0
 73
1
 93
23
 10
-602933.4
 20
-1157206.4
 10
-602951.6591
 20
-1157228.6209
 10
-602963.9003
 20
-1157252.5205
 10
-602971.128
 20
-1157280.67
 10
-602972.6441
 20
-1157321.3047
 10
-602966.8149
 20
-1157352.7823
 10
-602956.19
 20
-1157380.48
 10
-602945.69
 20
-1157395.45
 10
-602937
 20
-1157390.31
 10
-602908.75
 20
-1157365.13
 10
-602902.1111
 20
-1157360.9431
 10
-602893.3673
 20
-1157355.114
 10
-602886.9552
 20
-1157349.2848
 10
-602882.8748
 20
-1157342.2898
 10
-602881.1261
 20
-1157334.1289
 10
-602881.1261
 20
-1157325.3852
 10
-602881.709
 20
-1157316.0585
 10
-602884.0407
 20
-1157306.1489
 10
-602886.17
 20
-1157297.77
 10
-602891.27
 20
-1157283.11
 10
-602901.055
 20
-1157259.97
 10
-602910.84
 20
-1157236.83
 10
-602933.4
 20
-1157206.4
 97
0
 75
0
 76
1
 98
0
  0
HATCH
  5
2009C
100
AcDbEntity
  8
skládky a antropogenní uloženiny
100
AcDbHatch
 10
0
 20
0
 30
0
210
0
220
0
230
1
  2
SOLID
 70
1
 71
0
 91
1
 92
2
 72
0
 73
1
 93
73
 10
-602544.67
 20
-1156484.24
 10
-602553.28
 20
-1156456.92
 10
-602568.63
 20
-1156421.555
 10
-602583.98
 20
-1156386.19
 10
-602597.31
 20
-1156369.53
 10
-602604.62
 20
-1156344.17
 10
-602608.29
 20
-1156324.69
 10
-602603.72
 20
-1156319.24
 10
-602580.936
 20
-1156292.0687
 10
-602558.152
 20
-1156264.8974
 10
-602548.77
 20
-1156255.38
 10
-602540.64
 20
-1156244.83
 10
-602544.38
 20
-1156233.46
 10
-602561.5
 20
-1156237.86
 10
-602564.76
 20
-1156232.23
 10
-602570.24
 20
-1156228.84
 10
-602563.57
 20
-1156216.45
 10
-602566.24
 20
-1156203.49
 10
-602567.77
 20
-1156202.28
 10
-602574.47
 20
-1156188.76
 10
-602583.4
 20
-1156192.91
 10
-602589.37
 20
-1156188.16
 10
-602587.48
 20
-1156184.76
 10
-602590.93
 20
-1156179.18
 10
-602599.1
 20
-1156172.05
 10
-602607.48
 20
-1156170.8
 10
-602615.79
 20
-1156163.47
 10
-602618.7
 20
-1156164.15
 10
-602623.915
 20
-1156155.445
 10
-602626
 20
-1156152.26
 10
-602631.16
 20
-1156146.69
 10
-602645.86
 20
-1156137.97
 10
-602656.39
 20
-1156118.84
 10
-602658
 20
-1156083.67
 10
-602642.03
 20
-1156057.34
 10
-602630.08
 20
-1156048.2
 10
-602624.0595
 20
-1156034.2232
 10
-602632.4938
 20
-1156030.5901
 10
-602642.7129
 20
-1156033.6403
 10
-602655.537
 20
-1156043.5499
 10
-602668.3612
 20
-1156053.4595
 10
-602678.2708
 20
-1156040.6353
 10
-602688.1804
 20
-1156027.8111
 10
-602703.9192
 20
-1156017.9015
 10
-602713.2459
 20
-1156020.8161
 10
-602719.075
 20
-1156024.8965
 10
-602720.83
 20
-1156035.06
 10
-602709.7484
 20
-1156043.5499
 10
-602698.6667
 20
-1156052.0397
 10
-602686.4317
 20
-1156070.3641
 10
-602682.3512
 20
-1156089.0174
 10
-602683.82
 20
-1156108.74
 10
-602690.4
 20
-1156131.69
 10
-602696.33
 20
-1156152.8
 10
-602694.675
 20
-1156157.917
 10
-602698.72
 20
-1156166.84
 10
-602697
 20
-1156175.87
 10
-602690.65
 20
-1156181.58
 10
-602685.78
 20
-1156191.69
 10
-602656.57
 20
-1156211.81
 10
-602653.16
 20
-1156237.33
 10
-602652.28
 20
-1156254.62
 10
-602653.2
 20
-1156269.58
 10
-602651.25
 20
-1156290.54
 10
-602644.47
 20
-1156312.56
 10
-602635.62
 20
-1156341.84
 10
-602628.29
 20
-1156365.4
 10
-602615.82
 20
-1156386.28
 10
-602600.06
 20
-1156412.67
 10
-602582.99
 20
-1156441.46
 10
-602565.92
 20
-1156470.25
 10
-602554.24
 20
-1156489.4
 10
-602544.67
 20
-1156484.24
 97
0
 75
0
 76
1
 98
0
  0
HATCH
  5
2009D
100
AcDbEntity
  8
skládky a antropogenní uloženiny
100
AcDbHatch
 10
0
 20
0
 30
0
210
0
220
0
230
1
  2
SOLID
 70
1
 71
0
 91
1
 92
2
 72
0
 73
1
 93
47
 10
-602348.88
 20
-1156214.03
 10
-602344.9878
 20
-1156195.9828
 10
-602343.2391
 20
-1156190.1536
 10
-602341.4903
 20
-1156184.3244
 10
-602344.1134
 20
-1156180.5354
 10
-602350.2341
 20
-1156179.6611
 10
-602354.2974
 20
-1156184.6111
 10
-602355.7718
 20
-1156192.1938
 10
-602357.812
 20
-1156202.6863
 10
-602362.1839
 20
-1156209.9728
 10
-602362.4753
 20
-1156202.1034
 10
-602362.7668
 20
-1156194.234
 10
-602363.0583
 20
-1156186.3646
 10
-602365.98
 20
-1156179.7
 10
-602372.3849
 20
-1156177.9123
 10
-602375.8824
 20
-1156180.244
 10
-602376.7568
 20
-1156185.1988
 10
-602372.3849
 20
-1156193.9425
 10
-602371.2191
 20
-1156201.5205
 10
-602370.0533
 20
-1156209.0984
 10
-602375.2636
 20
-1156206.538
 10
-602381.1287
 20
-1156196.2742
 10
-602384.6262
 20
-1156190.1536
 10
-602388.1237
 20
-1156184.0329
 10
-602394.2443
 20
-1156183.45
 10
-602394.8273
 20
-1156189.5707
 10
-602387.5408
 20
-1156199.7717
 10
-602385.2091
 20
-1156205.8923
 10
-602400.365
 20
-1156201.229
 10
-602412.3148
 20
-1156191.3194
 10
-602424.2646
 20
-1156181.4098
 10
-602431.8425
 20
-1156177.6209
 10
-602439.4204
 20
-1156173.8319
 10
-602449.9129
 20
-1156178.4952
 10
-602452.8275
 20
-1156188.1134
 10
-602452.8275
 20
-1156200.3546
 10
-602444.6667
 20
-1156215.8019
 10
-602430.3852
 20
-1156227.1688
 10
-602413.4806
 20
-1156236.2041
 10
-602393.8368
 20
-1156250.9337
 10
-602386.3749
 20
-1156263.3097
 10
-602381.6717
 20
-1156270.1142
 10
-602367.01
 20
-1156265.83
 10
-602358.17
 20
-1156244.87
 10
-602352.48
 20
-1156235.52
 10
-602342.25
 20
-1156227.56
 10
-602348.88
 20
-1156214.03
 97
0
 75
0
 76
1
 98
0
  0
HATCH
  5
2009E
100
AcDbEntity
  8
skládky a antropogenní uloženiny
100
AcDbHatch
 10
0
 20
0
 30
0
210
0
220
0
230
1
  2
SOLID
 70
1
 71
0
 91
1
 92
2
 72
0
 73
1
 93
40
 10
-602130.4742
 20
-1156227.1688
 10
-602098.7052
 20
-1156192.1938
 10
-602105.1173
 20
-1156191.028
 10
-602110.655
 20
-1156186.3646
 10
-602110.9465
 20
-1156181.4098
 10
-602108.0319
 20
-1156175.8721
 10
-602108.3234
 20
-1156168.5856
 10
-602112.4038
 20
-1156165.0881
 10
-602118.8159
 20
-1156163.6308
 10
-602127.5596
 20
-1156165.0881
 10
-602141.1715
 20
-1156167.3568
 10
-602150.5849
 20
-1156165.671
 10
-602149.8821
 20
-1156161.747
 10
-602142.424
 20
-1156159.259
 10
-602130.1828
 20
-1156158.3846
 10
-602126.6853
 20
-1156154.8871
 10
-602130.1828
 20
-1156151.3896
 10
-602137.1778
 20
-1156151.681
 10
-602144.4642
 20
-1156149.0579
 10
-602151.7507
 20
-1156146.4348
 10
-602168.741
 20
-1156119.4405
 10
-602181.4966
 20
-1156122.1494
 10
-602211.9751
 20
-1156123.2404
 10
-602196.7482
 20
-1156138.2341
 10
-602188.4745
 20
-1156158.0931
 10
-602183.8112
 20
-1156161.0077
 10
-602174.4845
 20
-1156163.0479
 10
-602170.1126
 20
-1156168.5856
 10
-602166.6151
 20
-1156178.7867
 10
-602163.8437
 20
-1156182.793
 10
-602160.203
 20
-1156186.0732
 10
-602151.7507
 20
-1156188.1134
 10
-602152.8194
 20
-1156198.2345
 10
-602150.8551
 20
-1156203.5917
 10
-602147.8193
 20
-1156207.5203
 10
-602143.8813
 20
-1156212.5959
 10
-602140.0924
 20
-1156219.8824
 10
-602136.3034
 20
-1156227.1688
 10
-602134.1846
 20
-1156231.2434
 10
-602130.4742
 20
-1156227.1688
 97
0
 75
0
 76
1
 98
0
  0
HATCH
  5
2009F
100
AcDbEntity
  8
skládky a antropogenní uloženiny
100
AcDbHatch
 10
0
 20
0
 30
0
210
0
220
0
230
1
  2
SOLID
 70
1
 71
0
 91
1
 92
2
 72
0
 73
1
 93
32
 10
-602516.2
 20
-1154987.94
 10
-602518.6972
 20
-1154995.173
 10
-602521.6118
 20
-1155003.3338
 10
-602521.5912
 20
-1155013.6014
 10
-602525.8277
 20
-1155025.0808
 10
-602530.0641
 20
-1155036.5601
 10
-602539.0993
 20
-1155061.0426
 10
-602548.1345
 20
-1155085.5252
 10
-602561.4309
 20
-1155111.0313
 10
-602571.4512
 20
-1155137.6963
 10
-602577.67
 20
-1155154.245
 10
-602563.0528
 20
-1155162.3134
 10
-602557.6075
 20
-1155150.3217
 10
-602547.405
 20
-1155127.8533
 10
-602539.7154
 20
-1155110.919
 10
-602529.7726
 20
-1155089.0227
 10
-602521.025
 20
-1155069.7583
 10
-602509.0791
 20
-1155052.2989
 10
-602501.5011
 20
-1155041.2234
 10
-602492.1745
 20
-1155033.6455
 10
-602483.7222
 20
-1155029.8565
 10
-602471.7501
 20
-1155021.0838
 10
-602463.8929
 20
-1155011.4409
 10
-602460.6785
 20
-1154998.5837
 10
-602478.9217
 20
-1155013.697
 10
-602494.7976
 20
-1155021.9872
 10
-602503.8328
 20
-1155024.6103
 10
-602513.4509
 20
-1155032.1882
 10
-602511.1193
 20
-1155021.9872
 10
-602511.9936
 20
-1155009.7459
 10
-602512.868
 20
-1154997.5046
 10
-602516.2
 20
-1154987.94
 97
0
 75
0
 76
1
 98
0
  0
HATCH
  5
200A0
100
AcDbEntity
  8
skládky a antropogenní uloženiny
100
AcDbHatch
 10
0
 20
0
 30
0
210
0
220
0
230
1
  2
SOLID
 70
1
 71
0
 91
1
 92
2
 72
0
 73
1
 93
28
 10
-602291.8695
 20
-1154882.2327
 10
-602287.2061
 20
-1154886.8961
 10
-602281.8141
 20
-1154890.2478
 10
-602273.9448
 20
-1154893.0167
 10
-602265.0553
 20
-1154894.474
 10
-602258.206
 20
-1154897.2428
 10
-602250.4823
 20
-1154903.072
 10
-602242.7587
 20
-1154908.9012
 10
-602235.035
 20
-1154914.7304
 10
-602229.3516
 20
-1154916.3334
 10
-602224.6882
 20
-1154915.8962
 10
-602223.3767
 20
-1154914.2932
 10
-602223.9596
 20
-1154911.5243
 10
-602227.0199
 20
-1154908.7555
 10
-602231.5375
 20
-1154906.861
 10
-602237.385
 20
-1154903.04
 10
-602243.2325
 20
-1154899.219
 10
-602247.7135
 20
-1154894.474
 10
-602253.6884
 20
-1154891.4137
 10
-602261.412
 20
-1154889.082
 10
-602269.1357
 20
-1154886.7503
 10
-602274.5277
 20
-1154883.5443
 10
-602281.5114
 20
-1154879.3918
 10
-602285.6031
 20
-1154878.8809
 10
-602288.0246
 20
-1154878.5786
 10
-602290.446
 20
-1154878.2763
 10
-602292.1609
 20
-1154879.7553
 10
-602291.8695
 20
-1154882.2327
 97
0
 75
0
 76
1
 98
0
  0
HATCH
  5
200A1
100
AcDbEntity
  8
skládky a antropogenní uloženiny
100
AcDbHatch
 10
0
 20
0
 30
0
210
0
220
0
230
1
  2
SOLID
 70
1
 71
0
 91
1
 92
2
 72
0
 73
1
 93
27
 10
-602264.4724
 20
-1154867.6598
 10
-602264.4724
 20
-1154869.9244
 10
-602262.5779
 20
-1154872.7603
 10
-602258.6432
 20
-1154874.3633
 10
-602256.1852
 20
-1154875.3647
 10
-602250.4823
 20
-1154876.2578
 10
-602244.216
 20
-1154878.7352
 10
-602239.1154
 20
-1154882.9614
 10
-602234.4521
 20
-1154889.5192
 10
-602229.7888
 20
-1154896.077
 10
-602225.9998
 20
-1154903.9464
 10
-602222.5023
 20
-1154907.5896
 10
-602219.8792
 20
-1154907.4439
 10
-602217.5475
 20
-1154905.6951
 10
-602216.5274
 20
-1154902.1976
 10
-602217.6932
 20
-1154898.8459
 10
-602221.6279
 20
-1154892.5795
 10
-602225.5626
 20
-1154886.3131
 10
-602229.4973
 20
-1154880.0468
 10
-602232.4231
 20
-1154875.3871
 10
-602236.9295
 20
-1154871.8859
 10
-602241.3014
 20
-1154870.4286
 10
-602245.6733
 20
-1154868.9713
 10
-602250.0451
 20
-1154867.5141
 10
-602257.9145
 20
-1154866.7854
 10
-602262.7871
 20
-1154866.3342
 10
-602264.4724
 20
-1154867.6598
 97
0
 75
0
 76
1
 98
0
  0
HATCH
  5
200A2
100
AcDbEntity
  8
skládky a antropogenní uloženiny
100
AcDbHatch
 10
0
 20
0
 30
0
210
0
220
0
230
1
  2
SOLID
 70
1
 71
0
 91
1
 92
2
 72
0
 73
1
 93
19
 10
-602278.8827
 20
-1155937.3017
 10
-602254.6655
 20
-1156042.615
 10
-602200.3197
 20
-1156053.5907
 10
-602145.9738
 20
-1156064.5664
 10
-602064.6045
 20
-1156127.8769
 10
-602060.1402
 20
-1156102.8768
 10
-602062.8188
 20
-1156074.8409
 10
-602068.3545
 20
-1156058.2141
 10
-602078.8903
 20
-1156040.0192
 10
-602094.4299
 20
-1156012.0722
 10
-602101.7476
 20
-1155984.5175
 10
-602103.0354
 20
-1155970.508
 10
-602156.0337
 20
-1156013.5905
 10
-602175.2171
 20
-1155983.3492
 10
-602190.8922
 20
-1155993.2927
 10
-602188.8209
 20
-1156013.9615
 10
-602196.6239
 20
-1156018.9113
 10
-602234.6056
 20
-1156023.5905
 10
-602278.8827
 20
-1155937.3017
 97
0
 75
0
 76
1
 98
0
  0
HATCH
  5
200A3
100
AcDbEntity
  8
skládky a antropogenní uloženiny
100
AcDbHatch
 10
0
 20
0
 30
0
210
0
220
0
230
1
  2
SOLID
 70
1
 71
0
 91
1
 92
2
 72
0
 73
1
 93
4
 10
-602279.22
 20
-1155935.8348
 10
-602279.3251
 20
-1155936.4395
 10
-602278.8827
 20
-1155937.3017
 10
-602279.22
 20
-1155935.8348
 97
0
 75
0
 76
1
 98
0
  0
HATCH
  5
200A4
100
AcDbEntity
  8
skládky a antropogenní uloženiny
100
AcDbHatch
 10
0
 20
0
 30
0
210
0
220
0
230
1
  2
SOLID
 70
1
 71
0
 91
1
 92
2
 72
0
 73
1
 93
15
 10
-602134.6049
 20
-1155553.5874
 10
-602171.7481
 20
-1155649.3023
 10
-602224.6055
 20
-1155769.3031
 10
-602236.0342
 20
-1155787.5175
 10
-602252.9162
 20
-1155816.5012
 10
-602265.1595
 20
-1155833.9474
 10
-602281.7594
 20
-1155858.6181
 10
-602293.8917
 20
-1155876.4467
 10
-602283.5697
 20
-1155931.3438
 10
-602102.6559
 20
-1155970.7906
 10
-602110.4893
 20
-1155905.9145
 10
-602121.3906
 20
-1155875.0181
 10
-602125.6763
 20
-1155857.1608
 10
-602129.6117
 20
-1155837.0759
 10
-602134.6049
 20
-1155553.5874
 97
0
 75
0
 76
1
 98
0
  0
HATCH
  5
200A5
100
AcDbEntity
  8
skládky a antropogenní uloženiny
100
AcDbHatch
 10
0
 20
0
 30
0
210
0
220
0
230
1
  2
SOLID
 70
1
 71
0
 91
1
 92
2
 72
0
 73
1
 93
6
 10
-602319.9633
 20
-1155343.9431
 10
-602324.1425
 20
-1155404.7607
 10
-602307.1061
 20
-1155413.9436
 10
-602290.9947
 20
-1155384.0535
 10
-602300.3609
 20
-1155371.085
 10
-602319.9633
 20
-1155343.9431
 97
0
 75
0
 76
1
 98
0
  0
HATCH
  5
200A6
100
AcDbEntity
  8
skládky a antropogenní uloženiny
100
AcDbHatch
 10
0
 20
0
 30
0
210
0
220
0
230
1
  2
SOLID
 70
1
 71
0
 91
1
 92
2
 72
0
 73
1
 93
6
 10
-602849.17
 20
-1155930.49
 10
-602857.06
 20
-1155978.28
 10
-602846.8
 20
-1155995.92
 10
-602855.39
 20
-1156036.16
 10
-602787.03
 20
-1155980.92
 10
-602849.17
 20
-1155930.49
 97
0
 75
0
 76
1
 98
0
  0
HATCH
  5
200A7
100
AcDbEntity
  8
skládky a antropogenní uloženiny
100
AcDbHatch
 10
0
 20
0
 30
0
210
0
220
0
230
1
  2
SOLID
 70
1
 71
0
 91
1
 92
2
 72
0
 73
1
 93
16
 10
-602389.9638
 20
-1156468.9506
 10
-602358.8457
 20
-1156451.1762
 10
-602317.48
 20
-1156452.51
 10
-602287.11
 20
-1156410.74
 10
-602307.8204
 20
-1156402.6104
 10
-602326.7149
 20
-1156421.0932
 10
-602340.3636
 20
-1156393.9501
 10
-602419.4407
 20
-1156372.4362
 10
-602426.4107
 20
-1156389.5712
 10
-602430.263
 20
-1156413.273
 10
-602433.0009
 20
-1156448.4634
 10
-602440.23
 20
-1156478.64
 10
-602438.5407
 20
-1156498.3362
 10
-602448.2107
 20
-1156518.1912
 10
-602422.7
 20
-1156492.94
 10
-602389.9638
 20
-1156468.9506
 97
0
 75
0
 76
1
 98
0
  0
HATCH
  5
200A8
100
AcDbEntity
  8
skládky a antropogenní uloženiny
100
AcDbHatch
 10
0
 20
0
 30
0
210
0
220
0
230
1
  2
SOLID
 70
1
 71
0
 91
1
 92
2
 72
0
 73
1
 93
61
 10
-602415.3211
 20
-1156559.6655
 10
-602422.1069
 20
-1156591.0943
 10
-602391.05
 20
-1156707.66
 10
-602383.7612
 20
-1156703.3292
 10
-602392.4557
 20
-1156665.8099
 10
-602386.8121
 20
-1156669.0202
 10
-602362.9809
 20
-1156679.4446
 10
-602339.9635
 20
-1156688.595
 10
-602325.3799
 20
-1156696.1577
 10
-602319.5425
 20
-1156697.7044
 10
-602314.5477
 20
-1156696.1074
 10
-602314.8911
 20
-1156692.3104
 10
-602317.1062
 20
-1156686.9878
 10
-602329.8083
 20
-1156676.6465
 10
-602355.9211
 20
-1156660.7492
 10
-602278.8937
 20
-1156653.8705
 10
-602276.3197
 20
-1156674.6232
 10
-602273.8297
 20
-1156695.2856
 10
-602273.25
 20
-1156706.37
 10
-602268.915
 20
-1156709.545
 10
-602256.665
 20
-1156700.04
 10
-602257.4045
 20
-1156683.5931
 10
-602259.4102
 20
-1156657.2423
 10
-602243.5631
 20
-1156652.8327
 10
-602217.3333
 20
-1156653.0883
 10
-602191.0893
 20
-1156650.2356
 10
-602175.6766
 20
-1156653.2376
 10
-602162.4623
 20
-1156655.0233
 10
-602152.58
 20
-1156658.1
 10
-602144.3185
 20
-1156649.201
 10
-602146.0673
 20
-1156637.5427
 10
-602164.1377
 20
-1156627.6331
 10
-602183.49
 20
-1156626.71
 10
-602214.9028
 20
-1156625.2117
 10
-602246.3157
 20
-1156623.7133
 10
-602254
 20
-1156623.07
 10
-602252.5615
 20
-1156605.8877
 10
-602240.4999
 20
-1156587.4118
 10
-602211.354
 20
-1156565.2609
 10
-602174.7739
 20
-1156537.46
 10
-602144.63
 20
-1156505.61
 10
-602122.045
 20
-1156465.67
 10
-602114.5897
 20
-1156431.1899
 10
-602107.1344
 20
-1156396.7098
 10
-602107.205
 20
-1156380.99
 10
-602115.1726
 20
-1156372.3153
 10
-602126.2481
 20
-1156371.7323
 10
-602138.4893
 20
-1156378.1444
 10
-602146.0673
 20
-1156391.5515
 10
-602153.6452
 20
-1156404.9586
 10
-602159.28
 20
-1156420.195
 10
-602174.7034
 20
-1156443.6837
 10
-602191.6075
 20
-1156464.8584
 10
-602203.455
 20
-1156480.427
 10
-602223.52
 20
-1156499.38
 10
-602232.21
 20
-1156509.75
 10
-602243.98
 20
-1156520.34
 10
-602275.68
 20
-1156544.8
 10
-602313
 20
-1156543.97
 10
-602358.535
 20
-1156545.3797
 10
-602415.3211
 20
-1156559.6655
 97
0
 75
0
 76
1
 98
0
  0
HATCH
  5
200A9
100
AcDbEntity
  8
skládky a antropogenní uloženiny
100
AcDbHatch
 10
0
 20
0
 30
0
210
0
220
0
230
1
  2
SOLID
 70
1
 71
0
 91
1
 92
2
 72
0
 73
1
 93
21
 10
-602709.3073
 20
-1157049.7444
 10
-602675.0756
 20
-1157083.7421
 10
-602652.7956
 20
-1157102.722
 10
-602627.65
 20
-1157128.76
 10
-602596.2621
 20
-1157213.5555
 10
-602571.7711
 20
-1157228.5276
 10
-602550.6791
 20
-1157220.0271
 10
-602553.5363
 20
-1157205.7413
 10
-602558.5478
 20
-1157191.969
 10
-602567.8221
 20
-1157169.3124
 10
-602573.9714
 20
-1157153.2524
 10
-602574.2258
 20
-1157148.1257
 10
-602588.82
 20
-1157124.96
 10
-602604.1864
 20
-1157108.0097
 10
-602636.6879
 20
-1157078.3081
 10
-602672.9663
 20
-1157048.1011
 10
-602725.1222
 20
-1157005.2387
 10
-602738.8947
 20
-1157008.9542
 10
-602742.4661
 20
-1157016.1062
 10
-602736.87
 20
-1157023.33
 10
-602709.3073
 20
-1157049.7444
 97
0
 75
0
 76
1
 98
0
  0
HATCH
  5
200AA
100
AcDbEntity
  8
skládky a antropogenní uloženiny
100
AcDbHatch
 10
0
 20
0
 30
0
210
0
220
0
230
1
  2
SOLID
 70
1
 71
0
 91
1
 92
2
 72
0
 73
1
 93
5
 10
-592569.9214
 20
-1159575.731
 10
-592560.37
 20
-1159595.58
 10
-592496.37
 20
-1159588.18
 10
-592519.78
 20
-1159565.67
 10
-592569.9214
 20
-1159575.731
 97
0
 75
0
 76
1
 98
0
  0
HATCH
  5
200AB
100
AcDbEntity
  8
skládky a antropogenní uloženiny
100
AcDbHatch
 10
0
 20
0
 30
0
210
0
220
0
230
1
  2
SOLID
 70
1
 71
0
 91
1
 92
2
 72
0
 73
1
 93
12
 10
-598748.0004
 20
-1155946.2177
 10
-598745.9496
 20
-1155969.4595
 10
-598745.8089
 20
-1155979.1503
 10
-598737.0631
 20
-1155974.2446
 10
-598728.3172
 20
-1155969.3389
 10
-598722.7078
 20
-1155961.5983
 10
-598717.0984
 20
-1155953.8577
 10
-598718.2646
 20
-1155948.6102
 10
-598720.3153
 20
-1155939.3819
 10
-598727.1511
 20
-1155935.2804
 10
-598740.8227
 20
-1155937.3311
 10
-598748.0004
 20
-1155946.2177
 97
0
 75
0
 76
1
 98
0
  0
HATCH
  5
200AC
100
AcDbEntity
  8
skládky a antropogenní uloženiny
100
AcDbHatch
 10
0
 20
0
 30
0
210
0
220
0
230
1
  2
SOLID
 70
1
 71
0
 91
1
 92
2
 72
0
 73
1
 93
19
 10
-598272.3984
 20
-1155867.6058
 10
-598299.79
 20
-1155892.83
 10
-598304.41
 20
-1155899.51
 10
-598326.28
 20
-1155931.13
 10
-598363.215
 20
-1155988.875
 10
-598369.4981
 20
-1156023.4513
 10
-598344.19
 20
-1156018.33
 10
-598318.8819
 20
-1156013.2087
 10
-598301.7924
 20
-1156009.7908
 10
-598291.0767
 20
-1156001.5661
 10
-598287.2062
 20
-1155983.8038
 10
-598283.3357
 20
-1155966.0416
 10
-598281.0795
 20
-1155955.6874
 10
-598270.3476
 20
-1155949.6356
 10
-598251.246
 20
-1155938.864
 10
-598249.4
 20
-1155918.4
 10
-598250.63
 20
-1155900.64
 10
-598261.114
 20
-1155882.707
 10
-598272.3984
 20
-1155867.6058
 97
0
 75
0
 76
1
 98
0
  0
HATCH
  5
200AD
100
AcDbEntity
  8
skládky a antropogenní uloženiny
100
AcDbHatch
 10
0
 20
0
 30
0
210
0
220
0
230
1
  2
SOLID
 70
1
 71
0
 91
1
 92
2
 72
0
 73
1
 93
20
 10
-598342.1237
 20
-1156038.5012
 10
-598346.2252
 20
-1156057.6415
 10
-598352.3775
 20
-1156090.4534
 10
-598358.5297
 20
-1156123.2654
 10
-598372.2013
 20
-1156153.343
 10
-598396.1267
 20
-1156184.1041
 10
-598433.7237
 20
-1156209.3967
 10
-598465.852
 20
-1156223.7519
 10
-598493.1953
 20
-1156225.8026
 10
-598476.7893
 20
-1156236.7399
 10
-598444.661
 20
-1156242.8922
 10
-598413.8998
 20
-1156240.8414
 10
-598375.6192
 20
-1156223.7519
 10
-598346.2252
 20
-1156203.2444
 10
-598328.4521
 20
-1156175.2176
 10
-598315.273
 20
-1156139.322
 10
-598311.3626
 20
-1156112.3281
 10
-598314.7805
 20
-1156084.9848
 10
-598328.4521
 20
-1156061.743
 10
-598342.1237
 20
-1156038.5012
 97
0
 75
0
 76
1
 98
0
  0
HATCH
  5
200AE
100
AcDbEntity
  8
skládky a antropogenní uloženiny
100
AcDbHatch
 10
0
 20
0
 30
0
210
0
220
0
230
1
  2
SOLID
 70
1
 71
0
 91
1
 92
2
 72
0
 73
1
 93
13
 10
-598718.9481
 20
-1155997.8281
 10
-598719.9735
 20
-1156002.2714
 10
-598719.6317
 20
-1156013.5505
 10
-598715.46
 20
-1156024.32
 10
-598707.669
 20
-1156027.2221
 10
-598701.175
 20
-1156025.5132
 10
-598696.7317
 20
-1156017.652
 10
-598692.2884
 20
-1156009.7908
 10
-598691.9467
 20
-1155998.5117
 10
-598695.0228
 20
-1155991.6759
 10
-598703.48
 20
-1155988.22
 10
-598714.8466
 20
-1155992.0177
 10
-598718.9481
 20
-1155997.8281
 97
0
 75
0
 76
1
 98
0
  0
HATCH
  5
200AF
100
AcDbEntity
  8
skládky a antropogenní uloženiny
100
AcDbHatch
 10
0
 20
0
 30
0
210
0
220
0
230
1
  2
SOLID
 70
1
 71
0
 91
1
 92
2
 72
0
 73
1
 93
24
 10
-598698.3552
 20
-1156124.8034
 10
-598694.9373
 20
-1156120.8728
 10
-598686.36
 20
-1156114.4
 10
-598685.1963
 20
-1156120.3601
 10
-598685.709
 20
-1156126.8542
 10
-598684.3418
 20
-1156131.1266
 10
-598680.9239
 20
-1156134.0318
 10
-598676.6609
 20
-1156129.0165
 10
-598675.9679
 20
-1156119.6766
 10
-598675.2749
 20
-1156110.3366
 10
-598674.5819
 20
-1156100.9966
 10
-598671.5247
 20
-1156088.2318
 10
-598671.1829
 20
-1156079.3452
 10
-598674.9426
 20
-1156071.9967
 10
-598679.3858
 20
-1156071.4841
 10
-598683.1455
 20
-1156074.5602
 10
-598684.8545
 20
-1156082.7631
 10
-598687.1435
 20
-1156093.7505
 10
-598691.0067
 20
-1156103.0997
 10
-598696.3045
 20
-1156109.2519
 10
-598701.6022
 20
-1156115.4042
 10
-598702.6276
 20
-1156119.8475
 10
-598701.4314
 20
-1156124.1198
 10
-598698.3552
 20
-1156124.8034
 97
0
 75
0
 76
1
 98
0
  0
HATCH
  5
200B0
100
AcDbEntity
  8
skládky a antropogenní uloženiny
100
AcDbHatch
 10
0
 20
0
 30
0
210
0
220
0
230
1
  2
SOLID
 70
1
 71
0
 91
1
 92
2
 72
0
 73
1
 93
5
 10
-598223.3967
 20
-1155792.2711
 10
-598247.3269
 20
-1155831.6545
 10
-598201.71
 20
-1155863.1145
 10
-598194.481
 20
-1155808.1747
 10
-598223.3967
 20
-1155792.2711
 97
0
 75
0
 76
1
 98
0
  0
HATCH
  5
200B1
100
AcDbEntity
  8
skládky a antropogenní uloženiny
100
AcDbHatch
 10
0
 20
0
 30
0
210
0
220
0
230
1
  2
SOLID
 70
1
 71
0
 91
1
 92
2
 72
0
 73
1
 93
15
 10
-595948.5882
 20
-1157801.8637
 10
-595955.2705
 20
-1157802.6737
 10
-595964.2247
 20
-1157805.9067
 10
-595970.3901
 20
-1157811.0675
 10
-595974.305
 20
-1157818.1982
 10
-595969.8501
 20
-1157821.4382
 10
-595955.7248
 20
-1157820.4804
 10
-595946.04
 20
-1157820.0141
 10
-595916.7088
 20
-1157817.8737
 10
-595875.8754
 20
-1157816.5257
 10
-595849.3658
 20
-1157816.1733
 10
-595852.0657
 20
-1157799.4337
 10
-595872.5229
 20
-1157799.0921
 10
-595917.269
 20
-1157799.9737
 10
-595948.5882
 20
-1157801.8637
 97
0
 75
0
 76
1
 98
0
  0
HATCH
  5
200B2
100
AcDbEntity
  8
skládky a antropogenní uloženiny
100
AcDbHatch
 10
0
 20
0
 30
0
210
0
220
0
230
1
  2
SOLID
 70
1
 71
0
 91
1
 92
2
 72
0
 73
1
 93
15
 10
-595870.2
 20
-1157396.5
 10
-595860.29
 20
-1157380.21
 10
-595855.2293
 20
-1157372.1073
 10
-595877.24
 20
-1157350.97
 10
-595910
 20
-1157319.51
 10
-595922.89
 20
-1157304.87
 10
-595936.1853
 20
-1157293.0347
 10
-595944.93
 20
-1157291.71
 10
-595951.66
 20
-1157295.72
 10
-595954.05
 20
-1157301.12
 10
-595954.76
 20
-1157310.26
 10
-595941.5683
 20
-1157330.1861
 10
-595924.5588
 20
-1157349.8956
 10
-595904.0393
 20
-1157365.0152
 10
-595870.2
 20
-1157396.5
 97
0
 75
0
 76
1
 98
0
  0
HATCH
  5
200B3
100
AcDbEntity
  8
skládky a antropogenní uloženiny
100
AcDbHatch
 10
0
 20
0
 30
0
210
0
220
0
230
1
  2
SOLID
 70
1
 71
0
 91
1
 92
2
 72
0
 73
1
 93
33
 10
-596024.6758
 20
-1157595.6996
 10
-596022.4618
 20
-1157594.5187
 10
-596020.4687
 20
-1157593.0824
 10
-596018.7731
 20
-1157591.4459
 10
-596017.4402
 20
-1157589.6719
 10
-596016.5212
 20
-1157587.8288
 10
-596016.0514
 20
-1157585.9873
 10
-596016.0489
 20
-1157584.2182
 10
-596016.5138
 20
-1157582.5894
 10
-596017.4282
 20
-1157581.1637
 10
-596018.757
 20
-1157579.9957
 10
-596020.449
 20
-1157579.1304
 10
-596022.4393
 20
-1157578.601
 10
-596024.6515
 20
-1157578.4278
 10
-596027.0004
 20
-1157578.6176
 10
-596029.3958
 20
-1157579.163
 10
-596031.7457
 20
-1157580.043
 10
-596033.9597
 20
-1157581.2238
 10
-596035.9528
 20
-1157582.6601
 10
-596037.6484
 20
-1157584.2967
 10
-596038.9813
 20
-1157586.0707
 10
-596039.9003
 20
-1157587.9138
 10
-596040.3701
 20
-1157589.7553
 10
-596040.3726
 20
-1157591.5244
 10
-596039.9077
 20
-1157593.1531
 10
-596038.9933
 20
-1157594.5789
 10
-596037.6645
 20
-1157595.7468
 10
-596035.9725
 20
-1157596.6122
 10
-596033.9821
 20
-1157597.1416
 10
-596031.77
 20
-1157597.3147
 10
-596029.4211
 20
-1157597.125
 10
-596027.0257
 20
-1157596.5796
 10
-596024.6758
 20
-1157595.6996
 97
0
 75
0
 76
1
 98
0
  0
HATCH
  5
200B4
100
AcDbEntity
  8
skládky a antropogenní uloženiny
100
AcDbHatch
 10
0
 20
0
 30
0
210
0
220
0
230
1
  2
SOLID
 70
1
 71
0
 91
1
 92
2
 72
0
 73
1
 93
8
 10
-596029.8089
 20
-1157434.5734
 10
-596018.3138
 20
-1157446.148
 10
-596014.6336
 20
-1157445.8503
 10
-596011.1566
 20
-1157443.9845
 10
-596009.809
 20
-1157440.6904
 10
-596009.4406
 20
-1157437.2287
 10
-596020.2404
 20
-1157426.3916
 10
-596029.8089
 20
-1157434.5734
 97
0
 75
0
 76
1
 98
0
  0
HATCH
  5
200B5
100
AcDbEntity
  8
skládky a antropogenní uloženiny
100
AcDbHatch
 10
0
 20
0
 30
0
210
0
220
0
230
1
  2
SOLID
 70
1
 71
0
 91
1
 92
2
 72
0
 73
1
 93
30
 10
-596450.36
 20
-1157283.84
 10
-596416.2804
 20
-1157247.1992
 10
-596403.4587
 20
-1157224.7212
 10
-596400.4824
 20
-1157216.2513
 10
-596398.8688
 20
-1157211.6592
 10
-596393.1225
 20
-1157208.4193
 10
-596376.6
 20
-1157209.54
 10
-596360.47
 20
-1157205.37
 10
-596333.87
 20
-1157193.22
 10
-596304.5
 20
-1157174.51
 10
-596301.47
 20
-1157164.89
 10
-596302.36
 20
-1157159.36
 10
-596308.38
 20
-1157152.73
 10
-596315.86
 20
-1157150.1
 10
-596350.79
 20
-1157155.98
 10
-596356.66
 20
-1157153.72
 10
-596361.3398
 20
-1157149.0209
 10
-596362.6898
 20
-1157144.431
 10
-596363.7697
 20
-1157133.9013
 10
-596360.2598
 20
-1157121.1755
 10
-596336.5004
 20
-1157095.5623
 10
-596297.9342
 20
-1157064.0278
 10
-596290.54
 20
-1157056.61
 10
-596348
 20
-1157052.53
 10
-596377.1
 20
-1157083.9
 10
-596399.5438
 20
-1157129.3114
 10
-596409.55
 20
-1157168.79
 10
-596458.08
 20
-1157196.76
 10
-596475.876
 20
-1157282.6808
 10
-596450.36
 20
-1157283.84
 97
0
 75
0
 76
1
 98
0
  0
HATCH
  5
200B6
100
AcDbEntity
  8
skládky a antropogenní uloženiny
100
AcDbHatch
 10
0
 20
0
 30
0
210
0
220
0
230
1
  2
SOLID
 70
1
 71
0
 91
1
 92
2
 72
0
 73
1
 93
15
 10
-596512.6708
 20
-1157281.0474
 10
-596482.9034
 20
-1157282.3815
 10
-596475.876
 20
-1157282.6808
 10
-596458.08
 20
-1157196.76
 10
-596472.8
 20
-1157152.91
 10
-596487.98
 20
-1157126.22
 10
-596490.9
 20
-1157097.84
 10
-596481.48
 20
-1157063.5
 10
-596520.49
 20
-1157054.93
 10
-596550.03
 20
-1157073.26
 10
-596546.96
 20
-1157126.81
 10
-596516.98
 20
-1157168.53
 10
-596511.05
 20
-1157197.07
 10
-596501.13
 20
-1157245.78
 10
-596512.6708
 20
-1157281.0474
 97
0
 75
0
 76
1
 98
0
  0
HATCH
  5
200B7
100
AcDbEntity
  8
skládky a antropogenní uloženiny
100
AcDbHatch
 10
0
 20
0
 30
0
210
0
220
0
230
1
  2
SOLID
 70
1
 71
0
 91
1
 92
2
 72
0
 73
1
 93
14
 10
-596450.36
 20
-1157283.84
 10
-596482.9034
 20
-1157282.3815
 10
-596512.6708
 20
-1157281.0474
 10
-596534.4034
 20
-1157280.5781
 10
-596606.8786
 20
-1157334.2464
 10
-596652.8
 20
-1157411.75
 10
-596681.33
 20
-1157447.55
 10
-596667.43
 20
-1157462.67
 10
-596625.5607
 20
-1157486.481
 10
-596603.15
 20
-1157452.55
 10
-596578.57
 20
-1157398.75
 10
-596481.2404
 20
-1157324.6121
 10
-596448.67
 20
-1157312.82
 10
-596450.36
 20
-1157283.84
 97
0
 75
0
 76
1
 98
0
  0
HATCH
  5
200B8
100
AcDbEntity
  8
skládky a antropogenní uloženiny
100
AcDbHatch
 10
0
 20
0
 30
0
210
0
220
0
230
1
  2
SOLID
 70
1
 71
0
 91
1
 92
2
 72
0
 73
1
 93
8
 10
-596972.3269
 20
-1157750.453
 10
-596933.164
 20
-1157771.5809
 10
-596900.9059
 20
-1157746.4255
 10
-596876.0413
 20
-1157727.0357
 10
-596877.5493
 20
-1157711.6676
 10
-596897.6716
 20
-1157699.8793
 10
-596911.88
 20
-1157697.61
 10
-596972.3269
 20
-1157750.453
 97
0
 75
0
 76
1
 98
0
  0
HATCH
  5
200B9
100
AcDbEntity
  8
skládky a antropogenní uloženiny
100
AcDbHatch
 10
0
 20
0
 30
0
210
0
220
0
230
1
  2
SOLID
 70
1
 71
0
 91
1
 92
2
 72
0
 73
1
 93
6
 10
-597267.0816
 20
-1156900.1212
 10
-597212.003
 20
-1156927.1205
 10
-597184.5233
 20
-1156878.6555
 10
-597185.801
 20
-1156862.6059
 10
-597233.3517
 20
-1156866.3914
 10
-597267.0816
 20
-1156900.1212
 97
0
 75
0
 76
1
 98
0
  0
HATCH
  5
200BA
100
AcDbEntity
  8
skládky a antropogenní uloženiny
100
AcDbHatch
 10
0
 20
0
 30
0
210
0
220
0
230
1
  2
SOLID
 70
1
 71
0
 91
1
 92
2
 72
0
 73
1
 93
8
 10
-597124.8999
 20
-1156893.2662
 10
-597081.5743
 20
-1156896.6919
 10
-597076.0169
 20
-1156865.3439
 10
-597075.6566
 20
-1156851.7183
 10
-597080.2465
 20
-1156840.7227
 10
-597099.3516
 20
-1156833.1629
 10
-597116.4858
 20
-1156845.4022
 10
-597124.8999
 20
-1156893.2662
 97
0
 75
0
 76
1
 98
0
  0
HATCH
  5
200BB
100
AcDbEntity
  8
skládky a antropogenní uloženiny
100
AcDbHatch
 10
0
 20
0
 30
0
210
0
220
0
230
1
  2
SOLID
 70
1
 71
0
 91
1
 92
2
 72
0
 73
1
 93
12
 10
-597017.0681
 20
-1156771.0646
 10
-597019.9479
 20
-1156775.9245
 10
-597022.873
 20
-1156796.4841
 10
-597020.1731
 20
-1156817.7733
 10
-597011.1283
 20
-1156849.3625
 10
-596984.669
 20
-1156820.2033
 10
-596970.4944
 20
-1156798.0639
 10
-596966.9845
 20
-1156783.2143
 10
-596977.2442
 20
-1156778.3544
 10
-597001.8135
 20
-1156784.8342
 10
-597007.4834
 20
-1156771.8746
 10
-597017.0681
 20
-1156771.0646
 97
0
 75
0
 76
1
 98
0
  0
HATCH
  5
200BC
100
AcDbEntity
  8
skládky a antropogenní uloženiny
100
AcDbHatch
 10
0
 20
0
 30
0
210
0
220
0
230
1
  2
SOLID
 70
1
 71
0
 91
1
 92
2
 72
0
 73
1
 93
28
 10
-596538.6407
 20
-1156964.9195
 10
-596447.9231
 20
-1156964.9195
 10
-596447.9231
 20
-1156921.7206
 10
-596437.1234
 20
-1156878.5217
 10
-596432.4859
 20
-1156859.9716
 10
-596399.3244
 20
-1156806.1637
 10
-596404.2712
 20
-1156795.2807
 10
-596410.1241
 20
-1156782.4043
 10
-596447.7974
 20
-1156799.5285
 10
-596457.3729
 20
-1156793.1208
 10
-596454.9355
 20
-1156783.8245
 10
-596437.1234
 20
-1156743.5253
 10
-596442.2533
 20
-1156738.2386
 10
-596455.2578
 20
-1156735.51
 10
-596484.6422
 20
-1156767.2847
 10
-596493.0119
 20
-1156773.7645
 10
-596504.0817
 20
-1156767.2847
 10
-596525.6811
 20
-1156711.1262
 10
-596537.5315
 20
-1156709.5062
 10
-596546.1616
 20
-1156719.0033
 10
-596538.3707
 20
-1156788.8841
 10
-596535.1308
 20
-1156813.1835
 10
-596608.8389
 20
-1156787.8041
 10
-596620.9886
 20
-1156808.673
 10
-596617.4787
 20
-1156826.6831
 10
-596580.7596
 20
-1156878.5217
 10
-596551.0024
 20
-1156920.532
 10
-596538.6407
 20
-1156964.9195
 97
0
 75
0
 76
1
 98
0
  0
HATCH
  5
200BD
100
AcDbEntity
  8
skládky a antropogenní uloženiny
100
AcDbHatch
 10
0
 20
0
 30
0
210
0
220
0
230
1
  2
SOLID
 70
1
 71
0
 91
1
 92
2
 72
0
 73
1
 93
19
 10
-597058.7601
 20
-1157393.9204
 10
-597057.2874
 20
-1157403.9279
 10
-597055.6096
 20
-1157407.9778
 10
-597050.7531
 20
-1157410.8672
 10
-597046.949
 20
-1157413.1305
 10
-597027.8741
 20
-1157412.1404
 10
-597017.2706
 20
-1157407.1935
 10
-597010.97
 20
-1157401.3165
 10
-597004.5401
 20
-1157390.9504
 10
-597003.362
 20
-1157386.9184
 10
-597002.6465
 20
-1157378.494
 10
-597005.6609
 20
-1157373.2637
 10
-597012.8495
 20
-1157369.365
 10
-597017.6274
 20
-1157367.7476
 10
-597023.2069
 20
-1157365.8589
 10
-597031.4401
 20
-1157367.8404
 10
-597049.634
 20
-1157381.716
 10
-597055.0817
 20
-1157386.1084
 10
-597058.7601
 20
-1157393.9204
 97
0
 75
0
 76
1
 98
0
  0
HATCH
  5
200BE
100
AcDbEntity
  8
skládky a antropogenní uloženiny
100
AcDbHatch
 10
0
 20
0
 30
0
210
0
220
0
230
1
  2
SOLID
 70
1
 71
0
 91
1
 92
2
 72
0
 73
1
 93
5
 10
-592631.6594
 20
-1159797.1076
 10
-592624.3317
 20
-1159822.1055
 10
-592574.0026
 20
-1159822.5619
 10
-592568.5951
 20
-1159796.5019
 10
-592631.6594
 20
-1159797.1076
 97
0
 75
0
 76
1
 98
0
  0
HATCH
  5
200BF
100
AcDbEntity
  8
skládky a antropogenní uloženiny
100
AcDbHatch
 10
0
 20
0
 30
0
210
0
220
0
230
1
  2
SOLID
 70
1
 71
0
 91
1
 92
2
 72
0
 73
1
 93
5
 10
-592294.5075
 20
-1159793.8973
 10
-592279.5494
 20
-1159842.3718
 10
-592266.9637
 20
-1159840.653
 10
-592278.4691
 20
-1159793.135
 10
-592294.5075
 20
-1159793.8973
 97
0
 75
0
 76
1
 98
0
  0
HATCH
  5
200C0
100
AcDbEntity
  8
skládky a antropogenní uloženiny
100
AcDbHatch
 10
0
 20
0
 30
0
210
0
220
0
230
1
  2
SOLID
 70
1
 71
0
 91
1
 92
2
 72
0
 73
1
 93
5
 10
-590390.8871
 20
-1161136.6419
 10
-590390.3981
 20
-1161146.0849
 10
-590337.1981
 20
-1161153.1699
 10
-590330.9781
 20
-1161139.1849
 10
-590390.8871
 20
-1161136.6419
 97
0
 75
0
 76
1
 98
0
  0
HATCH
  5
200C1
100
AcDbEntity
  8
skládky a antropogenní uloženiny
100
AcDbHatch
 10
0
 20
0
 30
0
210
0
220
0
230
1
  2
SOLID
 70
1
 71
0
 91
1
 92
2
 72
0
 73
1
 93
10
 10
-591288.9542
 20
-1158647.6548
 10
-591272.5521
 20
-1158649.0145
 10
-591260.5317
 20
-1158636.1305
 10
-591263.5768
 20
-1158625.8393
 10
-591272.2506
 20
-1158616.5252
 10
-591282.104
 20
-1158616.0325
 10
-591289.5237
 20
-1158618.9928
 10
-591296.5468
 20
-1158627.3446
 10
-591295.5375
 20
-1158639.3584
 10
-591288.9542
 20
-1158647.6548
 97
0
 75
0
 76
1
 98
0
  0
HATCH
  5
200C2
100
AcDbEntity
  8
skládky a antropogenní uloženiny
100
AcDbHatch
 10
0
 20
0
 30
0
210
0
220
0
230
1
  2
SOLID
 70
1
 71
0
 91
1
 92
2
 72
0
 73
1
 93
29
 10
-593900.2323
 20
-1160631.7159
 10
-593925.8633
 20
-1160621.7639
 10
-593938.4245
 20
-1160620.406
 10
-593950.9857
 20
-1160619.048
 10
-593966.5871
 20
-1160627.3604
 10
-593975.8616
 20
-1160645.6476
 10
-593974.8664
 20
-1160668.5354
 10
-593962.925
 20
-1160691.4232
 10
-593946.0508
 20
-1160723.7654
 10
-593947.105
 20
-1160741.74
 10
-593949.9884
 20
-1160759.0915
 10
-593958.4469
 20
-1160784.4671
 10
-593966.9055
 20
-1160809.8427
 10
-593977.8518
 20
-1160821.7841
 10
-593988.7982
 20
-1160833.7256
 10
-593986.8079
 20
-1160852.6329
 10
-593970.886
 20
-1160854.6232
 10
-593947.003
 20
-1160848.1549
 10
-593923.1201
 20
-1160841.6866
 10
-593898.2421
 20
-1160820.789
 10
-593883.3152
 20
-1160791.9305
 10
-593874.3927
 20
-1160766.6789
 10
-593865.4702
 20
-1160741.4272
 10
-593857.7674
 20
-1160705.9346
 10
-593850.0646
 20
-1160670.4421
 10
-593852.1424
 20
-1160641.7343
 10
-593861.4225
 20
-1160628.7305
 10
-593875.8518
 20
-1160626.2427
 10
-593900.2323
 20
-1160631.7159
 97
0
 75
0
 76
1
 98
0
  0
HATCH
  5
200C3
100
AcDbEntity
  8
skládky a antropogenní uloženiny
100
AcDbHatch
 10
0
 20
0
 30
0
210
0
220
0
230
1
  2
SOLID
 70
1
 71
0
 91
1
 92
2
 72
0
 73
1
 93
20
 10
-591312.7605
 20
-1158033.0235
 10
-591312.2786
 20
-1158054.2791
 10
-591309.8336
 20
-1158080.4019
 10
-591308.1873
 20
-1158088.6337
 10
-591306.358
 20
-1158093.2069
 10
-591303.98
 20
-1158094.2587
 10
-591301.2375
 20
-1158092.7797
 10
-591297.7604
 20
-1158087.5361
 10
-591294.8442
 20
-1158074.4821
 10
-591290.0774
 20
-1158049.67
 10
-591288.9799
 20
-1158033.0235
 10
-591289.3457
 20
-1158027.268
 10
-591292.2726
 20
-1158022.7796
 10
-591295.8522
 20
-1158020.4015
 10
-591298.858
 20
-1158020.2186
 10
-591303.9987
 20
-1158019.9612
 10
-591306.9873
 20
-1158021.3118
 10
-591309.2467
 20
-1158022.9602
 10
-591311.48
 20
-1158027.1698
 10
-591312.7605
 20
-1158033.0235
 97
0
 75
0
 76
1
 98
0
  0
HATCH
  5
200C4
100
AcDbEntity
  8
skládky a antropogenní uloženiny
100
AcDbHatch
 10
0
 20
0
 30
0
210
0
220
0
230
1
  2
SOLID
 70
1
 71
0
 91
1
 92
2
 72
0
 73
1
 93
14
 10
-591141.2985
 20
-1157775.6265
 10
-591149.1314
 20
-1157787.8999
 10
-591147.6679
 20
-1157801.8025
 10
-591141.0661
 20
-1157810.9489
 10
-591133.7654
 20
-1157812.0464
 10
-591114.7409
 20
-1157808.3879
 10
-591087.6675
 20
-1157794.4854
 10
-591080.3504
 20
-1157786.4365
 10
-591073.6187
 20
-1157775.1682
 10
-591074.4967
 20
-1157763.0217
 10
-591087.0722
 20
-1157754.4292
 10
-591102.3018
 20
-1157754.2412
 10
-591124.9849
 20
-1157766.6803
 10
-591141.2985
 20
-1157775.6265
 97
0
 75
0
 76
1
 98
0
  0
HATCH
  5
200C5
100
AcDbEntity
  8
skládky a antropogenní uloženiny
100
AcDbHatch
 10
0
 20
0
 30
0
210
0
220
0
230
1
  2
SOLID
 70
1
 71
0
 91
1
 92
2
 72
0
 73
1
 93
33
 10
-591786.6482
 20
-1158640.252
 10
-591758.0227
 20
-1158630.22
 10
-591738.4353
 20
-1158618.1559
 10
-591723.6298
 20
-1158603.0484
 10
-591701.9909
 20
-1158578.9678
 10
-591685.3154
 20
-1158549.5127
 10
-591675.0372
 20
-1158528.926
 10
-591670.8613
 20
-1158515.354
 10
-591672.4957
 20
-1158498.8099
 10
-591677.9708
 20
-1158482.6043
 10
-591683.5136
 20
-1158472.3983
 10
-591690.7244
 20
-1158461.7612
 10
-591718.373
 20
-1158441.2615
 10
-591741.9523
 20
-1158428.7544
 10
-591759.6945
 20
-1158419.3078
 10
-591774.1204
 20
-1158413.993
 10
-591782.4723
 20
-1158411.7152
 10
-591791.1954
 20
-1158409.2939
 10
-591805.4285
 20
-1158408.047
 10
-591826.1297
 20
-1158410.4792
 10
-591835.5028
 20
-1158413.6194
 10
-591865.9776
 20
-1158434.8446
 10
-591909.8371
 20
-1158483.834
 10
-591926.1435
 20
-1158525.0762
 10
-591932.93
 20
-1158560.91
 10
-591936.6018
 20
-1158597.3539
 10
-591941.9166
 20
-1158626.5854
 10
-591944.1258
 20
-1158650.2422
 10
-591944.5376
 20
-1158655.3827
 10
-591890.1116
 20
-1158653.9325
 10
-591839.7963
 20
-1158650.8816
 10
-591805.9034
 20
-1158644.3884
 10
-591786.6482
 20
-1158640.252
 97
0
 75
0
 76
1
 98
0
  0
HATCH
  5
200C6
100
AcDbEntity
  8
skládky a antropogenní uloženiny
100
AcDbHatch
 10
0
 20
0
 30
0
210
0
220
0
230
1
  2
SOLID
 70
1
 71
0
 91
1
 92
2
 72
0
 73
1
 93
30
 10
-591745.3593
 20
-1158352.0026
 10
-591683.9136
 20
-1158441.1884
 10
-591643.9076
 20
-1158491.4374
 10
-591631.3894
 20
-1158493.403
 10
-591613.5373
 20
-1158488.4003
 10
-591603.2873
 20
-1158476.6318
 10
-591605.1854
 20
-1158459.2505
 10
-591617.1284
 20
-1158432.8052
 10
-591624.6527
 20
-1158422.3448
 10
-591629.8
 20
-1158407.05
 10
-591631.7595
 20
-1158390.8356
 10
-591636.3542
 20
-1158381.8091
 10
-591642.4534
 20
-1158376.9791
 10
-591647.4088
 20
-1158376.7501
 10
-591655.8772
 20
-1158378.4976
 10
-591663.3389
 20
-1158384.2774
 10
-591666.5905
 20
-1158383.5277
 10
-591665.3368
 20
-1158378.7285
 10
-591662.7301
 20
-1158367.5062
 10
-591660.0201
 20
-1158341.4216
 10
-591659.9469
 20
-1158336.6438
 10
-591662.6993
 20
-1158331.2338
 10
-591665.3567
 20
-1158328.5345
 10
-591669.7458
 20
-1158326.0446
 10
-591678.4545
 20
-1158325.0648
 10
-591687.4978
 20
-1158326.1434
 10
-591695.8193
 20
-1158328.2917
 10
-591705.9616
 20
-1158333.2417
 10
-591728.9446
 20
-1158347.1782
 10
-591745.3593
 20
-1158352.0026
 97
0
 75
0
 76
1
 98
0
  0
HATCH
  5
200C7
100
AcDbEntity
  8
skládky a antropogenní uloženiny
100
AcDbHatch
 10
0
 20
0
 30
0
210
0
220
0
230
1
  2
SOLID
 70
1
 71
0
 91
1
 92
2
 72
0
 73
1
 93
14
 10
-591411.8832
 20
-1158612.9161
 10
-591410.8152
 20
-1158617.8539
 10
-591405.7575
 20
-1158623.5083
 10
-591396.9647
 20
-1158626.1084
 10
-591388.8799
 20
-1158624.8034
 10
-591385.8463
 20
-1158620.7491
 10
-591331.4822
 20
-1158478.4984
 10
-591332.3269
 20
-1158473.2296
 10
-591337.0723
 20
-1158468.8494
 10
-591350.7389
 20
-1158465.8124
 10
-591358.3315
 20
-1158469.9883
 10
-591363.5514
 20
-1158476.6318
 10
-591391.1
 20
-1158562.29
 10
-591411.8832
 20
-1158612.9161
 97
0
 75
0
 76
1
 98
0
  0
HATCH
  5
200C8
100
AcDbEntity
  8
skládky a antropogenní uloženiny
100
AcDbHatch
 10
0
 20
0
 30
0
210
0
220
0
230
1
  2
SOLID
 70
1
 71
0
 91
1
 92
2
 72
0
 73
1
 93
13
 10
-591361.6586
 20
-1158572.6169
 10
-591356.0658
 20
-1158576.8989
 10
-591352.0849
 20
-1158577.8843
 10
-591347.9866
 20
-1158575.3354
 10
-591345.3724
 20
-1158570.0382
 10
-591344.9496
 20
-1158565.4651
 10
-591345.519
 20
-1158560.3401
 10
-591348.9357
 20
-1158555.7845
 10
-591354.8809
 20
-1158553.9345
 10
-591358.1128
 20
-1158555.9669
 10
-591361.2736
 20
-1158561.8586
 10
-591362.7921
 20
-1158567.553
 10
-591361.6586
 20
-1158572.6169
 97
0
 75
0
 76
1
 98
0
  0
HATCH
  5
200C9
100
AcDbEntity
  8
skládky a antropogenní uloženiny
100
AcDbHatch
 10
0
 20
0
 30
0
210
0
220
0
230
1
  2
SOLID
 70
1
 71
0
 91
1
 92
2
 72
0
 73
1
 93
27
 10
-591636.4517
 20
-1157944.4864
 10
-591631.4186
 20
-1157967.1694
 10
-591621.9846
 20
-1157993.5111
 10
-591617.6183
 20
-1158005.1323
 10
-591615.2022
 20
-1158008.9286
 10
-591612.3296
 20
-1158011.0722
 10
-591609.1713
 20
-1158012.2503
 10
-591604.9745
 20
-1158011.0232
 10
-591601.7799
 20
-1158004.1832
 10
-591593.3763
 20
-1157990.4521
 10
-591583.4025
 20
-1157978.1451
 10
-591569.8659
 20
-1157965.3402
 10
-591560.5757
 20
-1157959.1995
 10
-591539.9209
 20
-1157952.0385
 10
-591536.1184
 20
-1157943.8027
 10
-591539.5963
 20
-1157934.8512
 10
-591545.9191
 20
-1157931.3585
 10
-591557.1124
 20
-1157932.0746
 10
-591568.9308
 20
-1157935.8499
 10
-591579.9401
 20
-1157932.6231
 10
-591585.9635
 20
-1157923.6326
 10
-591593.1236
 20
-1157921.8432
 10
-591614.1976
 20
-1157924.5778
 10
-591630.9638
 20
-1157931.8915
 10
-591633.8934
 20
-1157933.667
 10
-591636.4517
 20
-1157937.263
 10
-591636.4517
 20
-1157944.4864
 97
0
 75
0
 76
1
 98
0
  0
HATCH
  5
200CA
100
AcDbEntity
  8
skládky a antropogenní uloženiny
100
AcDbHatch
 10
0
 20
0
 30
0
210
0
220
0
230
1
  2
SOLID
 70
1
 71
0
 91
1
 92
2
 72
0
 73
1
 93
31
 10
-591274.07
 20
-1158080.8
 10
-591266.8456
 20
-1158070.0907
 10
-591247.72
 20
-1158020.67
 10
-591248.5833
 20
-1158018.7406
 10
-591248.7174
 20
-1158018.4409
 10
-591249.283
 20
-1158017.1768
 10
-591257.8246
 20
-1158013.1045
 10
-591262.57
 20
-1158007.1436
 10
-591261.1748
 20
-1158003.3892
 10
-591247.5837
 20
-1157989.6384
 10
-591241.0527
 20
-1157976.3158
 10
-591240.7413
 20
-1157968.8777
 10
-591244.7113
 20
-1157964.2426
 10
-591254.5894
 20
-1157958.3889
 10
-591261.8107
 20
-1157956.9898
 10
-591272.1505
 20
-1157956.1937
 10
-591279.4778
 20
-1157958.248
 10
-591288.3848
 20
-1157964.8916
 10
-591297.4959
 20
-1157973.623
 10
-591304.2243
 20
-1157983.6473
 10
-591310.5167
 20
-1157995.0241
 10
-591310.9312
 20
-1158001.9775
 10
-591309.3377
 20
-1158011.749
 10
-591307.46
 20
-1158015.92
 10
-591297.1616
 20
-1158015.2228
 10
-591290.4728
 20
-1158017.801
 10
-591286.6648
 20
-1158021.3189
 10
-591285.7608
 20
-1158035.7368
 10
-591288.2481
 20
-1158076.9263
 10
-591283.3091
 20
-1158081.8653
 10
-591274.07
 20
-1158080.8
 97
0
 75
0
 76
1
 98
0
  0
HATCH
  5
200CB
100
AcDbEntity
  8
skládky a antropogenní uloženiny
100
AcDbHatch
 10
0
 20
0
 30
0
210
0
220
0
230
1
  2
SOLID
 70
1
 71
0
 91
1
 92
2
 72
0
 73
1
 93
27
 10
-591471.0847
 20
-1157942.2912
 10
-591470.353
 20
-1157955.8279
 10
-591460.8408
 20
-1157961.3157
 10
-591415.4746
 20
-1157962.7792
 10
-591402.6696
 20
-1157973.7875
 10
-591396.5655
 20
-1157987.6435
 10
-591389.485
 20
-1157988.6395
 10
-591368.6935
 20
-1157985.0964
 10
-591355.9106
 20
-1157987.0257
 10
-591341.5717
 20
-1157994.2428
 10
-591329.8643
 20
-1158003.0233
 10
-591323.0902
 20
-1158004.8526
 10
-591316.6935
 20
-1157999.3648
 10
-591295.1079
 20
-1157965.3402
 10
-591250.1076
 20
-1157937.9009
 10
-591204.0098
 20
-1157917.413
 10
-591184.7949
 20
-1157906.0894
 10
-591179.4312
 20
-1157895.0389
 10
-591180.595
 20
-1157888.1445
 10
-591182.4682
 20
-1157880.8037
 10
-591195.2292
 20
-1157863.998
 10
-591206.7636
 20
-1157858.0259
 10
-591218.644
 20
-1157860.3395
 10
-591319.5813
 20
-1157898.5236
 10
-591405.2306
 20
-1157923.2667
 10
-591443.0352
 20
-1157930.5838
 10
-591471.0847
 20
-1157942.2912
 97
0
 75
0
 76
1
 98
0
  0
HATCH
  5
200CC
100
AcDbEntity
  8
skládky a antropogenní uloženiny
100
AcDbHatch
 10
0
 20
0
 30
0
210
0
220
0
230
1
  2
SOLID
 70
1
 71
0
 91
1
 92
2
 72
0
 73
1
 93
22
 10
-591006.605
 20
-1157890.4759
 10
-590986.0585
 20
-1157878.9903
 10
-590967.7879
 20
-1157864.8592
 10
-590945.7694
 20
-1157846.2574
 10
-590923.5828
 20
-1157823.4971
 10
-590916.7277
 20
-1157814.938
 10
-590917.77
 20
-1157800.075
 10
-590924.3366
 20
-1157786.7793
 10
-590933.0518
 20
-1157779.4427
 10
-590947.4777
 20
-1157774.5075
 10
-590965.6999
 20
-1157771.8501
 10
-590980.0354
 20
-1157778.163
 10
-590991.7126
 20
-1157796.2949
 10
-591007.8388
 20
-1157828.4148
 10
-591025.553
 20
-1157856.4782
 10
-591039.2662
 20
-1157867.1148
 10
-591053.0166
 20
-1157877.3481
 10
-591049.2876
 20
-1157887.911
 10
-591037.6947
 20
-1157892.4739
 10
-591028.7184
 20
-1157895.4194
 10
-591015.8252
 20
-1157895.8766
 10
-591006.605
 20
-1157890.4759
 97
0
 75
0
 76
1
 98
0
  0
HATCH
  5
200CD
100
AcDbEntity
  8
skládky a antropogenní uloženiny
100
AcDbHatch
 10
0
 20
0
 30
0
210
0
220
0
230
1
  2
SOLID
 70
1
 71
0
 91
1
 92
2
 72
0
 73
1
 93
23
 10
-590910.4682
 20
-1157779.4596
 10
-590877.4695
 20
-1157846.5724
 10
-590861.4124
 20
-1157884.9673
 10
-590844.2074
 20
-1157922.381
 10
-590837.8305
 20
-1157927.8777
 10
-590829.3054
 20
-1157927.0513
 10
-590825.9136
 20
-1157924.8791
 10
-590824.6676
 20
-1157918.5722
 10
-590825.825
 20
-1157914.5735
 10
-590834.0119
 20
-1157899.4055
 10
-590840.0739
 20
-1157881.269
 10
-590842.8899
 20
-1157854.6093
 10
-590842.8899
 20
-1157834.8685
 10
-590839.2304
 20
-1157818.1352
 10
-590832.6399
 20
-1157801.9357
 10
-590831.8806
 20
-1157799.563
 10
-590832.1653
 20
-1157794.2482
 10
-590834.8522
 20
-1157790.3545
 10
-590838.2957
 20
-1157787.7921
 10
-590844.0448
 20
-1157787.0352
 10
-590861.7589
 20
-1157787.9383
 10
-590891.1028
 20
-1157784.3778
 10
-590910.4682
 20
-1157779.4596
 97
0
 75
0
 76
1
 98
0
  0
HATCH
  5
200CE
100
AcDbEntity
  8
skládky a antropogenní uloženiny
100
AcDbHatch
 10
0
 20
0
 30
0
210
0
220
0
230
1
  2
SOLID
 70
1
 71
0
 91
1
 92
2
 72
0
 73
1
 93
11
 10
-590822.8453
 20
-1158051.023
 10
-590817.8733
 20
-1158054.7499
 10
-590808.8576
 20
-1158055.8673
 10
-590804.3353
 20
-1158054.1152
 10
-590801.7413
 20
-1158051.8028
 10
-590800.8934
 20
-1158047.1999
 10
-590803.1711
 20
-1158042.6444
 10
-590806.2082
 20
-1158039.2277
 10
-590810.1332
 20
-1158038.4801
 10
-590815.9198
 20
-1158044.5183
 10
-590822.8453
 20
-1158051.023
 97
0
 75
0
 76
1
 98
0
  0
HATCH
  5
200CF
100
AcDbEntity
  8
skládky a antropogenní uloženiny
100
AcDbHatch
 10
0
 20
0
 30
0
210
0
220
0
230
1
  2
SOLID
 70
1
 71
0
 91
1
 92
2
 72
0
 73
1
 93
14
 10
-591173.7613
 20
-1159185.5579
 10
-591168.7541
 20
-1159200.7984
 10
-591158.5041
 20
-1159203.8354
 10
-591120.9208
 20
-1159187.891
 10
-591080.6801
 20
-1159171.1873
 10
-591056.0916
 20
-1159148.6492
 10
-591052.4589
 20
-1159121.2077
 10
-591060.1802
 20
-1159095.2614
 10
-591081.4394
 20
-1159102.0948
 10
-591097.0042
 20
-1159113.104
 10
-591101.9394
 20
-1159133.1963
 10
-591108.1555
 20
-1159145.5165
 10
-591144.0782
 20
-1159164.354
 10
-591173.7613
 20
-1159185.5579
 97
0
 75
0
 76
1
 98
0
  0
HATCH
  5
200D0
100
AcDbEntity
  8
skládky a antropogenní uloženiny
100
AcDbHatch
 10
0
 20
0
 30
0
210
0
220
0
230
1
  2
SOLID
 70
1
 71
0
 91
1
 92
2
 72
0
 73
1
 93
29
 10
-590820.218
 20
-1157979.4807
 10
-590818.9624
 20
-1157981.5537
 10
-590818.1302
 20
-1157982.3817
 10
-590817.2027
 20
-1157983.0262
 10
-590816.2157
 20
-1157983.4626
 10
-590815.2069
 20
-1157983.674
 10
-590814.2153
 20
-1157983.6524
 10
-590813.2788
 20
-1157983.3985
 10
-590812.4335
 20
-1157982.9222
 10
-590811.7118
 20
-1157982.2416
 10
-590811.1416
 20
-1157981.3831
 10
-590810.7447
 20
-1157980.3795
 10
-590810.5363
 20
-1157979.2694
 10
-590810.5245
 20
-1157978.0956
 10
-590811.0849
 20
-1157975.7376
 10
-590812.3405
 20
-1157973.6646
 10
-590813.1727
 20
-1157972.8367
 10
-590814.1002
 20
-1157972.1921
 10
-590815.0872
 20
-1157971.7557
 10
-590816.096
 20
-1157971.5443
 10
-590817.0877
 20
-1157971.5659
 10
-590818.0241
 20
-1157971.8198
 10
-590818.8694
 20
-1157972.2962
 10
-590819.5911
 20
-1157972.9767
 10
-590820.1613
 20
-1157973.8353
 10
-590820.5582
 20
-1157974.8389
 10
-590820.7666
 20
-1157975.9489
 10
-590820.7784
 20
-1157977.1228
 10
-590820.218
 20
-1157979.4807
 97
0
 75
0
 76
1
 98
0
  0
HATCH
  5
200D1
100
AcDbEntity
  8
skládky a antropogenní uloženiny
100
AcDbHatch
 10
0
 20
0
 30
0
210
0
220
0
230
1
  2
SOLID
 70
1
 71
0
 91
1
 92
2
 72
0
 73
1
 93
33
 10
-590795.0402
 20
-1158004.0463
 10
-590796.7195
 20
-1158005.0752
 10
-590798.138
 20
-1158006.4928
 10
-590799.2411
 20
-1158008.2448
 10
-590799.9864
 20
-1158010.2637
 10
-590800.3454
 20
-1158012.4721
 10
-590800.3041
 20
-1158014.785
 10
-590799.8643
 20
-1158017.1136
 10
-590799.0427
 20
-1158019.3683
 10
-590797.871
 20
-1158021.4626
 10
-590796.3941
 20
-1158023.3159
 10
-590794.669
 20
-1158024.857
 10
-590792.7618
 20
-1158026.0267
 10
-590790.7458
 20
-1158026.7801
 10
-590788.6985
 20
-1158027.0881
 10
-590786.6986
 20
-1158026.939
 10
-590784.8229
 20
-1158026.3385
 10
-590783.1436
 20
-1158025.3096
 10
-590781.7252
 20
-1158023.892
 10
-590780.622
 20
-1158022.14
 10
-590779.8767
 20
-1158020.1211
 10
-590779.5178
 20
-1158017.9127
 10
-590779.559
 20
-1158015.5998
 10
-590779.9989
 20
-1158013.2712
 10
-590780.8205
 20
-1158011.0165
 10
-590781.9922
 20
-1158008.9222
 10
-590783.469
 20
-1158007.0689
 10
-590785.1942
 20
-1158005.5278
 10
-590787.1014
 20
-1158004.3581
 10
-590789.1174
 20
-1158003.6047
 10
-590791.1647
 20
-1158003.2967
 10
-590793.1646
 20
-1158003.4458
 10
-590795.0402
 20
-1158004.0463
 97
0
 75
0
 76
1
 98
0
  0
HATCH
  5
200D2
100
AcDbEntity
  8
skládky a antropogenní uloženiny
100
AcDbHatch
 10
0
 20
0
 30
0
210
0
220
0
230
1
  2
SOLID
 70
1
 71
0
 91
1
 92
2
 72
0
 73
1
 93
24
 10
-591121.0217
 20
-1158004.283
 10
-591102.7461
 20
-1157992.4147
 10
-591077.3747
 20
-1157972.4937
 10
-591062.2235
 20
-1157957.8794
 10
-591039.35
 20
-1157936.92
 10
-591028.1245
 20
-1157915.5799
 10
-591025.1976
 20
-1157906.347
 10
-591030.12
 20
-1157894.31
 10
-591050.0758
 20
-1157887.7787
 10
-591069.79
 20
-1157889.83
 10
-591085.4255
 20
-1157894.7788
 10
-591102.2651
 20
-1157903.3039
 10
-591122.329
 20
-1157915.0889
 10
-591134.7773
 20
-1157923.6116
 10
-591141.65
 20
-1157931.06
 10
-591150.7217
 20
-1157942.0059
 10
-591154.7778
 20
-1157949.1654
 10
-591159.8328
 20
-1157962.5426
 10
-591160.5644
 20
-1157977.4134
 10
-591158.8427
 20
-1157984.3001
 10
-591156.1741
 20
-1157994.9745
 10
-591148.466
 20
-1158002.6575
 10
-591136.1737
 20
-1158007.5998
 10
-591121.0217
 20
-1158004.283
 97
0
 75
0
 76
1
 98
0
  0
HATCH
  5
200D3
100
AcDbEntity
  8
skládky a antropogenní uloženiny
100
AcDbHatch
 10
0
 20
0
 30
0
210
0
220
0
230
1
  2
SOLID
 70
1
 71
0
 91
1
 92
2
 72
0
 73
1
 93
22
 10
-590848.5865
 20
-1158033.0006
 10
-590849.0114
 20
-1158037.9674
 10
-590847.4084
 20
-1158041.2433
 10
-590843.8339
 20
-1158044.9222
 10
-590839.0461
 20
-1158047.105
 10
-590833.6389
 20
-1158048.5286
 10
-590828.0369
 20
-1158047.7694
 10
-590822.6801
 20
-1158046.8203
 10
-590816.9947
 20
-1158043.4928
 10
-590809.9096
 20
-1158036.2856
 10
-590805.354
 20
-1158027.7152
 10
-590801.7971
 20
-1158018.0118
 10
-590802.0323
 20
-1158013.0764
 10
-590803.6364
 20
-1158007.6825
 10
-590806.9943
 20
-1158004.0091
 10
-590811.2178
 20
-1158000.2784
 10
-590816.6225
 20
-1157998.4409
 10
-590820.0234
 20
-1157998.4176
 10
-590823.1017
 20
-1158000.4106
 10
-590827.2087
 20
-1158008.1335
 10
-590837.0164
 20
-1158021.93
 10
-590848.5865
 20
-1158033.0006
 97
0
 75
0
 76
1
 98
0
  0
HATCH
  5
200D4
100
AcDbEntity
  8
skládky a antropogenní uloženiny
100
AcDbHatch
 10
0
 20
0
 30
0
210
0
220
0
230
1
  2
SOLID
 70
1
 71
0
 91
1
 92
2
 72
0
 73
1
 93
12
 10
-590886.2852
 20
-1158110.8508
 10
-590882.134
 20
-1158113.635
 10
-590874.8262
 20
-1158115.3434
 10
-590867.3285
 20
-1158115.5332
 10
-590860.3053
 20
-1158113.635
 10
-590852.8945
 20
-1158107.4648
 10
-590847.0183
 20
-1158098.2601
 10
-590859.4835
 20
-1158093.992
 10
-590878.8915
 20
-1158090.0057
 10
-590884.9603
 20
-1158097.4758
 10
-590886.7793
 20
-1158104.0672
 10
-590886.2852
 20
-1158110.8508
 97
0
 75
0
 76
1
 98
0
  0
HATCH
  5
200D5
100
AcDbEntity
  8
skládky a antropogenní uloženiny
100
AcDbHatch
 10
0
 20
0
 30
0
210
0
220
0
230
1
  2
SOLID
 70
1
 71
0
 91
1
 92
2
 72
0
 73
1
 93
13
 10
-591575.8116
 20
-1159168.1502
 10
-591566.6062
 20
-1159166.7006
 10
-591563.006
 20
-1159151.2897
 10
-591562.9042
 20
-1159137.2105
 10
-591565.5616
 20
-1159122.9744
 10
-591574.9773
 20
-1159086.0503
 10
-591581.7433
 20
-1159094.1225
 10
-591584.3605
 20
-1159097.207
 10
-591585.7769
 20
-1159099.0103
 10
-591577.793
 20
-1159125.7669
 10
-591575.7613
 20
-1159141.8891
 10
-591575.8311
 20
-1159154.7844
 10
-591575.8116
 20
-1159168.1502
 97
0
 75
0
 76
1
 98
0
  0
HATCH
  5
200D6
100
AcDbEntity
  8
skládky a antropogenní uloženiny
100
AcDbHatch
 10
0
 20
0
 30
0
210
0
220
0
230
1
  2
SOLID
 70
1
 71
0
 91
1
 92
2
 72
0
 73
1
 93
8
 10
-591578.9435
 20
-1159083.1133
 10
-591589.6681
 20
-1159086.53
 10
-591613.5217
 20
-1159106.9383
 10
-591607.9852
 20
-1159115.5716
 10
-591595.6472
 20
-1159107.6943
 10
-591585.8718
 20
-1159099.0577
 10
-591574.88
 20
-1159085.99
 10
-591578.9435
 20
-1159083.1133
 97
0
 75
0
 76
1
 98
0
  0
HATCH
  5
200D7
100
AcDbEntity
  8
skládky a antropogenní uloženiny
100
AcDbHatch
 10
0
 20
0
 30
0
210
0
220
0
230
1
  2
SOLID
 70
1
 71
0
 91
1
 92
2
 72
0
 73
1
 93
8
 10
-591309.8024
 20
-1159153.0394
 10
-591314.96
 20
-1159170.2
 10
-591291.8799
 20
-1159172.4218
 10
-591262.5226
 20
-1159167.7706
 10
-591243.0053
 20
-1159157.0357
 10
-591245.8017
 20
-1159143.6131
 10
-591284.9207
 20
-1159152.5854
 10
-591309.8024
 20
-1159153.0394
 97
0
 75
0
 76
1
 98
0
  0
HATCH
  5
200D8
100
AcDbEntity
  8
skládky a antropogenní uloženiny
100
AcDbHatch
 10
0
 20
0
 30
0
210
0
220
0
230
1
  2
SOLID
 70
1
 71
0
 91
1
 92
2
 72
0
 73
1
 93
13
 10
-591135.7264
 20
-1159304.0575
 10
-591133.8282
 20
-1159305.576
 10
-591103.7143
 20
-1159283.8624
 10
-591072.3291
 20
-1159256.2248
 10
-591052.2774
 20
-1159235.2957
 10
-591060.275
 20
-1159226.615
 10
-591064.3561
 20
-1159224.9474
 10
-591076.898
 20
-1159223.8955
 10
-591087.7033
 20
-1159227.3724
 10
-591104.9764
 20
-1159244.4557
 10
-591114.7984
 20
-1159255.0854
 10
-591122.819
 20
-1159271.4094
 10
-591135.7264
 20
-1159304.0575
 97
0
 75
0
 76
1
 98
0
  0
HATCH
  5
200D9
100
AcDbEntity
  8
skládky a antropogenní uloženiny
100
AcDbHatch
 10
0
 20
0
 30
0
210
0
220
0
230
1
  2
SOLID
 70
1
 71
0
 91
1
 92
2
 72
0
 73
1
 93
27
 10
-592676.6416
 20
-1159181.8169
 10
-592699.4193
 20
-1159200.4187
 10
-592696.4353
 20
-1159203.5813
 10
-592643.781
 20
-1159189.4095
 10
-592627.9165
 20
-1159182.9258
 10
-592613.5084
 20
-1159179.4769
 10
-592599.318
 20
-1159178.5248
 10
-592578.8919
 20
-1159178.8041
 10
-592543.795
 20
-1159187.8004
 10
-592520.856
 20
-1159199.3732
 10
-592494.5525
 20
-1159211.3055
 10
-592481.8918
 20
-1159203.0761
 10
-592471.6418
 20
-1159187.1317
 10
-592470.3322
 20
-1159177.9243
 10
-592476.1973
 20
-1159168.9625
 10
-592498.7285
 20
-1159157.0288
 10
-592520.4673
 20
-1159135.524
 10
-592549.4701
 20
-1159092.8359
 10
-592567.688
 20
-1159085.3911
 10
-592578.3176
 20
-1159083.1133
 10
-592589.3268
 20
-1159082.354
 10
-592603.3731
 20
-1159084.2522
 10
-592620.8361
 20
-1159091.8448
 10
-592632.225
 20
-1159107.7892
 10
-592635.262
 20
-1159127.4893
 10
-592647.1156
 20
-1159147.1327
 10
-592676.6416
 20
-1159181.8169
 97
0
 75
0
 76
1
 98
0
  0
HATCH
  5
200DA
100
AcDbEntity
  8
skládky a antropogenní uloženiny
100
AcDbHatch
 10
0
 20
0
 30
0
210
0
220
0
230
1
  2
SOLID
 70
1
 71
0
 91
1
 92
2
 72
0
 73
1
 93
12
 10
-592249.179
 20
-1160026.8717
 10
-592226.0216
 20
-1160018.1402
 10
-592247.3573
 20
-1159987.0641
 10
-592257.5309
 20
-1159937.3154
 10
-592265.054
 20
-1159924.0374
 10
-592269.338
 20
-1159917.9181
 10
-592284.7958
 20
-1159917.6988
 10
-592294.3549
 20
-1159924.3718
 10
-592298.5338
 20
-1159938.0429
 10
-592287.0894
 20
-1159970.7274
 10
-592267.7809
 20
-1159998.0198
 10
-592249.179
 20
-1160026.8717
 97
0
 75
0
 76
1
 98
0
  0
HATCH
  5
200DB
100
AcDbEntity
  8
skládky a antropogenní uloženiny
100
AcDbHatch
 10
0
 20
0
 30
0
210
0
220
0
230
1
  2
SOLID
 70
1
 71
0
 91
1
 92
2
 72
0
 73
1
 93
16
 10
-592088.9755
 20
-1160823.144
 10
-592117.3513
 20
-1160826.5488
 10
-592128.1418
 20
-1160847.4761
 10
-592133.3921
 20
-1160880.4681
 10
-592146.2995
 20
-1160973.0976
 10
-592013.4292
 20
-1160980.6902
 10
-591865.2119
 20
-1160984.9774
 10
-591872.9664
 20
-1160870.5977
 10
-591877.8678
 20
-1160792.886
 10
-591876.4693
 20
-1160729.5648
 10
-591899.5405
 20
-1160699.7645
 10
-591931.175
 20
-1160697.1844
 10
-591962.8539
 20
-1160722.0253
 10
-591998.8332
 20
-1160757.4682
 10
-592029.6365
 20
-1160814.3761
 10
-592088.9755
 20
-1160823.144
 97
0
 75
0
 76
1
 98
0
  0
HATCH
  5
200DC
100
AcDbEntity
  8
skládky a antropogenní uloženiny
100
AcDbHatch
 10
0
 20
0
 30
0
210
0
220
0
230
1
  2
SOLID
 70
1
 71
0
 91
1
 92
2
 72
0
 73
1
 93
13
 10
-591651.2629
 20
-1161025.1068
 10
-591606.8463
 20
-1160998.9124
 10
-591557.4945
 20
-1160980.6902
 10
-591438.2909
 20
-1160959.8106
 10
-591361.9508
 20
-1160995.89
 10
-591390.5128
 20
-1160950.8268
 10
-591406.7135
 20
-1160925.31
 10
-591418.9298
 20
-1160913.8754
 10
-591465.1111
 20
-1160922.2273
 10
-591565.1985
 20
-1160948.29
 10
-591623.1704
 20
-1160974.2365
 10
-591653.9966
 20
-1160998.9855
 10
-591651.2629
 20
-1161025.1068
 97
0
 75
0
 76
1
 98
0
  0
HATCH
  5
200DD
100
AcDbEntity
  8
skládky a antropogenní uloženiny
100
AcDbHatch
 10
0
 20
0
 30
0
210
0
220
0
230
1
  2
SOLID
 70
1
 71
0
 91
1
 92
2
 72
0
 73
1
 93
7
 10
-591364.19
 20
-1160993.8
 10
-591353.22
 20
-1161013.07
 10
-591288.15
 20
-1161161.7
 10
-591245.5639
 20
-1161147.1296
 10
-591318.495
 20
-1160987.65
 10
-591340.8158
 20
-1160982.968
 10
-591364.19
 20
-1160993.8
 97
0
 75
0
 76
1
 98
0
  0
HATCH
  5
200DE
100
AcDbEntity
  8
skládky a antropogenní uloženiny
100
AcDbHatch
 10
0
 20
0
 30
0
210
0
220
0
230
1
  2
SOLID
 70
1
 71
0
 91
1
 92
2
 72
0
 73
1
 93
10
 10
-591547.4127
 20
-1160979.4481
 10
-591481.37
 20
-1161248.84
 10
-591440.9483
 20
-1161234.2605
 10
-591327.0595
 20
-1161175.0604
 10
-591288.15
 20
-1161161.7
 10
-591337.78
 20
-1161039.59
 10
-591364.19
 20
-1160993.8
 10
-591439.8094
 20
-1160959.8106
 10
-591477.568
 20
-1160967.1796
 10
-591547.4127
 20
-1160979.4481
 97
0
 75
0
 76
1
 98
0
  0
HATCH
  5
200DF
100
AcDbEntity
  8
skládky a antropogenní uloženiny
100
AcDbHatch
 10
0
 20
0
 30
0
210
0
220
0
230
1
  2
SOLID
 70
1
 71
0
 91
1
 92
2
 72
0
 73
1
 93
7
 10
-590362.2581
 20
-1161247.6042
 10
-590365.8382
 20
-1161256.301
 10
-590321.9322
 20
-1161299.8912
 10
-590267.5503
 20
-1161316.2178
 10
-590265.9339
 20
-1161306.7376
 10
-590314.4965
 20
-1161281.3566
 10
-590362.2581
 20
-1161247.6042
 97
0
 75
0
 76
1
 98
0
  0
HATCH
  5
200E0
100
AcDbEntity
  8
skládky a antropogenní uloženiny
100
AcDbHatch
 10
0
 20
0
 30
0
210
0
220
0
230
1
  2
SOLID
 70
1
 71
0
 91
1
 92
2
 72
0
 73
1
 93
18
 10
-590792.8262
 20
-1158231.7947
 10
-590785.898
 20
-1158238.0585
 10
-590773.1751
 20
-1158241.0956
 10
-590765.4929
 20
-1158239.0076
 10
-590755.5277
 20
-1158232.8831
 10
-590749.4581
 20
-1158226.0414
 10
-590743.5693
 20
-1158215.3296
 10
-590742.1854
 20
-1158200.3698
 10
-590744.7557
 20
-1158189.4423
 10
-590749.074
 20
-1158182.3981
 10
-590758.6596
 20
-1158176.3688
 10
-590766.7627
 20
-1158175.0401
 10
-590774.6079
 20
-1158177.8455
 10
-590783.81
 20
-1158183.5817
 10
-590789.4096
 20
-1158194.2114
 10
-590796.4708
 20
-1158217.6125
 10
-590796.5276
 20
-1158225.5756
 10
-590792.8262
 20
-1158231.7947
 97
0
 75
0
 76
1
 98
0
  0
HATCH
  5
200E1
100
AcDbEntity
  8
skládky a antropogenní uloženiny
100
AcDbHatch
 10
0
 20
0
 30
0
210
0
220
0
230
1
  2
SOLID
 70
1
 71
0
 91
1
 92
2
 72
0
 73
1
 93
28
 10
-594077.0939
 20
-1160699.5747
 10
-594099.8717
 20
-1160714.7599
 10
-594131.0013
 20
-1160748.5318
 10
-594137.6448
 20
-1160755.1473
 10
-594140.1124
 20
-1160761.8339
 10
-594138.5939
 20
-1160785.3709
 10
-594144.2883
 20
-1160803.9728
 10
-594151.0002
 20
-1160815.4021
 10
-594160.992
 20
-1160822.9542
 10
-594180.3531
 20
-1160837.0005
 10
-594202.3716
 20
-1160843.8338
 10
-594223.1726
 20
-1160845.8582
 10
-594232.5521
 20
-1160854.5355
 10
-594237.2975
 20
-1160863.5746
 10
-594237.2975
 20
-1160880.6579
 10
-594237.2975
 20
-1160896.2227
 10
-594233.7022
 20
-1160916.343
 10
-594228.9457
 20
-1160929.6301
 10
-594219.6526
 20
-1160938.7412
 10
-594207.3068
 20
-1160942.1578
 10
-594165.1679
 20
-1160940.2597
 10
-594110.5013
 20
-1160930.3893
 10
-594063.4273
 20
-1160931.1486
 10
-594022.4273
 20
-1160927.3523
 10
-593991.9666
 20
-1160924.5318
 10
-594034.5755
 20
-1160869.6486
 10
-594067.2236
 20
-1160784.6117
 10
-594077.0939
 20
-1160699.5747
 97
0
 75
0
 76
1
 98
0
  0
HATCH
  5
200E2
100
AcDbEntity
  8
skládky a antropogenní uloženiny
100
AcDbHatch
 10
0
 20
0
 30
0
210
0
220
0
230
1
  2
SOLID
 70
1
 71
0
 91
1
 92
2
 72
0
 73
1
 93
11
 10
-594873.513
 20
-1159252.93
 10
-594871.6615
 20
-1159260.565
 10
-594855.357
 20
-1159249.284
 10
-594828.795
 20
-1159233.795
 10
-594812.9911
 20
-1159232.0134
 10
-594815.75
 20
-1159224.44
 10
-594826.12
 20
-1159224.845
 10
-594848.674
 20
-1159236.018
 10
-594865.06
 20
-1159242.15
 10
-594874.4265
 20
-1159248.835
 10
-594873.513
 20
-1159252.93
 97
0
 75
0
 76
1
 98
0
  0
HATCH
  5
200E3
100
AcDbEntity
  8
skládky a antropogenní uloženiny
100
AcDbHatch
 10
0
 20
0
 30
0
210
0
220
0
230
1
  2
SOLID
 70
1
 71
0
 91
1
 92
2
 72
0
 73
1
 93
6
 10
-594838.4345
 20
-1159076.646
 10
-594792.0745
 20
-1159099.406
 10
-594777.742
 20
-1159106.7003
 10
-594769.3787
 20
-1159091.9186
 10
-594828.2598
 20
-1159065.8604
 10
-594838.4345
 20
-1159076.646
 97
0
 75
0
 76
1
 98
0
  0
HATCH
  5
200E4
100
AcDbEntity
  8
skládky a antropogenní uloženiny
100
AcDbHatch
 10
0
 20
0
 30
0
210
0
220
0
230
1
  2
SOLID
 70
1
 71
0
 91
1
 92
2
 72
0
 73
1
 93
33
 10
-594117.58
 20
-1157784.79
 10
-594125.21
 20
-1157805.5
 10
-594139.88
 20
-1157830.14
 10
-594147.78
 20
-1157872.45
 10
-594137.62
 20
-1157897.82
 10
-594153.95
 20
-1157947.04
 10
-594154.76
 20
-1157959.77
 10
-594145.765
 20
-1158011.11
 10
-594127.65
 20
-1158009.83
 10
-594125.87
 20
-1157964.21
 10
-594128.15
 20
-1157951.78
 10
-594123.42
 20
-1157937.72
 10
-594105.12
 20
-1157964.67
 10
-594106.02
 20
-1157987.08
 10
-594097.22
 20
-1157996.26
 10
-594088.06
 20
-1157997.07
 10
-594076.85
 20
-1158020.23
 10
-594065.72
 20
-1158051.7
 10
-594056.11
 20
-1158067.87
 10
-594042.54
 20
-1158042.27
 10
-594053.44
 20
-1158009.16
 10
-594056.99
 20
-1157996.58
 10
-594069.85
 20
-1157977.22
 10
-594067.68
 20
-1157968.55
 10
-594076
 20
-1157957.27
 10
-594094.11
 20
-1157938.81
 10
-594101.32
 20
-1157919.1
 10
-594107.97
 20
-1157894.86
 10
-594112.73
 20
-1157867.54
 10
-594103.28
 20
-1157822
 10
-594093.07
 20
-1157786.52
 10
-594099.43
 20
-1157783.83
 10
-594117.58
 20
-1157784.79
 97
0
 75
0
 76
1
 98
0
  0
HATCH
  5
200E5
100
AcDbEntity
  8
skládky a antropogenní uloženiny
100
AcDbHatch
 10
0
 20
0
 30
0
210
0
220
0
230
1
  2
SOLID
 70
1
 71
0
 91
1
 92
2
 72
0
 73
1
 93
9
 10
-594053.32
 20
-1157800.61
 10
-594054.64
 20
-1157832.47
 10
-594052.65
 20
-1157868.78
 10
-594050.46
 20
-1157867.43
 10
-594042.16
 20
-1157867.89
 10
-594034.59
 20
-1157865.85
 10
-594028.4087
 20
-1157795.0022
 10
-594038.97
 20
-1157792.53
 10
-594053.32
 20
-1157800.61
 97
0
 75
0
 76
1
 98
0
  0
HATCH
  5
200E6
100
AcDbEntity
  8
skládky a antropogenní uloženiny
100
AcDbHatch
 10
0
 20
0
 30
0
210
0
220
0
230
1
  2
SOLID
 70
1
 71
0
 91
1
 92
2
 72
0
 73
1
 93
19
 10
-593642.701
 20
-1158690.0305
 10
-593638.5032
 20
-1158707.5687
 10
-593630.1016
 20
-1158686.5228
 10
-593620.5554
 20
-1158671.4526
 10
-593581.9696
 20
-1158645.8837
 10
-593557.4874
 20
-1158629.1567
 10
-593535.2731
 20
-1158613.2801
 10
-593530.545
 20
-1158605.5027
 10
-593532.1405
 20
-1158596.1553
 10
-593538.2126
 20
-1158587.3749
 10
-593545.0081
 20
-1158585.4198
 10
-593554.5423
 20
-1158587.237
 10
-593570.9268
 20
-1158595.2004
 10
-593589.8201
 20
-1158610.2122
 10
-593608.7134
 20
-1158625.2241
 10
-593631.7819
 20
-1158645.1872
 10
-593642.3876
 20
-1158657.1395
 10
-593646.4454
 20
-1158670.7173
 10
-593642.701
 20
-1158690.0305
 97
0
 75
0
 76
1
 98
0
  0
HATCH
  5
200E7
100
AcDbEntity
  8
skládky a antropogenní uloženiny
100
AcDbHatch
 10
0
 20
0
 30
0
210
0
220
0
230
1
  2
SOLID
 70
1
 71
0
 91
1
 92
2
 72
0
 73
1
 93
27
 10
-593631.0507
 20
-1158791.5917
 10
-593624.2636
 20
-1158796.4785
 10
-593615.1873
 20
-1158806.5439
 10
-593604.3
 20
-1158841.8735
 10
-593598.4725
 20
-1158864.3496
 10
-593589.6118
 20
-1158872.7657
 10
-593579.1971
 20
-1158877.6524
 10
-593568.0646
 20
-1158879.1456
 10
-593559.1072
 20
-1158877.3809
 10
-593539.0173
 20
-1158867.8789
 10
-593511.91
 20
-1158851.04
 10
-593488.62
 20
-1158849.79
 10
-593486.44
 20
-1158844.91
 10
-593519.84
 20
-1158837.11
 10
-593574.035
 20
-1158795.61
 10
-593628.23
 20
-1158754.11
 10
-593644.6
 20
-1158727.27
 10
-593660.4
 20
-1158689.57
 10
-593663.75
 20
-1158686.62
 10
-593670.8483
 20
-1158699.846
 10
-593673.4023
 20
-1158712.0467
 10
-593675.2332
 20
-1158732.1963
 10
-593674.8982
 20
-1158755.1831
 10
-593673.5858
 20
-1158762.1074
 10
-593664.1718
 20
-1158771.7733
 10
-593648.1542
 20
-1158782.0898
 10
-593631.0507
 20
-1158791.5917
 97
0
 75
0
 76
1
 98
0
  0
HATCH
  5
200E8
100
AcDbEntity
  8
skládky a antropogenní uloženiny
100
AcDbHatch
 10
0
 20
0
 30
0
210
0
220
0
230
1
  2
SOLID
 70
1
 71
0
 91
1
 92
2
 72
0
 73
1
 93
33
 10
-593875.0147
 20
-1159217.9943
 10
-593859.6731
 20
-1159193.425
 10
-593882.4232
 20
-1159186.4818
 10
-593905.3957
 20
-1159178.6973
 10
-593921.6264
 20
-1159170.8815
 10
-593930.6064
 20
-1159165.9715
 10
-593946.9765
 20
-1159158.8502
 10
-593960.5064
 20
-1159153.3215
 10
-593972.4464
 20
-1159149.8515
 10
-593974.8861
 20
-1159133.4953
 10
-593977.5154
 20
-1159126.1967
 10
-593980.1448
 20
-1159121.8519
 10
-593983.8534
 20
-1159118.9582
 10
-593988.3475
 20
-1159117.7867
 10
-593992.6532
 20
-1159118.7309
 10
-593996.76
 20
-1159121.5624
 10
-593999.6091
 20
-1159125.1107
 10
-594002.4582
 20
-1159133.1195
 10
-594008.1564
 20
-1159149.2215
 10
-594018.6592
 20
-1159150.983
 10
-594030.7143
 20
-1159155.1063
 10
-594038.2264
 20
-1159159.3815
 10
-594056.5964
 20
-1159172.3965
 10
-594072.2393
 20
-1159184.9868
 10
-594057.8064
 20
-1159207.8865
 10
-594042.0214
 20
-1159195.7465
 10
-594022.042
 20
-1159187.2203
 10
-594007.0525
 20
-1159183.4738
 10
-593989.5996
 20
-1159182.6051
 10
-593963.8785
 20
-1159188.3259
 10
-593931.7135
 20
-1159198.1709
 10
-593906.5499
 20
-1159206.7989
 10
-593875.0147
 20
-1159217.9943
 97
0
 75
0
 76
1
 98
0
  0
HATCH
  5
200E9
100
AcDbEntity
  8
skládky a antropogenní uloženiny
100
AcDbHatch
 10
0
 20
0
 30
0
210
0
220
0
230
1
  2
SOLID
 70
1
 71
0
 91
1
 92
2
 72
0
 73
1
 93
37
 10
-594197.69
 20
-1158880.47
 10
-594224.2424
 20
-1158898.0803
 10
-594250.8169
 20
-1158913.4982
 10
-594260.9919
 20
-1158929.8441
 10
-594263.6101
 20
-1158945.5236
 10
-594264.4246
 20
-1158964.5275
 10
-594261.0477
 20
-1158980.8004
 10
-594251.8459
 20
-1158990.8473
 10
-594236.4715
 20
-1158999.7062
 10
-594198.7253
 20
-1159006.0647
 10
-594187.3229
 20
-1159021.8108
 10
-594179.9758
 20
-1159036.4616
 10
-594173.96
 20
-1159069.96
 10
-594176.305
 20
-1159105.545
 10
-594141.1705
 20
-1159115.7445
 10
-594091.6183
 20
-1159057.8638
 10
-594064.7768
 20
-1159018.3234
 10
-594053.18
 20
-1158988.83
 10
-594053.4
 20
-1158963.105
 10
-594054.31
 20
-1158953.65
 10
-594058.6337
 20
-1158922.4986
 10
-594064.987
 20
-1158904.9899
 10
-594071.3403
 20
-1158887.4813
 10
-594096.647
 20
-1158845.3457
 10
-594109.6783
 20
-1158792.1347
 10
-594120.765
 20
-1158703.92
 10
-594154.25
 20
-1158645.96
 10
-594198.499
 20
-1158608.0142
 10
-594264.714
 20
-1158584.322
 10
-594323.47
 20
-1158590.09
 10
-594259.5055
 20
-1158633.0227
 10
-594204.155
 20
-1158672.6814
 10
-594171.5768
 20
-1158713.9471
 10
-594155.475
 20
-1158770.4908
 10
-594155.79
 20
-1158838.36
 10
-594171.19
 20
-1158856.79
 10
-594197.69
 20
-1158880.47
 97
0
 75
0
 76
1
 98
0
  0
HATCH
  5
200EA
100
AcDbEntity
  8
skládky a antropogenní uloženiny
100
AcDbHatch
 10
0
 20
0
 30
0
210
0
220
0
230
1
  2
SOLID
 70
1
 71
0
 91
1
 92
2
 72
0
 73
1
 93
27
 10
-594498.13
 20
-1158676.05
 10
-594517.3234
 20
-1158663.7254
 10
-594533.26
 20
-1158655.455
 10
-594533.855
 20
-1158675.695
 10
-594538.04
 20
-1158716.705
 10
-594552.44
 20
-1158772.39
 10
-594554.29
 20
-1158790.97
 10
-594500.6857
 20
-1158808.6138
 10
-594496.8155
 20
-1158861.0918
 10
-594518.2628
 20
-1158870.3223
 10
-594583.6907
 20
-1158898.3867
 10
-594599.4368
 20
-1158905.6153
 10
-594599.4368
 20
-1158918.6474
 10
-594591.2712
 20
-1158937.2236
 10
-594575.11
 20
-1158945.56
 10
-594530.385
 20
-1158947.05
 10
-594411.5693
 20
-1158849.6895
 10
-594407.868
 20
-1158846.2761
 10
-594408.583
 20
-1158812.4961
 10
-594407.7685
 20
-1158794.8495
 10
-594408.1562
 20
-1158778.1574
 10
-594410.459
 20
-1158754.2885
 10
-594422.9717
 20
-1158740.2811
 10
-594439.9395
 20
-1158723.992
 10
-594464.8847
 20
-1158699.8904
 10
-594481.6933
 20
-1158686.5512
 10
-594498.13
 20
-1158676.05
 97
0
 75
0
 76
1
 98
0
  0
HATCH
  5
200EB
100
AcDbEntity
  8
skládky a antropogenní uloženiny
100
AcDbHatch
 10
0
 20
0
 30
0
210
0
220
0
230
1
  2
SOLID
 70
1
 71
0
 91
1
 92
2
 72
0
 73
1
 93
13
 10
-594441.6011
 20
-1157820.6857
 10
-594450.1311
 20
-1157825.5257
 10
-594437.9961
 20
-1157849.1807
 10
-594422.7956
 20
-1157871.2632
 10
-594394.4311
 20
-1157906.4057
 10
-594389.5795
 20
-1157911.4293
 10
-594385.3569
 20
-1157914.6596
 10
-594372.505
 20
-1157912.0213
 10
-594370.5519
 20
-1157896.2551
 10
-594378.4482
 20
-1157886.3258
 10
-594399.081
 20
-1157871.3942
 10
-594419.7139
 20
-1157850.2184
 10
-594441.6011
 20
-1157820.6857
 97
0
 75
0
 76
1
 98
0
  0
HATCH
  5
200EC
100
AcDbEntity
  8
skládky a antropogenní uloženiny
100
AcDbHatch
 10
0
 20
0
 30
0
210
0
220
0
230
1
  2
SOLID
 70
1
 71
0
 91
1
 92
2
 72
0
 73
1
 93
14
 10
-593942.8029
 20
-1157933.5697
 10
-593946.18
 20
-1157954.63
 10
-593946.22
 20
-1157973.33
 10
-593935.1136
 20
-1157993.2908
 10
-593917.83
 20
-1158006.38
 10
-593893.4709
 20
-1158011.7518
 10
-593869.1117
 20
-1158009.0429
 10
-593845.3248
 20
-1157998.0558
 10
-593830.805
 20
-1157986.995
 10
-593868.938
 20
-1157947.5465
 10
-593890.63
 20
-1157914.915
 10
-593919.87
 20
-1157918.23
 10
-593932.655
 20
-1157923.185
 10
-593942.8029
 20
-1157933.5697
 97
0
 75
0
 76
1
 98
0
  0
HATCH
  5
200ED
100
AcDbEntity
  8
skládky a antropogenní uloženiny
100
AcDbHatch
 10
0
 20
0
 30
0
210
0
220
0
230
1
  2
SOLID
 70
1
 71
0
 91
1
 92
2
 72
0
 73
1
 93
11
 10
-595258.822
 20
-1158905.009
 10
-595258.265
 20
-1158921.815
 10
-595243.1
 20
-1158930.68
 10
-595217.085
 20
-1158937.425
 10
-595205.065
 20
-1158931.19
 10
-595191.41
 20
-1158908.99
 10
-595203.045
 20
-1158900.315
 10
-595223.28
 20
-1158891.41
 10
-595236.757
 20
-1158887.811
 10
-595250.7287
 20
-1158891.3624
 10
-595258.822
 20
-1158905.009
 97
0
 75
0
 76
1
 98
0
  0
HATCH
  5
200EE
100
AcDbEntity
  8
skládky a antropogenní uloženiny
100
AcDbHatch
 10
0
 20
0
 30
0
210
0
220
0
230
1
  2
SOLID
 70
1
 71
0
 91
1
 92
2
 72
0
 73
1
 93
6
 10
-595771.105
 20
-1159391.215
 10
-595744.62
 20
-1159418.11
 10
-595628.32
 20
-1159282.48
 10
-595642.246
 20
-1159280.097
 10
-595672.3
 20
-1159285.74
 10
-595771.105
 20
-1159391.215
 97
0
 75
0
 76
1
 98
0
  0
HATCH
  5
200EF
100
AcDbEntity
  8
skládky a antropogenní uloženiny
100
AcDbHatch
 10
0
 20
0
 30
0
210
0
220
0
230
1
  2
SOLID
 70
1
 71
0
 91
1
 92
2
 72
0
 73
1
 93
25
 10
-593788.8512
 20
-1158407.7123
 10
-593789.0182
 20
-1158410.994
 10
-593788.25
 20
-1158452.43
 10
-593784.6
 20
-1158463.77
 10
-593767.41
 20
-1158479.55
 10
-593764.515
 20
-1158481.425
 10
-593760.48
 20
-1158483.84
 10
-593755.4586
 20
-1158487.1216
 10
-593753.0152
 20
-1158488.2075
 10
-593727.615
 20
-1158498.69
 10
-593694.0759
 20
-1158512.5311
 10
-593697.6311
 20
-1158480.2441
 10
-593698.0699
 20
-1158458.0017
 10
-593699.7788
 20
-1158448.8935
 10
-593700.85
 20
-1158437.86
 10
-593703.91
 20
-1158409.5
 10
-593717.315
 20
-1158374.337
 10
-593728.41
 20
-1158363.93
 10
-593741.6
 20
-1158356.18
 10
-593778.08
 20
-1158346.21
 10
-593781.99
 20
-1158360.63
 10
-593786.42
 20
-1158379.73
 10
-593788.2388
 20
-1158397.2203
 10
-593788.63
 20
-1158404.46
 10
-593788.8512
 20
-1158407.7123
 97
0
 75
0
 76
1
 98
0
  0
HATCH
  5
200F0
100
AcDbEntity
  8
skládky a antropogenní uloženiny
100
AcDbHatch
 10
0
 20
0
 30
0
210
0
220
0
230
1
  2
SOLID
 70
1
 71
0
 91
1
 92
2
 72
0
 73
1
 93
37
 10
-593703.91
 20
-1158409.5
 10
-593700.85
 20
-1158437.86
 10
-593699.7788
 20
-1158448.8935
 10
-593698.0699
 20
-1158458.0017
 10
-593697.6311
 20
-1158480.2441
 10
-593694.0759
 20
-1158512.5311
 10
-593676.194
 20
-1158521.403
 10
-593647.216
 20
-1158529.293
 10
-593608.024
 20
-1158529.38
 10
-593592.6535
 20
-1158527.352
 10
-593577.726
 20
-1158509.246
 10
-593555.3562
 20
-1158470.0377
 10
-593518.5335
 20
-1158412.9165
 10
-593526.78
 20
-1158330.67
 10
-593538.2029
 20
-1158296.675
 10
-593541.88
 20
-1158282.355
 10
-593655.7558
 20
-1158279.843
 10
-593674.2168
 20
-1158259.2101
 10
-593648.1542
 20
-1158217.9445
 10
-593650.8691
 20
-1158185.3663
 10
-593663.82
 20
-1158177.545
 10
-593677.025
 20
-1158180.54
 10
-593716.772
 20
-1158190.253
 10
-593735.3008
 20
-1158211.2931
 10
-593754.3048
 20
-1158264.5041
 10
-593764.6783
 20
-1158296.1168
 10
-593771.0625
 20
-1158315.6798
 10
-593772.29
 20
-1158323.6771
 10
-593773.545
 20
-1158328.425
 10
-593774.8617
 20
-1158333.6838
 10
-593775.1688
 20
-1158334.8759
 10
-593776.2174
 20
-1158338.9642
 10
-593778.08
 20
-1158346.21
 10
-593741.6
 20
-1158356.18
 10
-593728.41
 20
-1158363.93
 10
-593717.315
 20
-1158374.337
 10
-593703.91
 20
-1158409.5
 97
0
 75
0
 76
1
 98
0
  0
HATCH
  5
200F1
100
AcDbEntity
  8
skládky a antropogenní uloženiny
100
AcDbHatch
 10
0
 20
0
 30
0
210
0
220
0
230
1
  2
SOLID
 70
1
 71
0
 91
1
 92
2
 72
0
 73
1
 93
16
 10
-593716.772
 20
-1158190.253
 10
-593778.7384
 20
-1158200.7052
 10
-593804.55
 20
-1158256.59
 10
-593812.55
 20
-1158310.57
 10
-593805.37
 20
-1158319.73
 10
-593812.66
 20
-1158333
 10
-593802.61
 20
-1158354.98
 10
-593781.99
 20
-1158360.63
 10
-593778.08
 20
-1158346.21
 10
-593774.8617
 20
-1158333.6838
 10
-593773.5437
 20
-1158328.4219
 10
-593772.29
 20
-1158323.6771
 10
-593768.62
 20
-1158309.39
 10
-593754.3048
 20
-1158264.5041
 10
-593735.3008
 20
-1158211.2931
 10
-593716.772
 20
-1158190.253
 97
0
 75
0
 76
1
 98
0
  0
HATCH
  5
200F2
100
AcDbEntity
  8
skládky a antropogenní uloženiny
100
AcDbHatch
 10
0
 20
0
 30
0
210
0
220
0
230
1
  2
SOLID
 70
1
 71
0
 91
1
 92
2
 72
0
 73
1
 93
26
 10
-593599.425
 20
-1158713.8005
 10
-593609.926
 20
-1158713.3237
 10
-593617.0013
 20
-1158714.8973
 10
-593627.5214
 20
-1158718.0194
 10
-593635.75
 20
-1158721.03
 10
-593620.19
 20
-1158749.33
 10
-593567.485
 20
-1158789.445
 10
-593514.78
 20
-1158829.56
 10
-593477.39
 20
-1158840.43
 10
-593448.38
 20
-1158863.4
 10
-593387.04
 20
-1158910.38
 10
-593354.41
 20
-1158929.76
 10
-593307.06
 20
-1158968.4
 10
-593294.8843
 20
-1158936.8603
 10
-593289.5401
 20
-1158922.8774
 10
-593284.9249
 20
-1158911.0678
 10
-593277.0615
 20
-1158890.6922
 10
-593297.7672
 20
-1158875.48
 10
-593304.228
 20
-1158870.7334
 10
-593331.3946
 20
-1158850.7745
 10
-593341.55
 20
-1158843.155
 10
-593412.3207
 20
-1158822.2695
 10
-593483.0915
 20
-1158784.2616
 10
-593573.2244
 20
-1158720.1912
 10
-593586.8349
 20
-1158715.4599
 10
-593599.425
 20
-1158713.8005
 97
0
 75
0
 76
1
 98
0
  0
HATCH
  5
200F3
100
AcDbEntity
  8
skládky a antropogenní uloženiny
100
AcDbHatch
 10
0
 20
0
 30
0
210
0
220
0
230
1
  2
SOLID
 70
1
 71
0
 91
1
 92
2
 72
0
 73
1
 93
50
 10
-593383.1851
 20
-1158763.7645
 10
-593360.4985
 20
-1158778.285
 10
-593337.8472
 20
-1158780.0536
 10
-593338.076
 20
-1158794.849
 10
-593337.848
 20
-1158803.918
 10
-593338.11
 20
-1158824.58
 10
-593341.205
 20
-1158832.478
 10
-593341.55
 20
-1158843.155
 10
-593331.3946
 20
-1158850.7745
 10
-593297.7672
 20
-1158875.48
 10
-593277.0615
 20
-1158890.6922
 10
-593294.8843
 20
-1158936.8603
 10
-593307.06
 20
-1158968.4
 10
-593252.11
 20
-1159006.94
 10
-593203.36
 20
-1159021.615
 10
-593172.705
 20
-1159020.555
 10
-593193.5071
 20
-1158989.3729
 10
-593206.1771
 20
-1158965.4263
 10
-593195.432
 20
-1158941.4797
 10
-593159.4817
 20
-1158868.9649
 10
-593108.7727
 20
-1158801.6367
 10
-593079.128
 20
-1158783.8647
 10
-593009.6221
 20
-1158739.7381
 10
-593019.3955
 20
-1158716.9334
 10
-593043.2862
 20
-1158714.3599
 10
-593052.5167
 20
-1158686.5271
 10
-593042.2003
 20
-1158680.0115
 10
-593043.425
 20
-1158644.855
 10
-593130.6048
 20
-1158584.5919
 10
-593212
 20
-1158501.44
 10
-593322.78
 20
-1158428.46
 10
-593344.6483
 20
-1158414.9227
 10
-593418.1023
 20
-1158343.876
 10
-593449.09
 20
-1158318.96
 10
-593468.4313
 20
-1158306.7316
 10
-593495.485
 20
-1158294.5032
 10
-593541.88
 20
-1158282.355
 10
-593538.2029
 20
-1158296.675
 10
-593527.7081
 20
-1158327.2767
 10
-593522.6567
 20
-1158371.7932
 10
-593518.5335
 20
-1158412.9165
 10
-593592.179
 20
-1158527.159
 10
-593566.9105
 20
-1158560.749
 10
-593539.0435
 20
-1158586.332
 10
-593511.9755
 20
-1158608.355
 10
-593484.924
 20
-1158653.024
 10
-593449.27
 20
-1158699.26
 10
-593422.84
 20
-1158724.715
 10
-593397.066
 20
-1158748.114
 10
-593383.1851
 20
-1158763.7645
 97
0
 75
0
 76
1
 98
0
  0
HATCH
  5
200F4
100
AcDbEntity
  8
skládky a antropogenní uloženiny
100
AcDbHatch
 10
0
 20
0
 30
0
210
0
220
0
230
1
  2
SOLID
 70
1
 71
0
 91
1
 92
2
 72
0
 73
1
 93
21
 10
-594497.0767
 20
-1158228.9324
 10
-594526.93
 20
-1158266.08
 10
-594501.4035
 20
-1158290.4213
 10
-594474.5
 20
-1158310.91
 10
-594464.78
 20
-1158317.65
 10
-594444.165
 20
-1158325.4524
 10
-594435.46
 20
-1158327.8958
 10
-594392.5654
 20
-1158325.7239
 10
-594346.98
 20
-1158320.54
 10
-594275.63
 20
-1158323.66
 10
-594270.8045
 20
-1158321.1087
 10
-594269.41
 20
-1158313.63
 10
-594272.5691
 20
-1158305.0911
 10
-594288.44
 20
-1158294.735
 10
-594332.5673
 20
-1158290.8381
 10
-594422.38
 20
-1158294.58
 10
-594444.6905
 20
-1158285.2727
 10
-594466.18
 20
-1158265.385
 10
-594483.8144
 20
-1158241.7276
 10
-594494.6475
 20
-1158227.1778
 10
-594497.0767
 20
-1158228.9324
 97
0
 75
0
 76
1
 98
0
  0
HATCH
  5
200F5
100
AcDbEntity
  8
skládky a antropogenní uloženiny
100
AcDbHatch
 10
0
 20
0
 30
0
210
0
220
0
230
1
  2
SOLID
 70
1
 71
0
 91
1
 92
2
 72
0
 73
1
 93
17
 10
-601493.0832
 20
-1155069.5199
 10
-601489.3268
 20
-1155073.8416
 10
-601480.562
 20
-1155073.1213
 10
-601471.7971
 20
-1155072.401
 10
-601464.5348
 20
-1155067.359
 10
-601457.2725
 20
-1155062.3169
 10
-601453.5161
 20
-1155054.8739
 10
-601452.5144
 20
-1155046.7106
 10
-601455.0187
 20
-1155037.1066
 10
-601458.775
 20
-1155030.8641
 10
-601466.7886
 20
-1155027.5027
 10
-601476.8056
 20
-1155027.2626
 10
-601487.3235
 20
-1155030.3839
 10
-601493.3336
 20
-1155037.8269
 10
-601496.5892
 20
-1155048.6313
 10
-601496.8396
 20
-1155060.156
 10
-601493.0832
 20
-1155069.5199
 97
0
 75
0
 76
1
 98
0
  0
HATCH
  5
200F6
100
AcDbEntity
  8
skládky a antropogenní uloženiny
100
AcDbHatch
 10
0
 20
0
 30
0
210
0
220
0
230
1
  2
SOLID
 70
1
 71
0
 91
1
 92
2
 72
0
 73
1
 93
22
 10
-600535.375
 20
-1155270.54
 10
-600544.29
 20
-1155266.15
 10
-600554.24
 20
-1155260.995
 10
-600560.91
 20
-1155269.71
 10
-600564.9781
 20
-1155277.6247
 10
-600567.6076
 20
-1155285.7009
 10
-600568.171
 20
-1155296.97
 10
-600566.105
 20
-1155309.7416
 10
-600562.5365
 20
-1155321.0108
 10
-600557.841
 20
-1155329.4626
 10
-600551.4552
 20
-1155336.0362
 10
-600543.379
 20
-1155339.0413
 10
-600535.0363
 20
-1155339.626
 10
-600526.2875
 20
-1155333.7824
 10
-600515.1
 20
-1155326.31
 10
-600506.77
 20
-1155318.2
 10
-600500.32
 20
-1155307.745
 10
-600491.53
 20
-1155293.26
 10
-600502.27
 20
-1155285.27
 10
-600514.365
 20
-1155280.1
 10
-600526.46
 20
-1155274.93
 10
-600535.375
 20
-1155270.54
 97
0
 75
0
 76
1
 98
0
  0
HATCH
  5
200F7
100
AcDbEntity
  8
skládky a antropogenní uloženiny
100
AcDbHatch
 10
0
 20
0
 30
0
210
0
220
0
230
1
  2
SOLID
 70
1
 71
0
 91
1
 92
2
 72
0
 73
1
 93
10
 10
-598002.8753
 20
-1153009.4981
 10
-598002.8753
 20
-1153132.5867
 10
-597904.1339
 20
-1153132.5867
 10
-597904.1339
 20
-1153115.0026
 10
-597970.4124
 20
-1153115.0026
 10
-597893.3129
 20
-1153039.2558
 10
-597905.4961
 20
-1153026.1398
 10
-597985.862
 20
-1153107.0201
 10
-597988.1079
 20
-1153000.979
 10
-598002.8753
 20
-1153009.4981
 97
0
 75
0
 76
1
 98
0
  0
HATCH
  5
200F8
100
AcDbEntity
  8
skládky a antropogenní uloženiny
100
AcDbHatch
 10
0
 20
0
 30
0
210
0
220
0
230
1
  2
SOLID
 70
1
 71
0
 91
1
 92
2
 72
0
 73
1
 93
8
 10
-601506.47
 20
-1162161.48
 10
-601515.0467
 20
-1162274.792
 10
-601487.71
 20
-1162283.88
 10
-601480.995
 20
-1162197.29
 10
-601477.84
 20
-1162143.49
 10
-601480.32
 20
-1162138.32
 10
-601490.7884
 20
-1162109.8359
 10
-601506.47
 20
-1162161.48
 97
0
 75
0
 76
1
 98
0
  0
HATCH
  5
200F9
100
AcDbEntity
  8
skládky a antropogenní uloženiny
100
AcDbHatch
 10
0
 20
0
 30
0
210
0
220
0
230
1
  2
SOLID
 70
1
 71
0
 91
1
 92
2
 72
0
 73
1
 93
11
 10
-601550.7
 20
-1162032.21
 10
-601553.9703
 20
-1162044.4753
 10
-601557.191
 20
-1162055.274
 10
-601557.76
 20
-1162061.26
 10
-601558.1
 20
-1162070.62
 10
-601558.27
 20
-1162087.37
 10
-601552.47
 20
-1162100.5
 10
-601539.09
 20
-1162072.12
 10
-601524.2265
 20
-1162029.1298
 10
-601533.46
 20
-1162029.13
 10
-601550.7
 20
-1162032.21
 97
0
 75
0
 76
1
 98
0
  0
HATCH
  5
200FA
100
AcDbEntity
  8
skládky a antropogenní uloženiny
100
AcDbHatch
 10
0
 20
0
 30
0
210
0
220
0
230
1
  2
SOLID
 70
1
 71
0
 91
1
 92
2
 72
0
 73
1
 93
14
 10
-601363.915
 20
-1161757.12
 10
-601365.12
 20
-1161769.04
 10
-601363.82
 20
-1161782.26
 10
-601375.13
 20
-1161786.44
 10
-601384.53
 20
-1161811.58
 10
-601398.87
 20
-1161830.4
 10
-601407.49
 20
-1161844.25
 10
-601421.445
 20
-1161870.895
 10
-601433.67
 20
-1161898.68
 10
-601328.64
 20
-1161879.1
 10
-601338.51
 20
-1161829.12
 10
-601332.9
 20
-1161752.66
 10
-601354.65
 20
-1161756.88
 10
-601363.915
 20
-1161757.12
 97
0
 75
0
 76
1
 98
0
  0
HATCH
  5
200FB
100
AcDbEntity
  8
skládky a antropogenní uloženiny
100
AcDbHatch
 10
0
 20
0
 30
0
210
0
220
0
230
1
  2
SOLID
 70
1
 71
0
 91
1
 92
2
 72
0
 73
1
 93
18
 10
-602076.85
 20
-1162338.23
 10
-602067.88
 20
-1162342.98
 10
-602027.9
 20
-1162362.94
 10
-601971.9
 20
-1162394.81
 10
-601954.2
 20
-1162404.23
 10
-601936.17
 20
-1162406.085
 10
-601918.5925
 20
-1162407.8424
 10
-601917.74
 20
-1162399.7434
 10
-601918.6399
 20
-1162398.7487
 10
-601930.5042
 20
-1162396.2859
 10
-601963.5161
 20
-1162391.076
 10
-601984.4504
 20
-1162377.9091
 10
-601993.2599
 20
-1162373.2676
 10
-602008.3213
 20
-1162365.5948
 10
-602027.7873
 20
-1162354.9856
 10
-602054.596
 20
-1162339.53
 10
-602066.66
 20
-1162332
 10
-602076.85
 20
-1162338.23
 97
0
 75
0
 76
1
 98
0
  0
HATCH
  5
200FC
100
AcDbEntity
  8
skládky a antropogenní uloženiny
100
AcDbHatch
 10
0
 20
0
 30
0
210
0
220
0
230
1
  2
SOLID
 70
1
 71
0
 91
1
 92
2
 72
0
 73
1
 93
27
 10
-594896.745
 20
-1157012.955
 10
-594873.34
 20
-1157010.49
 10
-594855.36
 20
-1157003.21
 10
-594882.775
 20
-1156934.32
 10
-594891.81
 20
-1156930.46
 10
-594914.72
 20
-1156878.95
 10
-594918.04
 20
-1156876.77
 10
-594919.41
 20
-1156869.58
 10
-594919.07
 20
-1156867.31
 10
-594931.86
 20
-1156842
 10
-594940.43
 20
-1156836.64
 10
-594949.21
 20
-1156835.88
 10
-594955.41
 20
-1156838.27
 10
-594981.11
 20
-1156863.72
 10
-594982.67
 20
-1156878.82
 10
-594983.33
 20
-1156897.42
 10
-594980.11
 20
-1156902.02
 10
-594979.25
 20
-1156914.635
 10
-594978.85
 20
-1156926.235
 10
-594979.98
 20
-1156930.415
 10
-594980.6
 20
-1156931.87
 10
-594969.85
 20
-1156953.51
 10
-594964.27
 20
-1156966.85
 10
-594941.95
 20
-1156979.14
 10
-594931.55
 20
-1156990.27
 10
-594916.83
 20
-1157001.015
 10
-594896.745
 20
-1157012.955
 97
0
 75
0
 76
1
 98
0
  0
HATCH
  5
200FD
100
AcDbEntity
  8
skládky a antropogenní uloženiny
100
AcDbHatch
 10
0
 20
0
 30
0
210
0
220
0
230
1
  2
SOLID
 70
1
 71
0
 91
1
 92
2
 72
0
 73
1
 93
34
 10
-596014.78
 20
-1156829.48
 10
-596024.32
 20
-1156869.06
 10
-595990.41
 20
-1156907.58
 10
-595976.64
 20
-1156929.32
 10
-595962.06
 20
-1156952.87
 10
-595940.78
 20
-1156982.6
 10
-595936.35
 20
-1156996.59
 10
-595927.14
 20
-1157024.04
 10
-595905.53
 20
-1157054.66
 10
-595894.07
 20
-1157061.27
 10
-595857.35
 20
-1157084.59
 10
-595799.85
 20
-1157121.51
 10
-595785.52
 20
-1157122.15
 10
-595764.61
 20
-1157127.15
 10
-595748.71
 20
-1157126.15
 10
-595738.68
 20
-1157108.92
 10
-595711.56
 20
-1157052.88
 10
-595721.99
 20
-1157025.28
 10
-595736.02
 20
-1156975.53
 10
-595733.92
 20
-1156939.34
 10
-595729.05
 20
-1156927.4
 10
-595751.81
 20
-1156914.86
 10
-595756.8095
 20
-1156940.4182
 10
-595761.809
 20
-1156965.9763
 10
-595736.167
 20
-1157052.3642
 10
-595759.1914
 20
-1157094.4432
 10
-595783.0918
 20
-1157093.4576
 10
-595886.2223
 20
-1157029.3398
 10
-595906.0709
 20
-1157004.7276
 10
-595915.5982
 20
-1156966.6183
 10
-595970.3803
 20
-1156892.7815
 10
-595991.1996
 20
-1156857.9242
 10
-595996.6577
 20
-1156836.7029
 10
-596014.78
 20
-1156829.48
 97
0
 75
0
 76
1
 98
0
  0
HATCH
  5
200FE
100
AcDbEntity
  8
skládky a antropogenní uloženiny
100
AcDbHatch
 10
0
 20
0
 30
0
210
0
220
0
230
1
  2
SOLID
 70
1
 71
0
 91
1
 92
2
 72
0
 73
1
 93
9
 10
-595666.54
 20
-1156820.13
 10
-595644.675
 20
-1156779.455
 10
-595786.1854
 20
-1156647.453
 10
-595967.795
 20
-1156404.54
 10
-596006.745
 20
-1156415.475
 10
-595824.2947
 20
-1156666.5076
 10
-595967.2046
 20
-1156568.0586
 10
-595993.4488
 20
-1156606.1552
 10
-595666.54
 20
-1156820.13
 97
0
 75
0
 76
1
 98
0
  0
HATCH
  5
200FF
100
AcDbEntity
  8
skládky a antropogenní uloženiny
100
AcDbHatch
 10
0
 20
0
 30
0
210
0
220
0
230
1
  2
SOLID
 70
1
 71
0
 91
1
 92
2
 72
0
 73
1
 93
14
 10
-595794.1249
 20
-1156646.659
 10
-595752.8398
 20
-1156677.6228
 10
-595770.8874
 20
-1156542.7115
 10
-595814.4
 20
-1156445.28
 10
-595835.035
 20
-1156399.075
 10
-595839.36
 20
-1156356.995
 10
-595840.51
 20
-1156298.91
 10
-595871.7
 20
-1156258.1
 10
-595900.67
 20
-1156271.62
 10
-595871.9313
 20
-1156323.524
 10
-595887.036
 20
-1156378.4932
 10
-595844.9373
 20
-1156477.5491
 10
-595817.9432
 20
-1156541.0645
 10
-595794.1249
 20
-1156646.659
 97
0
 75
0
 76
1
 98
0
  0
HATCH
  5
20100
100
AcDbEntity
  8
skládky a antropogenní uloženiny
100
AcDbHatch
 10
0
 20
0
 30
0
210
0
220
0
230
1
  2
SOLID
 70
1
 71
0
 91
1
 92
2
 72
0
 73
1
 93
16
 10
-594668.096
 20
-1155619.221
 10
-594640.755
 20
-1155609.985
 10
-594630.9
 20
-1155603.54
 10
-594649.81
 20
-1155593.31
 10
-594679.611
 20
-1155586.2913
 10
-594684.1918
 20
-1155581.5838
 10
-594704.46
 20
-1155545.77
 10
-594707.22
 20
-1155532.425
 10
-594708.995
 20
-1155521.315
 10
-594729
 20
-1155524.48
 10
-594727.99
 20
-1155543.73
 10
-594738.38
 20
-1155567.43
 10
-594721.39
 20
-1155584
 10
-594713.22
 20
-1155589.22
 10
-594672.7
 20
-1155618.78
 10
-594668.096
 20
-1155619.221
 97
0
 75
0
 76
1
 98
0
  0
HATCH
  5
20101
100
AcDbEntity
  8
skládky a antropogenní uloženiny
100
AcDbHatch
 10
0
 20
0
 30
0
210
0
220
0
230
1
  2
SOLID
 70
1
 71
0
 91
1
 92
2
 72
0
 73
1
 93
24
 10
-594206.3
 20
-1155945.16
 10
-594118
 20
-1156061.86
 10
-594065.19
 20
-1156132.38
 10
-593910.2953
 20
-1156210.5894
 10
-593906.01
 20
-1156217.495
 10
-593937.86
 20
-1156274.8
 10
-594045.59
 20
-1156499.57
 10
-594026.79
 20
-1156513.65
 10
-594008.45
 20
-1156485.915
 10
-593973.75
 20
-1156410.99
 10
-593978.78
 20
-1156395.13
 10
-593940.66
 20
-1156303.11
 10
-593928.94
 20
-1156292.78
 10
-593919.4
 20
-1156271.13
 10
-593905.625
 20
-1156257.63
 10
-593876.1292
 20
-1156212.5267
 10
-593886.138
 20
-1156190.491
 10
-593994.115
 20
-1156141.635
 10
-594052.105
 20
-1156096.87
 10
-594088.022
 20
-1156036.676
 10
-594169.6089
 20
-1155955.76
 10
-594175.47
 20
-1155950.46
 10
-594181.3311
 20
-1155945.16
 10
-594206.3
 20
-1155945.16
 97
0
 75
0
 76
1
 98
0
  0
HATCH
  5
20102
100
AcDbEntity
  8
skládky a antropogenní uloženiny
100
AcDbHatch
 10
0
 20
0
 30
0
210
0
220
0
230
1
  2
SOLID
 70
1
 71
0
 91
1
 92
2
 72
0
 73
1
 93
16
 10
-593880.9194
 20
-1157777.2347
 10
-593873.3769
 20
-1157770.4861
 10
-593873.73
 20
-1157753.74
 10
-593870.38
 20
-1157727.8
 10
-593876.5527
 20
-1157704.5888
 10
-593880.5224
 20
-1157692.6797
 10
-593886.477
 20
-1157683.1523
 10
-593888.8588
 20
-1157678.3887
 10
-593891.435
 20
-1157673.955
 10
-593914.96
 20
-1157685.78
 10
-593899.93
 20
-1157702.6
 10
-593889.9709
 20
-1157712.2633
 10
-593889.495
 20
-1157716.365
 10
-593891.883
 20
-1157741.385
 10
-593901.29
 20
-1157762.18
 10
-593880.9194
 20
-1157777.2347
 97
0
 75
0
 76
1
 98
0
  0
HATCH
  5
20103
100
AcDbEntity
  8
skládky a antropogenní uloženiny
100
AcDbHatch
 10
0
 20
0
 30
0
210
0
220
0
230
1
  2
SOLID
 70
1
 71
0
 91
1
 92
2
 72
0
 73
1
 93
6
 10
-593932.69
 20
-1157661.55
 10
-593923.96
 20
-1157670.72
 10
-593866.94
 20
-1157617.17
 10
-593866.97
 20
-1157602.06
 10
-593899.37
 20
-1157630.34
 10
-593932.69
 20
-1157661.55
 97
0
 75
0
 76
1
 98
0
  0
HATCH
  5
20104
100
AcDbEntity
  8
skládky a antropogenní uloženiny
100
AcDbHatch
 10
0
 20
0
 30
0
210
0
220
0
230
1
  2
SOLID
 70
1
 71
0
 91
1
 92
2
 72
0
 73
1
 93
21
 10
-595855.68
 20
-1157372.6
 10
-595870.2
 20
-1157396.5
 10
-595861.02
 20
-1157399.36
 10
-595856.26
 20
-1157402.4
 10
-595851.9
 20
-1157411.07
 10
-595840.18
 20
-1157412.2
 10
-595830.11
 20
-1157422.51
 10
-595815.1
 20
-1157438.47
 10
-595794.96
 20
-1157448.58
 10
-595791.585
 20
-1157452.86
 10
-595773.83
 20
-1157467.23
 10
-595764.22
 20
-1157493.18
 10
-595740.98
 20
-1157511.76
 10
-595730.13
 20
-1157521.03
 10
-595717.45
 20
-1157509.38
 10
-595723.05
 20
-1157491.07
 10
-595742.2
 20
-1157479.32
 10
-595756.87
 20
-1157461.06
 10
-595797.81
 20
-1157431.14
 10
-595828.38
 20
-1157398.23
 10
-595855.68
 20
-1157372.6
 97
0
 75
0
 76
1
 98
0
  0
HATCH
  5
20105
100
AcDbEntity
  8
skládky a antropogenní uloženiny
100
AcDbHatch
 10
0
 20
0
 30
0
210
0
220
0
230
1
  2
SOLID
 70
1
 71
0
 91
1
 92
2
 72
0
 73
1
 93
14
 10
-595289.67
 20
-1157163.92
 10
-595244.52
 20
-1157134.7
 10
-595201.07
 20
-1157108.94
 10
-595170.19
 20
-1157096.91
 10
-595179.94
 20
-1157084.26
 10
-595191.8224
 20
-1157077.9252
 10
-595193.4987
 20
-1157038.3535
 10
-595207.2779
 20
-1157033.8372
 10
-595226.5795
 20
-1157105.3526
 10
-595255.4775
 20
-1157086.7988
 10
-595270.5647
 20
-1157089.8308
 10
-595285.4676
 20
-1157128.7465
 10
-595299.8
 20
-1157151.46
 10
-595289.67
 20
-1157163.92
 97
0
 75
0
 76
1
 98
0
  0
HATCH
  5
20106
100
AcDbEntity
  8
skládky a antropogenní uloženiny
100
AcDbHatch
 10
0
 20
0
 30
0
210
0
220
0
230
1
  2
SOLID
 70
1
 71
0
 91
1
 92
2
 72
0
 73
1
 93
23
 10
-594658.17
 20
-1156942.22
 10
-594644.79
 20
-1156933.955
 10
-594639.3805
 20
-1156908.3203
 10
-594638.4896
 20
-1156887.93
 10
-594638.5117
 20
-1156870.6083
 10
-594651.2095
 20
-1156861.3296
 10
-594671.7
 20
-1156856.84
 10
-594674.2001
 20
-1156851.1446
 10
-594667.3433
 20
-1156844.3892
 10
-594639.3109
 20
-1156827.8521
 10
-594630.639
 20
-1156818.1718
 10
-594631.244
 20
-1156800.4188
 10
-594640.1176
 20
-1156776.2241
 10
-594660.675
 20
-1156766.68
 10
-594676.59
 20
-1156761.22
 10
-594710.36
 20
-1156750.12
 10
-594719.14
 20
-1156780.09
 10
-594714.299
 20
-1156798.372
 10
-594700.915
 20
-1156847.44
 10
-594695.12
 20
-1156858.69
 10
-594687.38
 20
-1156890.42
 10
-594673.52
 20
-1156914
 10
-594658.17
 20
-1156942.22
 97
0
 75
0
 76
1
 98
0
  0
HATCH
  5
20107
100
AcDbEntity
  8
skládky a antropogenní uloženiny
100
AcDbHatch
 10
0
 20
0
 30
0
210
0
220
0
230
1
  2
SOLID
 70
1
 71
0
 91
1
 92
2
 72
0
 73
1
 93
7
 10
-594760.2633
 20
-1156147.8951
 10
-594746.1846
 20
-1156202.2602
 10
-594654.5033
 20
-1156197.9351
 10
-594644.5544
 20
-1156175.3078
 10
-594653.5033
 20
-1156146.4551
 10
-594696.246
 20
-1156140.8316
 10
-594760.2633
 20
-1156147.8951
 97
0
 75
0
 76
1
 98
0
  0
HATCH
  5
20108
100
AcDbEntity
  8
skládky a antropogenní uloženiny
100
AcDbHatch
 10
0
 20
0
 30
0
210
0
220
0
230
1
  2
SOLID
 70
1
 71
0
 91
1
 92
2
 72
0
 73
1
 93
30
 10
-595431.4781
 20
-1156239.7768
 10
-595420.0618
 20
-1156205.2427
 10
-595466.3325
 20
-1156180.1985
 10
-595501.1994
 20
-1156159.1166
 10
-595529.8245
 20
-1156146.4353
 10
-595560.8508
 20
-1156127.7321
 10
-595588.5545
 20
-1156114.8853
 10
-595606.585
 20
-1156078.6083
 10
-595650.1527
 20
-1155998.0169
 10
-595689.0207
 20
-1155938.4661
 10
-595719.3413
 20
-1155928.812
 10
-595742.8595
 20
-1155923.5553
 10
-595684.1071
 20
-1155998.4112
 10
-595650.0904
 20
-1156052.6253
 10
-595633.9935
 20
-1156090.4903
 10
-595749.8073
 20
-1156048.0867
 10
-595911.4823
 20
-1155972.8747
 10
-595932.6567
 20
-1155990.8993
 10
-595848.7024
 20
-1156030.295
 10
-595794.0842
 20
-1156062.3056
 10
-595895.6435
 20
-1156049.2968
 10
-596007.453
 20
-1156020.3578
 10
-596018.696
 20
-1156043.559
 10
-595957.4384
 20
-1156066.339
 10
-596019.371
 20
-1156094.5529
 10
-596016.3217
 20
-1156122.0705
 10
-595940.6034
 20
-1156093.9236
 10
-595720.2078
 20
-1156118.2711
 10
-595593.3062
 20
-1156159.7875
 10
-595431.4781
 20
-1156239.7768
 97
0
 75
0
 76
1
 98
0
  0
HATCH
  5
20109
100
AcDbEntity
  8
skládky a antropogenní uloženiny
100
AcDbHatch
 10
0
 20
0
 30
0
210
0
220
0
230
1
  2
SOLID
 70
1
 71
0
 91
1
 92
2
 72
0
 73
1
 93
12
 10
-596085.1008
 20
-1155710.6353
 10
-595865.1784
 20
-1155774.9447
 10
-595677.0425
 20
-1155781.3903
 10
-595553.4825
 20
-1155772.0353
 10
-595591.8725
 20
-1155731.3353
 10
-595645.6536
 20
-1155692.8427
 10
-595686.257
 20
-1155704.5893
 10
-595644.3675
 20
-1155744.4703
 10
-595648.7532
 20
-1155744.3058
 10
-595869.1481
 20
-1155736.0415
 10
-596085.1008
 20
-1155675.7018
 10
-596085.1008
 20
-1155710.6353
 97
0
 75
0
 76
1
 98
0
  0
HATCH
  5
2010A
100
AcDbEntity
  8
skládky a antropogenní uloženiny
100
AcDbHatch
 10
0
 20
0
 30
0
210
0
220
0
230
1
  2
SOLID
 70
1
 71
0
 91
1
 92
2
 72
0
 73
1
 93
11
 10
-594359.7937
 20
-1156032.4581
 10
-594365.5264
 20
-1156058.4707
 10
-594351.5282
 20
-1156060.7781
 10
-594326.7195
 20
-1156095.3798
 10
-594296.0653
 20
-1156138.1342
 10
-594274.2771
 20
-1156194.7877
 10
-594262.9787
 20
-1156180.7598
 10
-594269.4447
 20
-1156163.9482
 10
-594281.545
 20
-1156132.4874
 10
-594321.0727
 20
-1156076.0193
 10
-594359.7937
 20
-1156032.4581
 97
0
 75
0
 76
1
 98
0
  0
HATCH
  5
2010B
100
AcDbEntity
  8
skládky a antropogenní uloženiny
100
AcDbHatch
 10
0
 20
0
 30
0
210
0
220
0
230
1
  2
SOLID
 70
1
 71
0
 91
1
 92
2
 72
0
 73
1
 93
5
 10
-595645.8807
 20
-1155360.8471
 10
-595660.8154
 20
-1155406.4897
 10
-595495.7674
 20
-1155464.0645
 10
-595479.9527
 20
-1155418.729
 10
-595645.8807
 20
-1155360.8471
 97
0
 75
0
 76
1
 98
0
  0
HATCH
  5
2010C
100
AcDbEntity
  8
skládky a antropogenní uloženiny
100
AcDbHatch
 10
0
 20
0
 30
0
210
0
220
0
230
1
  2
SOLID
 70
1
 71
0
 91
1
 92
2
 72
0
 73
1
 93
7
 10
-596068.46
 20
-1156991.04
 10
-596051.55
 20
-1156985.62
 10
-596077.2688
 20
-1156823.7982
 10
-596086.0628
 20
-1156763.8769
 10
-596095.7059
 20
-1156765.1722
 10
-596104.5539
 20
-1156766.0826
 10
-596068.46
 20
-1156991.04
 97
0
 75
0
 76
1
 98
0
  0
HATCH
  5
2010D
100
AcDbEntity
  8
skládky a antropogenní uloženiny
100
AcDbHatch
 10
0
 20
0
 30
0
210
0
220
0
230
1
  2
SOLID
 70
1
 71
0
 91
1
 92
2
 72
0
 73
1
 93
18
 10
-597260.9091
 20
-1151837.1151
 10
-597280.654
 20
-1151836.1981
 10
-597288.8366
 20
-1151861.2095
 10
-597289.1452
 20
-1151899.8981
 10
-597289.9318
 20
-1151918.4336
 10
-597289.9318
 20
-1151931.0284
 10
-597290.7119
 20
-1151941.559
 10
-597291.5746
 20
-1152003.3115
 10
-597291.3957
 20
-1152020.9234
 10
-597292.396
 20
-1152066.0116
 10
-597263.3733
 20
-1152080.2492
 10
-597256.5124
 20
-1152042.617
 10
-597259.0214
 20
-1152013.7911
 10
-597264.0359
 20
-1151973.858
 10
-597262.04
 20
-1151923.72
 10
-597262.6109
 20
-1151897.6821
 10
-597263.3733
 20
-1151860.9357
 10
-597260.9091
 20
-1151837.1151
 97
0
 75
0
 76
1
 98
0
  0
HATCH
  5
2010E
100
AcDbEntity
  8
skládky a antropogenní uloženiny
100
AcDbHatch
 10
0
 20
0
 30
0
210
0
220
0
230
1
  2
SOLID
 70
1
 71
0
 91
1
 92
2
 72
0
 73
1
 93
5
 10
-597310.84
 20
-1151420.38
 10
-597289.62
 20
-1151429.83
 10
-597254.7
 20
-1151389.94
 10
-597284.4
 20
-1151361.8
 10
-597310.84
 20
-1151420.38
 97
0
 75
0
 76
1
 98
0
  0
HATCH
  5
2010F
100
AcDbEntity
  8
skládky a antropogenní uloženiny
100
AcDbHatch
 10
0
 20
0
 30
0
210
0
220
0
230
1
  2
SOLID
 70
1
 71
0
 91
1
 92
2
 72
0
 73
1
 93
9
 10
-597280
 20
-1151366
 10
-597242.097
 20
-1151357.229
 10
-597254.8026
 20
-1151383.2202
 10
-597213.96
 20
-1151347.1
 10
-597165.01
 20
-1151306.33
 10
-597196.79
 20
-1151311.33
 10
-597252.7
 20
-1151345.9
 10
-597268.54
 20
-1151350.07
 10
-597280
 20
-1151366
 97
0
 75
0
 76
1
 98
0
  0
HATCH
  5
20110
100
AcDbEntity
  8
skládky a antropogenní uloženiny
100
AcDbHatch
 10
0
 20
0
 30
0
210
0
220
0
230
1
  2
SOLID
 70
1
 71
0
 91
1
 92
2
 72
0
 73
1
 93
7
 10
-597577.09
 20
-1151317.29
 10
-597542.99
 20
-1151351.01
 10
-597478.5
 20
-1151337.09
 10
-597472.85
 20
-1151304.2
 10
-597485.4111
 20
-1151289.6346
 10
-597536.9878
 20
-1151297.9782
 10
-597577.09
 20
-1151317.29
 97
0
 75
0
 76
1
 98
0
  0
HATCH
  5
20111
100
AcDbEntity
  8
skládky a antropogenní uloženiny
100
AcDbHatch
 10
0
 20
0
 30
0
210
0
220
0
230
1
  2
SOLID
 70
1
 71
0
 91
1
 92
2
 72
0
 73
1
 93
7
 10
-597277.7
 20
-1151073.19
 10
-597447.9809
 20
-1151128.4229
 10
-597529.8012
 20
-1151184.7742
 10
-597522.3609
 20
-1151195.7967
 10
-597442.6911
 20
-1151142.0195
 10
-597273.11
 20
-1151082.04
 10
-597277.7
 20
-1151073.19
 97
0
 75
0
 76
1
 98
0
  0
HATCH
  5
20112
100
AcDbEntity
  8
skládky a antropogenní uloženiny
100
AcDbHatch
 10
0
 20
0
 30
0
210
0
220
0
230
1
  2
SOLID
 70
1
 71
0
 91
1
 92
2
 72
0
 73
1
 93
8
 10
-597742.1829
 20
-1151668.9751
 10
-597741.08
 20
-1151684.93
 10
-597693.5125
 20
-1151675.5733
 10
-597604.2538
 20
-1151617.5278
 10
-597590.486
 20
-1151601.535
 10
-597676.1
 20
-1151646.01
 10
-597702.5579
 20
-1151660.7881
 10
-597742.1829
 20
-1151668.9751
 97
0
 75
0
 76
1
 98
0
  0
HATCH
  5
20113
100
AcDbEntity
  8
skládky a antropogenní uloženiny
100
AcDbHatch
 10
0
 20
0
 30
0
210
0
220
0
230
1
  2
SOLID
 70
1
 71
0
 91
1
 92
2
 72
0
 73
1
 93
32
 10
-597900.98
 20
-1158474.41
 10
-597884.4
 20
-1158469.89
 10
-597856.855
 20
-1158453.585
 10
-597829.31
 20
-1158437.28
 10
-597810.1
 20
-1158414.26
 10
-597782.16
 20
-1158395.49
 10
-597752.885
 20
-1158383.85
 10
-597748.63
 20
-1158380.46
 10
-597740.1
 20
-1158373.445
 10
-597736.98
 20
-1158370.21
 10
-597733.095
 20
-1158361.345
 10
-597731.23
 20
-1158356.05
 10
-597730.08
 20
-1158347
 10
-597730.0979
 20
-1158340.9205
 10
-597731.0923
 20
-1158334.5924
 10
-597732.3398
 20
-1158329.9278
 10
-597740.4939
 20
-1158313.6196
 10
-597748.4491
 20
-1158300.602
 10
-597766.5291
 20
-1158272.3971
 10
-597785.3324
 20
-1158242.0227
 10
-597838.8492
 20
-1158252.8707
 10
-597864.8845
 20
-1158197.9074
 10
-597885.8573
 20
-1158218.8802
 10
-597948.2319
 20
-1158277.6508
 10
-598015.5592
 20
-1158338.2616
 10
-597992.8174
 20
-1158385.45
 10
-597946.2777
 20
-1158451.7542
 10
-597934.6734
 20
-1158465.1303
 10
-597929.3298
 20
-1158471.4075
 10
-597924.53
 20
-1158475.12
 10
-597912.755
 20
-1158474.765
 10
-597900.98
 20
-1158474.41
 97
0
 75
0
 76
1
 98
0
  0
HATCH
  5
20114
100
AcDbEntity
  8
skládky a antropogenní uloženiny
100
AcDbHatch
 10
0
 20
0
 30
0
210
0
220
0
230
1
  2
SOLID
 70
1
 71
0
 91
1
 92
2
 72
0
 73
1
 93
27
 10
-597953.3486
 20
-1158667.7107
 10
-597957.3593
 20
-1158667.3764
 10
-597964.378
 20
-1158668.3791
 10
-597972.3995
 20
-1158672.724
 10
-597978.0813
 20
-1158678.4059
 10
-597982.7605
 20
-1158685.7589
 10
-597984.0974
 20
-1158693.1118
 10
-597982.7605
 20
-1158701.1333
 10
-597980.0867
 20
-1158707.4836
 10
-597976.7444
 20
-1158712.1627
 10
-597969.3914
 20
-1158716.5077
 10
-597963.7096
 20
-1158716.5077
 10
-597959.3646
 20
-1158713.8338
 10
-597956.6908
 20
-1158708.4862
 10
-597956.0224
 20
-1158702.1359
 10
-597952.27
 20
-1158698.1
 10
-597948.6694
 20
-1158693.4461
 10
-597940.9822
 20
-1158693.4461
 10
-597934.6319
 20
-1158697.791
 10
-597930.287
 20
-1158700.1306
 10
-597922.934
 20
-1158699.4621
 10
-597917.5864
 20
-1158696.7883
 10
-597916.2495
 20
-1158688.4327
 10
-597921.9313
 20
-1158677.7374
 10
-597926.9447
 20
-1158673.0583
 10
-597938.6426
 20
-1158669.3818
 10
-597953.3486
 20
-1158667.7107
 97
0
 75
0
 76
1
 98
0
  0
HATCH
  5
20115
100
AcDbEntity
  8
skládky a antropogenní uloženiny
100
AcDbHatch
 10
0
 20
0
 30
0
210
0
220
0
230
1
  2
SOLID
 70
1
 71
0
 91
1
 92
2
 72
0
 73
1
 93
13
 10
-598442.324
 20
-1166936.0758
 10
-598457.55
 20
-1167039.18
 10
-598474.63
 20
-1167120.94
 10
-598481.8
 20
-1167155.94
 10
-598451.8804
 20
-1167162.2825
 10
-598442.22
 20
-1167125.16
 10
-598438.36
 20
-1167125.56
 10
-598417.75
 20
-1167027.1
 10
-598404.81
 20
-1166964.25
 10
-598405.86
 20
-1166964.13
 10
-598408.54
 20
-1166942.49
 10
-598423.57
 20
-1166938.62
 10
-598442.324
 20
-1166936.0758
 97
0
 75
0
 76
1
 98
0
  0
HATCH
  5
20116
100
AcDbEntity
  8
skládky a antropogenní uloženiny
100
AcDbHatch
 10
0
 20
0
 30
0
210
0
220
0
230
1
  2
SOLID
 70
1
 71
0
 91
1
 92
2
 72
0
 73
1
 93
20
 10
-597548.79
 20
-1166704.01
 10
-597535.32
 20
-1166736.83
 10
-597521.5096
 20
-1166753.6927
 10
-597515.3627
 20
-1166762.7004
 10
-597501.9323
 20
-1166780.1086
 10
-597493.7664
 20
-1166791.8232
 10
-597489.5589
 20
-1166807.0754
 10
-597491.63
 20
-1166826.25
 10
-597498.42
 20
-1166853.46
 10
-597504.87
 20
-1166868.22
 10
-597496.62
 20
-1166896.2
 10
-597487.65
 20
-1166889.66
 10
-597475.54
 20
-1166874.06
 10
-597458.5
 20
-1166805.4
 10
-597470.52
 20
-1166773.36
 10
-597475.84
 20
-1166762.87
 10
-597492.6
 20
-1166737.99
 10
-597511.78
 20
-1166721.75
 10
-597535.16
 20
-1166708.29
 10
-597548.79
 20
-1166704.01
 97
0
 75
0
 76
1
 98
0
  0
HATCH
  5
20117
100
AcDbEntity
  8
skládky a antropogenní uloženiny
100
AcDbHatch
 10
0
 20
0
 30
0
210
0
220
0
230
1
  2
SOLID
 70
1
 71
0
 91
1
 92
2
 72
0
 73
1
 93
4
 10
-597274.5
 20
-1166509.88
 10
-597288.2559
 20
-1166579.0811
 10
-597231.21
 20
-1166520.24
 10
-597274.5
 20
-1166509.88
 97
0
 75
0
 76
1
 98
0
  0
HATCH
  5
20118
100
AcDbEntity
  8
skládky a antropogenní uloženiny
100
AcDbHatch
 10
0
 20
0
 30
0
210
0
220
0
230
1
  2
SOLID
 70
1
 71
0
 91
1
 92
2
 72
0
 73
1
 93
9
 10
-599532.01
 20
-1166847.21
 10
-599564.325
 20
-1167057.895
 10
-599481.6759
 20
-1167068.9997
 10
-599478.03
 20
-1167062.49
 10
-599468.25
 20
-1167007.79
 10
-599466.65
 20
-1167007.69
 10
-599437.56
 20
-1166980.46
 10
-599431.94
 20
-1166862.57
 10
-599532.01
 20
-1166847.21
 97
0
 75
0
 76
1
 98
0
  0
HATCH
  5
20119
100
AcDbEntity
  8
skládky a antropogenní uloženiny
100
AcDbHatch
 10
0
 20
0
 30
0
210
0
220
0
230
1
  2
SOLID
 70
1
 71
0
 91
1
 92
2
 72
0
 73
1
 93
21
 10
-598897.63
 20
-1154853.04
 10
-598876.64
 20
-1154854.94
 10
-598871.805
 20
-1154833.98
 10
-598866.97
 20
-1154813.02
 10
-598861.25
 20
-1154788.58
 10
-598855.26
 20
-1154770.5
 10
-598847.11
 20
-1154739.41
 10
-598842.93
 20
-1154723.47
 10
-598844.745
 20
-1154712.66
 10
-598850.4797
 20
-1154704.1796
 10
-598857.1077
 20
-1154702.1912
 10
-598864.73
 20
-1154704.511
 10
-598872.3522
 20
-1154706.8308
 10
-598875.16
 20
-1154711.74
 10
-598879.14
 20
-1154728.54
 10
-598885.985
 20
-1154758.045
 10
-598889.18
 20
-1154783.08
 10
-598890.61
 20
-1154794.925
 10
-598893.5
 20
-1154817.1
 10
-598893.72
 20
-1154820.83
 10
-598897.63
 20
-1154853.04
 97
0
 75
0
 76
1
 98
0
  0
HATCH
  5
2011A
100
AcDbEntity
  8
skládky a antropogenní uloženiny
100
AcDbHatch
 10
0
 20
0
 30
0
210
0
220
0
230
1
  2
SOLID
 70
1
 71
0
 91
1
 92
2
 72
0
 73
1
 93
18
 10
-598157.8499
 20
-1154470.5413
 10
-598149.8963
 20
-1154497.7163
 10
-598134.6518
 20
-1154520.9144
 10
-598118.7445
 20
-1154539.8043
 10
-598091.5696
 20
-1154561.6768
 10
-598064.3946
 20
-1154583.5494
 10
-598027.435
 20
-1154605.555
 10
-598004.99
 20
-1154615.5552
 10
-597991.8176
 20
-1154615.3639
 10
-597992.0089
 20
-1154602.1915
 10
-598001.7597
 20
-1154579.9039
 10
-598008.7191
 20
-1154563.9967
 10
-598025.3874
 20
-1154543.981
 10
-598050.1443
 20
-1154524.8912
 10
-598077.6507
 20
-1154503.6815
 10
-598104.8256
 20
-1154487.7742
 10
-598132.9948
 20
-1154476.838
 10
-598157.8499
 20
-1154470.5413
 97
0
 75
0
 76
1
 98
0
  0
HATCH
  5
2011B
100
AcDbEntity
  8
skládky a antropogenní uloženiny
100
AcDbHatch
 10
0
 20
0
 30
0
210
0
220
0
230
1
  2
SOLID
 70
1
 71
0
 91
1
 92
2
 72
0
 73
1
 93
16
 10
-599495.51
 20
-1153913.225
 10
-599498.33
 20
-1153923.06
 10
-599494.12
 20
-1153965.42
 10
-599490.59
 20
-1153987.3
 10
-599486.59
 20
-1153998.36
 10
-599474.85
 20
-1154031.82
 10
-599468.11
 20
-1154032.78
 10
-599453.05
 20
-1154038.9
 10
-599445.49
 20
-1154044
 10
-599429.61
 20
-1154063.4
 10
-599419.92
 20
-1154063.33
 10
-599410.94
 20
-1154063.84
 10
-599431.55
 20
-1154022.14
 10
-599442.31
 20
-1153996.17
 10
-599473.91
 20
-1153926.49
 10
-599495.51
 20
-1153913.225
 97
0
 75
0
 76
1
 98
0
  0
HATCH
  5
2011C
100
AcDbEntity
  8
skládky a antropogenní uloženiny
100
AcDbHatch
 10
0
 20
0
 30
0
210
0
220
0
230
1
  2
SOLID
 70
1
 71
0
 91
1
 92
2
 72
0
 73
1
 93
5
 10
-599228.57
 20
-1153905.89
 10
-599219.8
 20
-1153841.015
 10
-599245.63
 20
-1153820.33
 10
-599255.9498
 20
-1153870.0413
 10
-599228.57
 20
-1153905.89
 97
0
 75
0
 76
1
 98
0
  0
HATCH
  5
2011D
100
AcDbEntity
  8
skládky a antropogenní uloženiny
100
AcDbHatch
 10
0
 20
0
 30
0
210
0
220
0
230
1
  2
SOLID
 70
1
 71
0
 91
1
 92
2
 72
0
 73
1
 93
14
 10
-599189.4773
 20
-1154089.8126
 10
-599134.9973
 20
-1154067.3326
 10
-599166.8196
 20
-1154006.321
 10
-599192.3573
 20
-1154015.0426
 10
-599198.0935
 20
-1154021.0102
 10
-599198.7563
 20
-1154027.3068
 10
-599196.1373
 20
-1154031.6226
 10
-599190.8683
 20
-1154034.0876
 10
-599180.3273
 20
-1154036.1226
 10
-599175.4223
 20
-1154042.7826
 10
-599175.9783
 20
-1154049.2076
 10
-599185.1689
 20
-1154063.761
 10
-599194.3594
 20
-1154078.3144
 10
-599189.4773
 20
-1154089.8126
 97
0
 75
0
 76
1
 98
0
  0
HATCH
  5
2011E
100
AcDbEntity
  8
skládky a antropogenní uloženiny
100
AcDbHatch
 10
0
 20
0
 30
0
210
0
220
0
230
1
  2
SOLID
 70
1
 71
0
 91
1
 92
2
 72
0
 73
1
 93
7
 10
-596389.0499
 20
-1155915.4149
 10
-596414.7489
 20
-1155917.2505
 10
-596412.2366
 20
-1156012.5739
 10
-596378.1549
 20
-1156076.7278
 10
-596357.844
 20
-1156065.9376
 10
-596389.0499
 20
-1156007.197
 10
-596389.0499
 20
-1155915.4149
 97
0
 75
0
 76
1
 98
0
  0
HATCH
  5
2011F
100
AcDbEntity
  8
skládky a antropogenní uloženiny
100
AcDbHatch
 10
0
 20
0
 30
0
210
0
220
0
230
1
  2
SOLID
 70
1
 71
0
 91
1
 92
2
 72
0
 73
1
 93
18
 10
-598474.86
 20
-1153908.47
 10
-598460.4198
 20
-1153962.5024
 10
-598449.7477
 20
-1153987.5343
 10
-598435.51
 20
-1154002.835
 10
-598425.665
 20
-1154013.415
 10
-598408.64
 20
-1154021.37
 10
-598401.26
 20
-1154023.24
 10
-598394.48
 20
-1154020.37
 10
-598388.36
 20
-1154014.78
 10
-598384.77
 20
-1154005.78
 10
-598385.5
 20
-1153995.81
 10
-598391.67
 20
-1153986.48
 10
-598420.52
 20
-1153944.08
 10
-598429.3
 20
-1153920.74
 10
-598435.54
 20
-1153905.61
 10
-598447.53
 20
-1153890.89
 10
-598459.85
 20
-1153895.31
 10
-598474.86
 20
-1153908.47
 97
0
 75
0
 76
1
 98
0
  0
HATCH
  5
20120
100
AcDbEntity
  8
skládky a antropogenní uloženiny
100
AcDbHatch
 10
0
 20
0
 30
0
210
0
220
0
230
1
  2
SOLID
 70
1
 71
0
 91
1
 92
2
 72
0
 73
1
 93
6
 10
-600797.5913
 20
-1154247.4402
 10
-600770.01
 20
-1154297.53
 10
-600749.8936
 20
-1154326.6834
 10
-600737.8766
 20
-1154319.7875
 10
-600783.1419
 20
-1154240.9073
 10
-600797.5913
 20
-1154247.4402
 97
0
 75
0
 76
1
 98
0
  0
HATCH
  5
20121
100
AcDbEntity
  8
skládky a antropogenní uloženiny
100
AcDbHatch
 10
0
 20
0
 30
0
210
0
220
0
230
1
  2
SOLID
 70
1
 71
0
 91
1
 92
2
 72
0
 73
1
 93
11
 10
-599449.86
 20
-1155568.24
 10
-599480.87
 20
-1155500.79
 10
-599531.7
 20
-1155435.24
 10
-599589.48
 20
-1155390.48
 10
-599622.7
 20
-1155372.96
 10
-599657.36
 20
-1155373.8
 10
-599676.32
 20
-1155389.28
 10
-599707.68
 20
-1155448.03
 10
-599545.58
 20
-1155592.34
 10
-599474.22
 20
-1155650.242
 10
-599449.86
 20
-1155568.24
 97
0
 75
0
 76
1
 98
0
  0
HATCH
  5
20122
100
AcDbEntity
  8
skládky a antropogenní uloženiny
100
AcDbHatch
 10
0
 20
0
 30
0
210
0
220
0
230
1
  2
SOLID
 70
1
 71
0
 91
1
 92
2
 72
0
 73
1
 93
12
 10
-596975.1099
 20
-1154137.9875
 10
-596975.1099
 20
-1154150.2767
 10
-596936.0735
 20
-1154161.1202
 10
-596872.4586
 20
-1154205.9398
 10
-596826.3449
 20
-1154238.4289
 10
-596772.5074
 20
-1154259.9551
 10
-596734.0239
 20
-1154275.3378
 10
-596731.4938
 20
-1154272.0848
 10
-596763.2719
 20
-1154250.4948
 10
-596807.3979
 20
-1154233.4098
 10
-596928.8445
 20
-1154143.7707
 10
-596975.1099
 20
-1154137.9875
 97
0
 75
0
 76
1
 98
0
  0
HATCH
  5
20123
100
AcDbEntity
  8
skládky a antropogenní uloženiny
100
AcDbHatch
 10
0
 20
0
 30
0
210
0
220
0
230
1
  2
SOLID
 70
1
 71
0
 91
1
 92
2
 72
0
 73
1
 93
11
 10
-596868.8441
 20
-1154208.4699
 10
-596838.8439
 20
-1154242.8075
 10
-596820.7715
 20
-1154281.8439
 10
-596801.6147
 20
-1154351.2419
 10
-596794.1319
 20
-1154377.4199
 10
-596770.5302
 20
-1154404.0134
 10
-596781.0122
 20
-1154370.0372
 10
-596791.4942
 20
-1154346.1816
 10
-596807.7594
 20
-1154280.3981
 10
-596826.5547
 20
-1154238.4701
 10
-596868.8441
 20
-1154208.4699
 97
0
 75
0
 76
1
 98
0
  0
HATCH
  5
20124
100
AcDbEntity
  8
skládky a antropogenní uloženiny
100
AcDbHatch
 10
0
 20
0
 30
0
210
0
220
0
230
1
  2
SOLID
 70
1
 71
0
 91
1
 92
2
 72
0
 73
1
 93
6
 10
-600493.897
 20
-1154075.8791
 10
-600422.6356
 20
-1154174.8973
 10
-600393.1401
 20
-1154148.7535
 10
-600467.282
 20
-1154065.1063
 10
-600485.0254
 20
-1154063.2052
 10
-600493.897
 20
-1154075.8791
 97
0
 75
0
 76
1
 98
0
  0
HATCH
  5
20125
100
AcDbEntity
  8
skládky a antropogenní uloženiny
100
AcDbHatch
 10
0
 20
0
 30
0
210
0
220
0
230
1
  2
SOLID
 70
1
 71
0
 91
1
 92
2
 72
0
 73
1
 93
13
 10
-596760.1777
 20
-1155140.1132
 10
-596771.5606
 20
-1155133.6601
 10
-596805.5973
 20
-1155213.5971
 10
-596821.1367
 20
-1155210.7737
 10
-596844.0847
 20
-1155191.2201
 10
-596846.1251
 20
-1155145.3625
 10
-596872.5994
 20
-1155135.8787
 10
-596863.5637
 20
-1155200.8908
 10
-596833.2756
 20
-1155224.2952
 10
-596816.7548
 20
-1155233.4734
 10
-596834.7261
 20
-1155290.5715
 10
-596811.5864
 20
-1155298.101
 10
-596760.1777
 20
-1155140.1132
 97
0
 75
0
 76
1
 98
0
  0
HATCH
  5
20126
100
AcDbEntity
  8
skládky a antropogenní uloženiny
100
AcDbHatch
 10
0
 20
0
 30
0
210
0
220
0
230
1
  2
SOLID
 70
1
 71
0
 91
1
 92
2
 72
0
 73
1
 93
11
 10
-597535.4091
 20
-1156257.7623
 10
-597545.5051
 20
-1156320.1742
 10
-597531.7378
 20
-1156394.5177
 10
-597509.7101
 20
-1156455.0939
 10
-597487.6823
 20
-1156515.6702
 10
-597476.5546
 20
-1156511.6237
 10
-597509.5426
 20
-1156420.9068
 10
-597528.9843
 20
-1156335.7771
 10
-597533.1145
 20
-1156316.8503
 10
-597524.6522
 20
-1156265.83
 10
-597535.4091
 20
-1156257.7623
 97
0
 75
0
 76
1
 98
0
  0
HATCH
  5
20127
100
AcDbEntity
  8
skládky a antropogenní uloženiny
100
AcDbHatch
 10
0
 20
0
 30
0
210
0
220
0
230
1
  2
SOLID
 70
1
 71
0
 91
1
 92
2
 72
0
 73
1
 93
15
 10
-596310.1173
 20
-1155908.9901
 10
-596306.446
 20
-1155958.0936
 10
-596295.994
 20
-1156006.1949
 10
-596314.7431
 20
-1156043.1881
 10
-596269.5848
 20
-1156045.8269
 10
-596247.7663
 20
-1156002.7775
 10
-596256.8836
 20
-1155961.7648
 10
-596248.0187
 20
-1155930.5913
 10
-596251.2299
 20
-1155836.2084
 10
-596286.2539
 20
-1155837.4
 10
-596294.5143
 20
-1155879.1609
 10
-596331.5586
 20
-1155795.348
 10
-596355.6312
 20
-1155805.9848
 10
-596344.9945
 20
-1155830.0574
 10
-596310.1173
 20
-1155908.9901
 97
0
 75
0
 76
1
 98
0
  0
HATCH
  5
20128
100
AcDbEntity
  8
skládky a antropogenní uloženiny
100
AcDbHatch
 10
0
 20
0
 30
0
210
0
220
0
230
1
  2
SOLID
 70
1
 71
0
 91
1
 92
2
 72
0
 73
1
 93
5
 10
-598150.3495
 20
-1155885.5857
 10
-598169.603
 20
-1155922.2642
 10
-598129.4295
 20
-1155953.0614
 10
-598109.0476
 20
-1155902.1064
 10
-598150.3495
 20
-1155885.5857
 97
0
 75
0
 76
1
 98
0
  0
HATCH
  5
20129
100
AcDbEntity
  8
skládky a antropogenní uloženiny
100
AcDbHatch
 10
0
 20
0
 30
0
210
0
220
0
230
1
  2
SOLID
 70
1
 71
0
 91
1
 92
2
 72
0
 73
1
 93
14
 10
-596776.0566
 20
-1156228.7462
 10
-596797.1857
 20
-1156281.9604
 10
-596941.177
 20
-1156337.5222
 10
-596934.93
 20
-1156359.85
 10
-596925.49
 20
-1156386.61
 10
-596880.61
 20
-1156359.54
 10
-596849.89
 20
-1156348.58
 10
-596798.86
 20
-1156333.76
 10
-596773.77
 20
-1156331.21
 10
-596757.96
 20
-1156288.9
 10
-596740.74
 20
-1156241.51
 10
-596733.3092
 20
-1156230.1157
 10
-596767.7419
 20
-1156215.834
 10
-596776.0566
 20
-1156228.7462
 97
0
 75
0
 76
1
 98
0
  0
HATCH
  5
2012A
100
AcDbEntity
  8
skládky a antropogenní uloženiny
100
AcDbHatch
 10
0
 20
0
 30
0
210
0
220
0
230
1
  2
SOLID
 70
1
 71
0
 91
1
 92
2
 72
0
 73
1
 93
65
 10
-596976.951
 20
-1155996.1315
 10
-596974.3997
 20
-1155991.246
 10
-596972.1683
 20
-1155986.2075
 10
-596970.3021
 20
-1155981.1179
 10
-596968.799
 20
-1155975.9721
 10
-596967.6894
 20
-1155970.874
 10
-596966.9723
 20
-1155965.8185
 10
-596966.6622
 20
-1155960.9078
 10
-596966.7586
 20
-1155956.1369
 10
-596967.2598
 20
-1155951.6023
 10
-596968.1661
 20
-1155947.2994
 10
-596969.4593
 20
-1155943.3152
 10
-596971.1407
 20
-1155939.6457
 10
-596973.1763
 20
-1155936.365
 10
-596975.568
 20
-1155933.4698
 10
-596978.2677
 20
-1155931.0186
 10
-596981.278
 20
-1155929.009
 10
-596984.5381
 20
-1155927.4817
 10
-596988.0512
 20
-1155926.4349
 10
-596991.7463
 20
-1155925.89
 10
-596995.6272
 20
-1155925.8463
 10
-596999.6155
 20
-1155926.3048
 10
-597003.715
 20
-1155927.2659
 10
-597007.8431
 20
-1155928.7101
 10
-597012.0038
 20
-1155930.639
 10
-597016.1131
 20
-1155933.0136
 10
-597020.175
 20
-1155935.8362
 10
-597024.1075
 20
-1155939.0497
 10
-597027.9146
 20
-1155942.6575
 10
-597031.5193
 20
-1155946.5866
 10
-597034.9252
 20
-1155950.841
 10
-597038.0635
 20
-1155955.3346
 10
-597040.9373
 20
-1155960.0721
 10
-597043.4886
 20
-1155964.9576
 10
-597045.72
 20
-1155969.996
 10
-597047.5863
 20
-1155975.0856
 10
-597049.0894
 20
-1155980.2315
 10
-597050.1989
 20
-1155985.3296
 10
-597050.916
 20
-1155990.3851
 10
-597051.2262
 20
-1155995.2958
 10
-597051.1297
 20
-1156000.0667
 10
-597050.6285
 20
-1156004.6013
 10
-597049.7222
 20
-1156008.9041
 10
-597048.429
 20
-1156012.8883
 10
-597046.7476
 20
-1156016.5579
 10
-597044.7121
 20
-1156019.8386
 10
-597042.3203
 20
-1156022.7338
 10
-597039.6206
 20
-1156025.185
 10
-597036.6103
 20
-1156027.1945
 10
-597033.3503
 20
-1156028.7219
 10
-597029.8372
 20
-1156029.7686
 10
-597026.142
 20
-1156030.3136
 10
-597022.2611
 20
-1156030.3572
 10
-597018.2729
 20
-1156029.8988
 10
-597014.1733
 20
-1156028.9377
 10
-597010.0452
 20
-1156027.4934
 10
-597005.8845
 20
-1156025.5645
 10
-597001.7753
 20
-1156023.19
 10
-596997.7133
 20
-1156020.3674
 10
-596993.7808
 20
-1156017.1538
 10
-596989.9737
 20
-1156013.546
 10
-596986.369
 20
-1156009.6169
 10
-596982.9631
 20
-1156005.3626
 10
-596979.8248
 20
-1156000.8689
 10
-596976.951
 20
-1155996.1315
 97
0
 75
0
 76
1
 98
0
  0
HATCH
  5
2012B
100
AcDbEntity
  8
skládky a antropogenní uloženiny
100
AcDbHatch
 10
0
 20
0
 30
0
210
0
220
0
230
1
  2
SOLID
 70
1
 71
0
 91
1
 92
2
 72
0
 73
1
 93
56
 10
-597355.49
 20
-1156785.49
 10
-597358.08
 20
-1156789.23
 10
-597379.06
 20
-1156818.63
 10
-597391.34
 20
-1156833.44
 10
-597396.58
 20
-1156840.22
 10
-597389.55
 20
-1156852.36
 10
-597385.39
 20
-1156859.5
 10
-597382.44
 20
-1156866.95
 10
-597375.73
 20
-1156884.91
 10
-597373.1
 20
-1156892.2
 10
-597367.8253
 20
-1156909.1255
 10
-597363.43
 20
-1156923.54
 10
-597362.5
 20
-1156926.59
 10
-597356.55
 20
-1156936.27
 10
-597344.13
 20
-1156956.18
 10
-597331.17
 20
-1156968.38
 10
-597324.48
 20
-1156975.83
 10
-597314.07
 20
-1156992.58
 10
-597312.2
 20
-1157006.69
 10
-597309.54
 20
-1157012.92
 10
-597302.79
 20
-1157023.53
 10
-597312.61
 20
-1157039.31
 10
-597315.67
 20
-1157044.4
 10
-597314.56
 20
-1157068.57
 10
-597312.68
 20
-1157082.11
 10
-597317.48
 20
-1157100.08
 10
-597329.87
 20
-1157104.98
 10
-597339.94
 20
-1157108.97
 10
-597349.54
 20
-1157113.27
 10
-597359.59
 20
-1157117.76
 10
-597369.18
 20
-1157122.06
 10
-597351.68
 20
-1157147.87
 10
-597335.38
 20
-1157140.98
 10
-597308.53
 20
-1157131.52
 10
-597297.9
 20
-1157123.8
 10
-597290.92
 20
-1157117.49
 10
-597285.21
 20
-1157107.57
 10
-597283.2
 20
-1157096.87
 10
-597283.37
 20
-1157089.37
 10
-597284.29
 20
-1157089.2
 10
-597283.02
 20
-1157077.78
 10
-597277.39
 20
-1157064.9
 10
-597274.88
 20
-1157054.99
 10
-597275.32
 20
-1157043.99
 10
-597273.69
 20
-1157033.75
 10
-597285.28
 20
-1157019.14
 10
-597303.99
 20
-1156978.12
 10
-597315.68
 20
-1156957.42
 10
-597328.89
 20
-1156941.8
 10
-597345.75
 20
-1156911.3
 10
-597356.04
 20
-1156889.72
 10
-597362.02
 20
-1156869.23
 10
-597362.55
 20
-1156850.84
 10
-597355.3
 20
-1156814.28
 10
-597353.98
 20
-1156800.95
 10
-597355.49
 20
-1156785.49
 97
0
 75
0
 76
1
 98
0
  0
HATCH
  5
2012C
100
AcDbEntity
  8
skládky a antropogenní uloženiny
100
AcDbHatch
 10
0
 20
0
 30
0
210
0
220
0
230
1
  2
SOLID
 70
1
 71
0
 91
1
 92
2
 72
0
 73
1
 93
43
 10
-593974.49
 20
-1164413.17
 10
-593968.97
 20
-1164418.6
 10
-593937.765
 20
-1164392.485
 10
-593907.22
 20
-1164366.92
 10
-593901.66
 20
-1164362.67
 10
-593880.3
 20
-1164349.36
 10
-593869.66
 20
-1164341.35
 10
-593857.25
 20
-1164321.01
 10
-593855.385
 20
-1164309.84
 10
-593857.29
 20
-1164306.02
 10
-593859.28
 20
-1164298.94
 10
-593858.64
 20
-1164280.57
 10
-593853.99
 20
-1164258.59
 10
-593845.48
 20
-1164239.71
 10
-593834.715
 20
-1164220.07
 10
-593815.62
 20
-1164185.93
 10
-593805.72
 20
-1164156.97
 10
-593809.69
 20
-1164145.96
 10
-593822.01
 20
-1164140.52
 10
-593828.27
 20
-1164138.975
 10
-593847.45
 20
-1164135.81
 10
-593870.53
 20
-1164135.61
 10
-593903.57
 20
-1164136.18
 10
-593925.96
 20
-1164138.93
 10
-593972.67
 20
-1164150.71
 10
-593988.3
 20
-1164160.67
 10
-594004.2
 20
-1164178.8
 10
-594010.52
 20
-1164182.59
 10
-594016.84
 20
-1164186.38
 10
-594017.93
 20
-1164187.57
 10
-594044.59
 20
-1164208.76
 10
-594048.25
 20
-1164211.29
 10
-594054.78
 20
-1164217.38
 10
-594061.16
 20
-1164224.01
 10
-594074.43
 20
-1164237.81
 10
-594073.75
 20
-1164251.55
 10
-594072.0811
 20
-1164271
 10
-594066.64
 20
-1164304.19
 10
-594049.53
 20
-1164328.74
 10
-594023.2
 20
-1164361.715
 10
-594015.82
 20
-1164370.45
 10
-593994.97
 20
-1164393.04
 10
-593974.49
 20
-1164413.17
 97
0
 75
0
 76
1
 98
0
  0
HATCH
  5
2012D
100
AcDbEntity
  8
skládky a antropogenní uloženiny
100
AcDbHatch
 10
0
 20
0
 30
0
210
0
220
0
230
1
  2
SOLID
 70
1
 71
0
 91
1
 92
2
 72
0
 73
1
 93
7
 10
-594226.68
 20
-1162227.68
 10
-594237.795
 20
-1162255.42
 10
-594258.1638
 20
-1162321.9169
 10
-594244.7569
 20
-1162322.91
 10
-594230.8535
 20
-1162268.2893
 10
-594217.67
 20
-1162234.395
 10
-594226.68
 20
-1162227.68
 97
0
 75
0
 76
1
 98
0
  0
HATCH
  5
2012E
100
AcDbEntity
  8
skládky a antropogenní uloženiny
100
AcDbHatch
 10
0
 20
0
 30
0
210
0
220
0
230
1
  2
SOLID
 70
1
 71
0
 91
1
 92
2
 72
0
 73
1
 93
21
 10
-594001.1038
 20
-1162165.3297
 10
-594031.8739
 20
-1162256.7172
 10
-594044.8073
 20
-1162286.7647
 10
-594055.9188
 20
-1162321.2744
 10
-594024.9028
 20
-1162331.3514
 10
-594010.68
 20
-1162362.69
 10
-593986.97
 20
-1162371.3
 10
-593959.2397
 20
-1162381.9997
 10
-593943.7676
 20
-1162412.7138
 10
-593934.5001
 20
-1162445.1799
 10
-593926.4672
 20
-1162450.0272
 10
-593906.1086
 20
-1162448.041
 10
-593903.1293
 20
-1162427.6824
 10
-593895.1845
 20
-1162369.0893
 10
-593887.1987
 20
-1162331.2669
 10
-593882.523
 20
-1162284.253
 10
-593881.281
 20
-1162271.7652
 10
-593909.8507
 20
-1162263.8203
 10
-593924.2257
 20
-1162238.4771
 10
-593959.7362
 20
-1162212.179
 10
-594001.1038
 20
-1162165.3297
 97
0
 75
0
 76
1
 98
0
  0
HATCH
  5
2012F
100
AcDbEntity
  8
skládky a antropogenní uloženiny
100
AcDbHatch
 10
0
 20
0
 30
0
210
0
220
0
230
1
  2
SOLID
 70
1
 71
0
 91
1
 92
2
 72
0
 73
1
 93
20
 10
-593279.3362
 20
-1162415.641
 10
-593263.786
 20
-1162467.968
 10
-593251.0328
 20
-1162452.3859
 10
-593241.1017
 20
-1162442.2066
 10
-593227.216
 20
-1162426.8443
 10
-593216.89
 20
-1162413.36
 10
-593209.3336
 20
-1162404.7503
 10
-593205.1017
 20
-1162396.0272
 10
-593203.2724
 20
-1162390.6339
 10
-593206.5914
 20
-1162380.1376
 10
-593213.9155
 20
-1162369.2025
 10
-593224.3741
 20
-1162360.0272
 10
-593233.281
 20
-1162357.1721
 10
-593243.3503
 20
-1162355.8066
 10
-593253.0897
 20
-1162358.8332
 10
-593260.6773
 20
-1162363.2548
 10
-593268.4741
 20
-1162370.1445
 10
-593274.4397
 20
-1162378.6479
 10
-593280.64
 20
-1162392.12
 10
-593279.3362
 20
-1162415.641
 97
0
 75
0
 76
1
 98
0
  0
HATCH
  5
20130
100
AcDbEntity
  8
skládky a antropogenní uloženiny
100
AcDbHatch
 10
0
 20
0
 30
0
210
0
220
0
230
1
  2
SOLID
 70
1
 71
0
 91
1
 92
2
 72
0
 73
1
 93
20
 10
-593157.6259
 20
-1161930.5388
 10
-593167.0659
 20
-1161939.51
 10
-593174.4111
 20
-1161951.047
 10
-593178.1017
 20
-1161965.2976
 10
-593175.7061
 20
-1161976.2151
 10
-593169.9086
 20
-1161982.9583
 10
-593158.8097
 20
-1161985.916
 10
-593145.8259
 20
-1161982.4617
 10
-593139.896
 20
-1161979.8715
 10
-593131.2195
 20
-1161972.7194
 10
-593123.2328
 20
-1161959.8115
 10
-593117.8768
 20
-1161945.2197
 10
-593116.0328
 20
-1161936.9031
 10
-593119.5623
 20
-1161929.5872
 10
-593125.3431
 20
-1161923.4962
 10
-593131.039
 20
-1161919.8962
 10
-593137.6425
 20
-1161919.1198
 10
-593144.0879
 20
-1161921.2617
 10
-593148.17
 20
-1161923.6203
 10
-593157.6259
 20
-1161930.5388
 97
0
 75
0
 76
1
 98
0
  0
HATCH
  5
20131
100
AcDbEntity
  8
skládky a antropogenní uloženiny
100
AcDbHatch
 10
0
 20
0
 30
0
210
0
220
0
230
1
  2
SOLID
 70
1
 71
0
 91
1
 92
2
 72
0
 73
1
 93
12
 10
-592832.3155
 20
-1162138.9376
 10
-592846.5915
 20
-1162153.8003
 10
-592849.6948
 20
-1162163.0304
 10
-592847.3872
 20
-1162173.6775
 10
-592821.6556
 20
-1162169.9721
 10
-592801.8437
 20
-1162171.7333
 10
-592775.3595
 20
-1162179.6541
 10
-592774.593
 20
-1162175.4981
 10
-592768.2738
 20
-1162157.8424
 10
-592774.1153
 20
-1162155.3304
 10
-592795.9755
 20
-1162147.8989
 10
-592832.3155
 20
-1162138.9376
 97
0
 75
0
 76
1
 98
0
  0
HATCH
  5
20132
100
AcDbEntity
  8
skládky a antropogenní uloženiny
100
AcDbHatch
 10
0
 20
0
 30
0
210
0
220
0
230
1
  2
SOLID
 70
1
 71
0
 91
1
 92
2
 72
0
 73
1
 93
8
 10
-602618.787
 20
-1163239.941
 10
-602674.6535
 20
-1163294.2254
 10
-602684.3
 20
-1163304.87
 10
-602716.84
 20
-1163312.76
 10
-602713.525
 20
-1163321.49
 10
-602680.48
 20
-1163309.935
 10
-602610.1137
 20
-1163238.652
 10
-602618.787
 20
-1163239.941
 97
0
 75
0
 76
1
 98
0
  0
HATCH
  5
20133
100
AcDbEntity
  8
skládky a antropogenní uloženiny
100
AcDbHatch
 10
0
 20
0
 30
0
210
0
220
0
230
1
  2
SOLID
 70
1
 71
0
 91
1
 92
2
 72
0
 73
1
 93
12
 10
-601917.1551
 20
-1163087.4373
 10
-601982.5135
 20
-1163249.6425
 10
-602008.5231
 20
-1163374.6637
 10
-602063.7386
 20
-1163456.0069
 10
-602059.6628
 20
-1163465.0319
 10
-602000.3076
 20
-1163380.3183
 10
-601948.1603
 20
-1163397.1988
 10
-601948.4514
 20
-1163384.3891
 10
-601995.6999
 20
-1163369.5053
 10
-601967.8115
 20
-1163246.9761
 10
-601905.5099
 20
-1163087.4373
 10
-601917.1551
 20
-1163087.4373
 97
0
 75
0
 76
1
 98
0
  0
HATCH
  5
20134
100
AcDbEntity
  8
skládky a antropogenní uloženiny
100
AcDbHatch
 10
0
 20
0
 30
0
210
0
220
0
230
1
  2
SOLID
 70
1
 71
0
 91
1
 92
2
 72
0
 73
1
 93
8
 10
-596198.2701
 20
-1152928.9249
 10
-596159.3591
 20
-1152934.683
 10
-596110.3603
 20
-1152936.2636
 10
-596109.57
 20
-1152909.3933
 10
-596126.1663
 20
-1152876.9908
 10
-596165.5557
 20
-1152904.4327
 10
-596221.679
 20
-1152902.647
 10
-596198.2701
 20
-1152928.9249
 97
0
 75
0
 76
1
 98
0
  0
HATCH
  5
20135
100
AcDbEntity
  8
skládky a antropogenní uloženiny
100
AcDbHatch
 10
0
 20
0
 30
0
210
0
220
0
230
1
  2
SOLID
 70
1
 71
0
 91
1
 92
2
 72
0
 73
1
 93
7
 10
-596110.3603
 20
-1152942.1909
 10
-596159.5353
 20
-1152940.1457
 10
-596194.9228
 20
-1152934.2878
 10
-596161.73
 20
-1152976.5691
 10
-596122.61
 20
-1152977.7546
 10
-596110.3603
 20
-1152968.6661
 10
-596110.3603
 20
-1152942.1909
 97
0
 75
0
 76
1
 98
0
  0
HATCH
  5
20136
100
AcDbEntity
  8
skládky a antropogenní uloženiny
100
AcDbHatch
 10
0
 20
0
 30
0
210
0
220
0
230
1
  2
SOLID
 70
1
 71
0
 91
1
 92
2
 72
0
 73
1
 93
6
 10
-596623.23
 20
-1153457.54
 10
-596634.42
 20
-1153439.58
 10
-596666.1084
 20
-1153457.9915
 10
-596636.08
 20
-1153508.35
 10
-596604.25
 20
-1153489.37
 10
-596623.23
 20
-1153457.54
 97
0
 75
0
 76
1
 98
0
  0
HATCH
  5
20137
100
AcDbEntity
  8
skládky a antropogenní uloženiny
100
AcDbHatch
 10
0
 20
0
 30
0
210
0
220
0
230
1
  2
SOLID
 70
1
 71
0
 91
1
 92
2
 72
0
 73
1
 93
22
 10
-596607.3
 20
-1153622.54
 10
-596657.5
 20
-1153591.69
 10
-596681.23
 20
-1153558.85
 10
-596732.41
 20
-1153513.83
 10
-596795.79
 20
-1153464.78
 10
-596852.02
 20
-1153412.51
 10
-596769.51
 20
-1153332.59
 10
-596867.3644
 20
-1153392.7534
 10
-596906.7418
 20
-1153328.7069
 10
-596913.45
 20
-1153286.97
 10
-596986.8071
 20
-1153250.8045
 10
-597060.1642
 20
-1153214.639
 10
-597191.49
 20
-1153225.17
 10
-597200.1891
 20
-1153235.7887
 10
-597063.5208
 20
-1153227.3077
 10
-596933.3941
 20
-1153297.3162
 10
-596915.7469
 20
-1153344.0603
 10
-596870.6189
 20
-1153418.739
 10
-596697.556
 20
-1153571.6678
 10
-596655.9662
 20
-1153608.4191
 10
-596614.3764
 20
-1153645.1703
 10
-596607.3
 20
-1153622.54
 97
0
 75
0
 76
1
 98
0
  0
HATCH
  5
20138
100
AcDbEntity
  8
skládky a antropogenní uloženiny
100
AcDbHatch
 10
0
 20
0
 30
0
210
0
220
0
230
1
  2
SOLID
 70
1
 71
0
 91
1
 92
2
 72
0
 73
1
 93
7
 10
-595976.7989
 20
-1154028.4634
 10
-595986.6984
 20
-1154042.145
 10
-595972.0571
 20
-1154050.5919
 10
-595848.7697
 20
-1154121.7192
 10
-595844.0279
 20
-1154080.6234
 10
-595921.4777
 20
-1154028.4634
 10
-595976.7989
 20
-1154028.4634
 97
0
 75
0
 76
1
 98
0
  0
HATCH
  5
20139
100
AcDbEntity
  8
skládky a antropogenní uloženiny
100
AcDbHatch
 10
0
 20
0
 30
0
210
0
220
0
230
1
  2
SOLID
 70
1
 71
0
 91
1
 92
2
 72
0
 73
1
 93
5
 10
-595922.3288
 20
-1154234.4287
 10
-595929.3807
 20
-1154247.3775
 10
-595898.9793
 20
-1154294.9972
 10
-595884.9231
 20
-1154282.5217
 10
-595922.3288
 20
-1154234.4287
 97
0
 75
0
 76
1
 98
0
  0
HATCH
  5
2013A
100
AcDbEntity
  8
skládky a antropogenní uloženiny
100
AcDbHatch
 10
0
 20
0
 30
0
210
0
220
0
230
1
  2
SOLID
 70
1
 71
0
 91
1
 92
2
 72
0
 73
1
 93
11
 10
-595769.7394
 20
-1154866.1853
 10
-595777.6424
 20
-1154880.4108
 10
-595684.3866
 20
-1154930.9902
 10
-595590.8934
 20
-1155018.5462
 10
-595518.865
 20
-1155040.3975
 10
-595380.6954
 20
-1155082.3141
 10
-595374.5875
 20
-1155062.1807
 10
-595515.2616
 20
-1155019.5043
 10
-595573.744
 20
-1154994.2145
 10
-595673.3223
 20
-1154915.1842
 10
-595769.7394
 20
-1154866.1853
 97
0
 75
0
 76
1
 98
0
  0
HATCH
  5
2013B
100
AcDbEntity
  8
skládky a antropogenní uloženiny
100
AcDbHatch
 10
0
 20
0
 30
0
210
0
220
0
230
1
  2
SOLID
 70
1
 71
0
 91
1
 92
2
 72
0
 73
1
 93
7
 10
-596131.48
 20
-1154381.15
 10
-596202.54
 20
-1154385.03
 10
-596300.2541
 20
-1154385.7625
 10
-596316.21
 20
-1154425.47
 10
-596230.1532
 20
-1154422.6338
 10
-596139.9536
 20
-1154432.8778
 10
-596131.48
 20
-1154381.15
 97
0
 75
0
 76
1
 98
0
  0
HATCH
  5
2013C
100
AcDbEntity
  8
skládky a antropogenní uloženiny
100
AcDbHatch
 10
0
 20
0
 30
0
210
0
220
0
230
1
  2
SOLID
 70
1
 71
0
 91
1
 92
2
 72
0
 73
1
 93
41
 10
-596697.39
 20
-1154145.08
 10
-596704.62
 20
-1154132.91
 10
-596699.4869
 20
-1154146.1127
 10
-596683.61
 20
-1154184.91
 10
-596679.53
 20
-1154194.88
 10
-596679.94
 20
-1154196.11
 10
-596681.31
 20
-1154200.19
 10
-596682.55
 20
-1154204.41
 10
-596683.69
 20
-1154207.74
 10
-596688.24
 20
-1154222.04
 10
-596690.82
 20
-1154230.61
 10
-596700.55
 20
-1154242.9
 10
-596702.41
 20
-1154245.26
 10
-596709.13
 20
-1154254.31
 10
-596715.65
 20
-1154261.95
 10
-596718.26
 20
-1154264.28
 10
-596732.72
 20
-1154277.18
 10
-596737.16
 20
-1154281.12
 10
-596741.62
 20
-1154284.13
 10
-596749.51
 20
-1154288.92
 10
-596758.39
 20
-1154295.63
 10
-596771.94
 20
-1154305.36
 10
-596781.04
 20
-1154311.58
 10
-596778.35
 20
-1154328.29
 10
-596774.18
 20
-1154341.8
 10
-596771.79
 20
-1154360.57
 10
-596789.21
 20
-1154374.04
 10
-596797.43
 20
-1154378.93
 10
-596826.04
 20
-1154399.75
 10
-596822.52
 20
-1154404.2
 10
-596838.766
 20
-1154416.8993
 10
-596831.7321
 20
-1154424.6101
 10
-596814.9947
 20
-1154409.3419
 10
-596763.5431
 20
-1154362.4069
 10
-596774.3402
 20
-1154318.6327
 10
-596740.1141
 20
-1154289.2843
 10
-596711.3421
 20
-1154264.6126
 10
-596688.2669
 20
-1154234.545
 10
-596673.3599
 20
-1154199.6981
 10
-596676.6138
 20
-1154192.3024
 10
-596697.39
 20
-1154145.08
 97
0
 75
0
 76
1
 98
0
  0
HATCH
  5
2013D
100
AcDbEntity
  8
skládky a antropogenní uloženiny
100
AcDbHatch
 10
0
 20
0
 30
0
210
0
220
0
230
1
  2
SOLID
 70
1
 71
0
 91
1
 92
2
 72
0
 73
1
 93
59
 10
-599934.6112
 20
-1162572.1196
 10
-600014.1112
 20
-1162595.6896
 10
-600019.5862
 20
-1162624.2046
 10
-600033.2687
 20
-1162638.2721
 10
-600086.0812
 20
-1162653.1396
 10
-600077.0312
 20
-1162768.4496
 10
-600063.4612
 20
-1162879.9596
 10
-599946.6762
 20
-1162945.7696
 10
-599948.6112
 20
-1162972.0796
 10
-599880.6212
 20
-1162986.8096
 10
-599868.5012
 20
-1162994.7796
 10
-599811.1912
 20
-1163002.7396
 10
-599790.0612
 20
-1163011.0996
 10
-599753.0312
 20
-1163018.8196
 10
-599715.8312
 20
-1163022.7896
 10
-599670.8412
 20
-1163023.5796
 10
-599629.5742
 20
-1163021.3163
 10
-599648.4788
 20
-1162991.0689
 10
-599648.4788
 20
-1162965.8628
 10
-599673.6849
 20
-1162965.8628
 10
-599703.9323
 20
-1162944.4376
 10
-599703.2712
 20
-1162882.3296
 10
-599687.1087
 20
-1162835.8639
 10
-599642.0515
 20
-1162803.5717
 10
-599604.0626
 20
-1162757.628
 10
-599625.7933
 20
-1162725.1443
 10
-599602.8573
 20
-1162686.0569
 10
-599579.9212
 20
-1162646.9696
 10
-599618.9012
 20
-1162488.9296
 10
-599692.6212
 20
-1162460.9596
 10
-599703.7748
 20
-1162446.6165
 10
-599703.6241
 20
-1162437.6396
 10
-599706.499
 20
-1162359.1496
 10
-599706.6446
 20
-1162352.4622
 10
-599706.934
 20
-1162335.4546
 10
-599707.009
 20
-1162323.0796
 10
-599708.284
 20
-1162314.4846
 10
-599711.535
 20
-1162298.9039
 10
-599721.3369
 20
-1162260.6528
 10
-599727.769
 20
-1162234.2996
 10
-599742.489
 20
-1162183.2196
 10
-599752.35
 20
-1162170.52
 10
-599811.299
 20
-1162179.8296
 10
-599889.089
 20
-1162195.5696
 10
-599920.1532
 20
-1162200.7678
 10
-599920.354
 20
-1162201.4896
 10
-599956.8641
 20
-1162216.1092
 10
-599989.059
 20
-1162221.8096
 10
-599969.009
 20
-1162315.6996
 10
-599966.816
 20
-1162369.7146
 10
-599967.319
 20
-1162394.2246
 10
-599962.189
 20
-1162408.1596
 10
-599955.519
 20
-1162418.5896
 10
-599955.3601
 20
-1162419.9509
 10
-599938.674
 20
-1162431.4946
 10
-599935.6787
 20
-1162443.1291
 10
-599945.829
 20
-1162478.4096
 10
-599923.469
 20
-1162529.6496
 10
-599934.6112
 20
-1162572.1196
 97
0
 75
0
 76
1
 98
0
  0
HATCH
  5
2013E
100
AcDbEntity
  8
skládky a antropogenní uloženiny
100
AcDbHatch
 10
0
 20
0
 30
0
210
0
220
0
230
1
  2
SOLID
 70
1
 71
0
 91
1
 92
2
 72
0
 73
1
 93
10
 10
-598676.9784
 20
-1162990.5247
 10
-598700.42
 20
-1162993.55
 10
-598676.9616
 20
-1163020.8381
 10
-598676.31
 20
-1163021.56
 10
-598668.795
 20
-1163028.62
 10
-598632.35
 20
-1163073.43
 10
-598617.28
 20
-1163110.52
 10
-598583.99
 20
-1163092.84
 10
-598602.38
 20
-1163059.21
 10
-598676.9784
 20
-1162990.5247
 97
0
 75
0
 76
1
 98
0
  0
HATCH
  5
2013F
100
AcDbEntity
  8
skládky a antropogenní uloženiny
100
AcDbHatch
 10
0
 20
0
 30
0
210
0
220
0
230
1
  2
SOLID
 70
1
 71
0
 91
1
 92
2
 72
0
 73
1
 93
8
 10
-594523.52
 20
-1165095.04
 10
-594515.015
 20
-1165142.04
 10
-594493.72
 20
-1165257.94
 10
-594429.31
 20
-1165228.24
 10
-594451.35
 20
-1165183.65
 10
-594471.315
 20
-1165120.025
 10
-594482.69
 20
-1165096.88
 10
-594523.52
 20
-1165095.04
 97
0
 75
0
 76
1
 98
0
  0
HATCH
  5
20140
100
AcDbEntity
  8
skládky a antropogenní uloženiny
100
AcDbHatch
 10
0
 20
0
 30
0
210
0
220
0
230
1
  2
SOLID
 70
1
 71
0
 91
1
 92
2
 72
0
 73
1
 93
44
 10
-594478.5559
 20
-1165295.0964
 10
-594572.9001
 20
-1165347.234
 10
-594688.7867
 20
-1165398.9427
 10
-594699.2555
 20
-1165408.8553
 10
-594695.0199
 20
-1165418.768
 10
-594687.1062
 20
-1165422.9576
 10
-594652.1927
 20
-1165428.0782
 10
-594633.5721
 20
-1165434.4548
 10
-594635.392
 20
-1165445.388
 10
-594663.5202
 20
-1165449.0264
 10
-594669.5534
 20
-1165460.897
 10
-594660.8823
 20
-1165472.7676
 10
-594628.4514
 20
-1165483.7847
 10
-594570.17
 20
-1165489.3167
 10
-594426.0212
 20
-1165486.5909
 10
-594392.4358
 20
-1165479.9055
 10
-594362.4659
 20
-1165466.518
 10
-594346.8931
 20
-1165452.1298
 10
-594343.5569
 20
-1165447.785
 10
-594340.2207
 20
-1165442.8971
 10
-594339.4448
 20
-1165438.0868
 10
-594338.096
 20
-1165429.1501
 10
-594336.936
 20
-1165416.05
 10
-594341.9512
 20
-1165399.6023
 10
-594350.73
 20
-1165388.39
 10
-594339.7401
 20
-1165384.8179
 10
-594330.1271
 20
-1165378.32
 10
-594318.0312
 20
-1165362.3632
 10
-594313.1791
 20
-1165350.5511
 10
-594308.9537
 20
-1165336.0616
 10
-594308.7209
 20
-1165326.4644
 10
-594309.1864
 20
-1165322.4066
 10
-594311.9795
 20
-1165315.579
 10
-594316.5571
 20
-1165308.7515
 10
-594326.1777
 20
-1165301.9239
 10
-594321.9824
 20
-1165292.76
 10
-594317.6285
 20
-1165281.0532
 10
-594317.0226
 20
-1165271.5104
 10
-594320.9019
 20
-1165260.338
 10
-594330.1546
 20
-1165246.5376
 10
-594331.9947
 20
-1165244.236
 10
-594376.11
 20
-1165252.28
 10
-594417.7288
 20
-1165265.3035
 10
-594478.5559
 20
-1165295.0964
 97
0
 75
0
 76
1
 98
0
  0
HATCH
  5
20141
100
AcDbEntity
  8
skládky a antropogenní uloženiny
100
AcDbHatch
 10
0
 20
0
 30
0
210
0
220
0
230
1
  2
SOLID
 70
1
 71
0
 91
1
 92
2
 72
0
 73
1
 93
50
 10
-594330.55
 20
-1165244.01
 10
-594376.11
 20
-1165252.28
 10
-594391.395
 20
-1165257.3
 10
-594417.7288
 20
-1165265.3035
 10
-594478.5559
 20
-1165295.0964
 10
-594525.728
 20
-1165321.1652
 10
-594572.9001
 20
-1165347.234
 10
-594630.8434
 20
-1165373.0883
 10
-594687.51
 20
-1165397.3
 10
-594699.2555
 20
-1165408.8553
 10
-594695.0199
 20
-1165418.768
 10
-594687.1062
 20
-1165422.9576
 10
-594669.6494
 20
-1165425.5179
 10
-594652.1927
 20
-1165428.0782
 10
-594633.5721
 20
-1165434.4548
 10
-594635.392
 20
-1165445.388
 10
-594663.5202
 20
-1165449.0264
 10
-594669.5534
 20
-1165460.897
 10
-594660.8823
 20
-1165472.7676
 10
-594628.4514
 20
-1165483.7847
 10
-594599.3107
 20
-1165486.5507
 10
-594570.17
 20
-1165489.3167
 10
-594498.0956
 20
-1165487.9538
 10
-594426.0212
 20
-1165486.5909
 10
-594409.2285
 20
-1165483.2482
 10
-594392.4358
 20
-1165479.9055
 10
-594377.4509
 20
-1165473.2118
 10
-594362.4659
 20
-1165466.518
 10
-594346.8931
 20
-1165452.1298
 10
-594339.8328
 20
-1165440.4919
 10
-594338.096
 20
-1165429.1501
 10
-594336.936
 20
-1165416.05
 10
-594341.9512
 20
-1165399.6023
 10
-594350.73
 20
-1165388.39
 10
-594339.7401
 20
-1165384.8179
 10
-594330.1271
 20
-1165378.32
 10
-594324.0791
 20
-1165370.3416
 10
-594317.5
 20
-1165359.55
 10
-594313.1791
 20
-1165350.5511
 10
-594308.9537
 20
-1165336.0616
 10
-594308.9537
 20
-1165324.4355
 10
-594310.583
 20
-1165318.9928
 10
-594316.5571
 20
-1165308.7515
 10
-594326.1777
 20
-1165301.9239
 10
-594321.9824
 20
-1165292.76
 10
-594317.6285
 20
-1165281.0532
 10
-594317.0226
 20
-1165271.5104
 10
-594320.9019
 20
-1165260.338
 10
-594330.1546
 20
-1165246.5376
 10
-594330.55
 20
-1165244.01
 97
0
 75
0
 76
1
 98
0
  0
HATCH
  5
20142
100
AcDbEntity
  8
skládky a antropogenní uloženiny
100
AcDbHatch
 10
0
 20
0
 30
0
210
0
220
0
230
1
  2
SOLID
 70
1
 71
0
 91
1
 92
2
 72
0
 73
1
 93
32
 10
-594280.3245
 20
-1165460.4315
 10
-594250.5317
 20
-1165469.1211
 10
-594220.7388
 20
-1165477.8106
 10
-594212.0492
 20
-1165471.6038
 10
-594203.3596
 20
-1165465.3969
 10
-594194.67
 20
-1165459.1901
 10
-594185.9804
 20
-1165452.9832
 10
-594184.3705
 20
-1165451.257
 10
-594182.7606
 20
-1165449.5307
 10
-594182.2757
 20
-1165446.9122
 10
-594181.7908
 20
-1165444.2936
 10
-594182.689
 20
-1165442.451
 10
-594183.5872
 20
-1165440.6083
 10
-594185.6014
 20
-1165438.5469
 10
-594186.7174
 20
-1165437.3134
 10
-594189.9398
 20
-1165435.6744
 10
-594192.0533
 20
-1165435.2319
 10
-594194.1669
 20
-1165434.7894
 10
-594196.2805
 20
-1165435.1967
 10
-594198.3941
 20
-1165435.604
 10
-594200.4326
 20
-1165436.5545
 10
-594202.4712
 20
-1165437.5049
 10
-594206.5483
 20
-1165441.1126
 10
-594210.6254
 20
-1165445.4791
 10
-594214.7025
 20
-1165449.8457
 10
-594227.9074
 20
-1165455.126
 10
-594238.4449
 20
-1165450.7571
 10
-594243.0834
 20
-1165445.535
 10
-594247.5001
 20
-1165444.2161
 10
-594260.6178
 20
-1165447.8626
 10
-594270.3936
 20
-1165443.0523
 10
-594280.3245
 20
-1165460.4315
 97
0
 75
0
 76
1
 98
0
  0
HATCH
  5
20143
100
AcDbEntity
  8
skládky a antropogenní uloženiny
100
AcDbHatch
 10
0
 20
0
 30
0
210
0
220
0
230
1
  2
SOLID
 70
1
 71
0
 91
1
 92
2
 72
0
 73
1
 93
10
 10
-601199.9851
 20
-1157355.3168
 10
-601183.4589
 20
-1157358.3216
 10
-601178.5837
 20
-1157290.5776
 10
-601148.2341
 20
-1157280.9053
 10
-601141.4234
 20
-1157245.9655
 10
-601137.386
 20
-1157200.1568
 10
-601151.7394
 20
-1157182.0261
 10
-601186.29
 20
-1157181.65
 10
-601196.41
 20
-1157265.72
 10
-601199.9851
 20
-1157355.3168
 97
0
 75
0
 76
1
 98
0
  0
HATCH
  5
20144
100
AcDbEntity
  8
skládky a antropogenní uloženiny
100
AcDbHatch
 10
0
 20
0
 30
0
210
0
220
0
230
1
  2
SOLID
 70
1
 71
0
 91
1
 92
2
 72
0
 73
1
 93
32
 10
-594811.0881
 20
-1165476.4141
 10
-594809.2108
 20
-1165494.091
 10
-594796.1917
 20
-1165549.655
 10
-594726.6749
 20
-1165846.3426
 10
-594703.9941
 20
-1165851.8546
 10
-594687.7269
 20
-1165862.6356
 10
-594676.5546
 20
-1165873.6241
 10
-594670.6504
 20
-1165880.5515
 10
-594664.0245
 20
-1165883.3121
 10
-594656.6901
 20
-1165883.7389
 10
-594642.7669
 20
-1165879.6302
 10
-594630.3135
 20
-1165874.0321
 10
-594624.8635
 20
-1165868.4767
 10
-594622.0752
 20
-1165847.5812
 10
-594616.0377
 20
-1165835.0151
 10
-594606.1068
 20
-1165830.6703
 10
-594585.6242
 20
-1165826.0151
 10
-594582.6472
 20
-1165823.8427
 10
-594580.038
 20
-1165815.7738
 10
-594580.1932
 20
-1165737.1019
 10
-594575.2277
 20
-1165629.1027
 10
-594576.3139
 20
-1165603.4948
 10
-594584.0724
 20
-1165581.7754
 10
-594601.4516
 20
-1165562.5342
 10
-594658.3995
 20
-1165532.2758
 10
-594687.2614
 20
-1165515.2069
 10
-594700.9165
 20
-1165499.6898
 10
-594707.744
 20
-1165474.2417
 10
-594704.3302
 20
-1165440.4144
 10
-594701.8475
 20
-1165414.3456
 10
-594796.1917
 20
-1165457.7935
 10
-594811.0881
 20
-1165476.4141
 97
0
 75
0
 76
1
 98
0
  0
HATCH
  5
20145
100
AcDbEntity
  8
skládky a antropogenní uloženiny
100
AcDbHatch
 10
0
 20
0
 30
0
210
0
220
0
230
1
  2
SOLID
 70
1
 71
0
 91
1
 92
2
 72
0
 73
1
 93
28
 10
-595211.0765
 20
-1166595.92
 10
-595204.9767
 20
-1166602.1699
 10
-595198.9777
 20
-1166607.6519
 10
-595197.4259
 20
-1166612.6903
 10
-595197.1932
 20
-1166617.6601
 10
-595195.913
 20
-1166626.0785
 10
-595193.4691
 20
-1166631.7035
 10
-595189.3958
 20
-1166634.7681
 10
-595182.2976
 20
-1166636.669
 10
-595176.9493
 20
-1166637.3731
 10
-595169.8054
 20
-1166636.5138
 10
-595163.7926
 20
-1166634.4578
 10
-595159.2585
 20
-1166631.2339
 10
-595157.0417
 20
-1166626.1994
 10
-595156.6872
 20
-1166621.9714
 10
-595156.6862
 20
-1166616.5546
 10
-595160.1848
 20
-1166610.0571
 10
-595164.9455
 20
-1166606.1641
 10
-595168.4572
 20
-1166604.3781
 10
-595174.4994
 20
-1166602.958
 10
-595180.2755
 20
-1166601.833
 10
-595185.0274
 20
-1166602.4537
 10
-595191.3743
 20
-1166601.9106
 10
-595200.8149
 20
-1166596.0083
 10
-595206.5035
 20
-1166592.3676
 10
-595209.7
 20
-1166592.29
 10
-595211.2362
 20
-1166594.0744
 10
-595211.0765
 20
-1166595.92
 97
0
 75
0
 76
1
 98
0
  0
HATCH
  5
20146
100
AcDbEntity
  8
skládky a antropogenní uloženiny
100
AcDbHatch
 10
0
 20
0
 30
0
210
0
220
0
230
1
  2
SOLID
 70
1
 71
0
 91
1
 92
2
 72
0
 73
1
 93
7
 10
-594296.9279
 20
-1165720.9641
 10
-594304.2556
 20
-1165741.2527
 10
-594290.7884
 20
-1165752.7743
 10
-594251.1059
 20
-1165761.309
 10
-594251.773
 20
-1165748.5797
 10
-594279.1009
 20
-1165718.604
 10
-594296.9279
 20
-1165720.9641
 97
0
 75
0
 76
1
 98
0
  0
HATCH
  5
20147
100
AcDbEntity
  8
skládky a antropogenní uloženiny
100
AcDbHatch
 10
0
 20
0
 30
0
210
0
220
0
230
1
  2
SOLID
 70
1
 71
0
 91
1
 92
2
 72
0
 73
1
 93
6
 10
-594274.8936
 20
-1165787.0671
 10
-594284.166
 20
-1165807.6316
 10
-594264.1871
 20
-1165812.7479
 10
-594242.3076
 20
-1165796.0671
 10
-594258.135
 20
-1165791.1016
 10
-594274.8936
 20
-1165787.0671
 97
0
 75
0
 76
1
 98
0
  0
HATCH
  5
20148
100
AcDbEntity
  8
skládky a antropogenní uloženiny
100
AcDbHatch
 10
0
 20
0
 30
0
210
0
220
0
230
1
  2
SOLID
 70
1
 71
0
 91
1
 92
2
 72
0
 73
1
 93
16
 10
-593734.5094
 20
-1164495.964
 10
-593722.7542
 20
-1164522.9941
 10
-593726.1301
 20
-1164553.3774
 10
-593715.3325
 20
-1164557.7998
 10
-593703.7854
 20
-1164555.8601
 10
-593692.9235
 20
-1164544.3775
 10
-593689.198
 20
-1164538.8689
 10
-593685.1649
 20
-1164525.7569
 10
-593683.6908
 20
-1164512.7815
 10
-593689.5097
 20
-1164499.3778
 10
-593703.1648
 20
-1164482.9296
 10
-593705.4147
 20
-1164480.9118
 10
-593715.5785
 20
-1164478.8952
 10
-593726.2815
 20
-1164483.0072
 10
-593733.9663
 20
-1164489.9459
 10
-593734.5094
 20
-1164495.964
 97
0
 75
0
 76
1
 98
0
  0
HATCH
  5
20149
100
AcDbEntity
  8
skládky a antropogenní uloženiny
100
AcDbHatch
 10
0
 20
0
 30
0
210
0
220
0
230
1
  2
SOLID
 70
1
 71
0
 91
1
 92
2
 72
0
 73
1
 93
9
 10
-594950.5429
 20
-1150894.8878
 10
-594986.5139
 20
-1150939.3783
 10
-595031.9331
 20
-1150995.5546
 10
-595062.7157
 20
-1151025.9926
 10
-595053.2496
 20
-1151023.1528
 10
-595024.1767
 20
-1151006.275
 10
-594967.5818
 20
-1150942.6914
 10
-594936.485
 20
-1150907.7545
 10
-594950.5429
 20
-1150894.8878
 97
0
 75
0
 76
1
 98
0
  0
HATCH
  5
2014A
100
AcDbEntity
  8
skládky a antropogenní uloženiny
100
AcDbHatch
 10
0
 20
0
 30
0
210
0
220
0
230
1
  2
SOLID
 70
1
 71
0
 91
1
 92
2
 72
0
 73
1
 93
7
 10
-594847.8363
 20
-1150914.7665
 10
-594854.4625
 20
-1150924.2326
 10
-594825.591
 20
-1150935.5918
 10
-594792.2405
 20
-1150964.1747
 10
-594780.14
 20
-1150960.29
 10
-594822.08
 20
-1150924.54
 10
-594847.8363
 20
-1150914.7665
 97
0
 75
0
 76
1
 98
0
  0
HATCH
  5
2014B
100
AcDbEntity
  8
skládky a antropogenní uloženiny
100
AcDbHatch
 10
0
 20
0
 30
0
210
0
220
0
230
1
  2
SOLID
 70
1
 71
0
 91
1
 92
2
 72
0
 73
1
 93
14
 10
-604747.8
 20
-1159470.5
 10
-604724.7724
 20
-1159569.1972
 10
-604719.7614
 20
-1159593.1401
 10
-604713.995
 20
-1159620.85
 10
-604707.86
 20
-1159641.47
 10
-604705.63
 20
-1159645.085
 10
-604688.3164
 20
-1159642.666
 10
-604689.93
 20
-1159635.43
 10
-604697.365
 20
-1159598.15
 10
-604700.69
 20
-1159581.83
 10
-604702.145
 20
-1159569.865
 10
-604703.6
 20
-1159557.9
 10
-604726.08
 20
-1159449.24
 10
-604747.8
 20
-1159470.5
 97
0
 75
0
 76
1
 98
0
  0
HATCH
  5
2014C
100
AcDbEntity
  8
skládky a antropogenní uloženiny
100
AcDbHatch
 10
0
 20
0
 30
0
210
0
220
0
230
1
  2
SOLID
 70
1
 71
0
 91
1
 92
2
 72
0
 73
1
 93
10
 10
-604796.63
 20
-1159215.44
 10
-604810.1
 20
-1159237.62
 10
-604779.275
 20
-1159355
 10
-604761.5571
 20
-1159434.7359
 10
-604747.19
 20
-1159409.23
 10
-604742.73
 20
-1159403.13
 10
-604749.82
 20
-1159368.38
 10
-604762.495
 20
-1159319.64
 10
-604786.32
 20
-1159234.67
 10
-604796.63
 20
-1159215.44
 97
0
 75
0
 76
1
 98
0
  0
HATCH
  5
2014D
100
AcDbEntity
  8
skládky a antropogenní uloženiny
100
AcDbHatch
 10
0
 20
0
 30
0
210
0
220
0
230
1
  2
SOLID
 70
1
 71
0
 91
1
 92
2
 72
0
 73
1
 93
16
 10
-604200.63
 20
-1159953.695
 10
-604194.09
 20
-1159955.97
 10
-604184.67
 20
-1159965.74
 10
-604180.26
 20
-1159965.26
 10
-604173.12
 20
-1159963.89
 10
-604136.26
 20
-1159960.95
 10
-604121.11
 20
-1159952.98
 10
-604148.19
 20
-1159893.54
 10
-604168.74
 20
-1159887.87
 10
-604180.25
 20
-1159890.67
 10
-604190.36
 20
-1159895.4
 10
-604198.23
 20
-1159907.92
 10
-604200.94
 20
-1159916.01
 10
-604203.795
 20
-1159927.5054
 10
-604207.17
 20
-1159951.42
 10
-604200.63
 20
-1159953.695
 97
0
 75
0
 76
1
 98
0
  0
HATCH
  5
2014E
100
AcDbEntity
  8
skládky a antropogenní uloženiny
100
AcDbHatch
 10
0
 20
0
 30
0
210
0
220
0
230
1
  2
SOLID
 70
1
 71
0
 91
1
 92
2
 72
0
 73
1
 93
7
 10
-605263.64
 20
-1158999.6
 10
-605261.49
 20
-1159025.43
 10
-605258.75
 20
-1159046.3
 10
-605218.35
 20
-1159025.7
 10
-605227.69
 20
-1158990.12
 10
-605241.4
 20
-1158991.53
 10
-605263.64
 20
-1158999.6
 97
0
 75
0
 76
1
 98
0
  0
HATCH
  5
2014F
100
AcDbEntity
  8
skládky a antropogenní uloženiny
100
AcDbHatch
 10
0
 20
0
 30
0
210
0
220
0
230
1
  2
SOLID
 70
1
 71
0
 91
1
 92
2
 72
0
 73
1
 93
9
 10
-605402.02
 20
-1159290.99
 10
-605421.8739
 20
-1159294.8054
 10
-605444.24
 20
-1159299.58
 10
-605458.23
 20
-1159307.34
 10
-605459.6363
 20
-1159312.6244
 10
-605424.52
 20
-1159326.7
 10
-605405.22
 20
-1159310.35
 10
-605389.55
 20
-1159292.06
 10
-605402.02
 20
-1159290.99
 97
0
 75
0
 76
1
 98
0
  0
HATCH
  5
20150
100
AcDbEntity
  8
skládky a antropogenní uloženiny
100
AcDbHatch
 10
0
 20
0
 30
0
210
0
220
0
230
1
  2
SOLID
 70
1
 71
0
 91
1
 92
2
 72
0
 73
1
 93
5
 10
-606007.3035
 20
-1159961.9638
 10
-606011.4961
 20
-1160012.2759
 10
-605698.72
 20
-1159982.45
 10
-605725.59
 20
-1159927.23
 10
-606007.3035
 20
-1159961.9638
 97
0
 75
0
 76
1
 98
0
  0
HATCH
  5
20151
100
AcDbEntity
  8
skládky a antropogenní uloženiny
100
AcDbHatch
 10
0
 20
0
 30
0
210
0
220
0
230
1
  2
SOLID
 70
1
 71
0
 91
1
 92
2
 72
0
 73
1
 93
5
 10
-606545.251
 20
-1159113.0521
 10
-606501.3923
 20
-1159117.4815
 10
-606502.2652
 20
-1159112.1319
 10
-606540.58
 20
-1159071.36
 10
-606545.251
 20
-1159113.0521
 97
0
 75
0
 76
1
 98
0
  0
HATCH
  5
20152
100
AcDbEntity
  8
skládky a antropogenní uloženiny
100
AcDbHatch
 10
0
 20
0
 30
0
210
0
220
0
230
1
  2
SOLID
 70
1
 71
0
 91
1
 92
2
 72
0
 73
1
 93
5
 10
-607401.6095
 20
-1159003.8472
 10
-607392.65
 20
-1159025.85
 10
-607236.895
 20
-1159041.845
 10
-607244.12
 20
-1159019.59
 10
-607401.6095
 20
-1159003.8472
 97
0
 75
0
 76
1
 98
0
  0
HATCH
  5
20153
100
AcDbEntity
  8
skládky a antropogenní uloženiny
100
AcDbHatch
 10
0
 20
0
 30
0
210
0
220
0
230
1
  2
SOLID
 70
1
 71
0
 91
1
 92
2
 72
0
 73
1
 93
8
 10
-607043.8936
 20
-1158123.9275
 10
-607075.98
 20
-1158115.6
 10
-607112.4551
 20
-1158166.444
 10
-607130.855
 20
-1158196.493
 10
-607061.6252
 20
-1158217.6384
 10
-607008.5552
 20
-1158143.9984
 10
-607014.8693
 20
-1158135.7705
 10
-607043.8936
 20
-1158123.9275
 97
0
 75
0
 76
1
 98
0
  0
HATCH
  5
20154
100
AcDbEntity
  8
skládky a antropogenní uloženiny
100
AcDbHatch
 10
0
 20
0
 30
0
210
0
220
0
230
1
  2
SOLID
 70
1
 71
0
 91
1
 92
2
 72
0
 73
1
 93
13
 10
-607390.1119
 20
-1158033.8464
 10
-607376.0279
 20
-1158048.3924
 10
-607359.3943
 20
-1158024.948
 10
-607348.7184
 20
-1158006.7908
 10
-607379.3343
 20
-1157961.543
 10
-607392.3
 20
-1157979.695
 10
-607386.5497
 20
-1157993.6362
 10
-607376.6707
 20
-1158011.3874
 10
-607373.6886
 20
-1158017.4775
 10
-607392.4765
 20
-1158006.1529
 10
-607399.8216
 20
-1157999.0621
 10
-607405.8885
 20
-1158009.899
 10
-607390.1119
 20
-1158033.8464
 97
0
 75
0
 76
1
 98
0
  0
HATCH
  5
20155
100
AcDbEntity
  8
skládky a antropogenní uloženiny
100
AcDbHatch
 10
0
 20
0
 30
0
210
0
220
0
230
1
  2
SOLID
 70
1
 71
0
 91
1
 92
2
 72
0
 73
1
 93
19
 10
-606082.935
 20
-1157323.865
 10
-606075.74
 20
-1157323.3
 10
-606067.91
 20
-1157320.44
 10
-606056.33
 20
-1157314.55
 10
-606049.76
 20
-1157309.98
 10
-606027.52
 20
-1157305.16
 10
-606017.44
 20
-1157306.88
 10
-606008.22
 20
-1157300.42
 10
-605975.02
 20
-1157301.14
 10
-605954.18
 20
-1157296.25
 10
-605928.495
 20
-1157294.685
 10
-605936.52
 20
-1157282.73
 10
-605955.25
 20
-1157283.24
 10
-605977.54
 20
-1157283.73
 10
-606009.82
 20
-1157281.49
 10
-606039.42
 20
-1157291.02
 10
-606062.37
 20
-1157300.74
 10
-606074.68
 20
-1157308.98
 10
-606082.935
 20
-1157323.865
 97
0
 75
0
 76
1
 98
0
  0
HATCH
  5
20156
100
AcDbEntity
  8
skládky a antropogenní uloženiny
100
AcDbHatch
 10
0
 20
0
 30
0
210
0
220
0
230
1
  2
SOLID
 70
1
 71
0
 91
1
 92
2
 72
0
 73
1
 93
39
 10
-608561.12
 20
-1157877.08
 10
-608575.86
 20
-1157909.47
 10
-608590.66
 20
-1157944.01
 10
-608605
 20
-1157991.16
 10
-608591.7
 20
-1158050.5
 10
-608587.19
 20
-1158079.78
 10
-608588.83
 20
-1158140.45
 10
-608590.47
 20
-1158201.12
 10
-608574.135
 20
-1158272.525
 10
-608551.66
 20
-1158349.51
 10
-608513.01
 20
-1158399.245
 10
-608452.35
 20
-1158475.3
 10
-608415.72
 20
-1158519.94
 10
-608387.53
 20
-1158527.09
 10
-608357.0972
 20
-1158546.7583
 10
-608325.78
 20
-1158557.16
 10
-608286.31
 20
-1158583.03
 10
-608256.055
 20
-1158616.42
 10
-608239.14
 20
-1158646.53
 10
-608220.35
 20
-1158696.37
 10
-608230.32
 20
-1158777.755
 10
-608012.3
 20
-1158620.03
 10
-608111.66
 20
-1158544.22
 10
-608190.39
 20
-1158487.675
 10
-608208.09
 20
-1158475.92
 10
-608231.68
 20
-1158459.185
 10
-608257.445
 20
-1158442.11
 10
-608291.4703
 20
-1158426.3066
 10
-608297.705
 20
-1158418.115
 10
-608325.2
 20
-1158381.99
 10
-608333.7
 20
-1158357.81
 10
-608330.51
 20
-1158290.46
 10
-608346.53
 20
-1158251.07
 10
-608372.69
 20
-1158210.14
 10
-608397.35
 20
-1158134.42
 10
-608419.29
 20
-1158092.57
 10
-608475.46
 20
-1158023.62
 10
-608539.72
 20
-1157936.26
 10
-608561.12
 20
-1157877.08
 97
0
 75
0
 76
1
 98
0
  0
HATCH
  5
20157
100
AcDbEntity
  8
skládky a antropogenní uloženiny
100
AcDbHatch
 10
0
 20
0
 30
0
210
0
220
0
230
1
  2
SOLID
 70
1
 71
0
 91
1
 92
2
 72
0
 73
1
 93
33
 10
-607272.1892
 20
-1157688.8609
 10
-607291.5422
 20
-1157691.1907
 10
-607319.17
 20
-1157692.77
 10
-607323.8618
 20
-1157708.9136
 10
-607328.7013
 20
-1157733.1958
 10
-607329.195
 20
-1157740
 10
-607328.41
 20
-1157751.44
 10
-607338.58
 20
-1157781.01
 10
-607342.185
 20
-1157784.16
 10
-607370.435
 20
-1157792.65
 10
-607374.04
 20
-1157793.43
 10
-607377.02
 20
-1157794.08
 10
-607406.3
 20
-1157802.96
 10
-607420.23
 20
-1157810.74
 10
-607432.56
 20
-1157813.17
 10
-607475.4735
 20
-1157809.4949
 10
-607478.08
 20
-1157820.38
 10
-607435.0702
 20
-1157824.1594
 10
-607412.17
 20
-1157821.73
 10
-607399.25
 20
-1157813.51
 10
-607373.81
 20
-1157808.3
 10
-607343.7646
 20
-1157798.011
 10
-607330.0477
 20
-1157790.967
 10
-607321.75
 20
-1157778.81
 10
-607312.74
 20
-1157759.74
 10
-607308.74
 20
-1157751.27
 10
-607304.72
 20
-1157741.72
 10
-607304.2
 20
-1157728.14
 10
-607303.685
 20
-1157714.685
 10
-607303.43
 20
-1157707.93
 10
-607284.19
 20
-1157706.07
 10
-607272.145
 20
-1157703.57
 10
-607272.1892
 20
-1157688.8609
 97
0
 75
0
 76
1
 98
0
  0
HATCH
  5
20158
100
AcDbEntity
  8
skládky a antropogenní uloženiny
100
AcDbHatch
 10
0
 20
0
 30
0
210
0
220
0
230
1
  2
SOLID
 70
1
 71
0
 91
1
 92
2
 72
0
 73
1
 93
12
 10
-607646.46
 20
-1157768.8
 10
-607588.82
 20
-1157797.99
 10
-607541.31
 20
-1157817.89
 10
-607485.7205
 20
-1157838.8258
 10
-607478.08
 20
-1157820.38
 10
-607511.01
 20
-1157806.74
 10
-607518.72
 20
-1157800.665
 10
-607565
 20
-1157767.98
 10
-607595.18
 20
-1157754.005
 10
-607625.36
 20
-1157740.03
 10
-607646.88
 20
-1157733.21
 10
-607646.46
 20
-1157768.8
 97
0
 75
0
 76
1
 98
0
  0
HATCH
  5
20159
100
AcDbEntity
  8
skládky a antropogenní uloženiny
100
AcDbHatch
 10
0
 20
0
 30
0
210
0
220
0
230
1
  2
SOLID
 70
1
 71
0
 91
1
 92
2
 72
0
 73
1
 93
13
 10
-607011.9611
 20
-1158036.6515
 10
-607013.2965
 20
-1158050.991
 10
-607010.5247
 20
-1158056.4445
 10
-607006.6882
 20
-1158067.2709
 10
-607003.1721
 20
-1158077.1467
 10
-606991.5132
 20
-1158094.2859
 10
-606959.85
 20
-1158120.48
 10
-606924.2532
 20
-1158128.3159
 10
-606931.9382
 20
-1158059.4059
 10
-606939.19
 20
-1157997.79
 10
-606975.815
 20
-1158006.385
 10
-606992.0617
 20
-1158016.0949
 10
-607011.9611
 20
-1158036.6515
 97
0
 75
0
 76
1
 98
0
  0
HATCH
  5
2015A
100
AcDbEntity
  8
skládky a antropogenní uloženiny
100
AcDbHatch
 10
0
 20
0
 30
0
210
0
220
0
230
1
  2
SOLID
 70
1
 71
0
 91
1
 92
2
 72
0
 73
1
 93
8
 10
-607484.683
 20
-1158803.9262
 10
-607451.2844
 20
-1158784.3915
 10
-607406.9585
 20
-1158740.6497
 10
-607329.313
 20
-1158695.8762
 10
-607330.103
 20
-1158693.6162
 10
-607406.773
 20
-1158725.9962
 10
-607468.3922
 20
-1158782.0689
 10
-607484.683
 20
-1158803.9262
 97
0
 75
0
 76
1
 98
0
  0
HATCH
  5
2015B
100
AcDbEntity
  8
skládky a antropogenní uloženiny
100
AcDbHatch
 10
0
 20
0
 30
0
210
0
220
0
230
1
  2
SOLID
 70
1
 71
0
 91
1
 92
2
 72
0
 73
1
 93
10
 10
-606106.52
 20
-1157634.71
 10
-606085.1859
 20
-1157645.3258
 10
-606068.66
 20
-1157615.61
 10
-606041.52
 20
-1157607.82
 10
-606038.36
 20
-1157591.24
 10
-606051.95
 20
-1157581.07
 10
-606060.535
 20
-1157575.195
 10
-606069.12
 20
-1157569.32
 10
-606075.7996
 20
-1157564.0755
 10
-606106.52
 20
-1157634.71
 97
0
 75
0
 76
1
 98
0
  0
HATCH
  5
2015C
100
AcDbEntity
  8
skládky a antropogenní uloženiny
100
AcDbHatch
 10
0
 20
0
 30
0
210
0
220
0
230
1
  2
SOLID
 70
1
 71
0
 91
1
 92
2
 72
0
 73
1
 93
15
 10
-605627.5073
 20
-1158095.5866
 10
-605625.21
 20
-1158101.45
 10
-605614.7975
 20
-1158113.88
 10
-605604.385
 20
-1158126.31
 10
-605593.9725
 20
-1158138.74
 10
-605583.56
 20
-1158151.17
 10
-605575.4
 20
-1158158.62
 10
-605564.745
 20
-1158150.895
 10
-605554.09
 20
-1158143.17
 10
-605564.75
 20
-1158135.9
 10
-605574.94
 20
-1158122.935
 10
-605585.13
 20
-1158109.97
 10
-605595.28
 20
-1158095.05
 10
-605602.3696
 20
-1158084.7828
 10
-605627.5073
 20
-1158095.5866
 97
0
 75
0
 76
1
 98
0
  0
HATCH
  5
2015D
100
AcDbEntity
  8
skládky a antropogenní uloženiny
100
AcDbHatch
 10
0
 20
0
 30
0
210
0
220
0
230
1
  2
SOLID
 70
1
 71
0
 91
1
 92
2
 72
0
 73
1
 93
28
 10
-607528.32
 20
-1158189.57
 10
-607527.86
 20
-1158185.02
 10
-607526.77
 20
-1158174.175
 10
-607525.68
 20
-1158163.33
 10
-607525.145
 20
-1158161.055
 10
-607522.33
 20
-1158149.07
 10
-607520.98
 20
-1158143.33
 10
-607524.24
 20
-1158128.915
 10
-607527.5
 20
-1158114.5
 10
-607534.86
 20
-1158100.13
 10
-607512.96
 20
-1158063.47
 10
-607498.1639
 20
-1158038.5731
 10
-607530.3062
 20
-1158019.3615
 10
-607534.03
 20
-1158024.38
 10
-607556.35
 20
-1158054.46
 10
-607567.35
 20
-1158066.13
 10
-607577.61
 20
-1158078.32
 10
-607562.57
 20
-1158086.135
 10
-607547.53
 20
-1158093.95
 10
-607556.46
 20
-1158095.46
 10
-607554.335
 20
-1158102.63
 10
-607552.21
 20
-1158109.8
 10
-607549.525
 20
-1158123.805
 10
-607546.84
 20
-1158137.81
 10
-607548.34
 20
-1158153.36
 10
-607548.74
 20
-1158167.11
 10
-607549.14
 20
-1158180.86
 10
-607528.32
 20
-1158189.57
 97
0
 75
0
 76
1
 98
0
  0
HATCH
  5
2015E
100
AcDbEntity
  8
skládky a antropogenní uloženiny
100
AcDbHatch
 10
0
 20
0
 30
0
210
0
220
0
230
1
  2
SOLID
 70
1
 71
0
 91
1
 92
2
 72
0
 73
1
 93
9
 10
-594597.323
 20
-1159463.5857
 10
-594604.5532
 20
-1159467.2891
 10
-594574.6965
 20
-1159504.229
 10
-594561.2262
 20
-1159535.899
 10
-594556.96
 20
-1159548.61
 10
-594546.79
 20
-1159528.37
 10
-594567.21
 20
-1159478.55
 10
-594587.08
 20
-1159460.2
 10
-594597.323
 20
-1159463.5857
 97
0
 75
0
 76
1
 98
0
  0
HATCH
  5
2015F
100
AcDbEntity
  8
skládky a antropogenní uloženiny
100
AcDbHatch
 10
0
 20
0
 30
0
210
0
220
0
230
1
  2
SOLID
 70
1
 71
0
 91
1
 92
2
 72
0
 73
1
 93
5
 10
-594669.13
 20
-1159447.675
 10
-594689.2262
 20
-1159454.299
 10
-594567.4238
 20
-1159595.7333
 10
-594559.4788
 20
-1159571.2073
 10
-594669.13
 20
-1159447.675
 97
0
 75
0
 76
1
 98
0
  0
HATCH
  5
20160
100
AcDbEntity
  8
skládky a antropogenní uloženiny
100
AcDbHatch
 10
0
 20
0
 30
0
210
0
220
0
230
1
  2
SOLID
 70
1
 71
0
 91
1
 92
2
 72
0
 73
1
 93
12
 10
-595015.18
 20
-1159808.25
 10
-595004.94
 20
-1159819.12
 10
-594913.17
 20
-1159823.52
 10
-594877.94
 20
-1159822.8
 10
-594821.86
 20
-1159810.74
 10
-594791.5
 20
-1159799.06
 10
-594790.46
 20
-1159786.89
 10
-594800.48
 20
-1159776.68
 10
-594847.86
 20
-1159794.92
 10
-594885.09
 20
-1159801.65
 10
-594933.29
 20
-1159797.8
 10
-595015.18
 20
-1159808.25
 97
0
 75
0
 76
1
 98
0
  0
HATCH
  5
20161
100
AcDbEntity
  8
skládky a antropogenní uloženiny
100
AcDbHatch
 10
0
 20
0
 30
0
210
0
220
0
230
1
  2
SOLID
 70
1
 71
0
 91
1
 92
2
 72
0
 73
1
 93
10
 10
-592789.76
 20
-1159131.69
 10
-592770.24
 20
-1159079.18
 10
-592761.21
 20
-1159053.19
 10
-592747.765
 20
-1159030.765
 10
-592735.1
 20
-1159010.52
 10
-592741.51
 20
-1158995.84
 10
-592753.725
 20
-1158992.195
 10
-592798.811
 20
-1159017.881
 10
-592804.5
 20
-1159075.21
 10
-592789.76
 20
-1159131.69
 97
0
 75
0
 76
1
 98
0
  0
HATCH
  5
20162
100
AcDbEntity
  8
skládky a antropogenní uloženiny
100
AcDbHatch
 10
0
 20
0
 30
0
210
0
220
0
230
1
  2
SOLID
 70
1
 71
0
 91
1
 92
2
 72
0
 73
1
 93
17
 10
-594300.6594
 20
-1162044.0945
 10
-594240.7282
 20
-1161967.326
 10
-594119.1282
 20
-1161849.726
 10
-594115.3949
 20
-1161815.5535
 10
-594185.439
 20
-1161733.444
 10
-594260.2132
 20
-1161797.2307
 10
-594295.1282
 20
-1161760.926
 10
-594324.5655
 20
-1161789.2365
 10
-594377.5282
 20
-1161756.926
 10
-594457.255
 20
-1161887.6127
 10
-594424.7282
 20
-1161904.926
 10
-594455.8246
 20
-1161963.3474
 10
-594461.6273
 20
-1161973.8687
 10
-594422.642
 20
-1161990.6607
 10
-594351.1564
 20
-1162022.1226
 10
-594326.9317
 20
-1162032.8919
 10
-594300.6594
 20
-1162044.0945
 97
0
 75
0
 76
1
 98
0
  0
HATCH
  5
20163
100
AcDbEntity
  8
skládky a antropogenní uloženiny
100
AcDbHatch
 10
0
 20
0
 30
0
210
0
220
0
230
1
  2
SOLID
 70
1
 71
0
 91
1
 92
2
 72
0
 73
1
 93
34
 10
-593943.1521
 20
-1159398.2593
 10
-593923.74
 20
-1159464.69
 10
-593896.73
 20
-1159507.83
 10
-593883.6658
 20
-1159533.4663
 10
-593873.25
 20
-1159561.01
 10
-593845.24
 20
-1159635.75
 10
-593805.94
 20
-1159741.67
 10
-593779.4
 20
-1159819.37
 10
-593741.88
 20
-1159925.36
 10
-593671.67
 20
-1159958.775
 10
-593578.05
 20
-1159948.37
 10
-593532.805
 20
-1159944.2
 10
-593506.78
 20
-1159946.32
 10
-593485.14
 20
-1159939.97
 10
-593475.33
 20
-1159929.57
 10
-593435.18
 20
-1159880.11
 10
-593416.85
 20
-1159840.395
 10
-593422.585
 20
-1159798.735
 10
-593446.255
 20
-1159648.12
 10
-593458.12
 20
-1159571.105
 10
-593466.22
 20
-1159536.98
 10
-593479.9216
 20
-1159455.7789
 10
-593496.6067
 20
-1159378.0616
 10
-593508.4472
 20
-1159349.9244
 10
-593526.3538
 20
-1159332.299
 10
-593539.6366
 20
-1159319.2247
 10
-593558.0332
 20
-1159301.117
 10
-593580.4712
 20
-1159291.5626
 10
-593607.9497
 20
-1159292.0361
 10
-593677.9501
 20
-1159310.6077
 10
-593743.6648
 20
-1159327.7507
 10
-593811.82
 20
-1159349.1236
 10
-593890.9015
 20
-1159377.6225
 10
-593943.1521
 20
-1159398.2593
 97
0
 75
0
 76
1
 98
0
  0
HATCH
  5
20164
100
AcDbEntity
  8
skládky a antropogenní uloženiny
100
AcDbHatch
 10
0
 20
0
 30
0
210
0
220
0
230
1
  2
SOLID
 70
1
 71
0
 91
1
 92
2
 72
0
 73
1
 93
22
 10
-593526.8529
 20
-1159395.592
 10
-593554.8529
 20
-1159395.592
 10
-593571.9267
 20
-1159397.792
 10
-593581.3529
 20
-1159400.4788
 10
-593586.8529
 20
-1159404.392
 10
-593593.7529
 20
-1159409.9726
 10
-593595.7529
 20
-1159414.832
 10
-593598.8529
 20
-1159428.392
 10
-593597.7529
 20
-1159436.8748
 10
-593592.4529
 20
-1159444.392
 10
-593582.0292
 20
-1159449.792
 10
-593569.2529
 20
-1159449.992
 10
-593533.2529
 20
-1159446.792
 10
-593522.606
 20
-1159445.192
 10
-593513.2054
 20
-1159439.6616
 10
-593508.1529
 20
-1159432.6719
 10
-593506.1529
 20
-1159427.992
 10
-593506.0842
 20
-1159425.3508
 10
-593507.9529
 20
-1159417.7328
 10
-593514.0529
 20
-1159405.192
 10
-593518.1529
 20
-1159400.416
 10
-593526.8529
 20
-1159395.592
 97
0
 75
0
 76
1
 98
0
  0
HATCH
  5
20165
100
AcDbEntity
  8
skládky a antropogenní uloženiny
100
AcDbHatch
 10
0
 20
0
 30
0
210
0
220
0
230
1
  2
SOLID
 70
1
 71
0
 91
1
 92
2
 72
0
 73
1
 93
18
 10
-593564.8529
 20
-1159576.792
 10
-593580.8529
 20
-1159637.592
 10
-593540.8529
 20
-1159656.792
 10
-593531.4029
 20
-1159655.492
 10
-593525.1029
 20
-1159651.292
 10
-593519.8029
 20
-1159646.092
 10
-593516.8529
 20
-1159639.192
 10
-593523.4529
 20
-1159623.6111
 10
-593534.4529
 20
-1159615.192
 10
-593484.8529
 20
-1159611.992
 10
-593427.4529
 20
-1159615.792
 10
-593404.8529
 20
-1159611.992
 10
-593386.0529
 20
-1159605.9071
 10
-593389.1681
 20
-1159585.992
 10
-593412.4529
 20
-1159575.192
 10
-593446.8653
 20
-1159568.0302
 10
-593484.8529
 20
-1159567.992
 10
-593564.8529
 20
-1159576.792
 97
0
 75
0
 76
1
 98
0
  0
HATCH
  5
20166
100
AcDbEntity
  8
skládky a antropogenní uloženiny
100
AcDbHatch
 10
0
 20
0
 30
0
210
0
220
0
230
1
  2
SOLID
 70
1
 71
0
 91
1
 92
2
 72
0
 73
1
 93
17
 10
-593545.6529
 20
-1159574.392
 10
-593560.8529
 20
-1159647.192
 10
-593536.1279
 20
-1159656.142
 10
-593522.4529
 20
-1159648.692
 10
-593516.8529
 20
-1159639.192
 10
-593523.4529
 20
-1159623.6111
 10
-593534.4529
 20
-1159615.192
 10
-593509.6529
 20
-1159613.592
 10
-593475.2529
 20
-1159613.592
 10
-593452.4
 20
-1159608.15
 10
-593451.2529
 20
-1159599.992
 10
-593452.0529
 20
-1159584.792
 10
-593465.8591
 20
-1159568.0111
 10
-593484.8529
 20
-1159567.992
 10
-593494.4647
 20
-1159569.4701
 10
-593524.8529
 20
-1159572.392
 10
-593545.6529
 20
-1159574.392
 97
0
 75
0
 76
1
 98
0
  0
HATCH
  5
20167
100
AcDbEntity
  8
skládky a antropogenní uloženiny
100
AcDbHatch
 10
0
 20
0
 30
0
210
0
220
0
230
1
  2
SOLID
 70
1
 71
0
 91
1
 92
2
 72
0
 73
1
 93
18
 10
-593443.4529
 20
-1159869.992
 10
-593466.6529
 20
-1159860.392
 10
-593495.2583
 20
-1159829.7558
 10
-593522.4529
 20
-1159793.592
 10
-593530.4529
 20
-1159773.592
 10
-593540.3529
 20
-1159762.392
 10
-593549.6529
 20
-1159757.592
 10
-593562.5529
 20
-1159754.792
 10
-593577.6529
 20
-1159757.592
 10
-593587.1529
 20
-1159765.592
 10
-593588.8529
 20
-1159775.992
 10
-593585.5529
 20
-1159790.592
 10
-593572.0529
 20
-1159807.992
 10
-593515.2529
 20
-1159862.392
 10
-593470.1361
 20
-1159902.9022
 10
-593456.2529
 20
-1159906.792
 10
-593438.197
 20
-1159884.6913
 10
-593443.4529
 20
-1159869.992
 97
0
 75
0
 76
1
 98
0
  0
HATCH
  5
20168
100
AcDbEntity
  8
skládky a antropogenní uloženiny
100
AcDbHatch
 10
0
 20
0
 30
0
210
0
220
0
230
1
  2
SOLID
 70
1
 71
0
 91
1
 92
2
 72
0
 73
1
 93
26
 10
-593672.43
 20
-1159956.28
 10
-593657.5398
 20
-1159956.7805
 10
-593657.1131
 20
-1159946.1097
 10
-593655.6529
 20
-1159909.592
 10
-593653.2222
 20
-1159848.8
 10
-593644.4529
 20
-1159815.192
 10
-593638.201
 20
-1159791.2314
 10
-593634.0135
 20
-1159768.14
 10
-593633.8529
 20
-1159764.6187
 10
-593641.2649
 20
-1159761.992
 10
-593647.4529
 20
-1159764.392
 10
-593657.9145
 20
-1159773.6707
 10
-593671.2279
 20
-1159787.992
 10
-593689.2529
 20
-1159835.992
 10
-593695.6529
 20
-1159849.592
 10
-593696.9529
 20
-1159855.7886
 10
-593694.3529
 20
-1159860.6389
 10
-593689.2926
 20
-1159868.2667
 10
-593691.126
 20
-1159872.7485
 10
-593698.1529
 20
-1159883.106
 10
-593700.9529
 20
-1159887.9781
 10
-593699.6529
 20
-1159893.592
 10
-593693.3529
 20
-1159901.5075
 10
-593689.2529
 20
-1159919.192
 10
-593687.55
 20
-1159949.89
 10
-593672.43
 20
-1159956.28
 97
0
 75
0
 76
1
 98
0
  0
HATCH
  5
20169
100
AcDbEntity
  8
skládky a antropogenní uloženiny
100
AcDbHatch
 10
0
 20
0
 30
0
210
0
220
0
230
1
  2
SOLID
 70
1
 71
0
 91
1
 92
2
 72
0
 73
1
 93
21
 10
-593311.7167
 20
-1158984.8889
 10
-593297.2077
 20
-1159004.872
 10
-593282.6987
 20
-1159024.8551
 10
-593262.7292
 20
-1159044.5088
 10
-593242.7596
 20
-1159064.1624
 10
-593221.5838
 20
-1159076.1077
 10
-593204.191
 20
-1159082.2888
 10
-593184.6622
 20
-1159083.1663
 10
-593156.4275
 20
-1159076.1077
 10
-593116.2477
 20
-1159059.2757
 10
-593081.429
 20
-1159037.281
 10
-593080.9547
 20
-1159028.3264
 10
-593086.3844
 20
-1159015.8381
 10
-593101.3262
 20
-1159013.299
 10
-593133.6228
 20
-1159026.6975
 10
-593155.3415
 20
-1159032.3987
 10
-593178.44
 20
-1159038.95
 10
-593200.951
 20
-1159039.7288
 10
-593224.2987
 20
-1159035.385
 10
-593266.1073
 20
-1159016.3811
 10
-593311.7167
 20
-1158984.8889
 97
0
 75
0
 76
1
 98
0
  0
HATCH
  5
2016A
100
AcDbEntity
  8
skládky a antropogenní uloženiny
100
AcDbHatch
 10
0
 20
0
 30
0
210
0
220
0
230
1
  2
SOLID
 70
1
 71
0
 91
1
 92
2
 72
0
 73
1
 93
15
 10
-594777.9516
 20
-1159337.2389
 10
-594759.0262
 20
-1159342.299
 10
-594706.4259
 20
-1159366.4722
 10
-594692.525
 20
-1159383.705
 10
-594677.3262
 20
-1159390.699
 10
-594604.5532
 20
-1159467.2891
 10
-594587.08
 20
-1159460.2
 10
-594571.855
 20
-1159455.415
 10
-594639.34
 20
-1159385.71
 10
-594706.9
 20
-1159323.58
 10
-594805.53
 20
-1159309.57
 10
-594807.32
 20
-1159323.84
 10
-594803.74
 20
-1159332.47
 10
-594792.74
 20
-1159332.65
 10
-594777.9516
 20
-1159337.2389
 97
0
 75
0
 76
1
 98
0
  0
HATCH
  5
2016B
100
AcDbEntity
  8
skládky a antropogenní uloženiny
100
AcDbHatch
 10
0
 20
0
 30
0
210
0
220
0
230
1
  2
SOLID
 70
1
 71
0
 91
1
 92
2
 72
0
 73
1
 93
10
 10
-594740.9177
 20
-1159456.1531
 10
-594708.1539
 20
-1159477.2421
 10
-594674.2109
 20
-1159518.0841
 10
-594660.3659
 20
-1159505.1662
 10
-594686.1217
 20
-1159472.0421
 10
-594735.3305
 20
-1159420.8324
 10
-594786.6327
 20
-1159374.3381
 10
-594805.4977
 20
-1159380.0431
 10
-594768.394
 20
-1159423.9784
 10
-594740.9177
 20
-1159456.1531
 97
0
 75
0
 76
1
 98
0
  0
HATCH
  5
2016C
100
AcDbEntity
  8
skládky a antropogenní uloženiny
100
AcDbHatch
 10
0
 20
0
 30
0
210
0
220
0
230
1
  2
SOLID
 70
1
 71
0
 91
1
 92
2
 72
0
 73
1
 93
25
 10
-594463.34
 20
-1159491.93
 10
-594487.79
 20
-1159478.17
 10
-594513.24
 20
-1159471.37
 10
-594538.41
 20
-1159463.85
 10
-594538.25
 20
-1159486.03
 10
-594512.67
 20
-1159492.67
 10
-594497.2
 20
-1159502.4
 10
-594466.805
 20
-1159525.59
 10
-594436.41
 20
-1159548.78
 10
-594418.2875
 20
-1159562.5454
 10
-594388.7262
 20
-1159580.899
 10
-594378.8611
 20
-1159587.0196
 10
-594363.82
 20
-1159597.19
 10
-594359.39
 20
-1159597.59
 10
-594336.43
 20
-1159586.51
 10
-594328.04
 20
-1159582.88
 10
-594327.46
 20
-1159577.49
 10
-594352.16
 20
-1159559.59
 10
-594382.84
 20
-1159538.38
 10
-594412.39
 20
-1159524.55
 10
-594426.92
 20
-1159515.23
 10
-594432.0222
 20
-1159510.9125
 10
-594448.6663
 20
-1159501.3316
 10
-594455.8262
 20
-1159496.699
 10
-594463.34
 20
-1159491.93
 97
0
 75
0
 76
1
 98
0
  0
HATCH
  5
2016D
100
AcDbEntity
  8
skládky a antropogenní uloženiny
100
AcDbHatch
 10
0
 20
0
 30
0
210
0
220
0
230
1
  2
SOLID
 70
1
 71
0
 91
1
 92
2
 72
0
 73
1
 93
7
 10
-594571.855
 20
-1159455.415
 10
-594587.08
 20
-1159460.2
 10
-594567.21
 20
-1159478.55
 10
-594538.25
 20
-1159486.03
 10
-594538.41
 20
-1159463.85
 10
-594564.815
 20
-1159458.065
 10
-594571.855
 20
-1159455.415
 97
0
 75
0
 76
1
 98
0
  0
HATCH
  5
2016E
100
AcDbEntity
  8
skládky a antropogenní uloženiny
100
AcDbHatch
 10
0
 20
0
 30
0
210
0
220
0
230
1
  2
SOLID
 70
1
 71
0
 91
1
 92
2
 72
0
 73
1
 93
17
 10
-594779.7
 20
-1159481.93
 10
-594765.5262
 20
-1159539.699
 10
-594748.845
 20
-1159519.33
 10
-594753.23
 20
-1159496.055
 10
-594765.97
 20
-1159461.24
 10
-594775.8262
 20
-1159440.7
 10
-594784.98
 20
-1159418.57
 10
-594800.97
 20
-1159399.13
 10
-594815.15
 20
-1159374.75
 10
-594838.835
 20
-1159325.695
 10
-594847.145
 20
-1159315.095
 10
-594864.255
 20
-1159292.245
 10
-594873.87
 20
-1159293.08
 10
-594821.155
 20
-1159386.39
 10
-594798.1883
 20
-1159429.934
 10
-594791.3146
 20
-1159453.0598
 10
-594779.7
 20
-1159481.93
 97
0
 75
0
 76
1
 98
0
  0
HATCH
  5
2016F
100
AcDbEntity
  8
skládky a antropogenní uloženiny
100
AcDbHatch
 10
0
 20
0
 30
0
210
0
220
0
230
1
  2
SOLID
 70
1
 71
0
 91
1
 92
2
 72
0
 73
1
 93
7
 10
-594838.95
 20
-1159512
 10
-594909.555
 20
-1159398.79
 10
-594917.4475
 20
-1159395.1906
 10
-594932.1262
 20
-1159399.3478
 10
-594932.4174
 20
-1159409.3444
 10
-594860.06
 20
-1159521.64
 10
-594838.95
 20
-1159512
 97
0
 75
0
 76
1
 98
0
  0
HATCH
  5
20170
100
AcDbEntity
  8
skládky a antropogenní uloženiny
100
AcDbHatch
 10
0
 20
0
 30
0
210
0
220
0
230
1
  2
SOLID
 70
1
 71
0
 91
1
 92
2
 72
0
 73
1
 93
49
 10
-595117.1836
 20
-1159492.5712
 10
-595116.1523
 20
-1159491.1974
 10
-595115.3408
 20
-1159489.6378
 10
-595114.7656
 20
-1159487.924
 10
-595114.4262
 20
-1159486.0541
 10
-595114.3292
 20
-1159484.066
 10
-595114.4748
 20
-1159481.9577
 10
-595114.8598
 20
-1159479.7717
 10
-595115.4848
 20
-1159477.506
 10
-595117.4174
 20
-1159472.8701
 10
-595120.1984
 20
-1159468.2283
 10
-595123.7208
 20
-1159463.7588
 10
-595127.8493
 20
-1159459.6334
 10
-595132.4252
 20
-1159456.0107
 10
-595137.2727
 20
-1159453.0298
 10
-595142.2055
 20
-1159450.8054
 10
-595147.034
 20
-1159449.4229
 10
-595149.3448
 20
-1159449.066
 10
-595151.5728
 20
-1159448.9355
 10
-595153.6729
 20
-1159449.034
 10
-595155.6472
 20
-1159449.3618
 10
-595157.456
 20
-1159449.9121
 10
-595159.1009
 20
-1159450.6855
 10
-595160.5487
 20
-1159451.6664
 10
-595161.801
 20
-1159452.8557
 10
-595162.8323
 20
-1159454.2295
 10
-595163.6438
 20
-1159455.7891
 10
-595164.2189
 20
-1159457.503
 10
-595164.5584
 20
-1159459.3728
 10
-595164.6553
 20
-1159461.3609
 10
-595164.5098
 20
-1159463.4693
 10
-595164.1247
 20
-1159465.6552
 10
-595163.4998
 20
-1159467.9209
 10
-595161.5672
 20
-1159472.5568
 10
-595158.7862
 20
-1159477.1987
 10
-595155.2638
 20
-1159481.6682
 10
-595151.1353
 20
-1159485.7935
 10
-595146.5594
 20
-1159489.4163
 10
-595141.7119
 20
-1159492.3971
 10
-595136.7791
 20
-1159494.6215
 10
-595131.9505
 20
-1159496.004
 10
-595129.6398
 20
-1159496.361
 10
-595127.4118
 20
-1159496.4915
 10
-595125.3117
 20
-1159496.3929
 10
-595123.3373
 20
-1159496.0652
 10
-595121.5286
 20
-1159495.5148
 10
-595119.8837
 20
-1159494.7414
 10
-595118.4358
 20
-1159493.7605
 10
-595117.1836
 20
-1159492.5712
 97
0
 75
0
 76
1
 98
0
  0
HATCH
  5
20171
100
AcDbEntity
  8
skládky a antropogenní uloženiny
100
AcDbHatch
 10
0
 20
0
 30
0
210
0
220
0
230
1
  2
SOLID
 70
1
 71
0
 91
1
 92
2
 72
0
 73
1
 93
33
 10
-595139.8094
 20
-1159631.079
 10
-595138.5056
 20
-1159630.7915
 10
-595137.2377
 20
-1159629.8823
 10
-595136.0546
 20
-1159628.3863
 10
-595135.0017
 20
-1159626.361
 10
-595134.1194
 20
-1159623.8842
 10
-595133.4417
 20
-1159621.0512
 10
-595132.9945
 20
-1159617.9707
 10
-595132.7952
 20
-1159614.7612
 10
-595132.8513
 20
-1159611.546
 10
-595133.1606
 20
-1159608.4486
 10
-595133.7114
 20
-1159605.5882
 10
-595134.4824
 20
-1159603.0745
 10
-595135.444
 20
-1159601.0043
 10
-595136.5593
 20
-1159599.4571
 10
-595137.7854
 20
-1159598.4922
 10
-595139.0751
 20
-1159598.1469
 10
-595140.3789
 20
-1159598.4344
 10
-595141.6467
 20
-1159599.3436
 10
-595142.8299
 20
-1159600.8396
 10
-595143.8828
 20
-1159602.8649
 10
-595144.7651
 20
-1159605.3417
 10
-595145.4428
 20
-1159608.1748
 10
-595145.89
 20
-1159611.2552
 10
-595146.0893
 20
-1159614.4648
 10
-595146.0332
 20
-1159617.68
 10
-595145.7238
 20
-1159620.7773
 10
-595145.1731
 20
-1159623.6378
 10
-595144.402
 20
-1159626.1514
 10
-595143.4404
 20
-1159628.2216
 10
-595142.3252
 20
-1159629.7689
 10
-595141.0991
 20
-1159630.7337
 10
-595139.8094
 20
-1159631.079
 97
0
 75
0
 76
1
 98
0
  0
HATCH
  5
20172
100
AcDbEntity
  8
skládky a antropogenní uloženiny
100
AcDbHatch
 10
0
 20
0
 30
0
210
0
220
0
230
1
  2
SOLID
 70
1
 71
0
 91
1
 92
2
 72
0
 73
1
 93
27
 10
-595274.7936
 20
-1159814.5474
 10
-595250.216
 20
-1159828.9393
 10
-595229.0759
 20
-1159843.1969
 10
-595193.7262
 20
-1159852.899
 10
-595167.5262
 20
-1159851.299
 10
-595157.5823
 20
-1159849.0833
 10
-595133.3537
 20
-1159835.4393
 10
-595122.0679
 20
-1159826.4925
 10
-595104.1879
 20
-1159804.1154
 10
-595090.5993
 20
-1159776.7308
 10
-595078.5262
 20
-1159775.299
 10
-595064.0262
 20
-1159770.699
 10
-595057.7
 20
-1159763.755
 10
-595055.3262
 20
-1159751.6325
 10
-595055.3698
 20
-1159748.6952
 10
-595057.2527
 20
-1159741.5994
 10
-595061.7262
 20
-1159732.899
 10
-595068.2262
 20
-1159725.0045
 10
-595081.465
 20
-1159715.265
 10
-595097.4262
 20
-1159706.3809
 10
-595118.75
 20
-1159697.38
 10
-595160.62
 20
-1159699.01
 10
-595196.83
 20
-1159713.02
 10
-595236.8599
 20
-1159720.9667
 10
-595250.5621
 20
-1159739.699
 10
-595265.4426
 20
-1159780.499
 10
-595274.7936
 20
-1159814.5474
 97
0
 75
0
 76
1
 98
0
  0
HATCH
  5
20173
100
AcDbEntity
  8
skládky a antropogenní uloženiny
100
AcDbHatch
 10
0
 20
0
 30
0
210
0
220
0
230
1
  2
SOLID
 70
1
 71
0
 91
1
 92
2
 72
0
 73
1
 93
27
 10
-594023.09
 20
-1159557.15
 10
-594058.2483
 20
-1159579.2003
 10
-594060.2946
 20
-1159587.299
 10
-594058.3314
 20
-1159589.499
 10
-594054.405
 20
-1159592.78
 10
-593976.5252
 20
-1159576.0631
 10
-593936.5233
 20
-1159568.4665
 10
-593901.777
 20
-1159556.8348
 10
-593877.0565
 20
-1159550.3402
 10
-593761.8627
 20
-1159496.9459
 10
-593758.8435
 20
-1159495.2518
 10
-593760.2721
 20
-1159488.8232
 10
-593764.5578
 20
-1159479.5374
 10
-593778.8437
 20
-1159479.1802
 10
-593791.5345
 20
-1159481.5944
 10
-593799.7192
 20
-1159483.8231
 10
-593805.2724
 20
-1159478.0612
 10
-593799.5581
 20
-1159466.6943
 10
-593803.8438
 20
-1159459.8944
 10
-593814.9153
 20
-1159459.8944
 10
-593857.6084
 20
-1159494.2495
 10
-593894.35
 20
-1159511.505
 10
-593914.5886
 20
-1159517.9263
 10
-593941.9364
 20
-1159527.4244
 10
-593973.4981
 20
-1159535.5271
 10
-593993.82
 20
-1159537.57
 10
-594023.09
 20
-1159557.15
 97
0
 75
0
 76
1
 98
0
  0
HATCH
  5
20174
100
AcDbEntity
  8
skládky a antropogenní uloženiny
100
AcDbHatch
 10
0
 20
0
 30
0
210
0
220
0
230
1
  2
SOLID
 70
1
 71
0
 91
1
 92
2
 72
0
 73
1
 93
34
 10
-593859.77
 20
-1160430.92
 10
-593856.78
 20
-1160418.03
 10
-593851.03
 20
-1160393.24
 10
-593841.53
 20
-1160352.31
 10
-593840.77
 20
-1160344.11
 10
-593848.54
 20
-1160342.1
 10
-593847.12
 20
-1160335.73
 10
-593840.18
 20
-1160337.24
 10
-593838.76
 20
-1160328.795
 10
-593837.27
 20
-1160322.49
 10
-593832.23
 20
-1160311.35
 10
-593824.215
 20
-1160281.475
 10
-593816.2
 20
-1160251.6
 10
-593812.49
 20
-1160252.61
 10
-593808.815
 20
-1160237.135
 10
-593818.6661
 20
-1160235.5999
 10
-593871.9262
 20
-1160242.499
 10
-593933.2904
 20
-1160261.1153
 10
-593990.0649
 20
-1160281.5341
 10
-594052.3262
 20
-1160304.899
 10
-594075.14
 20
-1160318.88
 10
-594084.7149
 20
-1160326.299
 10
-594094.2898
 20
-1160338.0164
 10
-594095.8262
 20
-1160352.699
 10
-594091.1262
 20
-1160361.299
 10
-594078.29
 20
-1160374.14
 10
-594064.4792
 20
-1160381.4784
 10
-594029.355
 20
-1160397.495
 10
-594000.04
 20
-1160445.2432
 10
-593989.53
 20
-1160453.29
 10
-593964.1262
 20
-1160458.099
 10
-593923.41
 20
-1160457.58
 10
-593903.65
 20
-1160449.3415
 10
-593859.77
 20
-1160430.92
 97
0
 75
0
 76
1
 98
0
  0
HATCH
  5
20175
100
AcDbEntity
  8
skládky a antropogenní uloženiny
100
AcDbHatch
 10
0
 20
0
 30
0
210
0
220
0
230
1
  2
SOLID
 70
1
 71
0
 91
1
 92
2
 72
0
 73
1
 93
13
 10
-594477.59
 20
-1161164.07
 10
-594399.755
 20
-1161174.78
 10
-594387.73
 20
-1161178.59
 10
-594352.41
 20
-1161174.32
 10
-594382.53
 20
-1161095
 10
-594389.4614
 20
-1161078.7285
 10
-594399.96
 20
-1161064.59
 10
-594418.203
 20
-1161051.5396
 10
-594461.82
 20
-1161017.365
 10
-594499.44
 20
-1160973.66
 10
-594539.97
 20
-1160974.805
 10
-594532.4762
 20
-1161025.2775
 10
-594477.59
 20
-1161164.07
 97
0
 75
0
 76
1
 98
0
  0
HATCH
  5
20176
100
AcDbEntity
  8
skládky a antropogenní uloženiny
100
AcDbHatch
 10
0
 20
0
 30
0
210
0
220
0
230
1
  2
SOLID
 70
1
 71
0
 91
1
 92
2
 72
0
 73
1
 93
18
 10
-594247.4699
 20
-1160580.0374
 10
-594252.3762
 20
-1160593.599
 10
-594254.9506
 20
-1160605.2568
 10
-594255.8357
 20
-1160613.7928
 10
-594256.156
 20
-1160616.882
 10
-594223.87
 20
-1160652.71
 10
-594220.5169
 20
-1160652.747
 10
-594215.003
 20
-1160652.399
 10
-594208.46
 20
-1160647.925
 10
-594200.8148
 20
-1160634.5475
 10
-594199.4634
 20
-1160628.1805
 10
-594198.02
 20
-1160621.38
 10
-594199.8074
 20
-1160613.6821
 10
-594206.335
 20
-1160606.035
 10
-594233.53
 20
-1160580.8
 10
-594240.4778
 20
-1160573.399
 10
-594243.0042
 20
-1160573.799
 10
-594247.4699
 20
-1160580.0374
 97
0
 75
0
 76
1
 98
0
  0
HATCH
  5
20177
100
AcDbEntity
  8
skládky a antropogenní uloženiny
100
AcDbHatch
 10
0
 20
0
 30
0
210
0
220
0
230
1
  2
SOLID
 70
1
 71
0
 91
1
 92
2
 72
0
 73
1
 93
13
 10
-594721.6683
 20
-1161253.0363
 10
-594668.4599
 20
-1161219.3017
 10
-594636.6762
 20
-1161196.599
 10
-594632.3762
 20
-1161191.199
 10
-594630.5762
 20
-1161181.199
 10
-594632.9762
 20
-1161171.3452
 10
-594638.0762
 20
-1161163.399
 10
-594641.9762
 20
-1161159.0336
 10
-594649.9113
 20
-1161155.3098
 10
-594661.1701
 20
-1161152.599
 10
-594672.6762
 20
-1161154.999
 10
-594730.2762
 20
-1161190.199
 10
-594721.6683
 20
-1161253.0363
 97
0
 75
0
 76
1
 98
0
  0
HATCH
  5
20178
100
AcDbEntity
  8
skládky a antropogenní uloženiny
100
AcDbHatch
 10
0
 20
0
 30
0
210
0
220
0
230
1
  2
SOLID
 70
1
 71
0
 91
1
 92
2
 72
0
 73
1
 93
22
 10
-595002.8762
 20
-1161631.399
 10
-594990.42
 20
-1161656.08
 10
-594916.15
 20
-1161628.14
 10
-594859.024
 20
-1161638.036
 10
-594852.3
 20
-1161655.79
 10
-594875.697
 20
-1161697.882
 10
-594865.3762
 20
-1161731.2071
 10
-594856.6581
 20
-1161754.999
 10
-594847.94
 20
-1161762.91
 10
-594834.74
 20
-1161750.84
 10
-594844.39
 20
-1161728.29
 10
-594850.24
 20
-1161694.38
 10
-594819.46
 20
-1161646.3
 10
-594823.68
 20
-1161633.95
 10
-594825.405
 20
-1161629.09
 10
-594827.13
 20
-1161624.23
 10
-594831.285
 20
-1161620.03
 10
-594835.44
 20
-1161615.83
 10
-594845.18
 20
-1161610.42
 10
-594876.36
 20
-1161605.19
 10
-594923.44
 20
-1161601.08
 10
-595002.8762
 20
-1161631.399
 97
0
 75
0
 76
1
 98
0
  0
HATCH
  5
20179
100
AcDbEntity
  8
skládky a antropogenní uloženiny
100
AcDbHatch
 10
0
 20
0
 30
0
210
0
220
0
230
1
  2
SOLID
 70
1
 71
0
 91
1
 92
2
 72
0
 73
1
 93
58
 10
-594847.94
 20
-1161762.91
 10
-594815.9762
 20
-1161784.599
 10
-594745.5762
 20
-1161794.999
 10
-594744.7762
 20
-1161779.399
 10
-594737.5762
 20
-1161760.999
 10
-594719.5762
 20
-1161744.199
 10
-594705.9762
 20
-1161742.599
 10
-594692.3762
 20
-1161740.999
 10
-594673.5297
 20
-1161731.4936
 10
-594666.2258
 20
-1161734.9241
 10
-594644.7762
 20
-1161744.999
 10
-594618.3762
 20
-1161757.399
 10
-594604.7762
 20
-1161767.399
 10
-594600.3762
 20
-1161784.199
 10
-594602.3762
 20
-1161794.999
 10
-594620.3266
 20
-1161809.694
 10
-594634.4331
 20
-1161835.1413
 10
-594681.18
 20
-1161889.01
 10
-594687.6
 20
-1161915.17
 10
-594688.81
 20
-1161926.94
 10
-594672.58
 20
-1161905.7
 10
-594645.125
 20
-1161871.66
 10
-594617.67
 20
-1161837.62
 10
-594612.49
 20
-1161828.835
 10
-594607.31
 20
-1161820.05
 10
-594603.48
 20
-1161816.69
 10
-594599.65
 20
-1161813.33
 10
-594597.235
 20
-1161810.745
 10
-594594.82
 20
-1161808.16
 10
-594590.95
 20
-1161803.27
 10
-594588.15
 20
-1161798.36
 10
-594585.55
 20
-1161793.25
 10
-594584.16
 20
-1161789.2
 10
-594583.09
 20
-1161783.37
 10
-594582.92
 20
-1161780.5
 10
-594583.28
 20
-1161775.06
 10
-594583.95
 20
-1161770.48
 10
-594585.09
 20
-1161766.45
 10
-594586.31
 20
-1161763.54
 10
-594587.53
 20
-1161760.63
 10
-594589.44
 20
-1161757.74
 10
-594590.785
 20
-1161756.255
 10
-594593.775
 20
-1161753.175
 10
-594598.875
 20
-1161748.75
 10
-594602.33
 20
-1161745.92
 10
-594618.76
 20
-1161734.69
 10
-594638.18
 20
-1161724.41
 10
-594655.205
 20
-1161719.135
 10
-594675.69
 20
-1161713.06
 10
-594681.16
 20
-1161712.57
 10
-594695.28
 20
-1161719.59
 10
-594710.05
 20
-1161724.41
 10
-594723.37
 20
-1161725.98
 10
-594752.72
 20
-1161749.91
 10
-594762.01
 20
-1161773.39
 10
-594813.37
 20
-1161768.65
 10
-594834.74
 20
-1161750.84
 10
-594847.94
 20
-1161762.91
 97
0
 75
0
 76
1
 98
0
  0
HATCH
  5
2017A
100
AcDbEntity
  8
skládky a antropogenní uloženiny
100
AcDbHatch
 10
0
 20
0
 30
0
210
0
220
0
230
1
  2
SOLID
 70
1
 71
0
 91
1
 92
2
 72
0
 73
1
 93
6
 10
-594562.5762
 20
-1161987.799
 10
-594470.5762
 20
-1162031.799
 10
-594333.7762
 20
-1162084.599
 10
-594311.3762
 20
-1162055.799
 10
-594468.9762
 20
-1161987.799
 10
-594562.5762
 20
-1161987.799
 97
0
 75
0
 76
1
 98
0
  0
HATCH
  5
2017B
100
AcDbEntity
  8
skládky a antropogenní uloženiny
100
AcDbHatch
 10
0
 20
0
 30
0
210
0
220
0
230
1
  2
SOLID
 70
1
 71
0
 91
1
 92
2
 72
0
 73
1
 93
31
 10
-593587.8104
 20
-1159293.3994
 10
-593597.36
 20
-1159311.91
 10
-593583.28
 20
-1159323.35
 10
-593519.9538
 20
-1159333.899
 10
-593480.3762
 20
-1159337.399
 10
-593450.895
 20
-1159352.655
 10
-593435.502
 20
-1159358.1676
 10
-593406.5762
 20
-1159370.199
 10
-593399.4762
 20
-1159371.799
 10
-593395.7262
 20
-1159369.9654
 10
-593392.3762
 20
-1159364.4645
 10
-593392.39
 20
-1159358.73
 10
-593411.5762
 20
-1159349.7475
 10
-593418.42
 20
-1159340.765
 10
-593405.8975
 20
-1159334.9807
 10
-593354.6368
 20
-1159340.599
 10
-593303.3762
 20
-1159356.599
 10
-593242.6524
 20
-1159399.4952
 10
-593130.5762
 20
-1159286.999
 10
-593234.9762
 20
-1159306.199
 10
-593245.8279
 20
-1159321.9339
 10
-593315.3762
 20
-1159297.399
 10
-593434.5762
 20
-1159290.199
 10
-593441.5762
 20
-1159284.999
 10
-593439.5518
 20
-1159259.2626
 10
-593448.5762
 20
-1159251.799
 10
-593462.0127
 20
-1159255.799
 10
-593475.4492
 20
-1159270.8867
 10
-593497.9762
 20
-1159289.799
 10
-593519.1762
 20
-1159296.199
 10
-593587.8104
 20
-1159293.3994
 97
0
 75
0
 76
1
 98
0
  0
HATCH
  5
2017C
100
AcDbEntity
  8
skládky a antropogenní uloženiny
100
AcDbHatch
 10
0
 20
0
 30
0
210
0
220
0
230
1
  2
SOLID
 70
1
 71
0
 91
1
 92
2
 72
0
 73
1
 93
19
 10
-593942.86
 20
-1159398.7
 10
-593923.74
 20
-1159464.69
 10
-593896.73
 20
-1159507.83
 10
-593859.245
 20
-1159598.38
 10
-593741.88
 20
-1159925.36
 10
-593668.14
 20
-1159959.35
 10
-593540.095
 20
-1159944.525
 10
-593511.55
 20
-1159945.89
 10
-593485.14
 20
-1159939.97
 10
-593435.18
 20
-1159880.11
 10
-593416.85
 20
-1159840.395
 10
-593446.255
 20
-1159648.12
 10
-593495.55
 20
-1159377.25
 10
-593506.41
 20
-1159350.5
 10
-593558.0332
 20
-1159301.117
 10
-593580.4712
 20
-1159291.5626
 10
-593607.9497
 20
-1159292.0361
 10
-593777.7424
 20
-1159338.4371
 10
-593942.86
 20
-1159398.7
 97
0
 75
0
 76
1
 98
0
  0
ENDSEC
  0
SECTION
  2
OBJECTS
  0
DICTIONARY
  5
C
330
0
100
AcDbDictionary
281
     1
  3
ACAD_GROUP
350
D
  3
ACAD_LAYOUT
350
1A
  3
ACAD_MLEADERSTYLE
350
43
  3
ACAD_PLOTSETTINGS
350
19
  3
ACAD_PLOTSTYLENAME
350
E
  3
ACAD_TABLESTYLE
350
42
  0
DICTIONARY
  5
D
102
{ACAD_REACTORS
330
C
102
}
330
C
100
AcDbDictionary
281
     1
  0
DICTIONARY
  5
1A
102
{ACAD_REACTORS
330
C
102
}
330
C
100
AcDbDictionary
281
     1
  3
Layout1
350
1E
  3
Model
350
22
  0
DICTIONARY
  5
43
102
{ACAD_REACTORS
330
C
102
}
330
C
100
AcDbDictionary
281
     1
  0
DICTIONARY
  5
19
102
{ACAD_REACTORS
330
C
102
}
330
C
100
AcDbDictionary
281
     1
  0
ACDBDICTIONARYWDFLT
  5
E
102
{ACAD_REACTORS
330
C
102
}
330
C
100
AcDbDictionary
281
     1
  3
Normal
350
F
100
AcDbDictionaryWithDefault
340
F
  0
DICTIONARY
  5
42
102
{ACAD_REACTORS
330
C
102
}
330
C
100
AcDbDictionary
281
     1
  0
LAYOUT
  5
1E
102
{ACAD_REACTORS
330
1A
102
}
330
1A
100
AcDbPlotSettings
  1

  2
none_device
  4

  6

 40
0.0
 41
0.0
 42
0.0
 43
0.0
 44
0.0
 45
0.0
 46
0.0
 47
0.0
 48
0.0
 49
0.0
140
0.0
141
0.0
142
1.0
143
1.0
 70
   688
 72
     0
 73
     0
 74
     5
  7

 75
    16
 76
     0
 77
     2
 78
   300
147
1.0
148
0.0
149
0.0
100
AcDbLayout
  1
Layout1
 70
     1
 71
     1
 10
0.0
 20
0.0
 11
12.0
 21
9.0
 12
0.0
 22
0.0
 32
0.0
 14
1.000000000000000E+20
 24
1.000000000000000E+20
 34
1.000000000000000E+20
 15
-1.000000000000000E+20
 25
-1.000000000000000E+20
 35
-1.000000000000000E+20
146
0.0
 13
0.0
 23
0.0
 33
0.0
 16
1.0
 26
0.0
 36
0.0
 17
0.0
 27
1.0
 37
0.0
 76
     0
330
1B
  0
LAYOUT
  5
22
102
{ACAD_REACTORS
330
1A
102
}
330
1A
100
AcDbPlotSettings
  1

  2
none_device
  4

  6

 40
0.0
 41
0.0
 42
0.0
 43
0.0
 44
0.0
 45
0.0
 46
0.0
 47
0.0
 48
0.0
 49
0.0
140
0.0
141
0.0
142
1.0
143
1.0
 70
  1712
 72
     0
 73
     0
 74
     0
  7

 75
     0
 76
     0
 77
     2
 78
   300
147
1.0
148
0.0
149
0.0
100
AcDbLayout
  1
Model
 70
     1
 71
     0
 10
0.0
 20
0.0
 11
12.0
 21
9.0
 12
0.0
 22
0.0
 32
0.0
 14
30.0
 24
49.75
 34
0.0
 15
130.5
 25
163.1318914119703
 35
0.0
146
0.0
 13
0.0
 23
0.0
 33
0.0
 16
1.0
 26
0.0
 36
0.0
 17
0.0
 27
1.0
 37
0.0
 76
     0
330
1F
331
29
  0
ENDSEC
  0
EOF
