  0
SECTION
  2
HEADER
  9
$ACADVER
  1
AC1018
  9
$ACADMAINTVER
 70
     0
  9
$DWGCODEPAGE
  3
ANSI_1252
  9
$EXTMIN
 10
16.461416226056
 20
49.1280306886992
 30
0.0
  9
$EXTMAX
 10
16.7165359087501
 20
49.2887130961905
 30
0.0
  9
$LIMMIN
 10
0.0
 20
0.0
  9
$LIMMAX
 10
12.0
 20
9.0
  9
$ORTHOMODE
 70
     0
  9
$REGENMODE
 70
     1
  9
$FILLMODE
 70
     1
  9
$QTEXTMODE
 70
     0
  9
$MIRRTEXT
 70
     1
  9
$LTSCALE
 40
1.0
  9
$ATTMODE
 70
     1
  9
$TEXTSIZE
 40
0.2
  9
$TRACEWID
 40
0.05
  9
$TEXTSTYLE
  7
Standard
  9
$CLAYER
  8
0
  9
$CELTYPE
  6
ByLayer
  9
$CECOLOR
 62
   256
  9
$CELTSCALE
 40
1.0
  9
$DISPSILH
 70
     0
  9
$LUNITS
 70
     2
  9
$LUPREC
 70
     4
  9
$SKETCHINC
 40
0.1
  9
$FILLETRAD
 40
0.5
  9
$AUNITS
 70
     0
  9
$AUPREC
 70
     0
  9
$MENU
  1
.
  9
$ELEVATION
 40
0.0
  9
$PELEVATION
 40
0.0
  9
$THICKNESS
 40
0.0
  9
$LIMCHECK
 70
     0
  9
$CHAMFERA
 40
0.5
  9
$CHAMFERB
 40
0.5
  9
$CHAMFERC
 40
1.0
  9
$CHAMFERD
 40
0.0
  9
$SKPOLY
 70
     0
  9
$ANGBASE
 50
0.0
  9
$ANGDIR
 70
     0
  9
$PDMODE
 70
     0
  9
$PDSIZE
 40
0.0
  9
$PLINEWID
 40
0.0
  9
$SPLFRAME
 70
     0
  9
$SPLINETYPE
 70
     6
  9
$SPLINESEGS
 70
     8
  9
$HANDSEED
  5
0002017E
  9
$SURFTAB1
 70
     6
  9
$SURFTAB2
 70
     6
  9
$SURFTYPE
 70
     6
  9
$SURFU
 70
     6
  9
$SURFV
 70
     6
  9
$UCSBASE
  2

  9
$UCSNAME
  2

  9
$UCSORG
 10
0.0
 20
0.0
 30
0.0
  9
$UCSXDIR
 10
1.0
 20
0.0
 30
0.0
  9
$UCSYDIR
 10
0.0
 20
1.0
 30
0.0
  9
$UCSORTHOREF
  2

  9
$UCSORTHOVIEW
 70
     0
  9
$UCSORGTOP
 10
0.0
 20
0.0
 30
0.0
  9
$UCSORGBOTTOM
 10
0.0
 20
0.0
 30
0.0
  9
$UCSORGLEFT
 10
0.0
 20
0.0
 30
0.0
  9
$UCSORGRIGHT
 10
0.0
 20
0.0
 30
0.0
  9
$UCSORGFRONT
 10
0.0
 20
0.0
 30
0.0
  9
$UCSORGBACK
 10
0.0
 20
0.0
 30
0.0
  9
$PUCSBASE
  2

  9
$PUCSNAME
  2

  9
$PUCSORG
 10
0.0
 20
0.0
 30
0.0
  9
$PUCSXDIR
 10
1.0
 20
0.0
 30
0.0
  9
$PUCSYDIR
 10
0.0
 20
1.0
 30
0.0
  9
$PUCSORTHOREF
  2

  9
$PUCSORTHOVIEW
 70
     0
  9
$PUCSORGTOP
 10
0.0
 20
0.0
 30
0.0
  9
$PUCSORGBOTTOM
 10
0.0
 20
0.0
 30
0.0
  9
$PUCSORGLEFT
 10
0.0
 20
0.0
 30
0.0
  9
$PUCSORGRIGHT
 10
0.0
 20
0.0
 30
0.0
  9
$PUCSORGFRONT
 10
0.0
 20
0.0
 30
0.0
  9
$PUCSORGBACK
 10
0.0
 20
0.0
 30
0.0
  9
$WORLDVIEW
 70
     1
  9
$SHADEDGE
 70
     3
  9
$SHADEDIF
 70
    70
  9
$TILEMODE
 70
     1
  9
$MAXACTVP
 70
    64
  9
$PINSBASE
 10
0.0
 20
0.0
 30
0.0
  9
$PLIMCHECK
 70
     0
  9
$PEXTMIN
 10
1.000000000000000E+20
 20
1.000000000000000E+20
 30
1.000000000000000E+20
  9
$PEXTMAX
 10
-1.000000000000000E+20
 20
-1.000000000000000E+20
 30
-1.000000000000000E+20
  9
$PLIMMIN
 10
0.0
 20
0.0
  9
$PLIMMAX
 10
12.0
 20
9.0
  9
$UNITMODE
 70
     0
  9
$VISRETAIN
 70
     1
  9
$PLINEGEN
 70
     0
  9
$PSLTSCALE
 70
     1
  9
$TREEDEPTH
 70
  3020
  9
$CMLSTYLE
  2
Standard
  9
$CMLJUST
 70
     0
  9
$CMLSCALE
 40
1.0
  9
$PROXYGRAPHICS
 70
     1
  9
$MEASUREMENT
 70
     0
  9
$CELWEIGHT
370
    -1
  9
$ENDCAPS
280
     0
  9
$JOINSTYLE
280
     0
  9
$LWDISPLAY
290
     0
  9
$INSUNITS
 70
     1
  9
$HYPERLINKBASE
  1

  9
$STYLESHEET
  1

  9
$XEDIT
290
     1
  9
$CEPSNTYPE
380
     0
  9
$PSTYLEMODE
290
     1
  9
$EXTNAMES
290
     1
  9
$PSVPSCALE
 40
0.0
  9
$OLESTARTUP
290
     0
  9
$SORTENTS
280
   127
  9
$INDEXCTL
280
     0
  9
$HIDETEXT
280
     1
  9
$XCLIPFRAME
290
     0
  9
$HALOGAP
280
     0
  9
$OBSCOLOR
 70
   257
  9
$OBSLTYPE
280
     0
  9
$INTERSECTIONDISPLAY
280
     0
  9
$INTERSECTIONCOLOR
 70
   257
  9
$DIMASSOC
280
     2
  9
$PROJECTNAME
  1

  0
ENDSEC
  0
SECTION
  2
CLASSES
  0
CLASS
  1
ACDBDICTIONARYWDFLT
  2
AcDbDictionaryWithDefault
  3
ObjectDBX Classes
 90
        0
 91
        4
280
     0
281
     0
  0
ENDSEC
  0
SECTION
  2
TABLES
  0
TABLE
  2
VPORT
  5
8
330
0
100
AcDbSymbolTable
 70
     1
  0
VPORT
  5
29
330
8
100
AcDbSymbolTableRecord
100
AcDbViewportTableRecord
  2
*Active
 70
     0
 10
0.0
 20
0.0
 11
1.0
 21
1.0
 12
80.25
 22
106.4409457059851
 13
0.0
 23
0.0
 14
0.5
 24
0.5
 15
0.5
 25
0.5
 16
0.0
 26
0.0
 36
1.0
 17
0.0
 27
0.0
 37
0.0
 40
113.3818914119703
 41
0.8863849310366128
 42
50.0
 43
0.0
 44
0.0
 50
0.0
 51
0.0
 71
     0
 72
  1000
 73
     1
 74
     3
 75
     0
 76
     0
 77
     0
 78
     0
281
     0
 65
     1
110
0.0
120
0.0
130
0.0
111
1.0
121
0.0
131
0.0
112
0.0
122
1.0
132
0.0
 79
     0
146
0.0
  0
ENDTAB
  0
TABLE
  2
LTYPE
  5
5
330
0
100
AcDbSymbolTable
 70
     1
  0
LTYPE
  5
14
330
5
100
AcDbSymbolTableRecord
100
AcDbLinetypeTableRecord
  2
ByBlock
 70
     0
  3

 72
    65
 73
     0
 40
0.0
  0
LTYPE
  5
15
330
5
100
AcDbSymbolTableRecord
100
AcDbLinetypeTableRecord
  2
ByLayer
 70
     0
  3

 72
    65
 73
     0
 40
0.0
  0
LTYPE
  5
16
330
5
100
AcDbSymbolTableRecord
100
AcDbLinetypeTableRecord
  2
Continuous
 70
     0
  3
Solid line
 72
    65
 73
     0
 40
0.0
  0
ENDTAB
  0
TABLE
  2
LAYER
  5
2
330
0
100
AcDbSymbolTable
 70
     1
  0
LAYER
  5
10
330
2
100
AcDbSymbolTableRecord
100
AcDbLayerTableRecord
  2
0
 70
     0
 62
     7
  6
Continuous
370
    -3
390
F
  0
LAYER
  5
2017D
330
2
100
AcDbSymbolTableRecord
100
AcDbLayerTableRecord
  2
skládky a antropogenní uloženiny
 70
     0
 62
     7
  6
Continuous
370
    -3
390
F
  0
ENDTAB
  0
TABLE
  2
STYLE
  5
3
330
0
100
AcDbSymbolTable
 70
     1
  0
STYLE
  5
11
330
3
100
AcDbSymbolTableRecord
100
AcDbTextStyleTableRecord
  2
Standard
 70
     0
 40
0.0
 41
1.0
 50
0.0
 71
     0
 42
0.2
  3
txt
  4

  0
ENDTAB
  0
TABLE
  2
VIEW
  5
6
330
0
100
AcDbSymbolTable
 70
     0
  0
ENDTAB
  0
TABLE
  2
UCS
  5
7
330
0
100
AcDbSymbolTable
 70
     0
  0
ENDTAB
  0
TABLE
  2
APPID
  5
9
330
0
100
AcDbSymbolTable
 70
     1
  0
APPID
  5
12
330
9
100
AcDbSymbolTableRecord
100
AcDbRegAppTableRecord
  2
ACAD
 70
     0
  0
ENDTAB
  0
TABLE
  2
DIMSTYLE
  5
A
330
0
100
AcDbSymbolTable
 70
     1
100
AcDbDimStyleTable
  0
DIMSTYLE
105
27
330
A
100
AcDbSymbolTableRecord
100
AcDbDimStyleTableRecord
  2
Standard
 70
     0
340
11
  0
ENDTAB
  0
TABLE
  2
BLOCK_RECORD
  5
1
330
0
100
AcDbSymbolTable
 70
     1
  0
BLOCK_RECORD
  5
1F
330
1
100
AcDbSymbolTableRecord
100
AcDbBlockTableRecord
  2
*Model_Space
340
22
  0
BLOCK_RECORD
  5
1B
330
1
100
AcDbSymbolTableRecord
100
AcDbBlockTableRecord
  2
*Paper_Space
340
1E
  0
ENDTAB
  0
ENDSEC
  0
SECTION
  2
BLOCKS
  0
BLOCK
  5
20
330
1F
100
AcDbEntity
  8
0
100
AcDbBlockBegin
  2
*Model_Space
 70
     0
 10
0.0
 20
0.0
 30
0.0
  3
*Model_Space
  1

  0
ENDBLK
  5
21
330
1F
100
AcDbEntity
  8
0
100
AcDbBlockEnd
  0
BLOCK
  5
1C
330
1B
100
AcDbEntity
 67
     1
  8
0
100
AcDbBlockBegin
  2
*Paper_Space
 70
     0
 10
0.0
 20
0.0
 30
0.0
  3
*Paper_Space
  1

  0
ENDBLK
  5
1D
330
1B
100
AcDbEntity
 67
     1
  8
0
100
AcDbBlockEnd
  0
ENDSEC
  0
SECTION
  2
ENTITIES
  0
HATCH
  5
20000
100
AcDbEntity
  8
skládky a antropogenní uloženiny
100
AcDbHatch
 10
0
 20
0
 30
0
210
0
220
0
230
1
  2
SOLID
 70
1
 71
0
 91
1
 92
2
 72
0
 73
1
 93
22
 10
16.5699507815489
 20
49.1804404765223
 10
16.5699666536485
 20
49.1803256761609
 10
16.5699788988306
 20
49.180285092666
 10
16.5700173028697
 20
49.1801830752355
 10
16.5701511894829
 20
49.1800837016048
 10
16.5702757585734
 20
49.1800688728554
 10
16.5707362811932
 20
49.1800449615719
 10
16.5708153640049
 20
49.1800421477252
 10
16.5709000170514
 20
49.1800760444212
 10
16.5709267882762
 20
49.1801243955196
 10
16.5708650916304
 20
49.1803412712406
 10
16.5709894994056
 20
49.1804307553106
 10
16.5711475730532
 20
49.1805274131461
 10
16.5711280084716
 20
49.1805976150809
 10
16.5710671688716
 20
49.180746673742
 10
16.5709764379006
 20
49.1809199092519
 10
16.570849336917
 20
49.181190583638
 10
16.5705422032054
 20
49.1811251390662
 10
16.5703782687095
 20
49.1810940607947
 10
16.5701661302621
 20
49.1809936561246
 10
16.5700766347212
 20
49.1809133816521
 10
16.5699507815489
 20
49.1804404765223
 97
0
 75
0
 76
1
 98
0
  0
HATCH
  5
20001
100
AcDbEntity
  8
skládky a antropogenní uloženiny
100
AcDbHatch
 10
0
 20
0
 30
0
210
0
220
0
230
1
  2
SOLID
 70
1
 71
0
 91
1
 92
2
 72
0
 73
1
 93
22
 10
16.5797641172685
 20
49.1784026181336
 10
16.5798418861121
 20
49.1782614916747
 10
16.5799196543646
 20
49.1781203660543
 10
16.5798205215572
 20
49.1780617862969
 10
16.5797213874724
 20
49.178003207251
 10
16.5798164486748
 20
49.177912857717
 10
16.5799115095306
 20
49.1778225081033
 10
16.5799638436628
 20
49.1779117507682
 10
16.5800161766196
 20
49.1780009933112
 10
16.580124382763
 20
49.178055953345
 10
16.5802325889984
 20
49.178110914171
 10
16.5804748565503
 20
49.1781083256262
 10
16.5806405957004
 20
49.1781226838476
 10
16.5807242190358
 20
49.178155137635
 10
16.5807232716534
 20
49.178233013171
 10
16.580770797319
 20
49.178375123552
 10
16.5808183232567
 20
49.1785172339105
 10
16.5809573296605
 20
49.1786262522202
 10
16.580867373792
 20
49.1787506171348
 10
16.5806670743942
 20
49.1787918645379
 10
16.5798930811101
 20
49.1784974451155
 10
16.5797641172685
 20
49.1784026181336
 97
0
 75
0
 76
1
 98
0
  0
HATCH
  5
20002
100
AcDbEntity
  8
skládky a antropogenní uloženiny
100
AcDbHatch
 10
0
 20
0
 30
0
210
0
220
0
230
1
  2
SOLID
 70
1
 71
0
 91
1
 92
2
 72
0
 73
1
 93
5
 10
16.5433396307367
 20
49.1730279003054
 10
16.5432223632219
 20
49.1723788035802
 10
16.5442287696493
 20
49.1723130360864
 10
16.5443281845214
 20
49.1729174407984
 10
16.5433396307367
 20
49.1730279003054
 97
0
 75
0
 76
1
 98
0
  0
HATCH
  5
20003
100
AcDbEntity
  8
skládky a antropogenní uloženiny
100
AcDbHatch
 10
0
 20
0
 30
0
210
0
220
0
230
1
  2
SOLID
 70
1
 71
0
 91
1
 92
2
 72
0
 73
1
 93
21
 10
16.5345649890725
 20
49.1783609027992
 10
16.5347265604824
 20
49.1782805068597
 10
16.5349740720672
 20
49.1781952664455
 10
16.5350025308543
 20
49.1783434843289
 10
16.5350381701614
 20
49.1783424148799
 10
16.5350250530673
 20
49.1781235599041
 10
16.5349429314301
 20
49.1779346417527
 10
16.535053571186
 20
49.1778705038523
 10
16.535467766175
 20
49.1782131160914
 10
16.5355403016657
 20
49.1783920760408
 10
16.5355860409879
 20
49.1783303068052
 10
16.5358622811576
 20
49.1782631304082
 10
16.5359627965687
 20
49.1784397940799
 10
16.5361675796028
 20
49.1788008522052
 10
16.5362527849669
 20
49.1789140489639
 10
16.5365391133221
 20
49.1792108765377
 10
16.5360153252075
 20
49.1793464702184
 10
16.5355374014787
 20
49.1794767480346
 10
16.5351783027477
 20
49.1790517337356
 10
16.534819210173
 20
49.1786267182945
 10
16.5345649890725
 20
49.1783609027992
 97
0
 75
0
 76
1
 98
0
  0
HATCH
  5
20004
100
AcDbEntity
  8
skládky a antropogenní uloženiny
100
AcDbHatch
 10
0
 20
0
 30
0
210
0
220
0
230
1
  2
SOLID
 70
1
 71
0
 91
1
 92
2
 72
0
 73
1
 93
21
 10
16.5317987151189
 20
49.180852520879
 10
16.5318121672922
 20
49.1807203264203
 10
16.5319206904855
 20
49.1805168669381
 10
16.5320755861618
 20
49.1803605980653
 10
16.5321903368619
 20
49.1802598035659
 10
16.5324605301852
 20
49.18010554118
 10
16.5325635341793
 20
49.1800181082225
 10
16.5327646761106
 20
49.1797008722166
 10
16.5329815254549
 20
49.1793588882066
 10
16.533207106892
 20
49.1790655627297
 10
16.5335184080078
 20
49.1787322343624
 10
16.5340003877464
 20
49.1783682361946
 10
16.5343037262171
 20
49.1787153163103
 10
16.5339856149331
 20
49.1788408711542
 10
16.5334778161744
 20
49.1794180000272
 10
16.533217483638
 20
49.1797965860238
 10
16.5325391181029
 20
49.1804292198437
 10
16.532184679787
 20
49.1807397403833
 10
16.5320854428139
 20
49.1809379845342
 10
16.5319423084436
 20
49.1810053588299
 10
16.5317987151189
 20
49.180852520879
 97
0
 75
0
 76
1
 98
0
  0
HATCH
  5
20005
100
AcDbEntity
  8
skládky a antropogenní uloženiny
100
AcDbHatch
 10
0
 20
0
 30
0
210
0
220
0
230
1
  2
SOLID
 70
1
 71
0
 91
1
 92
2
 72
0
 73
1
 93
5
 10
16.5329346696678
 20
49.1807719544035
 10
16.5333022116649
 20
49.1805990537515
 10
16.5336170364887
 20
49.1809294074094
 10
16.5332939692712
 20
49.1810821519122
 10
16.5329346696678
 20
49.1807719544035
 97
0
 75
0
 76
1
 98
0
  0
HATCH
  5
20006
100
AcDbEntity
  8
skládky a antropogenní uloženiny
100
AcDbHatch
 10
0
 20
0
 30
0
210
0
220
0
230
1
  2
SOLID
 70
1
 71
0
 91
1
 92
2
 72
0
 73
1
 93
35
 10
16.5270400204762
 20
49.179149173368
 10
16.5274425367254
 20
49.1795939706863
 10
16.5278450601971
 20
49.1800387665737
 10
16.5284400677196
 20
49.1798618541425
 10
16.5290350709965
 20
49.1796849386352
 10
16.5290363714697
 20
49.1798345624523
 10
16.5293330846296
 20
49.180240344186
 10
16.5297710825142
 20
49.1806429379814
 10
16.5302090875132
 20
49.1810455300923
 10
16.530485153176
 20
49.1813301062767
 10
16.5308118221237
 20
49.1816414601094
 10
16.5302843694903
 20
49.1819226804776
 10
16.5300038771069
 20
49.1820781920453
 10
16.5297509848724
 20
49.1821823066886
 10
16.5296625533224
 20
49.1822675240431
 10
16.529313649214
 20
49.1824609261985
 10
16.5290555873536
 20
49.1824767422983
 10
16.5288539129772
 20
49.1825144140617
 10
16.5286380472597
 20
49.1823062844221
 10
16.5283989063867
 20
49.1820796627661
 10
16.5281320853624
 20
49.1818407015273
 10
16.5278885434555
 20
49.1816202313794
 10
16.5272935416572
 20
49.1811404455338
 10
16.5275460442345
 20
49.1810378462092
 10
16.5272862752916
 20
49.1807930548586
 10
16.5270265089142
 20
49.180548262915
 10
16.5268857120095
 20
49.1805402641728
 10
16.5266832435862
 20
49.1804733929683
 10
16.5264807757095
 20
49.1804065214078
 10
16.5261991473129
 20
49.1802722878912
 10
16.5260338978206
 20
49.1801145438155
 10
16.5264061699608
 20
49.1796880796312
 10
16.5265267610847
 20
49.1795498052173
 10
16.5268388784547
 20
49.1793361387236
 10
16.5270400204762
 20
49.179149173368
 97
0
 75
0
 76
1
 98
0
  0
HATCH
  5
20007
100
AcDbEntity
  8
skládky a antropogenní uloženiny
100
AcDbHatch
 10
0
 20
0
 30
0
210
0
220
0
230
1
  2
SOLID
 70
1
 71
0
 91
1
 92
2
 72
0
 73
1
 93
5
 10
16.5201740734541
 20
49.1819375847505
 10
16.5199614369577
 20
49.1818238042531
 10
16.5207964865576
 20
49.1812926621095
 10
16.5210288162836
 20
49.1813761569928
 10
16.5201740734541
 20
49.1819375847505
 97
0
 75
0
 76
1
 98
0
  0
HATCH
  5
20008
100
AcDbEntity
  8
skládky a antropogenní uloženiny
100
AcDbHatch
 10
0
 20
0
 30
0
210
0
220
0
230
1
  2
SOLID
 70
1
 71
0
 91
1
 92
2
 72
0
 73
1
 93
6
 10
16.5170706577327
 20
49.1826835718946
 10
16.5173571896735
 20
49.1824929700642
 10
16.5181452267937
 20
49.1831445920924
 10
16.51851090454
 20
49.183449237063
 10
16.5182304047149
 20
49.1836020088266
 10
16.5170706577327
 20
49.1826835718946
 97
0
 75
0
 76
1
 98
0
  0
HATCH
  5
20009
100
AcDbEntity
  8
skládky a antropogenní uloženiny
100
AcDbHatch
 10
0
 20
0
 30
0
210
0
220
0
230
1
  2
SOLID
 70
1
 71
0
 91
1
 92
2
 72
0
 73
1
 93
37
 10
16.5141646435649
 20
49.1847070025447
 10
16.5141586867088
 20
49.1847266499162
 10
16.5141476141284
 20
49.1847453208063
 10
16.514131764745
 20
49.1847624478904
 10
16.5141116187979
 20
49.1847775101602
 10
16.5140877892582
 20
49.1847900513046
 10
16.5140609982189
 20
49.1847996888735
 10
16.5140320617877
 20
49.1848061303826
 10
16.5140018585927
 20
49.1848091801017
 10
16.5139713064705
 20
49.1848087464301
 10
16.5139413336778
 20
49.1848048407372
 10
16.5139128502736
 20
49.1847975834525
 10
16.5138867221862
 20
49.1847871940649
 10
16.5138637440868
 20
49.1847739882723
 10
16.5138446136069
 20
49.1847583670875
 10
16.5138299110092
 20
49.1847408063338
 10
16.513820084294
 20
49.1847218383888
 10
16.5138154305336
 20
49.1847020399908
 10
16.5138160935506
 20
49.184682013075
 10
16.5138220505371
 20
49.1846623657211
 10
16.5138331232215
 20
49.1846436948621
 10
16.5138489726701
 20
49.1846265678187
 10
16.5138691186356
 20
49.1846115055945
 10
16.5138929481447
 20
49.184598964495
 10
16.5139197377444
 20
49.184589326867
 10
16.5139486740635
 20
49.1845828853858
 10
16.5139788771238
 20
49.1845798356805
 10
16.514009429105
 20
49.1845802693501
 10
16.5140394017672
 20
49.1845841750253
 10
16.5140678850674
 20
49.1845914322789
 10
16.5140940130897
 20
49.1846018216258
 10
16.5141169925343
 20
49.1846150274706
 10
16.5141361230448
 20
49.1846306486105
 10
16.5141508257185
 20
49.1846482093256
 10
16.5141606525457
 20
49.1846671772426
 10
16.5141653064408
 20
49.1846869756268
 10
16.5141646435649
 20
49.1847070025447
 97
0
 75
0
 76
1
 98
0
  0
HATCH
  5
2000A
100
AcDbEntity
  8
skládky a antropogenní uloženiny
100
AcDbHatch
 10
0
 20
0
 30
0
210
0
220
0
230
1
  2
SOLID
 70
1
 71
0
 91
1
 92
2
 72
0
 73
1
 93
19
 10
16.5138365708651
 20
49.1848403868972
 10
16.5142106957661
 20
49.1850670405089
 10
16.5144757254236
 20
49.1851419465195
 10
16.5152433013935
 20
49.1853645073991
 10
16.5162067232841
 20
49.1859270339454
 10
16.5165767368532
 20
49.1860593035856
 10
16.516508686845
 20
49.1861743786648
 10
16.5163331298902
 20
49.1861297726663
 10
16.5164748659254
 20
49.1862826237895
 10
16.5164425492897
 20
49.1863590654333
 10
16.5156422484917
 20
49.1857951995692
 10
16.5149901257418
 20
49.1854079631906
 10
16.5150195575501
 20
49.1857595221731
 10
16.5149124285652
 20
49.1858167879555
 10
16.5148232312229
 20
49.1857665839018
 10
16.5147921695006
 20
49.1853955372986
 10
16.5141704514223
 20
49.1851969997352
 10
16.5136956872261
 20
49.1849300521043
 10
16.5138365708651
 20
49.1848403868972
 97
0
 75
0
 76
1
 98
0
  0
HATCH
  5
2000B
100
AcDbEntity
  8
skládky a antropogenní uloženiny
100
AcDbHatch
 10
0
 20
0
 30
0
210
0
220
0
230
1
  2
SOLID
 70
1
 71
0
 91
1
 92
2
 72
0
 73
1
 93
7
 10
16.5113458592965
 20
49.1821009982463
 10
16.5114111051827
 20
49.1820059655532
 10
16.5118912751876
 20
49.1820074577919
 10
16.5121529882669
 20
49.1820082701961
 10
16.5121517494263
 20
49.1821798337269
 10
16.511890035441
 20
49.1821790213195
 10
16.5113458592965
 20
49.1821009982463
 97
0
 75
0
 76
1
 98
0
  0
HATCH
  5
2000C
100
AcDbEntity
  8
skládky a antropogenní uloženiny
100
AcDbHatch
 10
0
 20
0
 30
0
210
0
220
0
230
1
  2
SOLID
 70
1
 71
0
 91
1
 92
2
 72
0
 73
1
 93
5
 10
16.5124875811799
 20
49.1809914560824
 10
16.5131675981736
 20
49.1811745916491
 10
16.5131454420701
 20
49.181307373722
 10
16.5124162587647
 20
49.1812550832087
 10
16.5124875811799
 20
49.1809914560824
 97
0
 75
0
 76
1
 98
0
  0
HATCH
  5
2000D
100
AcDbEntity
  8
skládky a antropogenní uloženiny
100
AcDbHatch
 10
0
 20
0
 30
0
210
0
220
0
230
1
  2
SOLID
 70
1
 71
0
 91
1
 92
2
 72
0
 73
1
 93
9
 10
16.4988715156155
 20
49.1862767831345
 10
16.4988208301701
 20
49.1864164747689
 10
16.4976910784991
 20
49.1863890727357
 10
16.4972428713793
 20
49.1865635165111
 10
16.4973797566461
 20
49.1864630091735
 10
16.4967999665816
 20
49.1864056797536
 10
16.4973593864472
 20
49.1863294118999
 10
16.4970217975409
 20
49.1861748491105
 10
16.4988715156155
 20
49.1862767831345
 97
0
 75
0
 76
1
 98
0
  0
HATCH
  5
2000E
100
AcDbEntity
  8
skládky a antropogenní uloženiny
100
AcDbHatch
 10
0
 20
0
 30
0
210
0
220
0
230
1
  2
SOLID
 70
1
 71
0
 91
1
 92
2
 72
0
 73
1
 93
7
 10
16.4988208301701
 20
49.1864164747689
 10
16.4988274448899
 20
49.1865199694504
 10
16.4970415126359
 20
49.1869023002677
 10
16.4968405084254
 20
49.1867856106333
 10
16.4971210161992
 20
49.1867333262324
 10
16.4979709252924
 20
49.1865749031393
 10
16.4988208301701
 20
49.1864164747689
 97
0
 75
0
 76
1
 98
0
  0
HATCH
  5
2000F
100
AcDbEntity
  8
skládky a antropogenní uloženiny
100
AcDbHatch
 10
0
 20
0
 30
0
210
0
220
0
230
1
  2
SOLID
 70
1
 71
0
 91
1
 92
2
 72
0
 73
1
 93
47
 10
16.5002206774537
 20
49.1877580710832
 10
16.5003791624089
 20
49.1879724981733
 10
16.5004494534075
 20
49.188165184937
 10
16.500455870298
 20
49.1890947924287
 10
16.5003734192764
 20
49.1893458460265
 10
16.4997938634225
 20
49.1900605085382
 10
16.5000970124203
 20
49.1894140124013
 10
16.5001023393538
 20
49.189206113651
 10
16.5000400253574
 20
49.1890730932713
 10
16.5000562870155
 20
49.1889309979354
 10
16.4996310332193
 20
49.1891887077921
 10
16.4994761268387
 20
49.1896492756474
 10
16.4994121615665
 20
49.1899438335212
 10
16.4991879993295
 20
49.1902847871497
 10
16.4988358755963
 20
49.1906096652227
 10
16.4990637566797
 20
49.1902224661359
 10
16.4992584052352
 20
49.1898507657957
 10
16.4993426889035
 20
49.1892585155064
 10
16.4981372181995
 20
49.1899222283497
 10
16.4976823210833
 20
49.1903284621391
 10
16.4972978981676
 20
49.190547094521
 10
16.4976181706168
 20
49.1899524960148
 10
16.4965040833812
 20
49.1911559254703
 10
16.4963313892584
 20
49.1915282593261
 10
16.496060992003
 20
49.19248475663
 10
16.4958575406722
 20
49.1918525344571
 10
16.4952994557005
 20
49.1923003416305
 10
16.4963946196678
 20
49.1904980401332
 10
16.4951844801477
 20
49.1914236191308
 10
16.4959633281131
 20
49.1904935010418
 10
16.4952182329663
 20
49.1907450901409
 10
16.495706929633
 20
49.1902880472552
 10
16.4949668035008
 20
49.1901755806412
 10
16.4957976702585
 20
49.1900316020686
 10
16.4950169048055
 20
49.1896788213909
 10
16.4971690170818
 20
49.1896669173903
 10
16.4958025762354
 20
49.1892759814056
 10
16.4977703532176
 20
49.1893339750753
 10
16.496248462366
 20
49.1888987396723
 10
16.4982392145953
 20
49.1890779362026
 10
16.4970446572813
 20
49.1884526162657
 10
16.4989446953387
 20
49.1887329542901
 10
16.4981676415457
 20
49.1882601605915
 10
16.4995323902151
 20
49.188476010384
 10
16.4979509676115
 20
49.1880501486908
 10
16.4996981871557
 20
49.1881887657413
 10
16.5002206774537
 20
49.1877580710832
 97
0
 75
0
 76
1
 98
0
  0
HATCH
  5
20010
100
AcDbEntity
  8
skládky a antropogenní uloženiny
100
AcDbHatch
 10
0
 20
0
 30
0
210
0
220
0
230
1
  2
SOLID
 70
1
 71
0
 91
1
 92
2
 72
0
 73
1
 93
4
 10
16.5067770346624
 20
49.1856173746161
 10
16.505151012855
 20
49.1827959675969
 10
16.5088126646834
 20
49.1827586836323
 10
16.5067770346624
 20
49.1856173746161
 97
0
 75
0
 76
1
 98
0
  0
HATCH
  5
20011
100
AcDbEntity
  8
skládky a antropogenní uloženiny
100
AcDbHatch
 10
0
 20
0
 30
0
210
0
220
0
230
1
  2
SOLID
 70
1
 71
0
 91
1
 92
2
 72
0
 73
1
 93
6
 10
16.510291807549
 20
49.1807034364739
 10
16.5106564331643
 20
49.180509833769
 10
16.5111589263588
 20
49.1804463373559
 10
16.5111885149987
 20
49.1805706790438
 10
16.5107658074143
 20
49.1805991254006
 10
16.510291807549
 20
49.1807034364739
 97
0
 75
0
 76
1
 98
0
  0
HATCH
  5
20012
100
AcDbEntity
  8
skládky a antropogenní uloženiny
100
AcDbHatch
 10
0
 20
0
 30
0
210
0
220
0
230
1
  2
SOLID
 70
1
 71
0
 91
1
 92
2
 72
0
 73
1
 93
7
 10
16.5259002262196
 20
49.1678180581749
 10
16.5260393246675
 20
49.1676923285404
 10
16.5273071670492
 20
49.168910663178
 10
16.5279882774332
 20
49.1695356629614
 10
16.5277087826681
 20
49.1694669827239
 10
16.5268912678004
 20
49.1688422368081
 10
16.5259002262196
 20
49.1678180581749
 97
0
 75
0
 76
1
 98
0
  0
HATCH
  5
20013
100
AcDbEntity
  8
skládky a antropogenní uloženiny
100
AcDbHatch
 10
0
 20
0
 30
0
210
0
220
0
230
1
  2
SOLID
 70
1
 71
0
 91
1
 92
2
 72
0
 73
1
 93
8
 10
16.5255149151165
 20
49.1681112826228
 10
16.5257073943134
 20
49.1680024497001
 10
16.5264224995239
 20
49.1689448490998
 10
16.5272956040506
 20
49.1694539556424
 10
16.5275942449589
 20
49.1697365628784
 10
16.5270845833953
 20
49.16955449284
 10
16.5262800648524
 20
49.1690831650631
 10
16.5255149151165
 20
49.1681112826228
 97
0
 75
0
 76
1
 98
0
  0
HATCH
  5
20014
100
AcDbEntity
  8
skládky a antropogenní uloženiny
100
AcDbHatch
 10
0
 20
0
 30
0
210
0
220
0
230
1
  2
SOLID
 70
1
 71
0
 91
1
 92
2
 72
0
 73
1
 93
9
 10
16.5387904959804
 20
49.1754384686355
 10
16.5386852413827
 20
49.1753411550788
 10
16.5390843630733
 20
49.1751597477188
 10
16.5392102663701
 20
49.1752854793139
 10
16.5393082791136
 20
49.1753913576126
 10
16.5391651944202
 20
49.1754469829759
 10
16.5389896048711
 20
49.1754591255979
 10
16.538851500051
 20
49.1754798276093
 10
16.5387904959804
 20
49.1754384686355
 97
0
 75
0
 76
1
 98
0
  0
HATCH
  5
20015
100
AcDbEntity
  8
skládky a antropogenní uloženiny
100
AcDbHatch
 10
0
 20
0
 30
0
210
0
220
0
230
1
  2
SOLID
 70
1
 71
0
 91
1
 92
2
 72
0
 73
1
 93
37
 10
16.5148458205618
 20
49.1843631692535
 10
16.5148398640172
 20
49.1843828166613
 10
16.5148287917703
 20
49.1844014876178
 10
16.5148129427323
 20
49.1844186147966
 10
16.5147927971321
 20
49.1844336771862
 10
16.51476896793
 20
49.1844462184721
 10
16.514742177209
 20
49.1844558561999
 10
16.5147132410671
 20
49.1844622978803
 10
16.5146830381234
 20
49.184465347778
 10
16.5146524862071
 20
49.1844649142869
 10
16.5146225135685
 20
49.1844610087709
 10
16.514594030262
 20
49.1844537516542
 10
16.5145679022128
 20
49.1844433624204
 10
16.5145449240912
 20
49.1844301567629
 10
16.5145257935291
 20
49.1844145356903
 10
16.5145110907918
 20
49.1843969750224
 10
16.5145012638839
 20
49.1843780071345
 10
16.5144966098835
 20
49.1843582087629
 10
16.5144972726205
 20
49.184338181842
 10
16.5145032292955
 20
49.1843185344519
 10
16.5145143016464
 20
49.1842998635264
 10
16.5145301507496
 20
49.1842827363884
 10
16.5145502963682
 20
49.1842676740444
 10
16.5145741255397
 20
49.1842551328033
 10
16.5146009148211
 20
49.1842454950165
 10
16.514629850851
 20
49.184239053364
 10
16.5146600536599
 20
49.1842360034801
 10
16.5146906054352
 20
49.1842364369692
 10
16.5147205779434
 20
49.1842403424675
 10
16.5147490611458
 20
49.1842475995531
 10
16.5147751891299
 20
49.1842579887462
 10
16.5147981685968
 20
49.184271194456
 10
16.5148172991895
 20
49.1842868154837
 10
16.5148320020027
 20
49.1843043761128
 10
16.5148418290226
 20
49.1843233439729
 10
16.5148464831577
 20
49.1843431423306
 10
16.5148458205618
 20
49.1843631692535
 97
0
 75
0
 76
1
 98
0
  0
HATCH
  5
20016
100
AcDbEntity
  8
skládky a antropogenní uloženiny
100
AcDbHatch
 10
0
 20
0
 30
0
210
0
220
0
230
1
  2
SOLID
 70
1
 71
0
 91
1
 92
2
 72
0
 73
1
 93
37
 10
16.5153399871607
 20
49.1838925799656
 10
16.5153340308687
 20
49.1839122274003
 10
16.5153229589134
 20
49.1839308984056
 10
16.5153071101967
 20
49.1839480256536
 10
16.515286964938
 20
49.1839630881307
 10
16.5152631360873
 20
49.1839756295197
 10
16.5152363457169
 20
49.1839852673631
 10
16.5152074099139
 20
49.183991709168
 10
16.5151772072874
 20
49.1839947591955
 10
16.5151466556567
 20
49.1839943258354
 10
16.5151166832636
 20
49.1839904204476
 10
16.5150882001551
 20
49.1839831634526
 10
16.5150620722502
 20
49.18397277433
 10
16.515039094215
 20
49.1839595687701
 10
16.5150199636785
 20
49.1839439477784
 10
16.5150052609056
 20
49.1839263871724
 10
16.5149954339016
 20
49.1839074193252
 10
16.5149907797478
 20
49.1838876209721
 10
16.5149914422786
 20
49.183867594047
 10
16.514997398701
 20
49.1838479466299
 10
16.5150084707605
 20
49.1838292756556
 10
16.5150243195423
 20
49.1838121484484
 10
16.5150444648194
 20
49.1837970860169
 10
16.5150682936395
 20
49.1837845446727
 10
16.5150950825703
 20
49.1837749067703
 10
16.5151240182613
 20
49.1837684649933
 10
16.5151542207531
 20
49.1837654149796
 10
16.5151847722427
 20
49.1837658483377
 10
16.5152147445054
 20
49.1837697537078
 10
16.5152432275099
 20
49.1837770106718
 10
16.5152693553495
 20
49.1837873997536
 10
16.5152923347301
 20
49.1838006053657
 10
16.5153114652971
 20
49.1838162263125
 10
16.515326168146
 20
49.1838337868799
 10
16.515335995262
 20
49.1838527546991
 10
16.5153406495505
 20
49.1838725530384
 10
16.5153399871607
 20
49.1838925799656
 97
0
 75
0
 76
1
 98
0
  0
HATCH
  5
20017
100
AcDbEntity
  8
skládky a antropogenní uloženiny
100
AcDbHatch
 10
0
 20
0
 30
0
210
0
220
0
230
1
  2
SOLID
 70
1
 71
0
 91
1
 92
2
 72
0
 73
1
 93
37
 10
16.5162616837189
 20
49.1832320656692
 10
16.5162557278719
 20
49.1832517131536
 10
16.5162446564115
 20
49.1832703842494
 10
16.5162288082247
 20
49.1832875116258
 10
16.5162086635147
 20
49.1833025742656
 10
16.5161848352149
 20
49.1833151158464
 10
16.5161580453806
 20
49.183324753905
 10
16.516129110083
 20
49.1833311959421
 10
16.5160989079156
 20
49.1833342462114
 10
16.5160683566839
 20
49.1833338130955
 10
16.5160383846174
 20
49.1833299079471
 10
16.5160099017533
 20
49.1833226511791
 10
16.5159837740031
 20
49.1833122622644
 10
16.5159607960282
 20
49.1832990568869
 10
16.5159416654559
 20
49.1832834360465
 10
16.515926962552
 20
49.1832658755563
 10
16.5159171353259
 20
49.1832469077858
 10
16.5159124808657
 20
49.1832271094679
 10
16.5159131430149
 20
49.1832070825354
 10
16.5159190989924
 20
49.1831874350686
 10
16.5159301705568
 20
49.1831687640039
 10
16.5159460188088
 20
49.1831516366682
 10
16.5159661635371
 20
49.183136574074
 10
16.5159899918064
 20
49.183124032538
 10
16.5160167802011
 20
49.1831143944204
 10
16.5160457153867
 20
49.1831079524113
 10
16.5160759174194
 20
49.1831049021558
 10
16.5161064685101
 20
49.1831053352696
 10
16.5161364404461
 20
49.1831092404004
 10
16.5161649232062
 20
49.1831164971374
 10
16.5161910508912
 20
49.1831268860113
 10
16.5162140302114
 20
49.183140091441
 10
16.5162331608143
 20
49.1831557122364
 10
16.5162478637941
 20
49.183173272688
 10
16.5162576911322
 20
49.1831922404306
 10
16.5162623457271
 20
49.1832120387346
 10
16.5162616837189
 20
49.1832320656692
 97
0
 75
0
 76
1
 98
0
  0
HATCH
  5
20018
100
AcDbEntity
  8
skládky a antropogenní uloženiny
100
AcDbHatch
 10
0
 20
0
 30
0
210
0
220
0
230
1
  2
SOLID
 70
1
 71
0
 91
1
 92
2
 72
0
 73
1
 93
37
 10
16.5238794072646
 20
49.1777835846512
 10
16.5238734550937
 20
49.1778032325457
 10
16.5238623877213
 20
49.177821904389
 10
16.52384654391
 20
49.1778390328274
 10
16.5238264037301
 20
49.1778540968112
 10
16.5238025799773
 20
49.1778666399775
 10
16.5237757945689
 20
49.1778762798149
 10
16.5237468634414
 20
49.1778827237698
 10
16.5237166650617
 20
49.1778857760379
 10
16.5236861171202
 20
49.177885344941
 10
16.5236561477464
 20
49.1778814417703
 10
16.5236276668958
 20
49.1778741868787
 10
16.5236015404188
 20
49.1778637996822
 10
16.5235785629377
 20
49.1778505958124
 10
16.523559432065
 20
49.1778349762234
 10
16.5235447280758
 20
49.1778174166902
 10
16.5235348990124
 20
49.1777984495532
 10
16.5235302420186
 20
49.1777786515263
 10
16.5235309010151
 20
49.1777586245333
 10
16.5235368533163
 20
49.1777389766564
 10
16.5235479207928
 20
49.1777203048441
 10
16.5235637646692
 20
49.1777031764465
 10
16.5235839048676
 20
49.1776881125082
 10
16.5236077285899
 20
49.1776755693867
 10
16.5236345125588
 20
49.1776659294905
 10
16.5236634435744
 20
49.1776594855635
 10
16.5236936418195
 20
49.1776564333092
 10
16.5237241896199
 20
49.177656864404
 10
16.5237541588633
 20
49.1776607675572
 10
16.5237826396098
 20
49.1776680224176
 10
16.5238087660217
 20
49.1776784095734
 10
16.523831744848
 20
49.1776916134954
 10
16.5238508757512
 20
49.1777072330395
 10
16.5238655798162
 20
49.177724792534
 10
16.5238754089916
 20
49.177743759643
 10
16.52388006612
 20
49.177763557656
 10
16.5238794072646
 20
49.1777835846512
 97
0
 75
0
 76
1
 98
0
  0
HATCH
  5
20019
100
AcDbEntity
  8
skládky a antropogenní uloženiny
100
AcDbHatch
 10
0
 20
0
 30
0
210
0
220
0
230
1
  2
SOLID
 70
1
 71
0
 91
1
 92
2
 72
0
 73
1
 93
37
 10
16.5396544593837
 20
49.178484118504
 10
16.5396485133812
 20
49.1785037672126
 10
16.5396374517939
 20
49.1785224405697
 10
16.5396216132085
 20
49.1785395711753
 10
16.5396014775362
 20
49.1785546379141
 10
16.5395776574363
 20
49.1785671843392
 10
16.5395508747148
 20
49.1785768278405
 10
16.5395219452264
 20
49.1785832757529
 10
16.5394917473883
 20
49.1785863321518
 10
16.5394611988749
 20
49.1785859052335
 10
16.5394312278323
 20
49.1785820061623
 10
16.5394027442674
 20
49.1785747551666
 10
16.5393766141126
 20
49.178564371544
 10
16.5393536321022
 20
49.1785511708172
 10
16.539334495986
 20
49.1785355538452
 10
16.5393197861991
 20
49.1785179963234
 10
16.5393099509592
 20
49.178499030531
 10
16.5393052875982
 20
49.1784792331413
 10
16.5393059402302
 20
49.1784592060581
 10
16.5393118863631
 20
49.178439557367
 10
16.5393229480545
 20
49.1784208840409
 10
16.5393387867051
 20
49.1784037534761
 10
16.5393589223959
 20
49.1783886867829
 10
16.5393827424653
 20
49.1783761404026
 10
16.5394095237474
 20
49.1783664968426
 10
16.5394384531239
 20
49.1783600489582
 10
16.5394686508274
 20
49.1783569925731
 10
16.5394991991997
 20
49.1783574194894
 10
16.5395291701119
 20
49.178361318543
 10
16.5395576535728
 20
49.1783685695076
 10
16.5395837836623
 20
49.1783789530895
 10
16.5396067670178
 20
49.1783921538682
 10
16.5396259031645
 20
49.1784077707953
 10
16.5396406130272
 20
49.1784253282784
 10
16.539650448379
 20
49.1784442940429
 10
16.5396551118746
 20
49.1784640914188
 10
16.5396544593837
 20
49.178484118504
 97
0
 75
0
 76
1
 98
0
  0
HATCH
  5
2001A
100
AcDbEntity
  8
skládky a antropogenní uloženiny
100
AcDbHatch
 10
0
 20
0
 30
0
210
0
220
0
230
1
  2
SOLID
 70
1
 71
0
 91
1
 92
2
 72
0
 73
1
 93
37
 10
16.5426120132184
 20
49.1766455577501
 10
16.5426060686094
 20
49.1766652066169
 10
16.5425950085469
 20
49.1766838802633
 10
16.5425791715713
 20
49.1767010112802
 10
16.5425590375449
 20
49.1767160785399
 10
16.5425352190771
 20
49.1767286255799
 10
16.5425084379242
 20
49.1767382697712
 10
16.5424795098931
 20
49.1767447184277
 10
16.5424493133569
 20
49.1767477756024
 10
16.5424187659505
 20
49.1767473494678
 10
16.5423887957862
 20
49.1767434511645
 10
16.5423603128443
 20
49.1767362008976
 10
16.5423341830383
 20
49.1767258179425
 10
16.5423112010917
 20
49.1767126178017
 10
16.5422920647526
 20
49.1766970013161
 10
16.5422773544628
 20
49.1766794441667
 10
16.5422675184553
 20
49.1766604786212
 10
16.5422628540853
 20
49.1766406813454
 10
16.5422635054975
 20
49.1766206542398
 10
16.5422694502369
 20
49.1766010053904
 10
16.5422805104035
 20
49.1765823317751
 10
16.5422963474443
 20
49.176565200799
 10
16.5423164814892
 20
49.1765501335847
 10
16.5423402999265
 20
49.1765375865896
 10
16.5423670796402
 20
49.1765279423397
 10
16.5423960075593
 20
49.1765214937111
 10
16.5424262039609
 20
49.1765184365503
 10
16.5424567512263
 20
49.1765188626828
 10
16.5424867212602
 20
49.1765227609685
 10
16.542515204098
 20
49.1765300112043
 10
16.5425413338388
 20
49.1765403941187
 10
16.5425643171304
 20
49.1765535943115
 10
16.5425834535
 20
49.1765692107521
 10
16.5425981638656
 20
49.1765867678628
 10
16.542607999985
 20
49.1766057333804
 10
16.5426126644896
 20
49.1766255306423
 10
16.5426120132184
 20
49.1766455577501
 97
0
 75
0
 76
1
 98
0
  0
HATCH
  5
2001B
100
AcDbEntity
  8
skládky a antropogenní uloženiny
100
AcDbHatch
 10
0
 20
0
 30
0
210
0
220
0
230
1
  2
SOLID
 70
1
 71
0
 91
1
 92
2
 72
0
 73
1
 93
42
 10
16.5222401124821
 20
49.1790758386
 10
16.5223463752497
 20
49.1793477323752
 10
16.5223181643623
 20
49.1794437262259
 10
16.5222389313256
 20
49.1795167518948
 10
16.5221896283503
 20
49.1796324932558
 10
16.5221201897076
 20
49.1797796296531
 10
16.521932338459
 20
49.1799653689013
 10
16.521900968506
 20
49.1800260827391
 10
16.5219201110723
 20
49.180138902098
 10
16.5219203966972
 20
49.1802853791401
 10
16.521946152603
 20
49.1803303740527
 10
16.5219683782719
 20
49.1803369414822
 10
16.5220495996255
 20
49.1803082937992
 10
16.52225221462
 20
49.1804520760615
 10
16.5223957276
 20
49.1805437588888
 10
16.5224501331539
 20
49.1806604725303
 10
16.5224298855739
 20
49.180871786676
 10
16.5228138673363
 20
49.1816975626397
 10
16.5224394577586
 20
49.1818346160882
 10
16.5217940272206
 20
49.1806502933298
 10
16.5217084436234
 20
49.180588586074
 10
16.5218146747677
 20
49.1809152368352
 10
16.5218470914452
 20
49.1810960794433
 10
16.5218028811058
 20
49.1816152053295
 10
16.5221990893265
 20
49.1820905013172
 10
16.5219056045903
 20
49.1822219516389
 10
16.5215214511212
 20
49.181650174597
 10
16.5215706058479
 20
49.1809933952317
 10
16.5214695672571
 20
49.1806844937137
 10
16.5214210324803
 20
49.1805095929114
 10
16.5214046860451
 20
49.1803667596688
 10
16.5213495823442
 20
49.180286734329
 10
16.5213172565491
 20
49.1802157585284
 10
16.5213167955459
 20
49.1801531263413
 10
16.5214595319106
 20
49.1799814340973
 10
16.5215282984039
 20
49.1798478642016
 10
16.5215824929293
 20
49.1797255531322
 10
16.5217576987468
 20
49.1795080613082
 10
16.5219184767675
 20
49.179343179266
 10
16.5220611370593
 20
49.179189301966
 10
16.5221369487852
 20
49.1790300028296
 10
16.5222401124821
 20
49.1790758386
 97
0
 75
0
 76
1
 98
0
  0
HATCH
  5
2001C
100
AcDbEntity
  8
skládky a antropogenní uloženiny
100
AcDbHatch
 10
0
 20
0
 30
0
210
0
220
0
230
1
  2
SOLID
 70
1
 71
0
 91
1
 92
2
 72
0
 73
1
 93
29
 10
16.5213167955459
 20
49.1801531263413
 10
16.5212411680575
 20
49.1800737112451
 10
16.5210875925953
 20
49.1799081109384
 10
16.5211777327701
 20
49.1797754617887
 10
16.5213580116713
 20
49.1795101632698
 10
16.5214433480244
 20
49.1793773507916
 10
16.5216375342411
 20
49.1792024465882
 10
16.5217397236194
 20
49.1791059402034
 10
16.5218388656759
 20
49.1790181937311
 10
16.5219343085521
 20
49.1789294585206
 10
16.5220023913428
 20
49.178853372829
 10
16.5220704739244
 20
49.1787772870961
 10
16.5221109723358
 20
49.1787230619139
 10
16.5221514706585
 20
49.1786688367169
 10
16.522202102749
 20
49.1786009993289
 10
16.5222685806246
 20
49.1786152596878
 10
16.522275919788
 20
49.1786180017013
 10
16.5222534088444
 20
49.1786528902639
 10
16.5222290754655
 20
49.1787405228026
 10
16.5222332328703
 20
49.1788083045974
 10
16.5222302371971
 20
49.1788339781742
 10
16.5221369487852
 20
49.1790300028296
 10
16.5220611370593
 20
49.179189301966
 10
16.5219898070242
 20
49.1792662406386
 10
16.5217576987468
 20
49.1795080613082
 10
16.5215824929293
 20
49.1797255531322
 10
16.5215282984039
 20
49.1798478642016
 10
16.5214595319106
 20
49.1799814340973
 10
16.5213167955459
 20
49.1801531263413
 97
0
 75
0
 76
1
 98
0
  0
HATCH
  5
2001D
100
AcDbEntity
  8
skládky a antropogenní uloženiny
100
AcDbHatch
 10
0
 20
0
 30
0
210
0
220
0
230
1
  2
SOLID
 70
1
 71
0
 91
1
 92
2
 72
0
 73
1
 93
45
 10
16.6548674018875
 20
49.1680932202613
 10
16.6520682994685
 20
49.1679185276287
 10
16.6522776834553
 20
49.1668197445716
 10
16.6523538366631
 20
49.1664731193979
 10
16.6526404879921
 20
49.1664853322191
 10
16.6527821904252
 20
49.1657897351004
 10
16.6531073243297
 20
49.1658094917832
 10
16.6531601885121
 20
49.1654870537099
 10
16.6536653622131
 20
49.1654990027973
 10
16.6538699623851
 20
49.1654597721978
 10
16.6539797611927
 20
49.1653627499972
 10
16.6541327126218
 20
49.1650188676668
 10
16.6544139794594
 20
49.1644813640271
 10
16.6545981751506
 20
49.1642726830865
 10
16.6547593637617
 20
49.1641387657456
 10
16.6549578553505
 20
49.1640465432366
 10
16.6552360472313
 20
49.1639439820798
 10
16.6554883822142
 20
49.1639364345446
 10
16.6556271435068
 20
49.1639541703795
 10
16.655678233603
 20
49.1639676279387
 10
16.655798225916
 20
49.164002462325
 10
16.655928234501
 20
49.1641954348846
 10
16.6570935933465
 20
49.1642775631387
 10
16.6571226094595
 20
49.1649256016577
 10
16.6571929985821
 20
49.1650854171513
 10
16.6573485487218
 20
49.165178624302
 10
16.6573925602848
 20
49.1652006962103
 10
16.6575688985684
 20
49.1652647471877
 10
16.6580874616197
 20
49.1652849192672
 10
16.6587067156155
 20
49.1652778832304
 10
16.6590315827828
 20
49.1652754376569
 10
16.6595683859147
 20
49.1654059820099
 10
16.6605071387424
 20
49.1659090003721
 10
16.6611070857391
 20
49.1665025486166
 10
16.6608468862524
 20
49.1670876930875
 10
16.6603666413219
 20
49.1683699531918
 10
16.6591676679938
 20
49.1683265260283
 10
16.6585622493581
 20
49.1682929197389
 10
16.6577577944662
 20
49.1682549189551
 10
16.6574200404229
 20
49.1682403914706
 10
16.6566306628237
 20
49.168206339271
 10
16.6558412863123
 20
49.1681722816695
 10
16.6554262800912
 20
49.1681258490051
 10
16.6551640761065
 20
49.168105650488
 10
16.6548674018875
 20
49.1680932202613
 97
0
 75
0
 76
1
 98
0
  0
HATCH
  5
2001E
100
AcDbEntity
  8
skládky a antropogenní uloženiny
100
AcDbHatch
 10
0
 20
0
 30
0
210
0
220
0
230
1
  2
SOLID
 70
1
 71
0
 91
1
 92
2
 72
0
 73
1
 93
5
 10
16.6517972636871
 20
49.1657487883926
 10
16.6518404913351
 20
49.1653924206774
 10
16.6531580577566
 20
49.1654853198053
 10
16.6530998044175
 20
49.1658406280062
 10
16.6517972636871
 20
49.1657487883926
 97
0
 75
0
 76
1
 98
0
  0
HATCH
  5
2001F
100
AcDbEntity
  8
skládky a antropogenní uloženiny
100
AcDbHatch
 10
0
 20
0
 30
0
210
0
220
0
230
1
  2
SOLID
 70
1
 71
0
 91
1
 92
2
 72
0
 73
1
 93
18
 10
16.6556437507872
 20
49.163842886327
 10
16.6570839296004
 20
49.164087869734
 10
16.6574193938038
 20
49.1641311058154
 10
16.6576444085021
 20
49.1641687324008
 10
16.6578391330351
 20
49.1642206985311
 10
16.6578488879186
 20
49.1642298487171
 10
16.6578559850834
 20
49.164255210904
 10
16.6578556734823
 20
49.1642718514116
 10
16.6578531308984
 20
49.1642800039383
 10
16.6578237354133
 20
49.1642862634259
 10
16.6575546716665
 20
49.1642411793421
 10
16.6572014575275
 20
49.1642234145528
 10
16.6568513124937
 20
49.164259697184
 10
16.656510914122
 20
49.1642365005315
 10
16.6559319668587
 20
49.1641909478183
 10
16.6557980483046
 20
49.164007526433
 10
16.6555764391259
 20
49.1639442247938
 10
16.6556437507872
 20
49.163842886327
 97
0
 75
0
 76
1
 98
0
  0
HATCH
  5
20020
100
AcDbEntity
  8
skládky a antropogenní uloženiny
100
AcDbHatch
 10
0
 20
0
 30
0
210
0
220
0
230
1
  2
SOLID
 70
1
 71
0
 91
1
 92
2
 72
0
 73
1
 93
20
 10
16.6556445589735
 20
49.1638453183524
 10
16.6555764391259
 20
49.1639442247938
 10
16.6554883822142
 20
49.1639364345446
 10
16.6552360472313
 20
49.1639439820798
 10
16.6550969507529
 20
49.1639952626943
 10
16.6547593637617
 20
49.1641387657456
 10
16.6545981751506
 20
49.1642726830865
 10
16.6544139794594
 20
49.1644813640271
 10
16.6542733475581
 20
49.1647501155393
 10
16.654090739988
 20
49.1647910760828
 10
16.6539149473653
 20
49.1647904628973
 10
16.6538234526603
 20
49.1646946501825
 10
16.6537386452723
 20
49.1645580472035
 10
16.6538952041606
 20
49.1641476734252
 10
16.6538815509085
 20
49.1639808767083
 10
16.653656699174
 20
49.1637991915243
 10
16.6534202973639
 20
49.1636761496134
 10
16.6536022159473
 20
49.1634823857843
 10
16.6542229411682
 20
49.163597054291
 10
16.6556445589735
 20
49.1638453183524
 97
0
 75
0
 76
1
 98
0
  0
HATCH
  5
20021
100
AcDbEntity
  8
skládky a antropogenní uloženiny
100
AcDbHatch
 10
0
 20
0
 30
0
210
0
220
0
230
1
  2
SOLID
 70
1
 71
0
 91
1
 92
2
 72
0
 73
1
 93
11
 10
16.6421756289518
 20
49.1651017690137
 10
16.6423352933214
 20
49.165105443622
 10
16.6423781201863
 20
49.1651115675751
 10
16.6422848840868
 20
49.1653043730706
 10
16.6421916472619
 20
49.1654971784849
 10
16.6419702702464
 20
49.1659071874678
 10
16.641916857095
 20
49.165924374606
 10
16.6418243939181
 20
49.1659228464921
 10
16.6418074685759
 20
49.1657839929633
 10
16.6420328235562
 20
49.1653321173192
 10
16.6421756289518
 20
49.1651017690137
 97
0
 75
0
 76
1
 98
0
  0
HATCH
  5
20022
100
AcDbEntity
  8
skládky a antropogenní uloženiny
100
AcDbHatch
 10
0
 20
0
 30
0
210
0
220
0
230
1
  2
SOLID
 70
1
 71
0
 91
1
 92
2
 72
0
 73
1
 93
9
 10
16.6434434826036
 20
49.1617303070999
 10
16.6434914449597
 20
49.1615611487447
 10
16.6437549005079
 20
49.161587020103
 10
16.6437061142344
 20
49.1618220814594
 10
16.643651819196
 20
49.1618696960409
 10
16.6435506375453
 20
49.161876051614
 10
16.6434723868333
 20
49.1618550325819
 10
16.6434255744059
 20
49.1618076935798
 10
16.6434434826036
 20
49.1617303070999
 97
0
 75
0
 76
1
 98
0
  0
HATCH
  5
20023
100
AcDbEntity
  8
skládky a antropogenní uloženiny
100
AcDbHatch
 10
0
 20
0
 30
0
210
0
220
0
230
1
  2
SOLID
 70
1
 71
0
 91
1
 92
2
 72
0
 73
1
 93
39
 10
16.6578201229354
 20
49.1544245304996
 10
16.6575498804853
 20
49.1542624796573
 10
16.6574041961756
 20
49.1541427401549
 10
16.6571526734211
 20
49.1539471757527
 10
16.6572538895175
 20
49.1536107291979
 10
16.657284132644
 20
49.1532985768652
 10
16.6574606377878
 20
49.1525903405132
 10
16.6575246945297
 20
49.1522804910026
 10
16.6575477354588
 20
49.1521665139734
 10
16.6579040334652
 20
49.1520798031575
 10
16.658231847731
 20
49.1520113813085
 10
16.6585753818167
 20
49.1519308751901
 10
16.658991818213
 20
49.1518345995205
 10
16.6591479373532
 20
49.1517968402406
 10
16.6595459109994
 20
49.1516606096182
 10
16.6599259609992
 20
49.1516929835007
 10
16.6604839830375
 20
49.1517323017791
 10
16.6613798501765
 20
49.1518061852705
 10
16.6618153042607
 20
49.1518589229857
 10
16.6617794078735
 20
49.1519798622398
 10
16.6616337512263
 20
49.1524976139516
 10
16.6619338628441
 20
49.1527270230889
 10
16.6621439603029
 20
49.1528905851262
 10
16.662212853337
 20
49.1529392406736
 10
16.6621489079691
 20
49.1530864325152
 10
16.6619877697445
 20
49.1533834033123
 10
16.6616885647081
 20
49.1539265126319
 10
16.661499464406
 20
49.1542573741849
 10
16.6613155072746
 20
49.1545770211377
 10
16.6610939593195
 20
49.1549329557029
 10
16.6608664508483
 20
49.1553446355769
 10
16.660647318949
 20
49.1557413490815
 10
16.6604393368609
 20
49.1561288991211
 10
16.6599533514823
 20
49.1558176306376
 10
16.6590388719546
 20
49.1552112568219
 10
16.658733832022
 20
49.155036566112
 10
16.6583514989451
 20
49.1547701602962
 10
16.6581258868428
 20
49.154604290268
 10
16.6578201229354
 20
49.1544245304996
 97
0
 75
0
 76
1
 98
0
  0
HATCH
  5
20024
100
AcDbEntity
  8
skládky a antropogenní uloženiny
100
AcDbHatch
 10
0
 20
0
 30
0
210
0
220
0
230
1
  2
SOLID
 70
1
 71
0
 91
1
 92
2
 72
0
 73
1
 93
12
 10
16.6537817455068
 20
49.1586005655645
 10
16.6536179081196
 20
49.1585468631025
 10
16.6535839227462
 20
49.1584543823835
 10
16.653656989069
 20
49.1583545724961
 10
16.6538089535935
 20
49.1583115667551
 10
16.6544681011119
 20
49.1583378013802
 10
16.6544592057128
 20
49.1584036942396
 10
16.6544616722634
 20
49.1584501503043
 10
16.6544595751653
 20
49.1585236006227
 10
16.6544427129678
 20
49.1586273308602
 10
16.6542008556436
 20
49.1586224632301
 10
16.6537817455068
 20
49.1586005655645
 97
0
 75
0
 76
1
 98
0
  0
HATCH
  5
20025
100
AcDbEntity
  8
skládky a antropogenní uloženiny
100
AcDbHatch
 10
0
 20
0
 30
0
210
0
220
0
230
1
  2
SOLID
 70
1
 71
0
 91
1
 92
2
 72
0
 73
1
 93
6
 10
16.5011608409381
 20
49.2172934981932
 10
16.5008376753689
 20
49.2171160670543
 10
16.5009068966377
 20
49.216821058027
 10
16.5013382325669
 20
49.2170535637321
 10
16.5012503461425
 20
49.2171984212507
 10
16.5011608409381
 20
49.2172934981932
 97
0
 75
0
 76
1
 98
0
  0
HATCH
  5
20026
100
AcDbEntity
  8
skládky a antropogenní uloženiny
100
AcDbHatch
 10
0
 20
0
 30
0
210
0
220
0
230
1
  2
SOLID
 70
1
 71
0
 91
1
 92
2
 72
0
 73
1
 93
65
 10
16.6582107165788
 20
49.1586107899788
 10
16.6581609073429
 20
49.1586063041337
 10
16.6581116330332
 20
49.1585998915214
 10
16.6580638887313
 20
49.1585916819576
 10
16.6580176260956
 20
49.1585816675151
 10
16.6579737801862
 20
49.1585700497547
 10
16.6579323085522
 20
49.1585568184521
 10
16.6578940474284
 20
49.1585422396561
 10
16.657858957674
 20
49.1585262997583
 10
16.6578277506041
 20
49.1585093202206
 10
16.6578003944782
 20
49.1584912843384
 10
16.6577774418576
 20
49.1584725566527
 10
16.6577588684024
 20
49.1584531173622
 10
16.6577450507392
 20
49.1584333611179
 10
16.657735974509
 20
49.1584132661076
 10
16.657731823956
 20
49.1583932396526
 10
16.657732594117
 20
49.1583732615062
 10
16.6577382698019
 20
49.1583537357872
 10
16.657748855884
 20
49.158334641132
 10
16.6577641397912
 20
49.1583163659391
 10
16.6577841359409
 20
49.1582988895164
 10
16.6578084400366
 20
49.1582825668525
 10
16.6578370771108
 20
49.1582673798111
 10
16.657869468483
 20
49.1582536367224
 10
16.6579056454187
 20
49.1582413235065
 10
16.6579448790099
 20
49.158230689067
 10
16.6579872070479
 20
49.1582217215928
 10
16.6580317735282
 20
49.1582146040518
 10
16.6580786253473
 20
49.1582093279882
 10
16.658126814173
 20
49.158206000223
 10
16.6581763887508
 20
49.1582046178581
 10
16.6582263476165
 20
49.1582052079993
 10
16.6582767401472
 20
49.1582077723164
 10
16.658326548847
 20
49.1582122590057
 10
16.6583758227996
 20
49.1582186715264
 10
16.6584235667943
 20
49.1582268809615
 10
16.6584698291813
 20
49.1582368952416
 10
16.6585136750591
 20
49.1582485119197
 10
16.6585551465905
 20
49.1582617430138
 10
16.6585934076926
 20
49.1582763215911
 10
16.6586284975064
 20
49.158292261266
 10
16.6586597047141
 20
49.1583092405877
 10
16.6586870610522
 20
49.1583272762666
 10
16.6587100138026
 20
49.1583460046659
 10
16.6587285877371
 20
49.1583654429095
 10
16.6587424056268
 20
49.1583851999304
 10
16.658751482406
 20
49.1584052939676
 10
16.6587556333717
 20
49.158425320386
 10
16.6587548636219
 20
49.1584452985391
 10
16.6587491881801
 20
49.1584648252021
 10
16.6587386026016
 20
49.1584839190548
 10
16.6587233188551
 20
49.1585021952706
 10
16.6587033231006
 20
49.1585196709616
 10
16.6586790190366
 20
49.1585359947078
 10
16.6586503822113
 20
49.1585511810635
 10
16.6586179908609
 20
49.158564924371
 10
16.6585818138659
 20
49.1585772378098
 10
16.6585425799904
 20
49.1585878733594
 10
16.6585002518866
 20
49.1585968401428
 10
16.6584556849835
 20
49.1586039587584
 10
16.6584088328316
 20
49.1586092349749
 10
16.6583606437795
 20
49.1586125619634
 10
16.6583110686527
 20
49.1586139453015
 10
16.6582611095207
 20
49.1586133543027
 10
16.6582107165788
 20
49.1586107899788
 97
0
 75
0
 76
1
 98
0
  0
HATCH
  5
20027
100
AcDbEntity
  8
skládky a antropogenní uloženiny
100
AcDbHatch
 10
0
 20
0
 30
0
210
0
220
0
230
1
  2
SOLID
 70
1
 71
0
 91
1
 92
2
 72
0
 73
1
 93
14
 10
16.6549719839805
 20
49.1564282262977
 10
16.6548538752988
 20
49.15648767048
 10
16.6546312745105
 20
49.1565786912155
 10
16.6543655950908
 20
49.1566284914626
 10
16.6541932872653
 20
49.1566330353032
 10
16.6540179572961
 20
49.1566059155716
 10
16.6539630991423
 20
49.1565640818013
 10
16.6539224375548
 20
49.1564814021509
 10
16.6539216023281
 20
49.1564008422985
 10
16.6539800098879
 20
49.1562839069952
 10
16.6541390355543
 20
49.1562274779379
 10
16.6544039548415
 20
49.156243531559
 10
16.6546758259258
 20
49.1563131302227
 10
16.6549719839805
 20
49.1564282262977
 97
0
 75
0
 76
1
 98
0
  0
HATCH
  5
20028
100
AcDbEntity
  8
skládky a antropogenní uloženiny
100
AcDbHatch
 10
0
 20
0
 30
0
210
0
220
0
230
1
  2
SOLID
 70
1
 71
0
 91
1
 92
2
 72
0
 73
1
 93
18
 10
16.6565911070479
 20
49.1563902926053
 10
16.6567051014822
 20
49.1561867525564
 10
16.6568249524598
 20
49.1559799152299
 10
16.6572591761184
 20
49.1559862629833
 10
16.6572900526343
 20
49.1550775441344
 10
16.6584748549488
 20
49.1551676552401
 10
16.6589264294069
 20
49.1553167337064
 10
16.659378330644
 20
49.1556214091236
 10
16.6600682641322
 20
49.1560865573352
 10
16.6602341904621
 20
49.156243530763
 10
16.6599042997865
 20
49.1566568327658
 10
16.6597394189303
 20
49.1568634012658
 10
16.6596216324395
 20
49.1569244057205
 10
16.6582890411333
 20
49.1567942619473
 10
16.6573166914069
 20
49.1566992898797
 10
16.6569056312711
 20
49.1566240362807
 10
16.6566914162374
 20
49.1565163736919
 10
16.6565911070479
 20
49.1563902926053
 97
0
 75
0
 76
1
 98
0
  0
HATCH
  5
20029
100
AcDbEntity
  8
skládky a antropogenní uloženiny
100
AcDbHatch
 10
0
 20
0
 30
0
210
0
220
0
230
1
  2
SOLID
 70
1
 71
0
 91
1
 92
2
 72
0
 73
1
 93
34
 10
16.6511932454828
 20
49.1575717234668
 10
16.6512964667428
 20
49.1574998419349
 10
16.6516505974718
 20
49.1576105914419
 10
16.6519436208459
 20
49.157760186803
 10
16.6521560643496
 20
49.1578478981948
 10
16.6526863137115
 20
49.1578571909448
 10
16.6528266760716
 20
49.156738548864
 10
16.6527118255939
 20
49.1565356855702
 10
16.6521405513604
 20
49.1565566855701
 10
16.6520726395758
 20
49.1565428046472
 10
16.6519095892818
 20
49.156376755424
 10
16.651896615882
 20
49.1562406790207
 10
16.6519853565274
 20
49.1561144370129
 10
16.6520082127421
 20
49.1560903147438
 10
16.6521581773766
 20
49.1560504762588
 10
16.6526370796506
 20
49.1560206109572
 10
16.6524394082189
 20
49.1546081636607
 10
16.6526374116511
 20
49.1546025417161
 10
16.6526714913852
 20
49.1551188811712
 10
16.6527888874389
 20
49.1561099805566
 10
16.6521966328878
 20
49.1561391405689
 10
16.6521289428275
 20
49.1561486570283
 10
16.6521090326451
 20
49.1561594104397
 10
16.6520135039861
 20
49.1562501961315
 10
16.6520287461747
 20
49.1563570596962
 10
16.6521313751822
 20
49.1564535555969
 10
16.6521951592451
 20
49.1564795426383
 10
16.6527861590493
 20
49.1564461080925
 10
16.6529424441652
 20
49.1567039105224
 10
16.6528286221243
 20
49.1579730136117
 10
16.6521661398598
 20
49.1579474538629
 10
16.651882540629
 20
49.1578253026849
 10
16.6515551713584
 20
49.1576699791061
 10
16.6511932454828
 20
49.1575717234668
 97
0
 75
0
 76
1
 98
0
  0
HATCH
  5
2002A
100
AcDbEntity
  8
skládky a antropogenní uloženiny
100
AcDbHatch
 10
0
 20
0
 30
0
210
0
220
0
230
1
  2
SOLID
 70
1
 71
0
 91
1
 92
2
 72
0
 73
1
 93
5
 10
16.6513472995047
 20
49.1480976257408
 10
16.651188649662
 20
49.1478971111594
 10
16.6513591617366
 20
49.1476031919005
 10
16.6516138897471
 20
49.1476201073444
 10
16.6513472995047
 20
49.1480976257408
 97
0
 75
0
 76
1
 98
0
  0
HATCH
  5
2002B
100
AcDbEntity
  8
skládky a antropogenní uloženiny
100
AcDbHatch
 10
0
 20
0
 30
0
210
0
220
0
230
1
  2
SOLID
 70
1
 71
0
 91
1
 92
2
 72
0
 73
1
 93
5
 10
16.6453168133068
 20
49.1544181542326
 10
16.6453204755411
 20
49.1542729527779
 10
16.6469148752456
 20
49.1543854854012
 10
16.6468912869737
 20
49.1545292803414
 10
16.6453168133068
 20
49.1544181542326
 97
0
 75
0
 76
1
 98
0
  0
HATCH
  5
2002C
100
AcDbEntity
  8
skládky a antropogenní uloženiny
100
AcDbHatch
 10
0
 20
0
 30
0
210
0
220
0
230
1
  2
SOLID
 70
1
 71
0
 91
1
 92
2
 72
0
 73
1
 93
15
 10
16.6389844634419
 20
49.1563016834214
 10
16.6391060224963
 20
49.1562674945675
 10
16.6391979770459
 20
49.1564063311157
 10
16.639329277424
 20
49.1565486812269
 10
16.6396063751556
 20
49.1567340610227
 10
16.6398411746885
 20
49.1568399059894
 10
16.6407001966979
 20
49.1571940597963
 10
16.6406274502318
 20
49.1572632064696
 10
16.640356926853
 20
49.1571523783826
 10
16.6397524056028
 20
49.1569047132386
 10
16.6394660344401
 20
49.1567671255157
 10
16.6393509466775
 20
49.1566913532886
 10
16.6392024003318
 20
49.1565832065127
 10
16.6390815078597
 20
49.1564473881442
 10
16.6389844634419
 20
49.1563016834214
 97
0
 75
0
 76
1
 98
0
  0
HATCH
  5
2002D
100
AcDbEntity
  8
skládky a antropogenní uloženiny
100
AcDbHatch
 10
0
 20
0
 30
0
210
0
220
0
230
1
  2
SOLID
 70
1
 71
0
 91
1
 92
2
 72
0
 73
1
 93
27
 10
16.657883967474
 20
49.1582054135937
 10
16.6570498040028
 20
49.157882157802
 10
16.6567596176186
 20
49.157656417314
 10
16.6566197631846
 20
49.1574766328217
 10
16.6566010913935
 20
49.157304954518
 10
16.6566742562486
 20
49.1572209643354
 10
16.656797582964
 20
49.1571139136785
 10
16.6568561699665
 20
49.1569736011663
 10
16.6569494708446
 20
49.1568990560996
 10
16.657162343624
 20
49.1568107280717
 10
16.657350827841
 20
49.1567678121107
 10
16.657474465062
 20
49.1567548535547
 10
16.657686120208
 20
49.1567517727061
 10
16.6578480395953
 20
49.1568094658192
 10
16.6579782501115
 20
49.1569376527367
 10
16.6579983470659
 20
49.157293075446
 10
16.6581409813114
 20
49.1572962342766
 10
16.6582322952849
 20
49.1571043185359
 10
16.6583531477533
 20
49.1569891312425
 10
16.6585937764554
 20
49.1570570628441
 10
16.6585819149815
 20
49.1575140870587
 10
16.6588515697021
 20
49.1578372253317
 10
16.6588351864562
 20
49.1580295554698
 10
16.6587018145591
 20
49.158128331982
 10
16.6585878156161
 20
49.1581857605029
 10
16.658267365031
 20
49.1582324314263
 10
16.657883967474
 20
49.1582054135937
 97
0
 75
0
 76
1
 98
0
  0
HATCH
  5
2002E
100
AcDbEntity
  8
skládky a antropogenní uloženiny
100
AcDbHatch
 10
0
 20
0
 30
0
210
0
220
0
230
1
  2
SOLID
 70
1
 71
0
 91
1
 92
2
 72
0
 73
1
 93
8
 10
16.6590377179196
 20
49.1590701990215
 10
16.66044127871
 20
49.1562863942096
 10
16.6625886328874
 20
49.1570856002731
 10
16.6647680334285
 20
49.1580589201616
 10
16.6639174204502
 20
49.1599296239543
 10
16.6629739114117
 20
49.1599017958681
 10
16.6611034451469
 20
49.1595066441274
 10
16.6590377179196
 20
49.1590701990215
 97
0
 75
0
 76
1
 98
0
  0
HATCH
  5
2002F
100
AcDbEntity
  8
skládky a antropogenní uloženiny
100
AcDbHatch
 10
0
 20
0
 30
0
210
0
220
0
230
1
  2
SOLID
 70
1
 71
0
 91
1
 92
2
 72
0
 73
1
 93
19
 10
16.4952851506959
 20
49.2159153271666
 10
16.4958402638012
 20
49.2156827022166
 10
16.4958183446393
 20
49.2155578862901
 10
16.4959615607782
 20
49.2155346988648
 10
16.496065160201
 20
49.2154887191604
 10
16.4959923417873
 20
49.2156424807529
 10
16.4960141195572
 20
49.2158805483414
 10
16.4962566475151
 20
49.2159731481428
 10
16.4962369708929
 20
49.2160331205066
 10
16.4960139500163
 20
49.2159981991243
 10
16.4957534869942
 20
49.2159916385548
 10
16.4957217905308
 20
49.2160744176554
 10
16.4963757119163
 20
49.216381619873
 10
16.4968281251522
 20
49.2166122444699
 10
16.4967022864321
 20
49.2167405787085
 10
16.4960046530823
 20
49.21644659501
 10
16.4956800956752
 20
49.2162866882374
 10
16.4953480122318
 20
49.216068614281
 10
16.4952851506959
 20
49.2159153271666
 97
0
 75
0
 76
1
 98
0
  0
HATCH
  5
20030
100
AcDbEntity
  8
skládky a antropogenní uloženiny
100
AcDbHatch
 10
0
 20
0
 30
0
210
0
220
0
230
1
  2
SOLID
 70
1
 71
0
 91
1
 92
2
 72
0
 73
1
 93
7
 10
16.6545423582278
 20
49.162538581619
 10
16.6550914733156
 20
49.1607256256177
 10
16.6582869308083
 20
49.1614901512128
 10
16.6580913887467
 20
49.1620321498263
 10
16.657716022243
 20
49.1628311153659
 10
16.6560548468075
 20
49.1627558064374
 10
16.6545423582278
 20
49.162538581619
 97
0
 75
0
 76
1
 98
0
  0
HATCH
  5
20031
100
AcDbEntity
  8
skládky a antropogenní uloženiny
100
AcDbHatch
 10
0
 20
0
 30
0
210
0
220
0
230
1
  2
SOLID
 70
1
 71
0
 91
1
 92
2
 72
0
 73
1
 93
21
 10
16.6520283098324
 20
49.1678974382267
 10
16.652021366142
 20
49.1678203421334
 10
16.6520148931399
 20
49.1677126185344
 10
16.6520110944002
 20
49.1676373721844
 10
16.6520158272831
 20
49.1675000041189
 10
16.652039916247
 20
49.1673320739249
 10
16.6520912935417
 20
49.1670166534787
 10
16.6521063293276
 20
49.1667975264719
 10
16.652011962105
 20
49.1664435656375
 10
16.6518031782793
 20
49.1660354100497
 10
16.6518049687508
 20
49.1659672958774
 10
16.6521624807846
 20
49.1658818811212
 10
16.6524390446876
 20
49.165851474157
 10
16.6527275724681
 20
49.1658250159364
 10
16.6530198017436
 20
49.1658256872081
 10
16.653187882084
 20
49.1664950905491
 10
16.653296825757
 20
49.1669575470594
 10
16.6533312158815
 20
49.1671735034102
 10
16.6534894695115
 20
49.1675429623729
 10
16.6536949694132
 20
49.1679714787797
 10
16.6520283098324
 20
49.1678974382267
 97
0
 75
0
 76
1
 98
0
  0
HATCH
  5
20032
100
AcDbEntity
  8
skládky a antropogenní uloženiny
100
AcDbHatch
 10
0
 20
0
 30
0
210
0
220
0
230
1
  2
SOLID
 70
1
 71
0
 91
1
 92
2
 72
0
 73
1
 93
12
 10
16.6545423582278
 20
49.162538581619
 10
16.6547168424687
 20
49.1619679684898
 10
16.6549041602407
 20
49.1613467972352
 10
16.6550914733156
 20
49.1607256256177
 10
16.6566891897421
 20
49.1611078994891
 10
16.6582869308083
 20
49.1614901512128
 10
16.6580913887467
 20
49.1620321498263
 10
16.6577077544582
 20
49.1628382856142
 10
16.6568755722281
 20
49.162789500262
 10
16.6560548468075
 20
49.1627558064374
 10
16.6555553666193
 20
49.1626903028054
 10
16.6545423582278
 20
49.162538581619
 97
0
 75
0
 76
1
 98
0
  0
HATCH
  5
20033
100
AcDbEntity
  8
skládky a antropogenní uloženiny
100
AcDbHatch
 10
0
 20
0
 30
0
210
0
220
0
230
1
  2
SOLID
 70
1
 71
0
 91
1
 92
2
 72
0
 73
1
 93
35
 10
16.6536949694132
 20
49.1679714787797
 10
16.6534894695115
 20
49.1675429623729
 10
16.6533312158815
 20
49.1671735034102
 10
16.653187882084
 20
49.1664950905491
 10
16.6530161176119
 20
49.1657660280975
 10
16.6531389161849
 20
49.1651361057267
 10
16.6534202973639
 20
49.1636761496134
 10
16.653449153451
 20
49.1634265451399
 10
16.6542229411682
 20
49.163597054291
 10
16.6542640260713
 20
49.1634637867204
 10
16.6543051107534
 20
49.1633305191325
 10
16.6549319276568
 20
49.1633794081242
 10
16.6554250921116
 20
49.1634186922755
 10
16.6562584094814
 20
49.16349470066
 10
16.6565985621181
 20
49.1635314259988
 10
16.657272912651
 20
49.1635654726163
 10
16.6571911730641
 20
49.1637284808179
 10
16.6570956253594
 20
49.1639168351176
 10
16.6576947037452
 20
49.1640167989557
 10
16.6582937845478
 20
49.1641167596813
 10
16.6599097809729
 20
49.1643035978313
 10
16.6615257895876
 20
49.1644904133382
 10
16.6619484688871
 20
49.164578246568
 10
16.6614310036788
 20
49.1657605262072
 10
16.6611353287132
 20
49.1664512648462
 10
16.6606096137199
 20
49.1676697726434
 10
16.66034523293
 20
49.1682825819055
 10
16.660346103838
 20
49.1683791463997
 10
16.6588649592549
 20
49.1683097233289
 10
16.6579350222089
 20
49.168262567185
 10
16.6567836118754
 20
49.1682220011424
 10
16.6563243835287
 20
49.16819312205
 10
16.6552508817173
 20
49.1681209260607
 10
16.6547868519146
 20
49.1680832683925
 10
16.6536949694132
 20
49.1679714787797
 97
0
 75
0
 76
1
 98
0
  0
HATCH
  5
20034
100
AcDbEntity
  8
skládky a antropogenní uloženiny
100
AcDbHatch
 10
0
 20
0
 30
0
210
0
220
0
230
1
  2
SOLID
 70
1
 71
0
 91
1
 92
2
 72
0
 73
1
 93
6
 10
16.499094886288
 20
49.2356824327508
 10
16.4988445426948
 20
49.2356907946511
 10
16.4987290056665
 20
49.2355199153362
 10
16.4994092849643
 20
49.2355554551963
 10
16.4994241425606
 20
49.2357036145775
 10
16.499094886288
 20
49.2356824327508
 97
0
 75
0
 76
1
 98
0
  0
HATCH
  5
20035
100
AcDbEntity
  8
skládky a antropogenní uloženiny
100
AcDbHatch
 10
0
 20
0
 30
0
210
0
220
0
230
1
  2
SOLID
 70
1
 71
0
 91
1
 92
2
 72
0
 73
1
 93
9
 10
16.5085217923675
 20
49.2340317107599
 10
16.5088156629742
 20
49.2336718330238
 10
16.5089942282894
 20
49.2333188036976
 10
16.5090123868635
 20
49.2331165644667
 10
16.5092513184775
 20
49.2332034425651
 10
16.5090806276561
 20
49.2334263205733
 10
16.5089438334786
 20
49.2336112273881
 10
16.5085232305971
 20
49.2341230413026
 10
16.5085217923675
 20
49.2340317107599
 97
0
 75
0
 76
1
 98
0
  0
HATCH
  5
20036
100
AcDbEntity
  8
skládky a antropogenní uloženiny
100
AcDbHatch
 10
0
 20
0
 30
0
210
0
220
0
230
1
  2
SOLID
 70
1
 71
0
 91
1
 92
2
 72
0
 73
1
 93
11
 10
16.4995825557966
 20
49.2289658938703
 10
16.5006121128925
 20
49.2285913865335
 10
16.5014174510981
 20
49.2284532625393
 10
16.5019343936129
 20
49.2283235394448
 10
16.50268029768
 20
49.2281924079588
 10
16.5025463842488
 20
49.2283569696017
 10
16.5015412191576
 20
49.2285390192558
 10
16.50071584834
 20
49.2286918265339
 10
16.5002704759363
 20
49.2288371510964
 10
16.499657006048
 20
49.2290742378215
 10
16.4995825557966
 20
49.2289658938703
 97
0
 75
0
 76
1
 98
0
  0
HATCH
  5
20037
100
AcDbEntity
  8
skládky a antropogenní uloženiny
100
AcDbHatch
 10
0
 20
0
 30
0
210
0
220
0
230
1
  2
SOLID
 70
1
 71
0
 91
1
 92
2
 72
0
 73
1
 93
11
 10
16.5074090596808
 20
49.2318281418861
 10
16.5076058815496
 20
49.231765698931
 10
16.5083444313988
 20
49.2312664567486
 10
16.5091542816431
 20
49.2305838884682
 10
16.5091553679241
 20
49.2307079898876
 10
16.5086315360699
 20
49.2310879732733
 10
16.508371670808
 20
49.2313410955821
 10
16.5078046696835
 20
49.2317090260877
 10
16.5076139845922
 20
49.231862260286
 10
16.5074515539977
 20
49.2318963915076
 10
16.5074090596808
 20
49.2318281418861
 97
0
 75
0
 76
1
 98
0
  0
HATCH
  5
20038
100
AcDbEntity
  8
skládky a antropogenní uloženiny
100
AcDbHatch
 10
0
 20
0
 30
0
210
0
220
0
230
1
  2
SOLID
 70
1
 71
0
 91
1
 92
2
 72
0
 73
1
 93
25
 10
16.5049433741115
 20
49.2234584960198
 10
16.5048655403707
 20
49.223273888025
 10
16.5049589742857
 20
49.2232714070514
 10
16.5054455959987
 20
49.223623355043
 10
16.5057504962598
 20
49.223924483884
 10
16.5062504218183
 20
49.2245058050631
 10
16.5064392177633
 20
49.2247557140553
 10
16.5067697011135
 20
49.2254128985436
 10
16.5071145246732
 20
49.2259334627651
 10
16.5076909055619
 20
49.2262636833811
 10
16.5079776259968
 20
49.2263543590931
 10
16.5083825918676
 20
49.2264410410712
 10
16.5082571109653
 20
49.2265331828631
 10
16.5080230937425
 20
49.2265392035901
 10
16.5076621728306
 20
49.2264867789361
 10
16.5073915293854
 20
49.2263659225021
 10
16.5071763946371
 20
49.2262530606705
 10
16.506791489649
 20
49.2260010820193
 10
16.5065634092869
 20
49.225533637346
 10
16.5061674536309
 20
49.2248604287868
 10
16.5060840411326
 20
49.2247004802475
 10
16.5058402288226
 20
49.224474299689
 10
16.5054425493841
 20
49.2240013927648
 10
16.5052152235848
 20
49.2237421525714
 10
16.5049433741115
 20
49.2234584960198
 97
0
 75
0
 76
1
 98
0
  0
HATCH
  5
20039
100
AcDbEntity
  8
skládky a antropogenní uloženiny
100
AcDbHatch
 10
0
 20
0
 30
0
210
0
220
0
230
1
  2
SOLID
 70
1
 71
0
 91
1
 92
2
 72
0
 73
1
 93
29
 10
16.5154750497882
 20
49.22549239934
 10
16.5155905917154
 20
49.2255428442349
 10
16.5157745117721
 20
49.2258930612603
 10
16.5156573842006
 20
49.2265449497795
 10
16.5154988619272
 20
49.2269488138561
 10
16.515565368915
 20
49.2270046425527
 10
16.5158522154201
 20
49.2263314385031
 10
16.516121159325
 20
49.2254679667155
 10
16.5163585483755
 20
49.2253713248574
 10
16.5166077381588
 20
49.2251396711968
 10
16.5167847991864
 20
49.2251607160272
 10
16.5167763958126
 20
49.2252358754978
 10
16.5167679924132
 20
49.2253110349668
 10
16.5164867002455
 20
49.2255787835457
 10
16.5164434009508
 20
49.2256423689054
 10
16.5164119789798
 20
49.2257740302145
 10
16.5164117442596
 20
49.2259233775753
 10
16.5163787762428
 20
49.2261160383556
 10
16.51633844476
 20
49.2264800608304
 10
16.5161894962848
 20
49.2267220874683
 10
16.515902888363
 20
49.2269362733865
 10
16.5156802817475
 20
49.2275601635347
 10
16.515381224717
 20
49.2275937908627
 10
16.5151876547558
 20
49.2271656591371
 10
16.5151203448906
 20
49.2269177684014
 10
16.5152516281056
 20
49.2263896046502
 10
16.5154562430952
 20
49.2259739803401
 10
16.5154566888394
 20
49.225629873716
 10
16.5154750497882
 20
49.22549239934
 97
0
 75
0
 76
1
 98
0
  0
HATCH
  5
2003A
100
AcDbEntity
  8
skládky a antropogenní uloženiny
100
AcDbHatch
 10
0
 20
0
 30
0
210
0
220
0
230
1
  2
SOLID
 70
1
 71
0
 91
1
 92
2
 72
0
 73
1
 93
15
 10
16.5172398001957
 20
49.2230290427593
 10
16.5166028682881
 20
49.2227823068789
 10
16.5167134310726
 20
49.2226316917056
 10
16.5168673116204
 20
49.2226633823872
 10
16.5174058491415
 20
49.2229038578504
 10
16.5177849233751
 20
49.2230877718437
 10
16.5184581979797
 20
49.223293066221
 10
16.5190871428259
 20
49.223820299057
 10
16.5197638018122
 20
49.2243786694464
 10
16.5197576816059
 20
49.224663228135
 10
16.5195704998321
 20
49.2248488420654
 10
16.5190123762088
 20
49.2243341014362
 10
16.5180550507192
 20
49.2234879554616
 10
16.5178293243957
 20
49.2233045751044
 10
16.5172398001957
 20
49.2230290427593
 97
0
 75
0
 76
1
 98
0
  0
HATCH
  5
2003B
100
AcDbEntity
  8
skládky a antropogenní uloženiny
100
AcDbHatch
 10
0
 20
0
 30
0
210
0
220
0
230
1
  2
SOLID
 70
1
 71
0
 91
1
 92
2
 72
0
 73
1
 93
7
 10
16.5033807665625
 20
49.2189184385298
 10
16.503364853998
 20
49.2188411678089
 10
16.503908293524
 20
49.2189045538608
 10
16.5044231148587
 20
49.2188486834638
 10
16.5044353876784
 20
49.2189619132828
 10
16.5038589808081
 20
49.2190385889087
 10
16.5033807665625
 20
49.2189184385298
 97
0
 75
0
 76
1
 98
0
  0
HATCH
  5
2003C
100
AcDbEntity
  8
skládky a antropogenní uloženiny
100
AcDbHatch
 10
0
 20
0
 30
0
210
0
220
0
230
1
  2
SOLID
 70
1
 71
0
 91
1
 92
2
 72
0
 73
1
 93
9
 10
16.5047798322911
 20
49.2194038026208
 10
16.5046910971178
 20
49.2192906465699
 10
16.5054855461955
 20
49.2189602972316
 10
16.5055221047815
 20
49.218767352309
 10
16.5054671439298
 20
49.2186132422925
 10
16.5060035982621
 20
49.2182624550745
 10
16.506165163972
 20
49.2183377656618
 10
16.5055489436928
 20
49.2191690321036
 10
16.5047798322911
 20
49.2194038026208
 97
0
 75
0
 76
1
 98
0
  0
HATCH
  5
2003D
100
AcDbEntity
  8
skládky a antropogenní uloženiny
100
AcDbHatch
 10
0
 20
0
 30
0
210
0
220
0
230
1
  2
SOLID
 70
1
 71
0
 91
1
 92
2
 72
0
 73
1
 93
17
 10
16.5090428119751
 20
49.2178024071141
 10
16.5095059251097
 20
49.217546535006
 10
16.50991948353
 20
49.21724255647
 10
16.510476356942
 20
49.2166121495582
 10
16.5112150048753
 20
49.2155951218451
 10
16.5118563765055
 20
49.2151603889527
 10
16.5131454257316
 20
49.2142529520697
 10
16.514052820168
 20
49.2139547730873
 10
16.5140313504258
 20
49.2141958530389
 10
16.5133519755671
 20
49.2143785734734
 10
16.5117495828138
 20
49.2157997535342
 10
16.5113639193332
 20
49.2160936397667
 10
16.5110191661415
 20
49.2164002525331
 10
16.5107386094236
 20
49.2166873054057
 10
16.5102324425332
 20
49.2172132458228
 10
16.5096279732412
 20
49.2177012902768
 10
16.5090428119751
 20
49.2178024071141
 97
0
 75
0
 76
1
 98
0
  0
HATCH
  5
2003E
100
AcDbEntity
  8
skládky a antropogenní uloženiny
100
AcDbHatch
 10
0
 20
0
 30
0
210
0
220
0
230
1
  2
SOLID
 70
1
 71
0
 91
1
 92
2
 72
0
 73
1
 93
21
 10
16.5149581610423
 20
49.2147195859291
 10
16.5159741302161
 20
49.2149483696576
 10
16.515858332353
 20
49.2151085137514
 10
16.5155775821362
 20
49.2151317781495
 10
16.5154246276261
 20
49.2152431699795
 10
16.5153444448939
 20
49.2153723491365
 10
16.5154001901207
 20
49.215463185717
 10
16.5156604913996
 20
49.2157709026657
 10
16.5162030250625
 20
49.2163013334368
 10
16.5164660318419
 20
49.2165190154911
 10
16.5169620106696
 20
49.2168066467641
 10
16.5172427017356
 20
49.2170940633159
 10
16.517186778141
 20
49.2171279613236
 10
16.5168998149601
 20
49.2172496136948
 10
16.5155936382714
 20
49.2168340113267
 10
16.5152476381845
 20
49.216262294792
 10
16.5150726495501
 20
49.2156616681569
 10
16.5149077966889
 20
49.2155878916185
 10
16.5145609881
 20
49.2152338549479
 10
16.5149532536931
 20
49.2150285677287
 10
16.5149581610423
 20
49.2147195859291
 97
0
 75
0
 76
1
 98
0
  0
HATCH
  5
2003F
100
AcDbEntity
  8
skládky a antropogenní uloženiny
100
AcDbHatch
 10
0
 20
0
 30
0
210
0
220
0
230
1
  2
SOLID
 70
1
 71
0
 91
1
 92
2
 72
0
 73
1
 93
15
 10
16.5211791831714
 20
49.222343122357
 10
16.5212326350882
 20
49.2219515447615
 10
16.5211750852358
 20
49.2213206776926
 10
16.5216515969776
 20
49.2216952245708
 10
16.5219752649125
 20
49.2220784235835
 10
16.5225017541739
 20
49.2224470987921
 10
16.5230439073708
 20
49.2226271059859
 10
16.5234961187071
 20
49.2228470805896
 10
16.5239767001866
 20
49.2230882606603
 10
16.5243464236958
 20
49.2233326405506
 10
16.5247653210514
 20
49.2236231293924
 10
16.5229022959394
 20
49.2230964575664
 10
16.522252128301
 20
49.2228428192792
 10
16.5215085670378
 20
49.222575083547
 10
16.5211791831714
 20
49.222343122357
 97
0
 75
0
 76
1
 98
0
  0
HATCH
  5
20040
100
AcDbEntity
  8
skládky a antropogenní uloženiny
100
AcDbHatch
 10
0
 20
0
 30
0
210
0
220
0
230
1
  2
SOLID
 70
1
 71
0
 91
1
 92
2
 72
0
 73
1
 93
14
 10
16.5321901428503
 20
49.2228344711955
 10
16.5322609598841
 20
49.2227582682735
 10
16.532470149833
 20
49.2226585033585
 10
16.5325645695022
 20
49.2226439753799
 10
16.5326374510683
 20
49.2226290024081
 10
16.5328997202056
 20
49.2225958717958
 10
16.5330286017596
 20
49.2225997762559
 10
16.5329916558187
 20
49.2227170852944
 10
16.5327118068871
 20
49.222858575316
 10
16.5325444658852
 20
49.2229139829008
 10
16.532435536472
 20
49.222928268905
 10
16.5322835481486
 20
49.2229371250457
 10
16.5322082977775
 20
49.2228993445649
 10
16.5321901428503
 20
49.2228344711955
 97
0
 75
0
 76
1
 98
0
  0
HATCH
  5
20041
100
AcDbEntity
  8
skládky a antropogenní uloženiny
100
AcDbHatch
 10
0
 20
0
 30
0
210
0
220
0
230
1
  2
SOLID
 70
1
 71
0
 91
1
 92
2
 72
0
 73
1
 93
5
 10
16.5326564734779
 20
49.2210426089944
 10
16.5327488690208
 20
49.2206247788288
 10
16.5334710993043
 20
49.2208890248123
 10
16.533238093062
 20
49.2212112761827
 10
16.5326564734779
 20
49.2210426089944
 97
0
 75
0
 76
1
 98
0
  0
HATCH
  5
20042
100
AcDbEntity
  8
skládky a antropogenní uloženiny
100
AcDbHatch
 10
0
 20
0
 30
0
210
0
220
0
230
1
  2
SOLID
 70
1
 71
0
 91
1
 92
2
 72
0
 73
1
 93
5
 10
16.4956391070101
 20
49.245710649466
 10
16.4947885271936
 20
49.2452511995506
 10
16.4952977384127
 20
49.2453529265903
 10
16.4961047752006
 20
49.2457782637045
 10
16.4956391070101
 20
49.245710649466
 97
0
 75
0
 76
1
 98
0
  0
HATCH
  5
20043
100
AcDbEntity
  8
skládky a antropogenní uloženiny
100
AcDbHatch
 10
0
 20
0
 30
0
210
0
220
0
230
1
  2
SOLID
 70
1
 71
0
 91
1
 92
2
 72
0
 73
1
 93
5
 10
16.5019212964436
 20
49.2404287878354
 10
16.5018332143355
 20
49.2402636402175
 10
16.5021290675754
 20
49.2400640271319
 10
16.5023308817298
 20
49.2401747877523
 10
16.5019212964436
 20
49.2404287878354
 97
0
 75
0
 76
1
 98
0
  0
HATCH
  5
20044
100
AcDbEntity
  8
skládky a antropogenní uloženiny
100
AcDbHatch
 10
0
 20
0
 30
0
210
0
220
0
230
1
  2
SOLID
 70
1
 71
0
 91
1
 92
2
 72
0
 73
1
 93
9
 10
16.4988456918623
 20
49.2380491668922
 10
16.4982573849877
 20
49.2377841568896
 10
16.4982059438683
 20
49.2376879975324
 10
16.4982270268137
 20
49.2376570792324
 10
16.4983369395667
 20
49.2376404713821
 10
16.4985131543474
 20
49.2376653933809
 10
16.4987372541904
 20
49.2377930933297
 10
16.4990269030862
 20
49.2379817939312
 10
16.4988456918623
 20
49.2380491668922
 97
0
 75
0
 76
1
 98
0
  0
HATCH
  5
20045
100
AcDbEntity
  8
skládky a antropogenní uloženiny
100
AcDbHatch
 10
0
 20
0
 30
0
210
0
220
0
230
1
  2
SOLID
 70
1
 71
0
 91
1
 92
2
 72
0
 73
1
 93
6
 10
16.530391789152
 20
49.2285306820298
 10
16.5306450508209
 20
49.2286155459324
 10
16.5283748067401
 20
49.2301697831984
 10
16.5281142137672
 20
49.2299871580253
 10
16.5289747911811
 20
49.2294354658653
 10
16.530391789152
 20
49.2285306820298
 97
0
 75
0
 76
1
 98
0
  0
HATCH
  5
20046
100
AcDbEntity
  8
skládky a antropogenní uloženiny
100
AcDbHatch
 10
0
 20
0
 30
0
210
0
220
0
230
1
  2
SOLID
 70
1
 71
0
 91
1
 92
2
 72
0
 73
1
 93
7
 10
16.5786983438415
 20
49.2635028926677
 10
16.5787922870241
 20
49.2632847132984
 10
16.5792965240502
 20
49.263303605248
 10
16.5794110445356
 20
49.2634659975892
 10
16.5792676589291
 20
49.2636336067197
 10
16.5788749047605
 20
49.26360840613
 10
16.5786983438415
 20
49.2635028926677
 97
0
 75
0
 76
1
 98
0
  0
HATCH
  5
20047
100
AcDbEntity
  8
skládky a antropogenní uloženiny
100
AcDbHatch
 10
0
 20
0
 30
0
210
0
220
0
230
1
  2
SOLID
 70
1
 71
0
 91
1
 92
2
 72
0
 73
1
 93
30
 10
16.6457775649268
 20
49.1730913596208
 10
16.6462261702973
 20
49.1733203457037
 10
16.6460355158338
 20
49.1734809119881
 10
16.6460080226159
 20
49.1736091762608
 10
16.6461367880882
 20
49.1737238883448
 10
16.6464653163165
 20
49.1738381435769
 10
16.646613489128
 20
49.1739051576937
 10
16.6466475848266
 20
49.1739648012536
 10
16.646636997974
 20
49.1740440548963
 10
16.6464139471817
 20
49.1742052885505
 10
16.646276453209
 20
49.1744775421519
 10
16.6462000336163
 20
49.1746632387671
 10
16.6460953655665
 20
49.1747281435806
 10
16.6459345371078
 20
49.1747188779971
 10
16.6457919767125
 20
49.1746786446838
 10
16.6456859797327
 20
49.174583883786
 10
16.6453829131482
 20
49.1744928938878
 10
16.6449777160114
 20
49.1744659893192
 10
16.644726741183
 20
49.1745415508249
 10
16.6444892888208
 20
49.1746814574165
 10
16.6443160936053
 20
49.174671676854
 10
16.6441559809376
 20
49.1745957087303
 10
16.6440963844455
 20
49.1745620839088
 10
16.64404777141
 20
49.1743734156374
 10
16.6441038891912
 20
49.1741912029328
 10
16.644166819922
 20
49.1740685092657
 10
16.64430600202
 20
49.1739286593135
 10
16.6445282688884
 20
49.1737621887818
 10
16.6449688379317
 20
49.1735048641833
 10
16.6457775649268
 20
49.1730913596208
 97
0
 75
0
 76
1
 98
0
  0
HATCH
  5
20048
100
AcDbEntity
  8
skládky a antropogenní uloženiny
100
AcDbHatch
 10
0
 20
0
 30
0
210
0
220
0
230
1
  2
SOLID
 70
1
 71
0
 91
1
 92
2
 72
0
 73
1
 93
34
 10
16.6418785651672
 20
49.1703646740774
 10
16.6423197614052
 20
49.1702683729624
 10
16.6427470346233
 20
49.170139349207
 10
16.6428451618884
 20
49.1697650001795
 10
16.6428854536286
 20
49.1694490712167
 10
16.6427841033893
 20
49.1691389232696
 10
16.6446815031896
 20
49.1684441347038
 10
16.645693291542
 20
49.1679424729545
 10
16.6461164927754
 20
49.1676930852635
 10
16.6465833145311
 20
49.1673623434488
 10
16.6469409526111
 20
49.1670312228665
 10
16.6475587609961
 20
49.1664472118529
 10
16.6488320963928
 20
49.1667835461618
 10
16.6489863893399
 20
49.167761285706
 10
16.6488752084078
 20
49.1685222704083
 10
16.6485592609142
 20
49.169639319355
 10
16.6481831999631
 20
49.1700354103613
 10
16.6470000014013
 20
49.170893733499
 10
16.6462343834037
 20
49.1719733126369
 10
16.6460113191311
 20
49.172212087262
 10
16.6450823256198
 20
49.1729727561307
 10
16.644511533964
 20
49.1734167229346
 10
16.6436243692412
 20
49.1740966727093
 10
16.6425415918257
 20
49.1744933279369
 10
16.6413438964982
 20
49.1746076040561
 10
16.6412103792494
 20
49.1738296044712
 10
16.6406804938876
 20
49.1731490568741
 10
16.6405671118804
 20
49.1728526371353
 10
16.6404537324443
 20
49.1725562182625
 10
16.6409568624513
 20
49.1720300900699
 10
16.6405227189304
 20
49.1711493744592
 10
16.6405793985702
 20
49.1708042423337
 10
16.6408983802413
 20
49.1705535292345
 10
16.6418785651672
 20
49.1703646740774
 97
0
 75
0
 76
1
 98
0
  0
HATCH
  5
20049
100
AcDbEntity
  8
skládky a antropogenní uloženiny
100
AcDbHatch
 10
0
 20
0
 30
0
210
0
220
0
230
1
  2
SOLID
 70
1
 71
0
 91
1
 92
2
 72
0
 73
1
 93
24
 10
16.6624925310457
 20
49.1842356561151
 10
16.6623032116611
 20
49.1842635710611
 10
16.6619637999967
 20
49.1839039530777
 10
16.6618126894498
 20
49.1835870748352
 10
16.6617934242348
 20
49.1834036838289
 10
16.6620892087045
 20
49.1829392982822
 10
16.6623207499075
 20
49.1826532021944
 10
16.6629621037481
 20
49.1821212790392
 10
16.6632889515611
 20
49.1818955230964
 10
16.6636767668936
 20
49.181751115056
 10
16.6639226692111
 20
49.1817066054241
 10
16.6644191992369
 20
49.1816571694038
 10
16.6645516785966
 20
49.1819543480393
 10
16.6646612839235
 20
49.1822562059679
 10
16.6645199934201
 20
49.1823641090652
 10
16.6641970249972
 20
49.1826285342871
 10
16.6637191004317
 20
49.1826740230552
 10
16.6635436963604
 20
49.1827882355416
 10
16.6634001391397
 20
49.1829779255427
 10
16.6633382206046
 20
49.1832720512664
 10
16.6631663216108
 20
49.1834414441889
 10
16.6629922695173
 20
49.1834460286611
 10
16.6627660871254
 20
49.1833751524272
 10
16.6624925310457
 20
49.1842356561151
 97
0
 75
0
 76
1
 98
0
  0
HATCH
  5
2004A
100
AcDbEntity
  8
skládky a antropogenní uloženiny
100
AcDbHatch
 10
0
 20
0
 30
0
210
0
220
0
230
1
  2
SOLID
 70
1
 71
0
 91
1
 92
2
 72
0
 73
1
 93
75
 10
16.656048672174
 20
49.1718346722463
 10
16.6560547968894
 20
49.1716790355816
 10
16.6560762378761
 20
49.1713249308435
 10
16.6561738304749
 20
49.1706100201356
 10
16.6552128711387
 20
49.1705660890656
 10
16.6542519120005
 20
49.1705221507883
 10
16.654032424475
 20
49.170563602765
 10
16.653766927637
 20
49.1706606315982
 10
16.6535340691371
 20
49.1708586271891
 10
16.6533739359167
 20
49.1710940050933
 10
16.6534473984372
 20
49.1712813365987
 10
16.6532745379886
 20
49.1716163814321
 10
16.6530552315488
 20
49.1716945651025
 10
16.6526033817799
 20
49.1716996144727
 10
16.6529377953417
 20
49.1700338680935
 10
16.6519122671862
 20
49.169865920975
 10
16.6519084339564
 20
49.1695654654033
 10
16.6520198771868
 20
49.1687420475657
 10
16.6520682994685
 20
49.1679185276287
 10
16.6548706106022
 20
49.1680896161134
 10
16.6545401038382
 20
49.1693645786935
 10
16.6542971824413
 20
49.1703166245436
 10
16.6560239472157
 20
49.1704214724024
 10
16.6577186225249
 20
49.1704905914593
 10
16.6591468140353
 20
49.1705275390087
 10
16.660235109305
 20
49.1705509565464
 10
16.6607147059068
 20
49.1690364474945
 10
16.6652886999607
 20
49.1705072626772
 10
16.6651389037919
 20
49.1707527341356
 10
16.6647489038461
 20
49.1710911987534
 10
16.6642553522194
 20
49.1717345481973
 10
16.6632824327919
 20
49.1730381679454
 10
16.6619929478662
 20
49.1738658267191
 10
16.6601930344042
 20
49.1749998523901
 10
16.6578232736686
 20
49.1767214619996
 10
16.6567695367029
 20
49.177468077679
 10
16.6556611942934
 20
49.178460253616
 10
16.6550561513895
 20
49.1789534024508
 10
16.6539081208452
 20
49.179047696497
 10
16.6525642588204
 20
49.1788816147325
 10
16.6519166233716
 20
49.1787416865014
 10
16.6497531831913
 20
49.1782600175825
 10
16.6492079141215
 20
49.1780823112632
 10
16.6481489275562
 20
49.1768535437866
 10
16.6492334148759
 20
49.1755086917162
 10
16.6501408060729
 20
49.1743696949776
 10
16.6510992834561
 20
49.1732560984601
 10
16.6519704179123
 20
49.1722587500431
 10
16.6524556474479
 20
49.1720880365644
 10
16.6525104089925
 20
49.1728129216556
 10
16.6526324128478
 20
49.1731630603768
 10
16.6529256252
 20
49.1733658833332
 10
16.6532616853011
 20
49.1734199321731
 10
16.6537003355826
 20
49.1733215292237
 10
16.6539619735258
 20
49.1731201661125
 10
16.6541908988666
 20
49.173030045918
 10
16.6545383665083
 20
49.1730575927673
 10
16.6545419661952
 20
49.1734164492554
 10
16.6545791577129
 20
49.1739454063229
 10
16.6546683599175
 20
49.1740275901213
 10
16.6548364667805
 20
49.1740697960939
 10
16.6549309921891
 20
49.1740636092796
 10
16.6550261576461
 20
49.1740561433952
 10
16.6553222713884
 20
49.1737017780311
 10
16.655354478537
 20
49.1734611775149
 10
16.655386686736
 20
49.1732205770769
 10
16.6553488816187
 20
49.1730451648104
 10
16.6553110769151
 20
49.1728697516329
 10
16.6553586027429
 20
49.1728181588765
 10
16.6554061286183
 20
49.1727665652059
 10
16.6555964060754
 20
49.1727416441497
 10
16.6556698636794
 20
49.1727320231836
 10
16.6559483488612
 20
49.1727514631609
 10
16.65601229361
 20
49.1720381970106
 10
16.656048672174
 20
49.1718346722463
 97
0
 75
0
 76
1
 98
0
  0
HATCH
  5
2004B
100
AcDbEntity
  8
skládky a antropogenní uloženiny
100
AcDbHatch
 10
0
 20
0
 30
0
210
0
220
0
230
1
  2
SOLID
 70
1
 71
0
 91
1
 92
2
 72
0
 73
1
 93
32
 10
16.6542971824413
 20
49.1703166245436
 10
16.6543991641015
 20
49.1699063784658
 10
16.654681040638
 20
49.1688227778098
 10
16.65485226459
 20
49.1681633581974
 10
16.6548706106022
 20
49.1680896161134
 10
16.6553399938165
 20
49.1681162403155
 10
16.6555242049635
 20
49.1681368205549
 10
16.6558412863123
 20
49.1681722816695
 10
16.6568074811525
 20
49.1682139604073
 10
16.6585622493581
 20
49.1682929197389
 10
16.6596235509901
 20
49.1683442594997
 10
16.6597751791037
 20
49.1683516554006
 10
16.6597704859586
 20
49.1685692321791
 10
16.6597677669961
 20
49.1686312594604
 10
16.6597678844427
 20
49.1687783352115
 10
16.6597690503754
 20
49.1689690722531
 10
16.6602297772789
 20
49.1689940747799
 10
16.6607170331355
 20
49.1690205142899
 10
16.6606688187221
 20
49.1691804854826
 10
16.6606307701463
 20
49.1693075892263
 10
16.6605670138957
 20
49.1695026160052
 10
16.6604749112711
 20
49.169793702314
 10
16.6602612683206
 20
49.1705472041709
 10
16.659826950907
 20
49.1705488598752
 10
16.6593926321019
 20
49.1705505138481
 10
16.6582766252659
 20
49.1705105682881
 10
16.6571606188716
 20
49.1704706118352
 10
16.6562853368224
 20
49.1704361695797
 10
16.6554100561402
 20
49.1704017197886
 10
16.6549767273662
 20
49.1703764319763
 10
16.6545433976715
 20
49.1703511424401
 10
16.6542971824413
 20
49.1703166245436
 97
0
 75
0
 76
1
 98
0
  0
HATCH
  5
2004C
100
AcDbEntity
  8
skládky a antropogenní uloženiny
100
AcDbHatch
 10
0
 20
0
 30
0
210
0
220
0
230
1
  2
SOLID
 70
1
 71
0
 91
1
 92
2
 72
0
 73
1
 93
5
 10
16.5759518040222
 20
49.2698336449621
 10
16.5759919751389
 20
49.2697263276185
 10
16.5780784552031
 20
49.2697283498727
 10
16.5780754902832
 20
49.2698240054853
 10
16.5759518040222
 20
49.2698336449621
 97
0
 75
0
 76
1
 98
0
  0
HATCH
  5
2004D
100
AcDbEntity
  8
skládky a antropogenní uloženiny
100
AcDbHatch
 10
0
 20
0
 30
0
210
0
220
0
230
1
  2
SOLID
 70
1
 71
0
 91
1
 92
2
 72
0
 73
1
 93
37
 10
16.6526033817799
 20
49.1716996144727
 10
16.653047754601
 20
49.1717023417137
 10
16.6532630878016
 20
49.171628856025
 10
16.6534473984372
 20
49.1712813365987
 10
16.6533739359167
 20
49.1710940050933
 10
16.6535340691371
 20
49.1708586271891
 10
16.6537810680886
 20
49.1706539568702
 10
16.654032424475
 20
49.170563602765
 10
16.6542519120005
 20
49.1705221507883
 10
16.6561738304749
 20
49.1706100201356
 10
16.6560762378761
 20
49.1713249308435
 10
16.6559483488612
 20
49.1727514631609
 10
16.6556698636794
 20
49.1727320231836
 10
16.6555229498066
 20
49.1727512651651
 10
16.6555175662035
 20
49.1727519701997
 10
16.6554061286183
 20
49.1727665652059
 10
16.6553110769151
 20
49.1728697516329
 10
16.655386686736
 20
49.1732205770769
 10
16.6553222713884
 20
49.1737017780311
 10
16.6550255175742
 20
49.1740574223878
 10
16.6548364667805
 20
49.1740697960939
 10
16.6546683599175
 20
49.1740275901213
 10
16.6545791577129
 20
49.1739454063229
 10
16.6545419661952
 20
49.1734164492554
 10
16.6545383665083
 20
49.1730575927673
 10
16.6543882981519
 20
49.173043958932
 10
16.6541908988666
 20
49.173030045918
 10
16.6539619735258
 20
49.1731201661125
 10
16.6538249945431
 20
49.1732319469793
 10
16.6537538441782
 20
49.1732952389874
 10
16.6537003355826
 20
49.1733215292237
 10
16.6532616853011
 20
49.1734199321731
 10
16.6529256252
 20
49.1733658833332
 10
16.6526324128478
 20
49.1731630603768
 10
16.6525104089925
 20
49.1728129216556
 10
16.6524556474479
 20
49.1720880365644
 10
16.6526033817799
 20
49.1716996144727
 97
0
 75
0
 76
1
 98
0
  0
HATCH
  5
2004E
100
AcDbEntity
  8
skládky a antropogenní uloženiny
100
AcDbHatch
 10
0
 20
0
 30
0
210
0
220
0
230
1
  2
SOLID
 70
1
 71
0
 91
1
 92
2
 72
0
 73
1
 93
25
 10
16.6490832733429
 20
49.1698009991792
 10
16.6498537233387
 20
49.1703259029073
 10
16.65005745665
 20
49.1704863743943
 10
16.6505917533584
 20
49.1708852654247
 10
16.650247186414
 20
49.171474664147
 10
16.6514816574
 20
49.1715379099859
 10
16.6516660361145
 20
49.1717899865597
 10
16.6517778234938
 20
49.1719455640779
 10
16.6518812397843
 20
49.1721011590265
 10
16.6519704179123
 20
49.1722587500431
 10
16.6502281125858
 20
49.1742534400416
 10
16.6490809421792
 20
49.1757434268198
 10
16.6482386654257
 20
49.176763934464
 10
16.6462902837622
 20
49.1761736860362
 10
16.6470931804208
 20
49.175118258366
 10
16.647956683397
 20
49.174357837546
 10
16.6474193083225
 20
49.1735093686411
 10
16.6470302320733
 20
49.1734819220815
 10
16.6460913565449
 20
49.1731137749702
 10
16.6466962321922
 20
49.1725324639043
 10
16.6468940456879
 20
49.17215696352
 10
16.647798837766
 20
49.1715623051625
 10
16.6480247889942
 20
49.1710317796379
 10
16.6482507353843
 20
49.170501253627
 10
16.6490832733429
 20
49.1698009991792
 97
0
 75
0
 76
1
 98
0
  0
HATCH
  5
2004F
100
AcDbEntity
  8
skládky a antropogenní uloženiny
100
AcDbHatch
 10
0
 20
0
 30
0
210
0
220
0
230
1
  2
SOLID
 70
1
 71
0
 91
1
 92
2
 72
0
 73
1
 93
14
 10
16.6526353541765
 20
49.1705252303653
 10
16.6522140132022
 20
49.1704643218416
 10
16.6521090537923
 20
49.1703910782201
 10
16.6519199363572
 20
49.17008578961
 10
16.6519140203335
 20
49.1695313999282
 10
16.6519760389468
 20
49.1691077893153
 10
16.6520198771868
 20
49.1687420475657
 10
16.6519566163102
 20
49.1683716486807
 10
16.6520509606013
 20
49.167917440759
 10
16.6537181578214
 20
49.1680198306124
 10
16.6537518434519
 20
49.1689575085536
 10
16.6537855317074
 20
49.1698951864493
 10
16.6533546940321
 20
49.1706602109657
 10
16.6526353541765
 20
49.1705252303653
 97
0
 75
0
 76
1
 98
0
  0
HATCH
  5
20050
100
AcDbEntity
  8
skládky a antropogenní uloženiny
100
AcDbHatch
 10
0
 20
0
 30
0
210
0
220
0
230
1
  2
SOLID
 70
1
 71
0
 91
1
 92
2
 72
0
 73
1
 93
16
 10
16.6567251452539
 20
49.177280793936
 10
16.6561582416093
 20
49.1774694251081
 10
16.6565789351637
 20
49.1754041520673
 10
16.6580961773236
 20
49.1750554033495
 10
16.6596511995801
 20
49.1746981834057
 10
16.6618644864785
 20
49.173541460232
 10
16.6619867587877
 20
49.172605202
 10
16.6630342494459
 20
49.1718313281923
 10
16.6638112426603
 20
49.1718250235938
 10
16.6640984599325
 20
49.1713328009393
 10
16.6643893644869
 20
49.1711464286461
 10
16.6647784878592
 20
49.1711228108324
 10
16.6632824327919
 20
49.1730381679454
 10
16.65987997246
 20
49.1752405465597
 10
16.6581786289592
 20
49.1763416979245
 10
16.6567251452539
 20
49.177280793936
 97
0
 75
0
 76
1
 98
0
  0
HATCH
  5
20051
100
AcDbEntity
  8
skládky a antropogenní uloženiny
100
AcDbHatch
 10
0
 20
0
 30
0
210
0
220
0
230
1
  2
SOLID
 70
1
 71
0
 91
1
 92
2
 72
0
 73
1
 93
11
 10
16.6597254387058
 20
49.171709858685
 10
16.6597629550636
 20
49.1713445635621
 10
16.6613153906665
 20
49.171527161993
 10
16.6621336557819
 20
49.1714675008133
 10
16.6628720470306
 20
49.1714184582822
 10
16.6637161707181
 20
49.1713595838865
 10
16.6640984599325
 20
49.1713328009393
 10
16.6638112426603
 20
49.1718250235938
 10
16.6630342494459
 20
49.1718313281923
 10
16.6612466012555
 20
49.171902316925
 10
16.6597254387058
 20
49.171709858685
 97
0
 75
0
 76
1
 98
0
  0
HATCH
  5
20052
100
AcDbEntity
  8
skládky a antropogenní uloženiny
100
AcDbHatch
 10
0
 20
0
 30
0
210
0
220
0
230
1
  2
SOLID
 70
1
 71
0
 91
1
 92
2
 72
0
 73
1
 93
30
 10
16.6541091969724
 20
49.1737333379803
 10
16.654124133711
 20
49.1745268787496
 10
16.6545071676804
 20
49.1749184186754
 10
16.6547176710074
 20
49.1751274140234
 10
16.6548902075508
 20
49.1753099582019
 10
16.6549481443629
 20
49.1759244009178
 10
16.6550060824594
 20
49.1765388444416
 10
16.6546969745066
 20
49.1767296000838
 10
16.6547780973882
 20
49.1769335640064
 10
16.655139900672
 20
49.177111640247
 10
16.6558537095295
 20
49.1771441956118
 10
16.6554719821825
 20
49.177307011097
 10
16.6549301005107
 20
49.1775802726978
 10
16.6542522055362
 20
49.1771821672491
 10
16.6531209875544
 20
49.1771411118174
 10
16.6529416576913
 20
49.1768061389053
 10
16.6533702960126
 20
49.1765510565212
 10
16.6526831210307
 20
49.1758765518463
 10
16.6519266072373
 20
49.1760093334219
 10
16.6515356324222
 20
49.175896576517
 10
16.6511600193691
 20
49.1757295519135
 10
16.6506077779718
 20
49.1757064641887
 10
16.6502295538577
 20
49.1753000794138
 10
16.6507655941221
 20
49.1744496048817
 10
16.6510081802206
 20
49.1741497130728
 10
16.6520789323837
 20
49.1740923832537
 10
16.6524898613741
 20
49.1742541748529
 10
16.6528187839425
 20
49.174191390124
 10
16.6532814383531
 20
49.1736284338139
 10
16.6541091969724
 20
49.1737333379803
 97
0
 75
0
 76
1
 98
0
  0
HATCH
  5
20053
100
AcDbEntity
  8
skládky a antropogenní uloženiny
100
AcDbHatch
 10
0
 20
0
 30
0
210
0
220
0
230
1
  2
SOLID
 70
1
 71
0
 91
1
 92
2
 72
0
 73
1
 93
32
 10
16.6463188628123
 20
49.1761529552557
 10
16.646317267581
 20
49.1761004749859
 10
16.6463216744048
 20
49.1760601760105
 10
16.6463342983183
 20
49.1760126784461
 10
16.6463693981437
 20
49.1759618824519
 10
16.6464060745651
 20
49.1759342611815
 10
16.6464244128405
 20
49.175913305383
 10
16.6464988105905
 20
49.1758752306472
 10
16.6464841151778
 20
49.1758546578014
 10
16.6466967135407
 20
49.1756133341877
 10
16.6469089059861
 20
49.1753072230169
 10
16.6469349566475
 20
49.1752754151438
 10
16.6469400274754
 20
49.1752604876387
 10
16.6469753281165
 20
49.1752135043941
 10
16.647014226164
 20
49.1751765429784
 10
16.6470931804208
 20
49.175118258366
 10
16.647153527589
 20
49.1750901360192
 10
16.6471762226084
 20
49.1750912747774
 10
16.6474417131427
 20
49.1748598161871
 10
16.647608624561
 20
49.1746732955365
 10
16.6479915827167
 20
49.1743271113055
 10
16.6482998814422
 20
49.1737225212311
 10
16.6483411562714
 20
49.1733186103685
 10
16.6485419838978
 20
49.1733418016331
 10
16.6489134919415
 20
49.1743189970743
 10
16.6486731756318
 20
49.1750469925326
 10
16.6485810992109
 20
49.1761975395765
 10
16.6485750521039
 20
49.1763080626812
 10
16.6482247755132
 20
49.176761205613
 10
16.6478774703916
 20
49.1766628018648
 10
16.6472692319061
 20
49.1764858148422
 10
16.6463188628123
 20
49.1761529552557
 97
0
 75
0
 76
1
 98
0
  0
HATCH
  5
20054
100
AcDbEntity
  8
skládky a antropogenní uloženiny
100
AcDbHatch
 10
0
 20
0
 30
0
210
0
220
0
230
1
  2
SOLID
 70
1
 71
0
 91
1
 92
2
 72
0
 73
1
 93
27
 10
16.6541091969724
 20
49.1737333379803
 10
16.6544864265819
 20
49.1737916241654
 10
16.6545623107983
 20
49.1715225324167
 10
16.6550127195596
 20
49.1715318585608
 10
16.6552350478248
 20
49.1719899643663
 10
16.6559357694636
 20
49.1719917962949
 10
16.6559620434893
 20
49.1718217102134
 10
16.6560259673193
 20
49.1714671867131
 10
16.656371774101
 20
49.1713964556455
 10
16.6569871601541
 20
49.1714204652862
 10
16.6576433925949
 20
49.1717292933153
 10
16.6591554572349
 20
49.1725603954271
 10
16.6595188639889
 20
49.1729980834353
 10
16.6596851663545
 20
49.1733109402077
 10
16.6593845722656
 20
49.1736701595688
 10
16.6591625786344
 20
49.1738447184907
 10
16.6582928546352
 20
49.1742609255787
 10
16.6565217315118
 20
49.1753887256672
 10
16.655864966229
 20
49.1770681494567
 10
16.6558537095295
 20
49.1771441956118
 10
16.655139900672
 20
49.177111640247
 10
16.6547780973882
 20
49.1769335640064
 10
16.6546969745066
 20
49.1767296000838
 10
16.6550060824594
 20
49.1765388444416
 10
16.6548902075508
 20
49.1753099582019
 10
16.654124133711
 20
49.1745268787496
 10
16.6541091969724
 20
49.1737333379803
 97
0
 75
0
 76
1
 98
0
  0
HATCH
  5
20055
100
AcDbEntity
  8
skládky a antropogenní uloženiny
100
AcDbHatch
 10
0
 20
0
 30
0
210
0
220
0
230
1
  2
SOLID
 70
1
 71
0
 91
1
 92
2
 72
0
 73
1
 93
24
 10
16.6576433925949
 20
49.1717292933153
 10
16.6588920160236
 20
49.1716532664714
 10
16.6594654041309
 20
49.1720264992592
 10
16.6597254387058
 20
49.171709858685
 10
16.6597629550636
 20
49.1713445635621
 10
16.6613153906665
 20
49.171527161993
 10
16.6640984599325
 20
49.1713328009393
 10
16.6638112426603
 20
49.1718250235938
 10
16.6630342494459
 20
49.1718313281923
 10
16.6619867587877
 20
49.172605202
 10
16.6618644864785
 20
49.173541460232
 10
16.6614634172513
 20
49.1737492047275
 10
16.660757855326
 20
49.1741198266608
 10
16.6596511995801
 20
49.1746981834057
 10
16.6580961773236
 20
49.1750554033495
 10
16.6565217315118
 20
49.1753887256672
 10
16.6565211833623
 20
49.1753887286495
 10
16.6582928546352
 20
49.1742609255787
 10
16.6589405832936
 20
49.1740192778745
 10
16.6593845722656
 20
49.1736701595688
 10
16.6596851663545
 20
49.1733109402077
 10
16.6595188639889
 20
49.1729980834353
 10
16.6591554572349
 20
49.1725603954271
 10
16.6576433925949
 20
49.1717292933153
 97
0
 75
0
 76
1
 98
0
  0
HATCH
  5
20056
100
AcDbEntity
  8
skládky a antropogenní uloženiny
100
AcDbHatch
 10
0
 20
0
 30
0
210
0
220
0
230
1
  2
SOLID
 70
1
 71
0
 91
1
 92
2
 72
0
 73
1
 93
22
 10
16.6531216312018
 20
49.1709741537294
 10
16.6533333907575
 20
49.1706993901731
 10
16.6537855317074
 20
49.1698951864493
 10
16.6537181578214
 20
49.1680198306124
 10
16.6567836118754
 20
49.1682220011424
 10
16.6597730874521
 20
49.1683601291401
 10
16.6597704859586
 20
49.1685692321791
 10
16.6597405600162
 20
49.1686249800072
 10
16.6597690503754
 20
49.1689690722531
 10
16.6612998736364
 20
49.1692137327517
 10
16.6628741090678
 20
49.1691900088296
 10
16.664169769246
 20
49.1692392656095
 10
16.6643893644869
 20
49.1711464286461
 10
16.6640984599325
 20
49.1713328009393
 10
16.6613153906665
 20
49.171527161993
 10
16.659690841531
 20
49.1713353083747
 10
16.6570252112487
 20
49.1711268523949
 10
16.6553887626435
 20
49.1703406219157
 10
16.6547869002474
 20
49.1703653131231
 10
16.6547056204394
 20
49.1707635314205
 10
16.6530257652139
 20
49.1714654273893
 10
16.6531216312018
 20
49.1709741537294
 97
0
 75
0
 76
1
 98
0
  0
HATCH
  5
20057
100
AcDbEntity
  8
skládky a antropogenní uloženiny
100
AcDbHatch
 10
0
 20
0
 30
0
210
0
220
0
230
1
  2
SOLID
 70
1
 71
0
 91
1
 92
2
 72
0
 73
1
 93
27
 10
16.6484686659458
 20
49.1771909637273
 10
16.6482386654257
 20
49.176763934464
 10
16.6495017580432
 20
49.1751659967511
 10
16.6493030205663
 20
49.1747570363498
 10
16.6487771492747
 20
49.174634303345
 10
16.6499957756439
 20
49.1747667430226
 10
16.6501939247366
 20
49.1755029342853
 10
16.6502920629634
 20
49.1762310218166
 10
16.650934749975
 20
49.1770292047068
 10
16.6524894818384
 20
49.1773670841695
 10
16.6538621992378
 20
49.1776793605551
 10
16.6548710141102
 20
49.1779406525337
 10
16.6553251867092
 20
49.1776696253666
 10
16.6557772605864
 20
49.1776478931453
 10
16.6555627181374
 20
49.1782192160607
 10
16.655369122813
 20
49.1787365148762
 10
16.6550561513895
 20
49.1789534024508
 10
16.6547017923719
 20
49.1789993205988
 10
16.6539081208452
 20
49.179047696497
 10
16.6525642588204
 20
49.1788816147325
 10
16.6497531831913
 20
49.1782600175825
 10
16.6479055944585
 20
49.1776576183362
 10
16.6479368292034
 20
49.1775409468986
 10
16.6483183167796
 20
49.1776471024916
 10
16.6485698248967
 20
49.1775140318145
 10
16.6485205688045
 20
49.1773597502892
 10
16.6484686659458
 20
49.1771909637273
 97
0
 75
0
 76
1
 98
0
  0
HATCH
  5
20058
100
AcDbEntity
  8
skládky a antropogenní uloženiny
100
AcDbHatch
 10
0
 20
0
 30
0
210
0
220
0
230
1
  2
SOLID
 70
1
 71
0
 91
1
 92
2
 72
0
 73
1
 93
21
 10
16.6610948529084
 20
49.128419808113
 10
16.6610514036772
 20
49.1283892614845
 10
16.6610285439026
 20
49.1283483107244
 10
16.6610147786697
 20
49.128306981695
 10
16.6610203411885
 20
49.1282742577506
 10
16.6610345394017
 20
49.1282313950579
 10
16.6610712854397
 20
49.1281874997039
 10
16.661168263125
 20
49.1281318240473
 10
16.6620038842183
 20
49.1282366526034
 10
16.6630646263031
 20
49.1282654735598
 10
16.6631086243585
 20
49.1282928237617
 10
16.6631463715266
 20
49.1283295710097
 10
16.6631759531894
 20
49.1283730136022
 10
16.6631808798939
 20
49.1284338205106
 10
16.6631566062161
 20
49.1284761949379
 10
16.6631167295351
 20
49.1285041022938
 10
16.6630779871447
 20
49.1285300970973
 10
16.6630172051705
 20
49.1285552894818
 10
16.6620988973777
 20
49.1285191353431
 10
16.661959267314
 20
49.1285092946256
 10
16.6610948529084
 20
49.128419808113
 97
0
 75
0
 76
1
 98
0
  0
HATCH
  5
20059
100
AcDbEntity
  8
skládky a antropogenní uloženiny
100
AcDbHatch
 10
0
 20
0
 30
0
210
0
220
0
230
1
  2
SOLID
 70
1
 71
0
 91
1
 92
2
 72
0
 73
1
 93
20
 10
16.662138446353
 20
49.1287940126186
 10
16.6620995291712
 20
49.1287686870002
 10
16.6620813430218
 20
49.1287349043537
 10
16.6620739459553
 20
49.1286814363675
 10
16.6620783806758
 20
49.1286419988883
 10
16.6620963376648
 20
49.1286175720799
 10
16.6621087403051
 20
49.1286019980744
 10
16.6621533545246
 20
49.1285875066856
 10
16.6626045046788
 20
49.1286409902798
 10
16.6630299753572
 20
49.1286511832096
 10
16.6630833598542
 20
49.1286628797182
 10
16.6631099676068
 20
49.1286884653952
 10
16.6631295237226
 20
49.1287270275391
 10
16.6631241569022
 20
49.128768780698
 10
16.6631203854585
 20
49.1287929166192
 10
16.6630942050199
 20
49.1288199223624
 10
16.6630579301057
 20
49.128841616807
 10
16.6630120820398
 20
49.1288550918359
 10
16.6625255682843
 20
49.1288423625969
 10
16.662138446353
 20
49.1287940126186
 97
0
 75
0
 76
1
 98
0
  0
HATCH
  5
2005A
100
AcDbEntity
  8
skládky a antropogenní uloženiny
100
AcDbHatch
 10
0
 20
0
 30
0
210
0
220
0
230
1
  2
SOLID
 70
1
 71
0
 91
1
 92
2
 72
0
 73
1
 93
8
 10
16.6601287125028
 20
49.1280306886992
 10
16.6605272915109
 20
49.1280701118899
 10
16.6606130499499
 20
49.1281347366747
 10
16.6606012097947
 20
49.1282070766285
 10
16.6605349185029
 20
49.1282883706979
 10
16.6604477509674
 20
49.1283290924267
 10
16.6600482798298
 20
49.1282892299661
 10
16.6601287125028
 20
49.1280306886992
 97
0
 75
0
 76
1
 98
0
  0
HATCH
  5
2005B
100
AcDbEntity
  8
skládky a antropogenní uloženiny
100
AcDbHatch
 10
0
 20
0
 30
0
210
0
220
0
230
1
  2
SOLID
 70
1
 71
0
 91
1
 92
2
 72
0
 73
1
 93
17
 10
16.6487323694211
 20
49.1350154735681
 10
16.6486856798684
 20
49.1349786679904
 10
16.648638990385
 20
49.1349418623937
 10
16.6485784327955
 20
49.1348757232518
 10
16.6484719490016
 20
49.1347597176756
 10
16.6483654657054
 20
49.1346437119993
 10
16.6485705401439
 20
49.1344198188379
 10
16.6487645675066
 20
49.1342078080243
 10
16.6493570781086
 20
49.1343975568447
 10
16.6493934014999
 20
49.1344094771051
 10
16.6493152580959
 20
49.1345119986544
 10
16.649237114369
 20
49.1346145201492
 10
16.6490727607774
 20
49.1348326057419
 10
16.6489088255314
 20
49.1350502576429
 10
16.6488081066389
 20
49.135024006711
 10
16.6487858672814
 20
49.1350490061973
 10
16.6487323694211
 20
49.1350154735681
 97
0
 75
0
 76
1
 98
0
  0
HATCH
  5
2005C
100
AcDbEntity
  8
skládky a antropogenní uloženiny
100
AcDbHatch
 10
0
 20
0
 30
0
210
0
220
0
230
1
  2
SOLID
 70
1
 71
0
 91
1
 92
2
 72
0
 73
1
 93
8
 10
16.6112809175294
 20
49.1565500937144
 10
16.6121042657356
 20
49.1562795915559
 10
16.6124872681939
 20
49.1587733373867
 10
16.6118781496631
 20
49.1587649851837
 10
16.6119227024271
 20
49.1582798813233
 10
16.6118205295562
 20
49.157880058774
 10
16.6113871685356
 20
49.1576546344533
 10
16.6112809175294
 20
49.1565500937144
 97
0
 75
0
 76
1
 98
0
  0
HATCH
  5
2005D
100
AcDbEntity
  8
skládky a antropogenní uloženiny
100
AcDbHatch
 10
0
 20
0
 30
0
210
0
220
0
230
1
  2
SOLID
 70
1
 71
0
 91
1
 92
2
 72
0
 73
1
 93
11
 10
16.6111971811175
 20
49.1522046547359
 10
16.6111150130551
 20
49.1520900194603
 10
16.6117169268985
 20
49.1520322059756
 10
16.6120553949261
 20
49.1520125023671
 10
16.6124183001349
 20
49.1520089195267
 10
16.6126068189456
 20
49.1520268038656
 10
16.6132099741803
 20
49.1520309302022
 10
16.6132312567089
 20
49.1521612389004
 10
16.6121550971648
 20
49.1522150315161
 10
16.6116178413943
 20
49.1522369173338
 10
16.6111971811175
 20
49.1522046547359
 97
0
 75
0
 76
1
 98
0
  0
HATCH
  5
2005E
100
AcDbEntity
  8
skládky a antropogenní uloženiny
100
AcDbHatch
 10
0
 20
0
 30
0
210
0
220
0
230
1
  2
SOLID
 70
1
 71
0
 91
1
 92
2
 72
0
 73
1
 93
46
 10
16.6282596362228
 20
49.1515082365621
 10
16.6285342739221
 20
49.1515614256983
 10
16.6288383004919
 20
49.1515984433437
 10
16.6290901562652
 20
49.1516185646026
 10
16.629392098845
 20
49.1516166765185
 10
16.6296708987344
 20
49.1515991314325
 10
16.629900707618
 20
49.1515726034513
 10
16.6305449863805
 20
49.1514807792372
 10
16.6307873618848
 20
49.1514469980079
 10
16.6309836668294
 20
49.1514191839729
 10
16.6310473093528
 20
49.1514229157512
 10
16.6313347402133
 20
49.1514409350214
 10
16.6314712879664
 20
49.1514478320972
 10
16.6316078357576
 20
49.1514547290113
 10
16.631850237402
 20
49.1514824516288
 10
16.6319620141119
 20
49.1514978623368
 10
16.6323356041828
 20
49.151547477304
 10
16.6324523585009
 20
49.1515409894364
 10
16.6326105735805
 20
49.1514999424654
 10
16.6326914249988
 20
49.1514920917504
 10
16.6327858472316
 20
49.1516122787562
 10
16.6328525379622
 20
49.1517392784127
 10
16.6325147492006
 20
49.1517709308359
 10
16.6324723927116
 20
49.1517475854737
 10
16.6321207776816
 20
49.1517467383244
 10
16.6319969513688
 20
49.1517484296041
 10
16.6319073259941
 20
49.1517396050818
 10
16.6318177006514
 20
49.1517307804898
 10
16.6316258378598
 20
49.1516917077326
 10
16.6315166915963
 20
49.1516695182799
 10
16.6312390222641
 20
49.1516130713455
 10
16.6311338469107
 20
49.1516099301424
 10
16.6310286715707
 20
49.1516067888435
 10
16.6308856164678
 20
49.1516172492317
 10
16.6305248231519
 20
49.1516764383426
 10
16.6303566362617
 20
49.1517189933498
 10
16.6298123502265
 20
49.1517922018268
 10
16.6295722330516
 20
49.1518101316734
 10
16.628956101465
 20
49.151869933512
 10
16.6288093561525
 20
49.1518676033783
 10
16.6286679447711
 20
49.1518647006597
 10
16.6285265334065
 20
49.1518617977678
 10
16.6283056973209
 20
49.1518169614687
 10
16.6282417745712
 20
49.1518040279262
 10
16.628118181425
 20
49.1517623618394
 10
16.6282596362228
 20
49.1515082365621
 97
0
 75
0
 76
1
 98
0
  0
HATCH
  5
2005F
100
AcDbEntity
  8
skládky a antropogenní uloženiny
100
AcDbHatch
 10
0
 20
0
 30
0
210
0
220
0
230
1
  2
SOLID
 70
1
 71
0
 91
1
 92
2
 72
0
 73
1
 93
10
 10
16.6285938646251
 20
49.1446401906114
 10
16.6289782547935
 20
49.1446873636087
 10
16.6292067814809
 20
49.1447107281148
 10
16.6292507826005
 20
49.1447261200189
 10
16.6292872492482
 20
49.1447873595968
 10
16.6292950071603
 20
49.1448494218994
 10
16.629222413792
 20
49.1448578971198
 10
16.6289899093
 20
49.1448361823484
 10
16.6286149873884
 20
49.1447842759725
 10
16.6285938646251
 20
49.1446401906114
 97
0
 75
0
 76
1
 98
0
  0
HATCH
  5
20060
100
AcDbEntity
  8
skládky a antropogenní uloženiny
100
AcDbHatch
 10
0
 20
0
 30
0
210
0
220
0
230
1
  2
SOLID
 70
1
 71
0
 91
1
 92
2
 72
0
 73
1
 93
11
 10
16.7038703333133
 20
49.1442295455996
 10
16.7039779071228
 20
49.1440505473143
 10
16.7040832468812
 20
49.1438735810059
 10
16.7054096328168
 20
49.1441100146397
 10
16.7067360314006
 20
49.1443464330128
 10
16.7066380128616
 20
49.1445590130222
 10
16.7065342979823
 20
49.1447710130189
 10
16.7053708142943
 20
49.144577888695
 10
16.7050218563375
 20
49.1444994437388
 10
16.7044460932589
 20
49.1443644961074
 10
16.7038703333133
 20
49.1442295455996
 97
0
 75
0
 76
1
 98
0
  0
HATCH
  5
20061
100
AcDbEntity
  8
skládky a antropogenní uloženiny
100
AcDbHatch
 10
0
 20
0
 30
0
210
0
220
0
230
1
  2
SOLID
 70
1
 71
0
 91
1
 92
2
 72
0
 73
1
 93
5
 10
16.7047906360515
 20
49.1424921042308
 10
16.7047387424011
 20
49.142311530634
 10
16.7050706323035
 20
49.1422974389852
 10
16.7050864378316
 20
49.1424780662295
 10
16.7047906360515
 20
49.1424921042308
 97
0
 75
0
 76
1
 98
0
  0
HATCH
  5
20062
100
AcDbEntity
  8
skládky a antropogenní uloženiny
100
AcDbHatch
 10
0
 20
0
 30
0
210
0
220
0
230
1
  2
SOLID
 70
1
 71
0
 91
1
 92
2
 72
0
 73
1
 93
22
 10
16.7024632407347
 20
49.1399452459316
 10
16.7023191432675
 20
49.1398363849217
 10
16.702150967328
 20
49.1397137168094
 10
16.7019460552171
 20
49.1396321093682
 10
16.7017411437802
 20
49.1395505015622
 10
16.7017153657094
 20
49.1394201810022
 10
16.7019021088581
 20
49.1392824225801
 10
16.7021536138932
 20
49.1391840440183
 10
16.7023781000117
 20
49.1391571154305
 10
16.7025276847197
 20
49.1391479284291
 10
16.7027489653711
 20
49.1391861496427
 10
16.7029353750112
 20
49.1393233895939
 10
16.7031217856821
 20
49.1394606292414
 10
16.7034118977335
 20
49.1394702038528
 10
16.7037020098974
 20
49.1394797777342
 10
16.7038565060238
 20
49.139539728722
 10
16.7039229127178
 20
49.1396234400551
 10
16.7038381156211
 20
49.1396893675764
 10
16.7036943415156
 20
49.1397676027207
 10
16.7034227632223
 20
49.1398368789922
 10
16.7029430025014
 20
49.1398910634605
 10
16.7024632407347
 20
49.1399452459316
 97
0
 75
0
 76
1
 98
0
  0
HATCH
  5
20063
100
AcDbEntity
  8
skládky a antropogenní uloženiny
100
AcDbHatch
 10
0
 20
0
 30
0
210
0
220
0
230
1
  2
SOLID
 70
1
 71
0
 91
1
 92
2
 72
0
 73
1
 93
16
 10
16.7060577646856
 20
49.1426683138272
 10
16.7052385237336
 20
49.1426719291344
 10
16.7044192826669
 20
49.1426755386212
 10
16.7044191194665
 20
49.1425118793227
 10
16.7053074396003
 20
49.1424668744808
 10
16.7054199862142
 20
49.1424615149591
 10
16.705606698176
 20
49.142458229663
 10
16.7057704294331
 20
49.1424552908075
 10
16.7058938205784
 20
49.1424548246628
 10
16.706047251672
 20
49.1424500738806
 10
16.706571558701
 20
49.1424471092037
 10
16.7066528066057
 20
49.1424745630958
 10
16.7066920194836
 20
49.142544779035
 10
16.7066636600748
 20
49.1426230158465
 10
16.706551784889
 20
49.1426583432112
 10
16.7060577646856
 20
49.1426683138272
 97
0
 75
0
 76
1
 98
0
  0
HATCH
  5
20064
100
AcDbEntity
  8
skládky a antropogenní uloženiny
100
AcDbHatch
 10
0
 20
0
 30
0
210
0
220
0
230
1
  2
SOLID
 70
1
 71
0
 91
1
 92
2
 72
0
 73
1
 93
14
 10
16.7050864378316
 20
49.1424780662295
 10
16.7050706323035
 20
49.1422974389852
 10
16.7054556047806
 20
49.1422865543703
 10
16.7057494764168
 20
49.1422791714022
 10
16.7060331311212
 20
49.1422683893859
 10
16.7060841895281
 20
49.1422952349911
 10
16.7061080551808
 20
49.142333009206
 10
16.7061160134391
 20
49.142400791186
 10
16.706047251672
 20
49.1424500738806
 10
16.7058321243245
 20
49.1424550577039
 10
16.705606698176
 20
49.142458229663
 10
16.7054199862142
 20
49.1424615149591
 10
16.7053074396003
 20
49.1424668744808
 10
16.7050864378316
 20
49.1424780662295
 97
0
 75
0
 76
1
 98
0
  0
HATCH
  5
20065
100
AcDbEntity
  8
skládky a antropogenní uloženiny
100
AcDbHatch
 10
0
 20
0
 30
0
210
0
220
0
230
1
  2
SOLID
 70
1
 71
0
 91
1
 92
2
 72
0
 73
1
 93
10
 10
16.7047307942394
 20
49.142967373518
 10
16.7044209063304
 20
49.142819223
 10
16.7044192826669
 20
49.1426755386212
 10
16.7060577646856
 20
49.1426683138272
 10
16.7061616183723
 20
49.1427568638426
 10
16.706188173772
 20
49.1428703141305
 10
16.7061071395628
 20
49.1429685936079
 10
16.706017754882
 20
49.14306226163
 10
16.7053742739442
 20
49.1430148193694
 10
16.7047307942394
 20
49.142967373518
 97
0
 75
0
 76
1
 98
0
  0
HATCH
  5
20066
100
AcDbEntity
  8
skládky a antropogenní uloženiny
100
AcDbHatch
 10
0
 20
0
 30
0
210
0
220
0
230
1
  2
SOLID
 70
1
 71
0
 91
1
 92
2
 72
0
 73
1
 93
12
 10
16.705508399366
 20
49.1432900156317
 10
16.7047307942394
 20
49.142967373518
 10
16.706017754882
 20
49.14306226163
 10
16.7067799810508
 20
49.1430737958982
 10
16.707455305282
 20
49.1430937956442
 10
16.7075122128715
 20
49.1431421439862
 10
16.7075492985788
 20
49.1432187654107
 10
16.7075164301377
 20
49.1433038256257
 10
16.7074653571176
 20
49.1433711508012
 10
16.7074127789167
 20
49.1434049537559
 10
16.7067569103996
 20
49.1433645650804
 10
16.705508399366
 20
49.1432900156317
 97
0
 75
0
 76
1
 98
0
  0
HATCH
  5
20067
100
AcDbEntity
  8
skládky a antropogenní uloženiny
100
AcDbHatch
 10
0
 20
0
 30
0
210
0
220
0
230
1
  2
SOLID
 70
1
 71
0
 91
1
 92
2
 72
0
 73
1
 93
18
 10
16.6076610099793
 20
49.1777487440987
 10
16.6076397596107
 20
49.1771608888042
 10
16.6076160952778
 20
49.1765968008256
 10
16.6074756661126
 20
49.1758619772365
 10
16.6073743817322
 20
49.1748156671825
 10
16.607313924092
 20
49.1735125241221
 10
16.6073325001101
 20
49.1723708229881
 10
16.6072129707894
 20
49.1709174891061
 10
16.6080122502933
 20
49.1720062342065
 10
16.6088685162841
 20
49.173172440333
 10
16.6094325666015
 20
49.1740326011905
 10
16.6099445059042
 20
49.174910486047
 10
16.6106430315488
 20
49.1760239668395
 10
16.61005676229
 20
49.1763043330179
 10
16.609130555748
 20
49.1768599317082
 10
16.6084847761819
 20
49.177440816695
 10
16.6079473376749
 20
49.177935838635
 10
16.6076610099793
 20
49.1777487440987
 97
0
 75
0
 76
1
 98
0
  0
HATCH
  5
20068
100
AcDbEntity
  8
skládky a antropogenní uloženiny
100
AcDbHatch
 10
0
 20
0
 30
0
210
0
220
0
230
1
  2
SOLID
 70
1
 71
0
 91
1
 92
2
 72
0
 73
1
 93
8
 10
16.610647573548
 20
49.1744574941418
 10
16.6130117164767
 20
49.1748357830959
 10
16.6126019246437
 20
49.1750228315586
 10
16.6119251702472
 20
49.1753499072747
 10
16.6111957220207
 20
49.1757250410716
 10
16.610929824862
 20
49.1752403718967
 10
16.6107889264934
 20
49.1749845456278
 10
16.610647573548
 20
49.1744574941418
 97
0
 75
0
 76
1
 98
0
  0
HATCH
  5
20069
100
AcDbEntity
  8
skládky a antropogenní uloženiny
100
AcDbHatch
 10
0
 20
0
 30
0
210
0
220
0
230
1
  2
SOLID
 70
1
 71
0
 91
1
 92
2
 72
0
 73
1
 93
6
 10
16.6060642538198
 20
49.1698716248752
 10
16.6067906605888
 20
49.1698324902222
 10
16.6067965517279
 20
49.1700719680372
 10
16.6068049290481
 20
49.1702478546637
 10
16.6061936447766
 20
49.1700097720688
 10
16.6060642538198
 20
49.1698716248752
 97
0
 75
0
 76
1
 98
0
  0
HATCH
  5
2006A
100
AcDbEntity
  8
skládky a antropogenní uloženiny
100
AcDbHatch
 10
0
 20
0
 30
0
210
0
220
0
230
1
  2
SOLID
 70
1
 71
0
 91
1
 92
2
 72
0
 73
1
 93
20
 10
16.6044764613122
 20
49.1605355339177
 10
16.604420405777
 20
49.1605077952182
 10
16.6044217753606
 20
49.1604815621677
 10
16.604428653922
 20
49.160452240268
 10
16.6045440547245
 20
49.1604201848681
 10
16.6051009920816
 20
49.1601918986082
 10
16.6054000255149
 20
49.1602393903959
 10
16.6055901832997
 20
49.1602743852179
 10
16.6056756621824
 20
49.1602912197024
 10
16.6057461231963
 20
49.1603061893865
 10
16.6057810426515
 20
49.1603119014795
 10
16.6057744315157
 20
49.1603676837785
 10
16.6057610797869
 20
49.1604486524381
 10
16.6057413478115
 20
49.1605122669878
 10
16.6057217868294
 20
49.1605915298518
 10
16.6057185778641
 20
49.1606129217456
 10
16.6057094686015
 20
49.1606540276423
 10
16.6053890906177
 20
49.1606264678584
 10
16.6048875045697
 20
49.1605765518849
 10
16.6044764613122
 20
49.1605355339177
 97
0
 75
0
 76
1
 98
0
  0
HATCH
  5
2006B
100
AcDbEntity
  8
skládky a antropogenní uloženiny
100
AcDbHatch
 10
0
 20
0
 30
0
210
0
220
0
230
1
  2
SOLID
 70
1
 71
0
 91
1
 92
2
 72
0
 73
1
 93
5
 10
16.6031074408292
 20
49.1605996129082
 10
16.6034293363086
 20
49.1604108180162
 10
16.6037558141842
 20
49.160368031173
 10
16.6036351399088
 20
49.1606155074503
 10
16.6031074408292
 20
49.1605996129082
 97
0
 75
0
 76
1
 98
0
  0
HATCH
  5
2006C
100
AcDbEntity
  8
skládky a antropogenní uloženiny
100
AcDbHatch
 10
0
 20
0
 30
0
210
0
220
0
230
1
  2
SOLID
 70
1
 71
0
 91
1
 92
2
 72
0
 73
1
 93
8
 10
16.6554869112271
 20
49.1441369877665
 10
16.6572989100709
 20
49.1440128543646
 10
16.6573145398935
 20
49.1441160676565
 10
16.6572611474512
 20
49.1441457680143
 10
16.6567188726844
 20
49.1441991581401
 10
16.6562926568496
 20
49.1442307915366
 10
16.6554983458758
 20
49.1442792490585
 10
16.6554869112271
 20
49.1441369877665
 97
0
 75
0
 76
1
 98
0
  0
HATCH
  5
2006D
100
AcDbEntity
  8
skládky a antropogenní uloženiny
100
AcDbHatch
 10
0
 20
0
 30
0
210
0
220
0
230
1
  2
SOLID
 70
1
 71
0
 91
1
 92
2
 72
0
 73
1
 93
13
 10
16.6440835530776
 20
49.1476761920969
 10
16.6437408127062
 20
49.147657247424
 10
16.6436479094381
 20
49.1475723984336
 10
16.6436038404384
 20
49.1474828936791
 10
16.6437063086294
 20
49.1473955236397
 10
16.64412982432
 20
49.147329071273
 10
16.6442643196604
 20
49.1473298078791
 10
16.6444009800446
 20
49.1473692397465
 10
16.6444822687644
 20
49.1474679175324
 10
16.6444990536316
 20
49.1475609448372
 10
16.644476225182
 20
49.1476268318157
 10
16.6442529098112
 20
49.147652499679
 10
16.6440835530776
 20
49.1476761920969
 97
0
 75
0
 76
1
 98
0
  0
HATCH
  5
2006E
100
AcDbEntity
  8
skládky a antropogenní uloženiny
100
AcDbHatch
 10
0
 20
0
 30
0
210
0
220
0
230
1
  2
SOLID
 70
1
 71
0
 91
1
 92
2
 72
0
 73
1
 93
9
 10
16.6570393332816
 20
49.1426740171128
 10
16.656638202521
 20
49.1426154683186
 10
16.6566794171056
 20
49.142513664096
 10
16.6571638745221
 20
49.142595188529
 10
16.6576100780805
 20
49.1426426869542
 10
16.6579222135023
 20
49.1426537958487
 10
16.6579580187352
 20
49.1427711992241
 10
16.6576227621174
 20
49.1427410012074
 10
16.6570393332816
 20
49.1426740171128
 97
0
 75
0
 76
1
 98
0
  0
HATCH
  5
2006F
100
AcDbEntity
  8
skládky a antropogenní uloženiny
100
AcDbHatch
 10
0
 20
0
 30
0
210
0
220
0
230
1
  2
SOLID
 70
1
 71
0
 91
1
 92
2
 72
0
 73
1
 93
55
 10
16.6581264456078
 20
49.1430441549929
 10
16.6579410885658
 20
49.1427661302434
 10
16.6579222135023
 20
49.1426537958487
 10
16.6578756289873
 20
49.1424739035775
 10
16.6578020776962
 20
49.1421772172886
 10
16.6577282119868
 20
49.1419935638684
 10
16.6576713678003
 20
49.1418524432836
 10
16.6576078172146
 20
49.1417084946983
 10
16.6570504418081
 20
49.1418203268217
 10
16.6565185872231
 20
49.1415906736353
 10
16.6548811253289
 20
49.1410598169167
 10
16.654639470472
 20
49.1409715686114
 10
16.6545242063237
 20
49.1409588712871
 10
16.6544410001266
 20
49.1410035236408
 10
16.6543435488814
 20
49.1409876243947
 10
16.6544160053517
 20
49.1409461519262
 10
16.6544946604527
 20
49.1409088392802
 10
16.6546795445374
 20
49.1409292638814
 10
16.6554713765034
 20
49.1411911202972
 10
16.6565702463216
 20
49.1415270290185
 10
16.6570315222515
 20
49.1417499234231
 10
16.6575883883127
 20
49.1416550934031
 10
16.6582238924515
 20
49.141420631541
 10
16.6590180532142
 20
49.141137898151
 10
16.6590721246894
 20
49.1413544788136
 10
16.6591623634597
 20
49.1417113547473
 10
16.6593543134479
 20
49.1421184958068
 10
16.6595719446595
 20
49.1426003440522
 10
16.6597039400845
 20
49.1429005142845
 10
16.659453178568
 20
49.1435892783838
 10
16.6593708783812
 20
49.143855191328
 10
16.6593539976821
 20
49.1439338635547
 10
16.6593416214295
 20
49.14398544875
 10
16.6592956265429
 20
49.1441691907937
 10
16.6592660734908
 20
49.144232488916
 10
16.6592033685682
 20
49.1445004639488
 10
16.6592275779834
 20
49.1448607766382
 10
16.6592060306714
 20
49.1449906729975
 10
16.6591519064171
 20
49.1450357885443
 10
16.6590216983982
 20
49.1450614324699
 10
16.658046500262
 20
49.1451242019952
 10
16.6574310817213
 20
49.1451645264841
 10
16.6567500512657
 20
49.145212341683
 10
16.6564975858472
 20
49.1453227926084
 10
16.6562334944574
 20
49.1454954178164
 10
16.655387365242
 20
49.1451821379231
 10
16.6552469919744
 20
49.1451192096214
 10
16.6560630477992
 20
49.1449700993386
 10
16.6565848581368
 20
49.1448013064457
 10
16.656937590621
 20
49.1446902337966
 10
16.6573582481507
 20
49.1444972406971
 10
16.6576566906297
 20
49.1443246256189
 10
16.6578553044741
 20
49.1439129657311
 10
16.6580560926491
 20
49.143491460387
 10
16.6581264456078
 20
49.1430441549929
 97
0
 75
0
 76
1
 98
0
  0
HATCH
  5
20070
100
AcDbEntity
  8
skládky a antropogenní uloženiny
100
AcDbHatch
 10
0
 20
0
 30
0
210
0
220
0
230
1
  2
SOLID
 70
1
 71
0
 91
1
 92
2
 72
0
 73
1
 93
7
 10
16.5776411152732
 20
49.2715206858447
 10
16.5776456193767
 20
49.2703474075628
 10
16.5799852672797
 20
49.2703014923661
 10
16.5800052765615
 20
49.2706633933621
 10
16.5805747903267
 20
49.270662065758
 10
16.5804388803602
 20
49.271587655052
 10
16.5776411152732
 20
49.2715206858447
 97
0
 75
0
 76
1
 98
0
  0
HATCH
  5
20071
100
AcDbEntity
  8
skládky a antropogenní uloženiny
100
AcDbHatch
 10
0
 20
0
 30
0
210
0
220
0
230
1
  2
SOLID
 70
1
 71
0
 91
1
 92
2
 72
0
 73
1
 93
5
 10
16.5798706132477
 20
49.2719244720038
 10
16.5798898590649
 20
49.2718083968389
 10
16.5800672509406
 20
49.2718209900459
 10
16.5800480055348
 20
49.2719370652402
 10
16.5798706132477
 20
49.2719244720038
 97
0
 75
0
 76
1
 98
0
  0
HATCH
  5
20072
100
AcDbEntity
  8
skládky a antropogenní uloženiny
100
AcDbHatch
 10
0
 20
0
 30
0
210
0
220
0
230
1
  2
SOLID
 70
1
 71
0
 91
1
 92
2
 72
0
 73
1
 93
5
 10
16.5740668205466
 20
49.2696900622109
 10
16.5740868409047
 20
49.2695960565636
 10
16.5751622836197
 20
49.2696572346903
 10
16.5751470279561
 20
49.269766801172
 10
16.5740668205466
 20
49.2696900622109
 97
0
 75
0
 76
1
 98
0
  0
HATCH
  5
20073
100
AcDbEntity
  8
skládky a antropogenní uloženiny
100
AcDbHatch
 10
0
 20
0
 30
0
210
0
220
0
230
1
  2
SOLID
 70
1
 71
0
 91
1
 92
2
 72
0
 73
1
 93
13
 10
16.5623492075705
 20
49.2585103116527
 10
16.5622256701767
 20
49.2579770577306
 10
16.5623418319761
 20
49.2566371861338
 10
16.5635856012326
 20
49.2572469851392
 10
16.5638175250234
 20
49.2573491480826
 10
16.5640254263572
 20
49.2574287062533
 10
16.5643349547368
 20
49.2575470633034
 10
16.5646223162962
 20
49.2577481459339
 10
16.5642999034983
 20
49.2578588085277
 10
16.5637944531761
 20
49.2580322478127
 10
16.5635091019514
 20
49.2581302586394
 10
16.5629010722224
 20
49.258338818603
 10
16.5623492075705
 20
49.2585103116527
 97
0
 75
0
 76
1
 98
0
  0
HATCH
  5
20074
100
AcDbEntity
  8
skládky a antropogenní uloženiny
100
AcDbHatch
 10
0
 20
0
 30
0
210
0
220
0
230
1
  2
SOLID
 70
1
 71
0
 91
1
 92
2
 72
0
 73
1
 93
14
 10
16.569151548106
 20
49.2583608213186
 10
16.5690547529409
 20
49.2583963307697
 10
16.5688860928181
 20
49.2584537721489
 10
16.5687552089178
 20
49.2583580672657
 10
16.5685674506348
 20
49.2581111646009
 10
16.5684093999106
 20
49.257854144686
 10
16.5684194784179
 20
49.2575573988721
 10
16.568517991903
 20
49.2574348100505
 10
16.5689304135998
 20
49.2574296148081
 10
16.5692166127212
 20
49.2574756093095
 10
16.5694009635966
 20
49.2575451327745
 10
16.5692646522639
 20
49.2581303637884
 10
16.5691979195279
 20
49.258292751339
 10
16.569151548106
 20
49.2583608213186
 97
0
 75
0
 76
1
 98
0
  0
HATCH
  5
20075
100
AcDbEntity
  8
skládky a antropogenní uloženiny
100
AcDbHatch
 10
0
 20
0
 30
0
210
0
220
0
230
1
  2
SOLID
 70
1
 71
0
 91
1
 92
2
 72
0
 73
1
 93
4
 10
16.5872477638405
 20
49.2734274708705
 10
16.5876612839636
 20
49.2734925778901
 10
16.5870861626885
 20
49.2749875594455
 10
16.5872477638405
 20
49.2734274708705
 97
0
 75
0
 76
1
 98
0
  0
HATCH
  5
20076
100
AcDbEntity
  8
skládky a antropogenní uloženiny
100
AcDbHatch
 10
0
 20
0
 30
0
210
0
220
0
230
1
  2
SOLID
 70
1
 71
0
 91
1
 92
2
 72
0
 73
1
 93
4
 10
16.5882472043488
 20
49.2735912929763
 10
16.5884897017692
 20
49.273608489642
 10
16.5880866111614
 20
49.2748726291684
 10
16.5882472043488
 20
49.2735912929763
 97
0
 75
0
 76
1
 98
0
  0
HATCH
  5
20077
100
AcDbEntity
  8
skládky a antropogenní uloženiny
100
AcDbHatch
 10
0
 20
0
 30
0
210
0
220
0
230
1
  2
SOLID
 70
1
 71
0
 91
1
 92
2
 72
0
 73
1
 93
8
 10
16.5891845942808
 20
49.273661989917
 10
16.5894041509737
 20
49.2736656518724
 10
16.5894020139574
 20
49.2741159293084
 10
16.5894494782701
 20
49.2742933994086
 10
16.58951795278
 20
49.2745208327588
 10
16.5893521218172
 20
49.2743136262516
 10
16.5892375377816
 20
49.2741219990223
 10
16.5891845942808
 20
49.273661989917
 97
0
 75
0
 76
1
 98
0
  0
HATCH
  5
20078
100
AcDbEntity
  8
skládky a antropogenní uloženiny
100
AcDbHatch
 10
0
 20
0
 30
0
210
0
220
0
230
1
  2
SOLID
 70
1
 71
0
 91
1
 92
2
 72
0
 73
1
 93
10
 10
16.5822625661909
 20
49.274873477088
 10
16.5822479342831
 20
49.2747608788988
 10
16.5839108725446
 20
49.2747454121198
 10
16.584953227049
 20
49.2746503802808
 10
16.5865127908188
 20
49.2752910759444
 10
16.5864180542447
 20
49.2753964618306
 10
16.5857172246028
 20
49.2751052194785
 10
16.5849038060009
 20
49.2747975710763
 10
16.5839114860824
 20
49.2748975411925
 10
16.5822625661909
 20
49.274873477088
 97
0
 75
0
 76
1
 98
0
  0
HATCH
  5
20079
100
AcDbEntity
  8
skládky a antropogenní uloženiny
100
AcDbHatch
 10
0
 20
0
 30
0
210
0
220
0
230
1
  2
SOLID
 70
1
 71
0
 91
1
 92
2
 72
0
 73
1
 93
13
 10
16.5880148877711
 20
49.2781120273192
 10
16.5871632567109
 20
49.2785754830908
 10
16.5868023272803
 20
49.2787234240968
 10
16.5864424651413
 20
49.2788623313715
 10
16.5859404680634
 20
49.2792408962995
 10
16.5854990050882
 20
49.2793446111172
 10
16.5849637625731
 20
49.2798310857403
 10
16.5853724362324
 20
49.2792511416838
 10
16.5858210701063
 20
49.2791351027672
 10
16.5863399209849
 20
49.2787705660554
 10
16.5870623500906
 20
49.2785146929486
 10
16.5878074696574
 20
49.2780973188174
 10
16.5880148877711
 20
49.2781120273192
 97
0
 75
0
 76
1
 98
0
  0
HATCH
  5
2007A
100
AcDbEntity
  8
skládky a antropogenní uloženiny
100
AcDbHatch
 10
0
 20
0
 30
0
210
0
220
0
230
1
  2
SOLID
 70
1
 71
0
 91
1
 92
2
 72
0
 73
1
 93
26
 10
16.5814723170688
 20
49.2798373583886
 10
16.5810830330559
 20
49.2796903350429
 10
16.5814849302552
 20
49.2798753324726
 10
16.5815677710626
 20
49.2801247269802
 10
16.5818573090778
 20
49.28034966875
 10
16.5822853624455
 20
49.2804811695764
 10
16.5827223760186
 20
49.2805596583617
 10
16.5833237897366
 20
49.2806285497385
 10
16.582318694069
 20
49.2805722517034
 10
16.581824721059
 20
49.2804358082538
 10
16.5814685534093
 20
49.2801735870839
 10
16.5813276045798
 20
49.279812643418
 10
16.5810547339369
 20
49.2797052249032
 10
16.581160700577
 20
49.2796113549373
 10
16.5816092111401
 20
49.2798095726834
 10
16.5818899455435
 20
49.2799250326881
 10
16.582648635949
 20
49.2801414539675
 10
16.5836274374329
 20
49.2800630876058
 10
16.5847710476974
 20
49.2799715147976
 10
16.5844110328768
 20
49.2801039069875
 10
16.5833352650467
 20
49.2802050205181
 10
16.5827402513096
 20
49.280260943309
 10
16.5823227089622
 20
49.2801585240012
 10
16.5817883285157
 20
49.2800149878245
 10
16.5814849302552
 20
49.2798753324726
 10
16.5814723170688
 20
49.2798373583886
 97
0
 75
0
 76
1
 98
0
  0
HATCH
  5
2007B
100
AcDbEntity
  8
skládky a antropogenní uloženiny
100
AcDbHatch
 10
0
 20
0
 30
0
210
0
220
0
230
1
  2
SOLID
 70
1
 71
0
 91
1
 92
2
 72
0
 73
1
 93
6
 10
16.5046952789573
 20
49.2459696767214
 10
16.5050215356001
 20
49.2459190901752
 10
16.5051145988744
 20
49.2464371002487
 10
16.5049987165192
 20
49.2464454836409
 10
16.5049609405201
 20
49.2464491080467
 10
16.5046952789573
 20
49.2459696767214
 97
0
 75
0
 76
1
 98
0
  0
HATCH
  5
2007C
100
AcDbEntity
  8
skládky a antropogenní uloženiny
100
AcDbHatch
 10
0
 20
0
 30
0
210
0
220
0
230
1
  2
SOLID
 70
1
 71
0
 91
1
 92
2
 72
0
 73
1
 93
12
 10
16.5824488854853
 20
49.2752880390328
 10
16.582530159153
 20
49.2752262118195
 10
16.5837461693383
 20
49.2757391839339
 10
16.5845134788476
 20
49.2760766730381
 10
16.5859325527851
 20
49.2763970197647
 10
16.5867934288856
 20
49.2768129461424
 10
16.5854930526245
 20
49.2763996405281
 10
16.584466246989
 20
49.2761941456532
 10
16.5840026255879
 20
49.276665672212
 10
16.5842386453907
 20
49.2761204672911
 10
16.5836186344696
 20
49.2758329903829
 10
16.5824488854853
 20
49.2752880390328
 97
0
 75
0
 76
1
 98
0
  0
HATCH
  5
2007D
100
AcDbEntity
  8
skládky a antropogenní uloženiny
100
AcDbHatch
 10
0
 20
0
 30
0
210
0
220
0
230
1
  2
SOLID
 70
1
 71
0
 91
1
 92
2
 72
0
 73
1
 93
9
 10
16.5905742928987
 20
49.2731629342485
 10
16.5907217617727
 20
49.273073921206
 10
16.5910236490726
 20
49.2733563008919
 10
16.5912203657459
 20
49.2737152428979
 10
16.5918923503324
 20
49.2744516779126
 10
16.5916375511149
 20
49.2745033777891
 10
16.5909883254466
 20
49.2737343450911
 10
16.5908485869547
 20
49.2733997554239
 10
16.5905742928987
 20
49.2731629342485
 97
0
 75
0
 76
1
 98
0
  0
HATCH
  5
2007E
100
AcDbEntity
  8
skládky a antropogenní uloženiny
100
AcDbHatch
 10
0
 20
0
 30
0
210
0
220
0
230
1
  2
SOLID
 70
1
 71
0
 91
1
 92
2
 72
0
 73
1
 93
5
 10
16.5909299018706
 20
49.2731816180644
 10
16.5913340481839
 20
49.2731336195838
 10
16.5913783783728
 20
49.2732552815992
 10
16.5911104005688
 20
49.2733172281436
 10
16.5909299018706
 20
49.2731816180644
 97
0
 75
0
 76
1
 98
0
  0
HATCH
  5
2007F
100
AcDbEntity
  8
skládky a antropogenní uloženiny
100
AcDbHatch
 10
0
 20
0
 30
0
210
0
220
0
230
1
  2
SOLID
 70
1
 71
0
 91
1
 92
2
 72
0
 73
1
 93
8
 10
16.5921707041965
 20
49.2726044300337
 10
16.5924980151854
 20
49.2725280333157
 10
16.5928972434888
 20
49.2724127903234
 10
16.5935563266562
 20
49.2722458743246
 10
16.5937385179625
 20
49.2723034317858
 10
16.5929695681736
 20
49.2725024081584
 10
16.5923411083731
 20
49.272652193261
 10
16.5921707041965
 20
49.2726044300337
 97
0
 75
0
 76
1
 98
0
  0
HATCH
  5
20080
100
AcDbEntity
  8
skládky a antropogenní uloženiny
100
AcDbHatch
 10
0
 20
0
 30
0
210
0
220
0
230
1
  2
SOLID
 70
1
 71
0
 91
1
 92
2
 72
0
 73
1
 93
19
 10
16.5934041692162
 20
49.2684142631235
 10
16.5938786956653
 20
49.2683209800489
 10
16.594418775819
 20
49.2683298637293
 10
16.5949234388753
 20
49.2681670737878
 10
16.5949357916755
 20
49.2682276708613
 10
16.5948211533211
 20
49.2683269188294
 10
16.5946844943235
 20
49.2684796552184
 10
16.5942988275299
 20
49.268532395733
 10
16.5940796454343
 20
49.2685167435442
 10
16.5937438892829
 20
49.2684332833764
 10
16.5934351307642
 20
49.2685977423204
 10
16.5933124261601
 20
49.268787945217
 10
16.5931013020351
 20
49.2689124285998
 10
16.592744541742
 20
49.2689342547555
 10
16.592467315624
 20
49.268901240535
 10
16.5922841377135
 20
49.2687831193638
 10
16.5920777918337
 20
49.2685602859181
 10
16.5924704377153
 20
49.2685170607708
 10
16.5934041692162
 20
49.2684142631235
 97
0
 75
0
 76
1
 98
0
  0
HATCH
  5
20081
100
AcDbEntity
  8
skládky a antropogenní uloženiny
100
AcDbHatch
 10
0
 20
0
 30
0
210
0
220
0
230
1
  2
SOLID
 70
1
 71
0
 91
1
 92
2
 72
0
 73
1
 93
12
 10
16.5929232595616
 20
49.2705980720495
 10
16.5928352008439
 20
49.2706425253458
 10
16.5924222067573
 20
49.2703034823567
 10
16.5917296123926
 20
49.2701182343429
 10
16.5918337851791
 20
49.2700814909284
 10
16.5924564217931
 20
49.2702396905092
 10
16.5921003549255
 20
49.270011671732
 10
16.5922429171936
 20
49.2699499596258
 10
16.5926074346142
 20
49.2702211864536
 10
16.5926123789023
 20
49.2698240640747
 10
16.5926888271601
 20
49.2702116976171
 10
16.5929232595616
 20
49.2705980720495
 97
0
 75
0
 76
1
 98
0
  0
HATCH
  5
20082
100
AcDbEntity
  8
skládky a antropogenní uloženiny
100
AcDbHatch
 10
0
 20
0
 30
0
210
0
220
0
230
1
  2
SOLID
 70
1
 71
0
 91
1
 92
2
 72
0
 73
1
 93
6
 10
16.5832896986867
 20
49.2721495367526
 10
16.5838281264398
 20
49.2725407971637
 10
16.5841420301085
 20
49.2728461632412
 10
16.5835796064883
 20
49.2728483163211
 10
16.5833812980887
 20
49.2725744036262
 10
16.5832896986867
 20
49.2721495367526
 97
0
 75
0
 76
1
 98
0
  0
HATCH
  5
20083
100
AcDbEntity
  8
skládky a antropogenní uloženiny
100
AcDbHatch
 10
0
 20
0
 30
0
210
0
220
0
230
1
  2
SOLID
 70
1
 71
0
 91
1
 92
2
 72
0
 73
1
 93
5
 10
16.5827740670612
 20
49.2727859983337
 10
16.5829911836435
 20
49.2725477787209
 10
16.5832311033935
 20
49.2726820350282
 10
16.5829717793689
 20
49.2728535265822
 10
16.5827740670612
 20
49.2727859983337
 97
0
 75
0
 76
1
 98
0
  0
HATCH
  5
20084
100
AcDbEntity
  8
skládky a antropogenní uloženiny
100
AcDbHatch
 10
0
 20
0
 30
0
210
0
220
0
230
1
  2
SOLID
 70
1
 71
0
 91
1
 92
2
 72
0
 73
1
 93
6
 10
16.5835150960932
 20
49.271299613055
 10
16.5836119701747
 20
49.2708422206393
 10
16.5839198451155
 20
49.270922770385
 10
16.5840563039312
 20
49.2711310101171
 10
16.5839241273573
 20
49.2712859496291
 10
16.5835150960932
 20
49.271299613055
 97
0
 75
0
 76
1
 98
0
  0
HATCH
  5
20085
100
AcDbEntity
  8
skládky a antropogenní uloženiny
100
AcDbHatch
 10
0
 20
0
 30
0
210
0
220
0
230
1
  2
SOLID
 70
1
 71
0
 91
1
 92
2
 72
0
 73
1
 93
5
 10
16.5994082147054
 20
49.2881820868839
 10
16.6002429783337
 20
49.2877926440561
 10
16.6003574162818
 20
49.2882899315775
 10
16.5999867097224
 20
49.2887130961905
 10
16.5994082147054
 20
49.2881820868839
 97
0
 75
0
 76
1
 98
0
  0
HATCH
  5
20086
100
AcDbEntity
  8
skládky a antropogenní uloženiny
100
AcDbHatch
 10
0
 20
0
 30
0
210
0
220
0
230
1
  2
SOLID
 70
1
 71
0
 91
1
 92
2
 72
0
 73
1
 93
5
 10
16.497661233302
 20
49.2583617821775
 10
16.4966582750099
 20
49.257040504144
 10
16.4972505473187
 20
49.2569035867522
 10
16.4980525564645
 20
49.2583898517237
 10
16.497661233302
 20
49.2583617821775
 97
0
 75
0
 76
1
 98
0
  0
HATCH
  5
20087
100
AcDbEntity
  8
skládky a antropogenní uloženiny
100
AcDbHatch
 10
0
 20
0
 30
0
210
0
220
0
230
1
  2
SOLID
 70
1
 71
0
 91
1
 92
2
 72
0
 73
1
 93
5
 10
16.4990371849061
 20
49.2478610560348
 10
16.4993735452638
 20
49.2477583838944
 10
16.4996787595953
 20
49.2482981928915
 10
16.4993318715256
 20
49.2483822517272
 10
16.4990371849061
 20
49.2478610560348
 97
0
 75
0
 76
1
 98
0
  0
HATCH
  5
20088
100
AcDbEntity
  8
skládky a antropogenní uloženiny
100
AcDbHatch
 10
0
 20
0
 30
0
210
0
220
0
230
1
  2
SOLID
 70
1
 71
0
 91
1
 92
2
 72
0
 73
1
 93
5
 10
16.5014267131898
 20
49.2472107859019
 10
16.5018718289543
 20
49.2470908193251
 10
16.5027513577738
 20
49.2488968183642
 10
16.5024325824374
 20
49.2490488720818
 10
16.5014267131898
 20
49.2472107859019
 97
0
 75
0
 76
1
 98
0
  0
HATCH
  5
20089
100
AcDbEntity
  8
skládky a antropogenní uloženiny
100
AcDbHatch
 10
0
 20
0
 30
0
210
0
220
0
230
1
  2
SOLID
 70
1
 71
0
 91
1
 92
2
 72
0
 73
1
 93
8
 10
16.506839134531
 20
49.2475284236514
 10
16.5091639898831
 20
49.2503871632862
 10
16.5083545026392
 20
49.2509145586383
 10
16.5069506932323
 20
49.2515767516208
 10
16.5076546693256
 20
49.2510055224037
 10
16.5086560345688
 20
49.2503494140843
 10
16.5066490814583
 20
49.24773377578
 10
16.506839134531
 20
49.2475284236514
 97
0
 75
0
 76
1
 98
0
  0
HATCH
  5
2008A
100
AcDbEntity
  8
skládky a antropogenní uloženiny
100
AcDbHatch
 10
0
 20
0
 30
0
210
0
220
0
230
1
  2
SOLID
 70
1
 71
0
 91
1
 92
2
 72
0
 73
1
 93
29
 10
16.5028206032494
 20
49.248864798532
 10
16.503278086103
 20
49.2488332802888
 10
16.5036612519362
 20
49.2487693839836
 10
16.5040322979218
 20
49.248496084287
 10
16.5044397900334
 20
49.2483595866324
 10
16.5052356361396
 20
49.2482345346733
 10
16.5053774476744
 20
49.2480839480122
 10
16.5055522040692
 20
49.247948296914
 10
16.505668534717
 20
49.2479017245225
 10
16.5058185502481
 20
49.2478437709094
 10
16.5060658721497
 20
49.2477495052386
 10
16.5062744211951
 20
49.2476028416495
 10
16.5064292376041
 20
49.2467985108999
 10
16.5063351148811
 20
49.2462503935432
 10
16.5066734470568
 20
49.2461396275226
 10
16.5069284145263
 20
49.2474442730268
 10
16.5065412532674
 20
49.2478407937577
 10
16.5053456278368
 20
49.2485790744977
 10
16.5046212575005
 20
49.2486088832309
 10
16.5040645210309
 20
49.2492498837222
 10
16.5029734746831
 20
49.2493374355345
 10
16.5028114063226
 20
49.2499464345961
 10
16.5034370796761
 20
49.2512522054855
 10
16.5042340585655
 20
49.2525072882082
 10
16.5039282796309
 20
49.2525426315487
 10
16.5028556962422
 20
49.2511263076416
 10
16.5023227072099
 20
49.249909392504
 10
16.5024382024876
 20
49.2490434537811
 10
16.5028206032494
 20
49.248864798532
 97
0
 75
0
 76
1
 98
0
  0
HATCH
  5
2008B
100
AcDbEntity
  8
skládky a antropogenní uloženiny
100
AcDbHatch
 10
0
 20
0
 30
0
210
0
220
0
230
1
  2
SOLID
 70
1
 71
0
 91
1
 92
2
 72
0
 73
1
 93
6
 10
16.5052615491838
 20
49.2485830864453
 10
16.5053439883482
 20
49.2485795078974
 10
16.5055040226464
 20
49.2484798503413
 10
16.5068778963835
 20
49.2508171523497
 10
16.5065635841458
 20
49.2508448342359
 10
16.5052615491838
 20
49.2485830864453
 97
0
 75
0
 76
1
 98
0
  0
HATCH
  5
2008C
100
AcDbEntity
  8
skládky a antropogenní uloženiny
100
AcDbHatch
 10
0
 20
0
 30
0
210
0
220
0
230
1
  2
SOLID
 70
1
 71
0
 91
1
 92
2
 72
0
 73
1
 93
11
 10
16.5016319344262
 20
49.2463608590026
 10
16.5020209565462
 20
49.2462887048814
 10
16.5020935569436
 20
49.2464816214459
 10
16.5022214811595
 20
49.2465676882023
 10
16.5023494058204
 20
49.2466537548158
 10
16.5024285411585
 20
49.2467811922745
 10
16.5018059650821
 20
49.2469497233968
 10
16.5016750871868
 20
49.2468860148712
 10
16.5015973171003
 20
49.2466573562574
 10
16.5015769632621
 20
49.246514322189
 10
16.5016319344262
 20
49.2463608590026
 97
0
 75
0
 76
1
 98
0
  0
HATCH
  5
2008D
100
AcDbEntity
  8
skládky a antropogenní uloženiny
100
AcDbHatch
 10
0
 20
0
 30
0
210
0
220
0
230
1
  2
SOLID
 70
1
 71
0
 91
1
 92
2
 72
0
 73
1
 93
8
 10
16.5022896426113
 20
49.2464823845573
 10
16.5023861448598
 20
49.2461834951073
 10
16.5025483235067
 20
49.2463030917856
 10
16.5026542677264
 20
49.2462364186925
 10
16.5030738474504
 20
49.246472216233
 10
16.5031612989775
 20
49.2465879464378
 10
16.5027256999997
 20
49.2466977443149
 10
16.5022896426113
 20
49.2464823845573
 97
0
 75
0
 76
1
 98
0
  0
HATCH
  5
2008E
100
AcDbEntity
  8
skládky a antropogenní uloženiny
100
AcDbHatch
 10
0
 20
0
 30
0
210
0
220
0
230
1
  2
SOLID
 70
1
 71
0
 91
1
 92
2
 72
0
 73
1
 93
5
 10
16.5043945442597
 20
49.2464229523002
 10
16.5040192880642
 20
49.2459423797977
 10
16.504559068893
 20
49.2459106072375
 10
16.5045422084352
 20
49.2464325160162
 10
16.5043945442597
 20
49.2464229523002
 97
0
 75
0
 76
1
 98
0
  0
HATCH
  5
2008F
100
AcDbEntity
  8
skládky a antropogenní uloženiny
100
AcDbHatch
 10
0
 20
0
 30
0
210
0
220
0
230
1
  2
SOLID
 70
1
 71
0
 91
1
 92
2
 72
0
 73
1
 93
8
 10
16.5134789890962
 20
49.2444227355708
 10
16.5136611682862
 20
49.244385294492
 10
16.5138936299422
 20
49.2448017801735
 10
16.5138922289794
 20
49.2455239228078
 10
16.513923160365
 20
49.2465497188293
 10
16.5137499262125
 20
49.2465763155277
 10
16.5136604561779
 20
49.2447977019337
 10
16.5134789890962
 20
49.2444227355708
 97
0
 75
0
 76
1
 98
0
  0
HATCH
  5
20090
100
AcDbEntity
  8
skládky a antropogenní uloženiny
100
AcDbHatch
 10
0
 20
0
 30
0
210
0
220
0
230
1
  2
SOLID
 70
1
 71
0
 91
1
 92
2
 72
0
 73
1
 93
7
 10
16.5148329914804
 20
49.2413868296735
 10
16.5151872374453
 20
49.24144059999
 10
16.5155130404536
 20
49.2417068612357
 10
16.5159190585538
 20
49.241975969607
 10
16.5162633439243
 20
49.2420918935128
 10
16.5152652985698
 20
49.2420527314358
 10
16.5148329914804
 20
49.2413868296735
 97
0
 75
0
 76
1
 98
0
  0
HATCH
  5
20091
100
AcDbEntity
  8
skládky a antropogenní uloženiny
100
AcDbHatch
 10
0
 20
0
 30
0
210
0
220
0
230
1
  2
SOLID
 70
1
 71
0
 91
1
 92
2
 72
0
 73
1
 93
12
 10
16.51771926543
 20
49.2415271154453
 10
16.5176292252097
 20
49.2411676449908
 10
16.5173273931319
 20
49.2409662931488
 10
16.517606417963
 20
49.2409831909984
 10
16.5176116761072
 20
49.2403815955188
 10
16.5178033803776
 20
49.240349680604
 10
16.5178207847207
 20
49.2403976946862
 10
16.5178994556654
 20
49.2411006885668
 10
16.5180325875349
 20
49.2411949345266
 10
16.5178316340014
 20
49.2418784105662
 10
16.5176258993301
 20
49.2419206744756
 10
16.51771926543
 20
49.2415271154453
 97
0
 75
0
 76
1
 98
0
  0
HATCH
  5
20092
100
AcDbEntity
  8
skládky a antropogenní uloženiny
100
AcDbHatch
 10
0
 20
0
 30
0
210
0
220
0
230
1
  2
SOLID
 70
1
 71
0
 91
1
 92
2
 72
0
 73
1
 93
12
 10
16.5236796335376
 20
49.2391159134305
 10
16.5234098598857
 20
49.2387558976622
 10
16.5232623077275
 20
49.2385774936719
 10
16.5231134592133
 20
49.238390719567
 10
16.5229712396142
 20
49.2381932023453
 10
16.5233045194844
 20
49.2381318218732
 10
16.5239842701595
 20
49.2380592391931
 10
16.5240415395873
 20
49.2381515342524
 10
16.5239831318723
 20
49.2382942137562
 10
16.5238796042066
 20
49.2385352135727
 10
16.5238236289202
 20
49.2390663497818
 10
16.5236796335376
 20
49.2391159134305
 97
0
 75
0
 76
1
 98
0
  0
HATCH
  5
20093
100
AcDbEntity
  8
skládky a antropogenní uloženiny
100
AcDbHatch
 10
0
 20
0
 30
0
210
0
220
0
230
1
  2
SOLID
 70
1
 71
0
 91
1
 92
2
 72
0
 73
1
 93
6
 10
16.5260891525422
 20
49.2395988832085
 10
16.5259377615327
 20
49.2395937561444
 10
16.5258554871078
 20
49.239444258584
 10
16.5263134327253
 20
49.2392645090592
 10
16.5263102494138
 20
49.2395091270371
 10
16.5260891525422
 20
49.2395988832085
 97
0
 75
0
 76
1
 98
0
  0
HATCH
  5
20094
100
AcDbEntity
  8
skládky a antropogenní uloženiny
100
AcDbHatch
 10
0
 20
0
 30
0
210
0
220
0
230
1
  2
SOLID
 70
1
 71
0
 91
1
 92
2
 72
0
 73
1
 93
15
 10
16.5149230252981
 20
49.2463006081529
 10
16.5151910713363
 20
49.2458563734265
 10
16.5154360109421
 20
49.2454244087704
 10
16.5155621544268
 20
49.2449541771287
 10
16.5158149377906
 20
49.243032880052
 10
16.5159797907975
 20
49.2430319275401
 10
16.5157308437702
 20
49.2453310139518
 10
16.5155238994224
 20
49.245878940214
 10
16.5152191533854
 20
49.2464389959244
 10
16.5148554214498
 20
49.2470567333202
 10
16.514061919188
 20
49.2476717734873
 10
16.5135842688494
 20
49.2478352534374
 10
16.5136753356517
 20
49.2476467661615
 10
16.5144129837877
 20
49.247017818193
 10
16.5149230252981
 20
49.2463006081529
 97
0
 75
0
 76
1
 98
0
  0
HATCH
  5
20095
100
AcDbEntity
  8
skládky a antropogenní uloženiny
100
AcDbHatch
 10
0
 20
0
 30
0
210
0
220
0
230
1
  2
SOLID
 70
1
 71
0
 91
1
 92
2
 72
0
 73
1
 93
9
 10
16.5059763310437
 20
49.2454836557222
 10
16.5064425165867
 20
49.2457068595747
 10
16.5063576828764
 20
49.2453572940084
 10
16.5064495998575
 20
49.2455653415098
 10
16.5067065365088
 20
49.2458971178267
 10
16.5068315054492
 20
49.2459701849024
 10
16.5065492668632
 20
49.2460674943061
 10
16.5065360882619
 20
49.2459273283851
 10
16.5059763310437
 20
49.2454836557222
 97
0
 75
0
 76
1
 98
0
  0
HATCH
  5
20096
100
AcDbEntity
  8
skládky a antropogenní uloženiny
100
AcDbHatch
 10
0
 20
0
 30
0
210
0
220
0
230
1
  2
SOLID
 70
1
 71
0
 91
1
 92
2
 72
0
 73
1
 93
5
 10
16.5171246810842
 20
49.2451298995431
 10
16.5167102380845
 20
49.2434492755115
 10
16.5167567935951
 20
49.2427809483681
 10
16.5175496181823
 20
49.2450459733804
 10
16.5171246810842
 20
49.2451298995431
 97
0
 75
0
 76
1
 98
0
  0
HATCH
  5
20097
100
AcDbEntity
  8
skládky a antropogenní uloženiny
100
AcDbHatch
 10
0
 20
0
 30
0
210
0
220
0
230
1
  2
SOLID
 70
1
 71
0
 91
1
 92
2
 72
0
 73
1
 93
51
 10
16.5356852096806
 20
49.1912512764411
 10
16.535759615544
 20
49.1913689464313
 10
16.5353142664857
 20
49.1914450232738
 10
16.5351596489313
 20
49.1915165575348
 10
16.5350490198589
 20
49.1915394036694
 10
16.5350240967155
 20
49.1915349078626
 10
16.5349496396502
 20
49.1915493946647
 10
16.5344672461018
 20
49.1916595796601
 10
16.5341466236855
 20
49.1917435423914
 10
16.5336615287996
 20
49.191790537854
 10
16.5333451041378
 20
49.191807620767
 10
16.5330238905239
 20
49.1918244507898
 10
16.5329302328462
 20
49.1918381963829
 10
16.5327799851501
 20
49.1918602423148
 10
16.5326297373206
 20
49.1918822880509
 10
16.5324725286919
 20
49.1919403361979
 10
16.5324194925157
 20
49.1919894617634
 10
16.532360495722
 20
49.1920163602168
 10
16.5321900604753
 20
49.1920800655676
 10
16.5320866217167
 20
49.1920456196109
 10
16.5319642491319
 20
49.1920436511879
 10
16.5318480456547
 20
49.1920933240849
 10
16.5317601473125
 20
49.1921537056485
 10
16.5316335853619
 20
49.1921238470183
 10
16.5316266757514
 20
49.1920269227126
 10
16.5319194518502
 20
49.1919061143269
 10
16.5321307166927
 20
49.1918181014198
 10
16.5323034656689
 20
49.1917835992447
 10
16.5324104958775
 20
49.191757513044
 10
16.5325614014296
 20
49.1917199103734
 10
16.532694382372
 20
49.1916722509519
 10
16.5327764967166
 20
49.1916644192206
 10
16.532900971
 20
49.1916475406512
 10
16.5329433309494
 20
49.191638493856
 10
16.5331147394498
 20
49.1916070607637
 10
16.5335330286316
 20
49.1915725226905
 10
16.5337164887841
 20
49.1915457951359
 10
16.5339114823471
 20
49.1915376673461
 10
16.5341064758463
 20
49.1915295392265
 10
16.5342123061799
 20
49.1915330363378
 10
16.5342881025557
 20
49.1915204549565
 10
16.5343447344375
 20
49.1914886826363
 10
16.5343913745566
 20
49.1914646989963
 10
16.5344380146306
 20
49.1914407153373
 10
16.5347756028985
 20
49.1913885068661
 10
16.5349464315349
 20
49.1913613717789
 10
16.5352317125921
 20
49.1913232424392
 10
16.5354365724025
 20
49.1912815335324
 10
16.5355631489552
 20
49.1912565707408
 10
16.5356065322885
 20
49.1912480032604
 10
16.5356852096806
 20
49.1912512764411
 97
0
 75
0
 76
1
 98
0
  0
HATCH
  5
20098
100
AcDbEntity
  8
skládky a antropogenní uloženiny
100
AcDbHatch
 10
0
 20
0
 30
0
210
0
220
0
230
1
  2
SOLID
 70
1
 71
0
 91
1
 92
2
 72
0
 73
1
 93
23
 10
16.5426527083927
 20
49.1896636455096
 10
16.5425555989258
 20
49.1897828524175
 10
16.5423940088457
 20
49.1899055488996
 10
16.5422940765255
 20
49.1899404729528
 10
16.5421254871686
 20
49.18999238295
 10
16.5419221911178
 20
49.1900554724107
 10
16.5417796422572
 20
49.1900979323384
 10
16.5417698678936
 20
49.1901008550705
 10
16.5416193187902
 20
49.1901372279978
 10
16.5414514352864
 20
49.1901732668455
 10
16.5412884267877
 20
49.1902082064397
 10
16.5411581680266
 20
49.1902312837787
 10
16.5411808457712
 20
49.1901248061693
 10
16.5413797703391
 20
49.1900755623494
 10
16.5415786945119
 20
49.1900263181861
 10
16.5417950212291
 20
49.1899728442799
 10
16.541901829218
 20
49.1899463721888
 10
16.5420086370928
 20
49.1899198999987
 10
16.5420874378577
 20
49.189886315953
 10
16.5421662385158
 20
49.1898527318533
 10
16.542312264373
 20
49.1897904354452
 10
16.5424379346161
 20
49.1896546798578
 10
16.5426527083927
 20
49.1896636455096
 97
0
 75
0
 76
1
 98
0
  0
HATCH
  5
20099
100
AcDbEntity
  8
skládky a antropogenní uloženiny
100
AcDbHatch
 10
0
 20
0
 30
0
210
0
220
0
230
1
  2
SOLID
 70
1
 71
0
 91
1
 92
2
 72
0
 73
1
 93
35
 10
16.5338820346049
 20
49.193742055807
 10
16.5344595148191
 20
49.1936431539404
 10
16.5345977861633
 20
49.1936219461818
 10
16.535809708296
 20
49.1934181262812
 10
16.5363403442473
 20
49.1934952297462
 10
16.5363820328917
 20
49.1935302776659
 10
16.5363212700376
 20
49.1935849584967
 10
16.5358901660772
 20
49.1936827271419
 10
16.5356852016119
 20
49.1936387652019
 10
16.5355057551373
 20
49.1937043641548
 10
16.5353589599349
 20
49.1936849136659
 10
16.5352607485164
 20
49.1936820531212
 10
16.5351172096858
 20
49.1937068887823
 10
16.5349988850595
 20
49.1937518902752
 10
16.5348956338126
 20
49.1938008640896
 10
16.5347915963053
 20
49.1938354890413
 10
16.53471097924
 20
49.1939582675689
 10
16.5344679660611
 20
49.1939090501093
 10
16.534327080062
 20
49.1939196010504
 10
16.5341475328483
 20
49.1939621400289
 10
16.5338494542133
 20
49.1940167426033
 10
16.5336049605411
 20
49.1942369485441
 10
16.5334766789387
 20
49.1942646373315
 10
16.533391976763
 20
49.1942220797965
 10
16.5335741529608
 20
49.1940199043336
 10
16.5331421232175
 20
49.1941419696562
 10
16.5330014694543
 20
49.1941079363991
 10
16.5330293174592
 20
49.1940120643258
 10
16.5314730019966
 20
49.1941132797721
 10
16.5314511610947
 20
49.1940282223009
 10
16.5313384977041
 20
49.1939384739073
 10
16.5309959453421
 20
49.193776697933
 10
16.5310300151206
 20
49.1937551604922
 10
16.5316925431993
 20
49.1938770609231
 10
16.5338820346049
 20
49.193742055807
 97
0
 75
0
 76
1
 98
0
  0
HATCH
  5
2009A
100
AcDbEntity
  8
skládky a antropogenní uloženiny
100
AcDbHatch
 10
0
 20
0
 30
0
210
0
220
0
230
1
  2
SOLID
 70
1
 71
0
 91
1
 92
2
 72
0
 73
1
 93
28
 10
16.5345026532462
 20
49.1896519804488
 10
16.5340659903833
 20
49.1899155618528
 10
16.5336107280175
 20
49.1894825889677
 10
16.533009827667
 20
49.1892837820257
 10
16.5329707287906
 20
49.18918908589
 10
16.5336767988268
 20
49.1892275967604
 10
16.5334647416164
 20
49.1888530851056
 10
16.5335497739325
 20
49.1889101856322
 10
16.5336180999059
 20
49.1889739612703
 10
16.5336864260551
 20
49.1890377368674
 10
16.5337441032489
 20
49.1890896243262
 10
16.533814251863
 20
49.1891313359264
 10
16.533903847316
 20
49.189195253831
 10
16.5339535617048
 20
49.1892312469644
 10
16.5340305423136
 20
49.1892725604839
 10
16.5340718360258
 20
49.189301924958
 10
16.5341066440333
 20
49.1893310770836
 10
16.5341379771613
 20
49.1893504028556
 10
16.5341755403533
 20
49.1893749096905
 10
16.5342168154683
 20
49.1894040800916
 10
16.5342703273762
 20
49.189452458041
 10
16.5343099665286
 20
49.1894887626371
 10
16.5343511643973
 20
49.1895194345069
 10
16.5343923623171
 20
49.1895501063619
 10
16.5344206540994
 20
49.1895791316168
 10
16.5344543725383
 20
49.1896125848324
 10
16.5344757995687
 20
49.1896300686598
 10
16.5345026532462
 20
49.1896519804488
 97
0
 75
0
 76
1
 98
0
  0
HATCH
  5
2009B
100
AcDbEntity
  8
skládky a antropogenní uloženiny
100
AcDbHatch
 10
0
 20
0
 30
0
210
0
220
0
230
1
  2
SOLID
 70
1
 71
0
 91
1
 92
2
 72
0
 73
1
 93
23
 10
16.53763496962
 20
49.2221841706647
 10
16.5374188441412
 20
49.2219677247451
 10
16.537287350974
 20
49.2217421389456
 10
16.5372306083404
 20
49.2214834489822
 10
16.5372704006501
 20
49.2211187159214
 10
16.5373968085886
 20
49.2208430043658
 10
16.537583038852
 20
49.220605758707
 10
16.5377486194025
 20
49.2204821706583
 10
16.5378595666636
 20
49.2205365918285
 10
16.5382076360988
 20
49.2207892297869
 10
16.5382920102855
 20
49.2208331307219
 10
16.53840266762
 20
49.2208937640505
 10
16.5384815027207
 20
49.2209521251592
 10
16.5385267806289
 20
49.2210186349367
 10
16.5385385010826
 20
49.2210932943162
 10
16.5385254883775
 20
49.2211714589844
 10
16.5385036526882
 20
49.2212542671759
 10
16.5384570821287
 20
49.2213405814346
 10
16.53841555182
 20
49.2214134092275
 10
16.5383241296497
 20
49.2215394911654
 10
16.5381561456547
 20
49.2217368130572
 10
16.5379881603208
 20
49.2219341346981
 10
16.53763496962
 20
49.2221841706647
 97
0
 75
0
 76
1
 98
0
  0
HATCH
  5
2009C
100
AcDbEntity
  8
skládky a antropogenní uloženiny
100
AcDbHatch
 10
0
 20
0
 30
0
210
0
220
0
230
1
  2
SOLID
 70
1
 71
0
 91
1
 92
2
 72
0
 73
1
 93
73
 10
16.5418660657295
 20
49.2290188439835
 10
16.541707889806
 20
49.229254683179
 10
16.5414457399156
 20
49.2295558730258
 10
16.541183586835
 20
49.2298570622623
 10
16.5409768384759
 20
49.2299930049842
 10
16.5408393172713
 20
49.2302125883064
 10
16.540760232291
 20
49.2303831542741
 10
16.5408145042252
 20
49.2304363285862
 10
16.5410850818261
 20
49.2307014318959
 10
16.5413556623244
 20
49.2309665345607
 10
16.5414695696199
 20
49.2310607585701
 10
16.5415648503235
 20
49.2311629934337
 10
16.5414968785404
 20
49.2312609917853
 10
16.5412697276479
 20
49.2312049745011
 10
16.5412168489795
 20
49.2312521273574
 10
16.5411369991419
 20
49.2312770921523
 10
16.5412096116134
 20
49.2313943533026
 10
16.5411538789773
 20
49.2315076080723
 10
16.5411311928779
 20
49.2315169339332
 10
16.5410196142687
 20
49.2316312674769
 10
16.5409038892683
 20
49.2315854657053
 10
16.5408153260251
 20
49.2316221105478
 10
16.5408360661656
 20
49.2316543469421
 10
16.540780667376
 20
49.2317008674525
 10
16.540658530395
 20
49.2317566442849
 10
16.5405422770807
 20
49.2317596517572
 10
16.540417930939
 20
49.2318170798029
 10
16.5403792192859
 20
49.2318081648153
 10
16.5402950755687
 20
49.2318809010043
 10
16.5402618736737
 20
49.2319073413912
 10
16.5401831461246
 20
49.2319521056171
 10
16.5399695018352
 20
49.2320157312413
 10
16.539797287214
 20
49.2321764814999
 10
16.5397229639152
 20
49.2324893159402
 10
16.5399017812023
 20
49.2327402595808
 10
16.5400513072987
 20
49.2328336141043
 10
16.5401126914775
 20
49.2329644281528
 10
16.5399921472007
 20
49.2329886859769
 10
16.5398571855333
 20
49.2329514584519
 10
16.5396968725563
 20
49.2328503718369
 10
16.5395365588688
 20
49.2327492849002
 10
16.5393821951827
 20
49.2328542682881
 10
16.539227830842
 20
49.2329592514678
 10
16.5389982295411
 20
49.2330324971904
 10
16.5388752488389
 20
49.2329973506004
 10
16.5388017494741
 20
49.2329551916178
 10
16.5387929207825
 20
49.232862623964
 10
16.5389568330238
 20
49.2327975304052
 10
16.5391207460503
 20
49.2327324376044
 10
16.5393150405413
 20
49.2325805519775
 10
16.5393985072233
 20
49.2324177774992
 10
16.5394078123152
 20
49.2322400349215
 10
16.5393521491714
 20
49.2320284588753
 10
16.5393026207743
 20
49.2318339651179
 10
16.5393328289429
 20
49.2317898346886
 10
16.5392908930162
 20
49.2317061244178
 10
16.5393278125656
 20
49.2316270769407
 10
16.5394229930243
 20
49.231582221676
 10
16.5395045192122
 20
49.2314965897923
 10
16.5399331989666
 20
49.231345196692
 10
16.5400177283553
 20
49.2311203830491
 10
16.5400554729122
 20
49.2309666759723
 10
16.5400651787868
 20
49.2308320436728
 10
16.540122990759
 20
49.2306465712918
 10
16.5402483110449
 20
49.2304563303892
 10
16.5404126906514
 20
49.2302032056217
 10
16.5405478080732
 20
49.2299997334983
 10
16.5407490982457
 20
49.2298252284889
 10
16.5410034951485
 20
49.2296046723602
 10
16.541279342573
 20
49.2293639373012
 10
16.5415551873146
 20
49.2291232015733
 10
16.5417431128366
 20
49.228963390431
 10
16.5418660657295
 20
49.2290188439835
 97
0
 75
0
 76
1
 98
0
  0
HATCH
  5
2009D
100
AcDbEntity
  8
skládky a antropogenní uloženiny
100
AcDbHatch
 10
0
 20
0
 30
0
210
0
220
0
230
1
  2
SOLID
 70
1
 71
0
 91
1
 92
2
 72
0
 73
1
 93
47
 10
16.5441366795602
 20
49.2316251667642
 10
16.5441629651611
 20
49.2317902931175
 10
16.5441781651584
 20
49.2318441073364
 10
16.5441933665538
 20
49.2318979216502
 10
16.5441519227316
 20
49.2319292384818
 10
16.5440670694488
 20
49.2319310918088
 10
16.5440189654708
 20
49.2318828824505
 10
16.5440101185087
 20
49.231813659844
 10
16.5439978764883
 20
49.2317178736074
 10
16.5439490358825
 20
49.2316484762186
 10
16.5439333516918
 20
49.2317185416013
 10
16.5439176660916
 20
49.2317886068836
 10
16.543901980447
 20
49.2318586721631
 10
16.5438521825897
 20
49.2319154046953
 10
16.5437620909622
 20
49.231925146358
 10
16.5437178158715
 20
49.2319008946176
 10
16.5437132504825
 20
49.2318557488718
 10
16.5437859377206
 20
49.2317818428786
 10
16.5438131248914
 20
49.2317152343545
 10
16.5438403118403
 20
49.2316486267173
 10
16.5437653784184
 20
49.2316664397813
 10
16.5436700466259
 20
49.2317524801413
 10
16.5436131977568
 20
49.2318037884793
 10
16.5435563486212
 20
49.2318550976829
 10
16.5434719303152
 20
49.231854345673
 10
16.5434730774685
 20
49.2317990611423
 10
16.5435877194769
 20
49.2317149671177
 10
16.5436286542147
 20
49.2316625230462
 10
16.5434148272668
 20
49.2316894456595
 10
16.5432369608496
 20
49.2317663912356
 10
16.5430590938796
 20
49.2318433365366
 10
16.5429500125289
 20
49.2318698246213
 10
16.5428409309127
 20
49.2318963134968
 10
16.5427046379346
 20
49.2318444024774
 10
16.5426791614128
 20
49.2317555800223
 10
16.5426973739433
 20
49.2316461488335
 10
16.5428317570544
 20
49.231516007692
 10
16.543043620581
 20
49.2314283068363
 10
16.5432878217226
 20
49.2313640047229
 10
16.5435778851434
 20
49.2312514659827
 10
16.5436981555713
 20
49.2311480991063
 10
16.5437724794992
 20
49.2310918515306
 10
16.5439662476367
 20
49.2311444338622
 10
16.5440557402741
 20
49.2313404195453
 10
16.5441195041764
 20
49.2314295477996
 10
16.5442473102823
 20
49.2315106726199
 10
16.5441366795602
 20
49.2316251667642
 97
0
 75
0
 76
1
 98
0
  0
HATCH
  5
2009E
100
AcDbEntity
  8
skládky a antropogenní uloženiny
100
AcDbHatch
 10
0
 20
0
 30
0
210
0
220
0
230
1
  2
SOLID
 70
1
 71
0
 91
1
 92
2
 72
0
 73
1
 93
40
 10
16.5471376348231
 20
49.2317204344606
 10
16.5475193032153
 20
49.2320640344782
 10
16.547430038492
 20
49.2320682124288
 10
16.5473475092937
 20
49.2321045090687
 10
16.5473361623575
 20
49.2321485193381
 10
16.5473677150474
 20
49.232200862561
 10
16.5473529009156
 20
49.2322657173895
 10
16.5472919986302
 20
49.2322930103505
 10
16.5472023000117
 20
49.2322997940295
 10
16.5470851067838
 20
49.232278251639
 10
16.5469026645213
 20
49.2322447147135
 10
16.5467716554407
 20
49.2322506179907
 10
16.5467754140322
 20
49.2322863815281
 10
16.5468735246956
 20
49.2323158863499
 10
16.5470393291327
 20
49.2323356239775
 10
16.5470818726572
 20
49.2323702962703
 10
16.5470289272787
 20
49.2323981567268
 10
16.5469338716717
 20
49.2323887398181
 10
16.5468305041034
 20
49.2324050936133
 10
16.5467271351017
 20
49.2324214472185
 10
16.546455055596
 20
49.2326462199097
 10
16.5462849564775
 20
49.2326095807238
 10
16.5458705151015
 20
49.232570143643
 10
16.5461006772722
 20
49.2324509357527
 10
16.5462431558251
 20
49.2322814616752
 10
16.5463111489573
 20
49.2322599478642
 10
16.5464415016217
 20
49.2322507924693
 10
16.546509417628
 20
49.2322055452124
 10
16.5465723321438
 20
49.232117757292
 10
16.5466161221754
 20
49.2320846414351
 10
16.5466706991174
 20
49.2320588632052
 10
16.5467891148141
 20
49.2320488558729
 10
16.546789576911
 20
49.2319573362061
 10
16.5468243578957
 20
49.2319113577271
 10
16.5468716413253
 20
49.2318791938655
 10
16.5469329461526
 20
49.2318376548134
 10
16.5469955032105
 20
49.231776205891
 10
16.5470580613294
 20
49.2317147579253
 10
16.5470930437088
 20
49.231680395796
 10
16.5471376348231
 20
49.2317204344606
 97
0
 75
0
 76
1
 98
0
  0
HATCH
  5
2009F
100
AcDbEntity
  8
skládky a antropogenní uloženiny
100
AcDbHatch
 10
0
 20
0
 30
0
210
0
220
0
230
1
  2
SOLID
 70
1
 71
0
 91
1
 92
2
 72
0
 73
1
 93
32
 10
16.5400278773708
 20
49.242422840547
 10
16.5400045486059
 20
49.2423557470374
 10
16.5399769020208
 20
49.2422799526071
 10
16.5399924677541
 20
49.2421881851661
 10
16.5399517127428
 20
49.2420814356126
 10
16.5399109591237
 20
49.2419746870343
 10
16.5398240422193
 20
49.2417470187272
 10
16.539737126263
 20
49.2415193494527
 10
16.5395935551511
 20
49.2412783771354
 10
16.5394964401047
 20
49.2410302378653
 10
16.5394361688377
 20
49.2408762388069
 10
16.5396477515853
 20
49.2408183585589
 10
16.5397042463125
 20
49.2409308661603
 10
16.5398100969454
 20
49.2411416672162
 10
16.53988987703
 20
49.24130054669
 10
16.539993035076
 20
49.2415059801412
 10
16.5400837931502
 20
49.2416867206514
 10
16.5402209067437
 20
49.2418544423712
 10
16.5403078866562
 20
49.2419608378314
 10
16.5404239478404
 20
49.2420376704897
 10
16.5405337118706
 20
49.2420797799375
 10
16.5406841158312
 20
49.2421698715526
 10
16.5407770417691
 20
49.2422637319698
 10
16.5408017924965
 20
49.2423818020377
 10
16.5405752024215
 20
49.2422289168798
 10
16.5403707793973
 20
49.2421393338002
 10
16.5402513211962
 20
49.2421070786954
 10
16.5401312801077
 20
49.242029961759
 10
16.5401479297604
 20
49.2421234263799
 10
16.5401177702329
 20
49.242232005752
 10
16.5400876092076
 20
49.2423405850169
 10
16.5400278773708
 20
49.242422840547
 97
0
 75
0
 76
1
 98
0
  0
HATCH
  5
200A0
100
AcDbEntity
  8
skládky a antropogenní uloženiny
100
AcDbHatch
 10
0
 20
0
 30
0
210
0
220
0
230
1
  2
SOLID
 70
1
 71
0
 91
1
 92
2
 72
0
 73
1
 93
28
 10
16.5429335202355
 20
49.2435864201481
 10
16.5430041341034
 20
49.2435492749109
 10
16.5430827442533
 20
49.2435245655255
 10
16.5431943121699
 20
49.2435074796329
 10
16.5433178581127
 20
49.2435031127108
 10
16.5434154986547
 20
49.2434850337564
 10
16.5435296320958
 20
49.2434404479156
 10
16.5436437639658
 20
49.2433958618643
 10
16.5437578969957
 20
49.2433512757971
 10
16.543837883249
 20
49.2433424824183
 10
16.5439009067207
 20
49.2433509338436
 10
16.5439164287666
 20
49.2433665416341
 10
16.5439043499032
 20
49.2433907265817
 10
16.5438584447445
 20
49.2434124971753
 10
16.5437939424812
 20
49.2434250321782
 10
16.5437084151349
 20
49.2434534936392
 10
16.5436228876903
 20
49.2434819550367
 10
16.5435546434562
 20
49.2435200078212
 10
16.5434685082226
 20
49.2435415446532
 10
16.5433595802886
 20
49.2435548643783
 10
16.5432506509307
 20
49.2435681839031
 10
16.5431722576081
 20
49.2435915909075
 10
16.5430707225856
 20
49.2436219083921
 10
16.5430140940539
 20
49.2436224891205
 10
16.5429805809274
 20
49.2436228322989
 10
16.542947069166
 20
49.2436231755649
 10
16.5429258547785
 20
49.2436082831176
 10
16.5429335202355
 20
49.2435864201481
 97
0
 75
0
 76
1
 98
0
  0
HATCH
  5
200A1
100
AcDbEntity
  8
skládky a antropogenní uloženiny
100
AcDbHatch
 10
0
 20
0
 30
0
210
0
220
0
230
1
  2
SOLID
 70
1
 71
0
 91
1
 92
2
 72
0
 73
1
 93
27
 10
16.5432859160713
 20
49.2437433880473
 10
16.5432892859326
 20
49.2437231434959
 10
16.5433193735592
 20
49.2436996374981
 10
16.5433754835782
 20
49.2436891407566
 10
16.5434105354069
 20
49.2436825833686
 10
16.5434897321649
 20
49.2436801554316
 10
16.5435789790672
 20
49.2436641133515
 10
16.5436549115669
 20
49.2436313020298
 10
16.5437283424148
 20
49.2435772211207
 10
16.5438017731023
 20
49.2435231401643
 10
16.543865217512
 20
49.2434564822747
 10
16.5439183932949
 20
49.2434273208245
 10
16.543953992338
 20
49.2434311787004
 10
16.5439832273137
 20
49.2434490837309
 10
16.5439919517606
 20
49.2434813436696
 10
16.5439710468051
 20
49.2435101707632
 10
16.5439079982472
 20
49.2435623566266
 10
16.5438449495565
 20
49.2436145424552
 10
16.5437819008815
 20
49.2436667273549
 10
16.5437350182687
 20
49.2437055327746
 10
16.5436682777627
 20
49.243732441835
 10
16.5436064149903
 20
49.2437412102931
 10
16.543544552196
 20
49.243749978718
 10
16.543482690894
 20
49.2437587463132
 10
16.5433741570563
 20
49.2437575938722
 10
16.5433069547319
 20
49.24375688026
 10
16.5432859160713
 20
49.2437433880473
 97
0
 75
0
 76
1
 98
0
  0
HATCH
  5
200A2
100
AcDbEntity
  8
skládky a antropogenní uloženiny
100
AcDbHatch
 10
0
 20
0
 30
0
210
0
220
0
230
1
  2
SOLID
 70
1
 71
0
 91
1
 92
2
 72
0
 73
1
 93
19
 10
16.5446805787216
 20
49.2341671936103
 10
16.5451678257771
 20
49.233249323362
 10
16.5459260372607
 20
49.2332041372912
 10
16.5466842487273
 20
49.2331589463372
 10
16.5478891789315
 20
49.2326722098352
 10
16.5479129491918
 20
49.232900048835
 10
16.5478346961922
 20
49.2331480716333
 10
16.5477344039404
 20
49.2332913190317
 10
16.5475635213852
 20
49.2334437157388
 10
16.547309827426
 20
49.2336784198278
 10
16.5471689552905
 20
49.2339176228868
 10
16.5471305418371
 20
49.234041608632
 10
16.5464711090694
 20
49.2336048548688
 10
16.5461642539185
 20
49.2338565179655
 10
16.5459650554566
 20
49.23375236036
 10
16.5460240715575
 20
49.2335696064638
 10
16.5459249119536
 20
49.2335177574556
 10
16.545413371836
 20
49.2334389338215
 10
16.5446805787216
 20
49.2341671936103
 97
0
 75
0
 76
1
 98
0
  0
HATCH
  5
200A3
100
AcDbEntity
  8
skládky a antropogenní uloženiny
100
AcDbHatch
 10
0
 20
0
 30
0
210
0
220
0
230
1
  2
SOLID
 70
1
 71
0
 91
1
 92
2
 72
0
 73
1
 93
4
 10
16.5446737920349
 20
49.2341799785502
 10
16.5446732567697
 20
49.2341744703952
 10
16.5446805787216
 20
49.2341671936103
 10
16.5446737920349
 20
49.2341799785502
 97
0
 75
0
 76
1
 98
0
  0
HATCH
  5
200A4
100
AcDbEntity
  8
skládky a antropogenní uloženiny
100
AcDbHatch
 10
0
 20
0
 30
0
210
0
220
0
230
1
  2
SOLID
 70
1
 71
0
 91
1
 92
2
 72
0
 73
1
 93
15
 10
16.5460795008387
 20
49.2377379778154
 10
16.545714774493
 20
49.2368461479108
 10
16.5451716563737
 20
49.2357219042582
 10
16.5450427267846
 20
49.235547942631
 10
16.544855370309
 20
49.2352723956796
 10
16.5447141795737
 20
49.2351045075942
 10
16.544524261851
 20
49.2348677913805
 10
16.5443851575754
 20
49.234696592506
 10
16.5446077317081
 20
49.2342158892565
 10
16.5471361428224
 20
49.2340394518507
 10
16.5469327274209
 20
49.2346117920435
 10
16.5467379588993
 20
49.2348773782748
 10
16.5466528946627
 20
49.2350328422193
 10
16.546569299204
 20
49.235208561154
 10
16.5460795008387
 20
49.2377379778154
 97
0
 75
0
 76
1
 98
0
  0
HATCH
  5
200A5
100
AcDbEntity
  8
skládky a antropogenní uloženiny
100
AcDbHatch
 10
0
 20
0
 30
0
210
0
220
0
230
1
  2
SOLID
 70
1
 71
0
 91
1
 92
2
 72
0
 73
1
 93
6
 10
16.5432369813887
 20
49.2394315558385
 10
16.5432704157717
 20
49.2388838005912
 10
16.5435166724434
 20
49.2388183070032
 10
16.5436921654393
 20
49.2391012080812
 10
16.5435449950022
 20
49.239208016295
 10
16.5432369813887
 20
49.2394315558385
 97
0
 75
0
 76
1
 98
0
  0
HATCH
  5
200A6
100
AcDbEntity
  8
skládky a antropogenní uloženiny
100
AcDbHatch
 10
0
 20
0
 30
0
210
0
220
0
230
1
  2
SOLID
 70
1
 71
0
 91
1
 92
2
 72
0
 73
1
 93
6
 10
16.5368852638285
 20
49.233672309762
 10
16.5368487115002
 20
49.2332373980345
 10
16.5370150351919
 20
49.2330897088163
 10
16.5369576855559
 20
49.232721607845
 10
16.537808626796
 20
49.2332820745576
 10
16.5368852638285
 20
49.233672309762
 97
0
 75
0
 76
1
 98
0
  0
HATCH
  5
200A7
100
AcDbEntity
  8
skládky a antropogenní uloženiny
100
AcDbHatch
 10
0
 20
0
 30
0
210
0
220
0
230
1
  2
SOLID
 70
1
 71
0
 91
1
 92
2
 72
0
 73
1
 93
16
 10
16.5439550681291
 20
49.2293062560398
 10
16.5443533958196
 20
49.2294954660754
 10
16.5449200291823
 20
49.2295238368201
 10
16.5452724623931
 20
49.229926826316
 10
16.5449776675944
 20
49.2299793289664
 10
16.5447472426638
 20
49.2297956952692
 10
16.5445205612012
 20
49.2300250487151
 10
16.5434091301594
 20
49.2301403389461
 10
16.5433394780668
 20
49.2299803685196
 10
16.5433221527946
 20
49.2297647309933
 10
16.5433371301402
 20
49.2294474757784
 10
16.5432833435343
 20
49.2291706662859
 10
16.5433357029116
 20
49.2289962361103
 10
16.5432332440686
 20
49.2288093194044
 10
16.5435439015983
 20
49.2290599086397
 10
16.5439550681291
 20
49.2293062560398
 97
0
 75
0
 76
1
 98
0
  0
HATCH
  5
200A8
100
AcDbEntity
  8
skládky a antropogenní uloženiny
100
AcDbHatch
 10
0
 20
0
 30
0
210
0
220
0
230
1
  2
SOLID
 70
1
 71
0
 91
1
 92
2
 72
0
 73
1
 93
61
 10
16.5437438804769
 20
49.2284705982446
 10
16.5436980062839
 20
49.2281830266024
 10
16.5442953081285
 20
49.2271712304745
 10
16.5443883553974
 20
49.2272170464162
 10
16.5442138733903
 20
49.2275439845464
 10
16.5442956814514
 20
49.2275207834239
 10
16.5446364731935
 20
49.2274508078579
 10
16.5449642611485
 20
49.2273914276634
 10
16.5451745690876
 20
49.2273380251861
 10
16.5452565475269
 20
49.2273298840997
 10
16.5453223494839
 20
49.2273490257311
 10
16.5453120153074
 20
49.2273826349905
 10
16.5452738642334
 20
49.2274280594506
 10
16.5450851053457
 20
49.2275081344031
 10
16.5447050308501
 20
49.2276248144104
 10
16.5457462012902
 20
49.227761334529
 10
16.5458121975096
 20
49.2275783201457
 10
16.5458769123869
 20
49.2273960311554
 10
16.5459013086448
 20
49.2272975053466
 10
16.5459652011537
 20
49.2272733440933
 10
16.5461182742921
 20
49.2273702459861
 10
16.5460837228274
 20
49.2275165549721
 10
16.5460171599793
 20
49.2277501679382
 10
16.5462269113594
 20
49.2278050220362
 10
16.5465853217538
 20
49.2278282820724
 10
16.5469393045111
 20
49.227879341909
 10
16.5471541481927
 20
49.2278675142499
 10
16.5473371756324
 20
49.2278644187229
 10
16.5474766414503
 20
49.2278465372409
 10
16.5475761780517
 20
49.2279341358883
 10
16.5475349735033
 20
49.2280366540852
 10
16.5472735813226
 20
49.2281076459095
 10
16.5470080528357
 20
49.2280970527149
 10
16.5465770453495
 20
49.2280798557197
 10
16.5461460366498
 20
49.2280626579116
 10
16.5460401907352
 20
49.2280609248085
 10
16.5460342743283
 20
49.2282159291948
 10
16.5461714384756
 20
49.2283928440231
 10
16.5465363388957
 20
49.2286192500723
 10
16.5469943186232
 20
49.2289034035571
 10
16.5473584279545
 20
49.2292174853226
 10
16.5476073323918
 20
49.2295965272434
 10
16.5476578326692
 20
49.2299120267384
 10
16.5477083335894
 20
49.2302275261956
 10
16.547683996733
 20
49.2303679869105
 10
16.5475623368807
 20
49.2304377772182
 10
16.5474102839379
 20
49.2304322041014
 10
16.5472527199711
 20
49.2303629619521
 10
16.5471692124784
 20
49.230235727862
 10
16.5470857067799
 20
49.2301084938063
 10
16.5470314456449
 20
49.2299667986368
 10
16.5468558384782
 20
49.229741798416
 10
16.5466565800427
 20
49.2295360422384
 10
16.5465180102174
 20
49.2293853267204
 10
16.5462723040819
 20
49.2291963527075
 10
16.5461691057045
 20
49.2290951854344
 10
16.5460241926974
 20
49.2289890516294
 10
16.545627862495
 20
49.228739513843
 10
16.5451172106952
 20
49.2287105834993
 10
16.5444977564195
 20
49.2286536265278
 10
16.5437438804769
 20
49.2284705982446
 97
0
 75
0
 76
1
 98
0
  0
HATCH
  5
200A9
100
AcDbEntity
  8
skládky a antropogenní uloženiny
100
AcDbHatch
 10
0
 20
0
 30
0
210
0
220
0
230
1
  2
SOLID
 70
1
 71
0
 91
1
 92
2
 72
0
 73
1
 93
21
 10
16.540460314341
 20
49.2238030378224
 10
16.5409781114651
 20
49.2235324741654
 10
16.5413104378862
 20
49.223384514182
 10
16.5416923737238
 20
49.2231762491884
 10
16.54224691233
 20
49.2224487976582
 10
16.5426034420103
 20
49.2223388163666
 10
16.5428786648974
 20
49.2224353578794
 10
16.5428184190867
 20
49.2225602833409
 10
16.5427295343557
 20
49.2226785192965
 10
16.542569253329
 20
49.2228720237684
 10
16.5424614352086
 20
49.2230096020005
 10
16.5424503366557
 20
49.2230551847167
 10
16.5422166877754
 20
49.223248056307
 10
16.5419817442888
 20
49.2233846118908
 10
16.5414939604926
 20
49.2236184607833
 10
16.5409538708923
 20
49.2238531449435
 10
16.5401782388668
 20
49.2241854858183
 10
16.5399957920679
 20
49.2241388476624
 10
16.5399576900967
 20
49.2240714310823
 10
16.5400448184037
 20
49.2240123077556
 10
16.540460314341
 20
49.2238030378224
 97
0
 75
0
 76
1
 98
0
  0
HATCH
  5
200AA
100
AcDbEntity
  8
skládky a antropogenní uloženiny
100
AcDbHatch
 10
0
 20
0
 30
0
210
0
220
0
230
1
  2
SOLID
 70
1
 71
0
 91
1
 92
2
 72
0
 73
1
 93
5
 10
16.6825700505122
 20
49.2110161135437
 10
16.6827294234745
 20
49.2108477838447
 10
16.6835920631224
 20
49.2109752447225
 10
16.6832396628971
 20
49.2111540962526
 10
16.6825700505122
 20
49.2110161135437
 97
0
 75
0
 76
1
 98
0
  0
HATCH
  5
200AB
100
AcDbEntity
  8
skládky a antropogenní uloženiny
100
AcDbHatch
 10
0
 20
0
 30
0
210
0
220
0
230
1
  2
SOLID
 70
1
 71
0
 91
1
 92
2
 72
0
 73
1
 93
12
 10
16.5928988472503
 20
49.2375168371358
 10
16.5929612198913
 20
49.2373110363325
 10
16.5929774725722
 20
49.2372245347047
 10
16.5930896264052
 20
49.2372768619852
 10
16.5932017818405
 20
49.2373291892531
 10
16.5932669215252
 20
49.2374038238286
 10
16.5933320614062
 20
49.2374784583665
 10
16.5933083786736
 20
49.2375242429075
 10
16.5932667324933
 20
49.237604760178
 10
16.5931673351953
 20
49.237634809009
 10
16.5929837044763
 20
49.2376032360894
 10
16.5928988472503
 20
49.2375168371358
 97
0
 75
0
 76
1
 98
0
  0
HATCH
  5
200AC
100
AcDbEntity
  8
skládky a antropogenní uloženiny
100
AcDbHatch
 10
0
 20
0
 30
0
210
0
220
0
230
1
  2
SOLID
 70
1
 71
0
 91
1
 92
2
 72
0
 73
1
 93
19
 10
16.5992762938602
 20
49.2386800385998
 10
16.5989395727256
 20
49.238428021028
 10
16.5988863646867
 20
49.2383638291689
 10
16.5986344898377
 20
49.2380599735047
 10
16.5982155396494
 20
49.2375079730324
 10
16.5981808560884
 20
49.2371927704247
 10
16.5985188280521
 20
49.2372630482262
 10
16.5988568009756
 20
49.2373333250378
 10
16.5990850800332
 20
49.2373804191769
 10
16.5992192318736
 20
49.2374643195476
 10
16.5992458290298
 20
49.2376268650993
 10
16.5992724265083
 20
49.2377894097465
 10
16.5992879305202
 20
49.2378841625853
 10
16.5994255162583
 20
49.2379486520083
 10
16.599670404513
 20
49.2380634362305
 10
16.5996653692774
 20
49.2382481767924
 10
16.5996223309155
 20
49.2384057664407
 10
16.5994526847371
 20
49.2385559484646
 10
16.5992762938602
 20
49.2386800385998
 97
0
 75
0
 76
1
 98
0
  0
HATCH
  5
200AD
100
AcDbEntity
  8
skládky a antropogenní uloženiny
100
AcDbHatch
 10
0
 20
0
 30
0
210
0
220
0
230
1
  2
SOLID
 70
1
 71
0
 91
1
 92
2
 72
0
 73
1
 93
20
 10
16.5985768506762
 20
49.2370847114359
 10
16.5985491386105
 20
49.2369096224494
 10
16.5985136316235
 20
49.2366103207403
 10
16.5984781265784
 20
49.2363110182085
 10
16.598335918204
 20
49.2360288851209
 10
16.5980547269419
 20
49.235730717773
 10
16.5975788001547
 20
49.2354682078855
 10
16.5971613751189
 20
49.2353087725199
 10
16.5967910934771
 20
49.2352639727876
 10
16.5970312477777
 20
49.2351820700316
 10
16.5974789818621
 20
49.235158163075
 10
16.5978959271008
 20
49.2352062693609
 10
16.5983933092038
 20
49.2353961013968
 10
16.5987643159283
 20
49.2356078897177
 10
16.5989655539776
 20
49.2358756564751
 10
16.599092443775
 20
49.2362093268859
 10
16.5991059425223
 20
49.2364544443797
 10
16.5990188700488
 20
49.2366955942665
 10
16.5987978612311
 20
49.2368901530659
 10
16.5985768506762
 20
49.2370847114359
 97
0
 75
0
 76
1
 98
0
  0
HATCH
  5
200AE
100
AcDbEntity
  8
skládky a antropogenní uloženiny
100
AcDbHatch
 10
0
 20
0
 30
0
210
0
220
0
230
1
  2
SOLID
 70
1
 71
0
 91
1
 92
2
 72
0
 73
1
 93
13
 10
16.5933718314592
 20
49.2370835619823
 10
16.5933644022629
 20
49.2370428449463
 10
16.5933857486022
 20
49.2369423382304
 10
16.5934586315273
 20
49.2368500960589
 10
16.5935692949354
 20
49.2368316948173
 10
16.5936554315626
 20
49.2368532609769
 10
16.5937044719762
 20
49.2369278443619
 10
16.5937535125376
 20
49.2370024277252
 10
16.5937414989117
 20
49.2371035963378
 10
16.5936893916673
 20
49.2371617313775
 10
16.5935688128124
 20
49.2371844387401
 10
16.5934192377338
 20
49.2371394798944
 10
16.5933718314592
 20
49.2370835619823
 97
0
 75
0
 76
1
 98
0
  0
HATCH
  5
200AF
100
AcDbEntity
  8
skládky a antropogenní uloženiny
100
AcDbHatch
 10
0
 20
0
 30
0
210
0
220
0
230
1
  2
SOLID
 70
1
 71
0
 91
1
 92
2
 72
0
 73
1
 93
24
 10
16.5938407536086
 20
49.2359683140666
 10
16.5938816058339
 20
49.2360067640315
 10
16.5939891401111
 20
49.2360729375327
 10
16.5940138410861
 20
49.2360207796091
 10
16.5940164438325
 20
49.2359622244019
 10
16.5940414275592
 20
49.2359253519473
 10
16.5940923876749
 20
49.2359026881773
 10
16.5941431742513
 20
49.2359516537942
 10
16.5941388253542
 20
49.2360358257041
 10
16.5941344762945
 20
49.2361199985068
 10
16.5941301272198
 20
49.2362041713081
 10
16.5941529925362
 20
49.2363212517589
 10
16.5941445189431
 20
49.2364010310069
 10
16.5940823215567
 20
49.2364630879957
 10
16.5940209002477
 20
49.2364633685968
 10
16.5939741173826
 20
49.2364322271601
 10
16.593962913838
 20
49.236357236548
 10
16.5939479089802
 20
49.2362567902569
 10
16.5939089892594
 20
49.2361694655967
 10
16.5938457557274
 20
49.2361093337504
 10
16.593782523862
 20
49.2360492010717
 10
16.5937750944829
 20
49.2360084840552
 10
16.593797743613
 20
49.23597144697
 10
16.5938407536086
 20
49.2359683140666
 97
0
 75
0
 76
1
 98
0
  0
HATCH
  5
200B0
100
AcDbEntity
  8
skládky a antropogenní uloženiny
100
AcDbHatch
 10
0
 20
0
 30
0
210
0
220
0
230
1
  2
SOLID
 70
1
 71
0
 91
1
 92
2
 72
0
 73
1
 93
5
 10
16.5998340313954
 20
49.2394009679002
 10
16.5995654880947
 20
49.2390257137573
 10
16.6002348231684
 20
49.2387885890909
 10
16.6002523463745
 20
49.2392867621877
 10
16.5998340313954
 20
49.2394009679002
 97
0
 75
0
 76
1
 98
0
  0
HATCH
  5
200B1
100
AcDbEntity
  8
skládky a antropogenní uloženiny
100
AcDbHatch
 10
0
 20
0
 30
0
210
0
220
0
230
1
  2
SOLID
 70
1
 71
0
 91
1
 92
2
 72
0
 73
1
 93
15
 10
16.6338530391078
 20
49.2236306090858
 10
16.6337630152305
 20
49.2236169282792
 10
16.6336455438576
 20
49.2235793947906
 10
16.6335689766684
 20
49.2235273124454
 10
16.6335260276012
 20
49.2234597862171
 10
16.6335916046751
 20
49.2234351108463
 10
16.6337830096533
 20
49.2234572850666
 10
16.633914523801
 20
49.2234707859725
 10
16.634311754314
 20
49.2235181840678
 10
16.6348671598163
 20
49.2235695778399
 10
16.6352285061338
 20
49.2235982682436
 10
16.6351670298669
 20
49.2237453322548
 10
16.6348872791226
 20
49.2237286776576
 10
16.6342777760577
 20
49.2236776840711
 10
16.6338530391078
 20
49.2236306090858
 97
0
 75
0
 76
1
 98
0
  0
HATCH
  5
200B2
100
AcDbEntity
  8
skládky a antropogenní uloženiny
100
AcDbHatch
 10
0
 20
0
 30
0
210
0
220
0
230
1
  2
SOLID
 70
1
 71
0
 91
1
 92
2
 72
0
 73
1
 93
15
 10
16.634326765136
 20
49.22733039893
 10
16.6344380855851
 20
49.2274855921668
 10
16.6344952512533
 20
49.2275629123887
 10
16.6341636777893
 20
49.2277306887424
 10
16.6336701707092
 20
49.2279803992233
 10
16.633472662905
 20
49.2280988712169
 10
16.6332737478622
 20
49.2281918761965
 10
16.63315241996
 20
49.2281952933622
 10
16.633066445227
 20
49.228152955665
 10
16.6330417635229
 20
49.2281023725191
 10
16.6330455193918
 20
49.2280199699101
 10
16.6332549242098
 20
49.2278545276785
 10
16.6335161273646
 20
49.2276947004458
 10
16.633818492422
 20
49.2275792918895
 10
16.634326765136
 20
49.22733039893
 97
0
 75
0
 76
1
 98
0
  0
HATCH
  5
200B3
100
AcDbEntity
  8
skládky a antropogenní uloženiny
100
AcDbHatch
 10
0
 20
0
 30
0
210
0
220
0
230
1
  2
SOLID
 70
1
 71
0
 91
1
 92
2
 72
0
 73
1
 93
33
 10
16.6325110822469
 20
49.2254005508756
 10
16.6325395674958
 20
49.2254132426539
 10
16.6325646615076
 20
49.2254280050085
 10
16.6325853998525
 20
49.225444270593
 10
16.6326009847521
 20
49.2254614159917
 10
16.6326108179239
 20
49.2254787803184
 10
16.6326145215153
 20
49.2254956974452
 10
16.6326119526144
 20
49.2255115169252
 10
16.6326032097575
 20
49.2255256315849
 10
16.6325886296933
 20
49.2255374971946
 10
16.6325687719014
 20
49.2255466594135
 10
16.632544401517
 20
49.2255527652474
 10
16.6325164533317
 20
49.2255555804055
 10
16.6324860001427
 20
49.225554997016
 10
16.6324542150115
 20
49.2255510363888
 10
16.6324223183598
 20
49.2255438516119
 10
16.6323915351686
 20
49.2255337191037
 10
16.6323630497412
 20
49.2255210281832
 10
16.6323379557424
 20
49.225506265785
 10
16.6323172176
 20
49.2254899992621
 10
16.6323016327895
 20
49.2254728538252
 10
16.6322917997274
 20
49.2254554894722
 10
16.6322880962493
 20
49.225438572335
 10
16.6322906652498
 20
49.2254227528621
 10
16.6322994080304
 20
49.2254086391198
 10
16.632313988273
 20
49.2253967726523
 10
16.6323338459048
 20
49.2253876113711
 10
16.6323582163811
 20
49.2253815046874
 10
16.6323861658422
 20
49.2253786896639
 10
16.6324166174094
 20
49.2253792738774
 10
16.6324484025745
 20
49.225383233621
 10
16.6324802991266
 20
49.2253904183908
 10
16.6325110822469
 20
49.2254005508756
 97
0
 75
0
 76
1
 98
0
  0
HATCH
  5
200B4
100
AcDbEntity
  8
skládky a antropogenní uloženiny
100
AcDbHatch
 10
0
 20
0
 30
0
210
0
220
0
230
1
  2
SOLID
 70
1
 71
0
 91
1
 92
2
 72
0
 73
1
 93
8
 10
16.6322039213229
 20
49.2268361914304
 10
16.6323778745286
 20
49.2267437842238
 10
16.6324276754197
 20
49.2267499925813
 10
16.632472395032
 20
49.2267700250655
 10
16.6324859442357
 20
49.2268007754625
 10
16.6324858796156
 20
49.2268320806571
 10
16.6323225031921
 20
49.2269185643152
 10
16.6322039213229
 20
49.2268361914304
 97
0
 75
0
 76
1
 98
0
  0
HATCH
  5
200B5
100
AcDbEntity
  8
skládky a antropogenní uloženiny
100
AcDbHatch
 10
0
 20
0
 30
0
210
0
220
0
230
1
  2
SOLID
 70
1
 71
0
 91
1
 92
2
 72
0
 73
1
 93
30
 10
16.6262409909932
 20
49.2277783997481
 10
16.6266522677834
 20
49.2281388600946
 10
16.6267942030131
 20
49.2283521935576
 10
16.6268223618502
 20
49.2284307904051
 10
16.6268376279751
 20
49.2284734029665
 10
16.6269113029076
 20
49.2285079114374
 10
16.6271385104688
 20
49.2285138252717
 10
16.6273525696986
 20
49.22856666258
 10
16.6276978118433
 20
49.228700942185
 10
16.6280712125756
 20
49.2288965425627
 10
16.6280984135471
 20
49.2289854735491
 10
16.6280781216918
 20
49.2290340573482
 10
16.6279861770005
 20
49.229087529329
 10
16.6278801899962
 20
49.2291038307049
 10
16.6274119940951
 20
49.2290175769983
 10
16.6273285310556
 20
49.229032122363
 10
16.6272577247238
 20
49.2290696226064
 10
16.627232536492
 20
49.2291093575386
 10
16.6272022893639
 20
49.2292024587235
 10
16.6272314672192
 20
49.2293196206274
 10
16.6275181114691
 20
49.2295715314704
 10
16.6279981814887
 20
49.2298906595783
 10
16.6280882051017
 20
49.2299641095306
 10
16.6272977573477
 20
49.2299451798959
 10
16.6269466800595
 20
49.2296366486036
 10
16.6267071527758
 20
49.2292089960769
 10
16.6266286862628
 20
49.2288463812099
 10
16.6260073649376
 20
49.2285495065177
 10
16.6258909572406
 20
49.2277641542479
 10
16.6262409909932
 20
49.2277783997481
 97
0
 75
0
 76
1
 98
0
  0
HATCH
  5
200B6
100
AcDbEntity
  8
skládky a antropogenní uloženiny
100
AcDbHatch
 10
0
 20
0
 30
0
210
0
220
0
230
1
  2
SOLID
 70
1
 71
0
 91
1
 92
2
 72
0
 73
1
 93
15
 10
16.6253862551962
 20
49.2277432684339
 10
16.6257945833432
 20
49.2277600522581
 10
16.6258909572406
 20
49.2277641542479
 10
16.6260073649376
 20
49.2285495065177
 10
16.6257418360574
 20
49.2289273567874
 10
16.625495296301
 20
49.2291513412178
 10
16.6254136355341
 20
49.2294022603139
 10
16.6254916594388
 20
49.2297183681493
 10
16.6249464792725
 20
49.2297573614506
 10
16.6245702038709
 20
49.2295649844472
 10
16.6246909905579
 20
49.2290891748076
 10
16.6251617137882
 20
49.2287450902184
 10
16.6252847013734
 20
49.2284956441208
 10
16.6254918623203
 20
49.2280697135348
 10
16.6253862551962
 20
49.2277432684339
 97
0
 75
0
 76
1
 98
0
  0
HATCH
  5
200B7
100
AcDbEntity
  8
skládky a antropogenní uloženiny
100
AcDbHatch
 10
0
 20
0
 30
0
210
0
220
0
230
1
  2
SOLID
 70
1
 71
0
 91
1
 92
2
 72
0
 73
1
 93
14
 10
16.6262409909932
 20
49.2277783997481
 10
16.6257945833432
 20
49.2277600522581
 10
16.6253862551962
 20
49.2277432684339
 10
16.6250888862577
 20
49.2277265016304
 10
16.6241785608493
 20
49.2271767600116
 10
16.6236658502368
 20
49.2264395272723
 10
16.6233291271212
 20
49.2260919277342
 10
16.6235411455019
 20
49.2259701559759
 10
16.6241477655686
 20
49.2257976634386
 10
16.6244037117714
 20
49.2261226474739
 10
16.624660010215
 20
49.2266273651176
 10
16.62587947711
 20
49.2273840870116
 10
16.6263067374118
 20
49.227520929336
 10
16.6262409909932
 20
49.2277783997481
 97
0
 75
0
 76
1
 98
0
  0
HATCH
  5
200B8
100
AcDbEntity
  8
skládky a antropogenní uloženiny
100
AcDbHatch
 10
0
 20
0
 30
0
210
0
220
0
230
1
  2
SOLID
 70
1
 71
0
 91
1
 92
2
 72
0
 73
1
 93
8
 10
16.6198032029756
 20
49.2231029780574
 10
16.6203689053569
 20
49.2229518815088
 10
16.6207721591631
 20
49.2232079187897
 10
16.6210829907877
 20
49.2234052715704
 10
16.6210397630404
 20
49.22354121628
 10
16.6207477232612
 20
49.2236271909798
 10
16.6205504340014
 20
49.2236337671358
 10
16.6198032029756
 20
49.2231029780574
 97
0
 75
0
 76
1
 98
0
  0
HATCH
  5
200B9
100
AcDbEntity
  8
skládky a antropogenní uloženiny
100
AcDbHatch
 10
0
 20
0
 30
0
210
0
220
0
230
1
  2
SOLID
 70
1
 71
0
 91
1
 92
2
 72
0
 73
1
 93
6
 10
16.6145259811355
 20
49.2304208143698
 10
16.6153177191502
 20
49.2302326212431
 10
16.6156213997436
 20
49.2306924613067
 10
16.6155802897257
 20
49.2308347191736
 10
16.6149367134497
 20
49.2307549527151
 10
16.6145259811355
 20
49.2304208143698
 97
0
 75
0
 76
1
 98
0
  0
HATCH
  5
200BA
100
AcDbEntity
  8
skládky a antropogenní uloženiny
100
AcDbHatch
 10
0
 20
0
 30
0
210
0
220
0
230
1
  2
SOLID
 70
1
 71
0
 91
1
 92
2
 72
0
 73
1
 93
8
 10
16.616456916575
 20
49.2306194098412
 10
16.6170534445757
 20
49.2306306163331
 10
16.6170830960733
 20
49.2309162501898
 10
16.617067925943
 20
49.2310384182623
 10
16.6169890529095
 20
49.2311322930895
 10
16.616717082825
 20
49.2311814345742
 10
16.6165012121412
 20
49.2310554640919
 10
16.616456916575
 20
49.2306194098412
 97
0
 75
0
 76
1
 98
0
  0
HATCH
  5
200BB
100
AcDbEntity
  8
skládky a antropogenní uloženiny
100
AcDbHatch
 10
0
 20
0
 30
0
210
0
220
0
230
1
  2
SOLID
 70
1
 71
0
 91
1
 92
2
 72
0
 73
1
 93
12
 10
16.6177488762186
 20
49.2318160730041
 10
16.6177167252209
 20
49.2317698425231
 10
16.6177071013033
 20
49.2315832044293
 10
16.6177753463595
 20
49.2313954740085
 10
16.6179453963556
 20
49.231121781515
 10
16.6182636358745
 20
49.2314080250047
 10
16.6184245135515
 20
49.2316196474486
 10
16.6184505413082
 20
49.2317557994698
 10
16.6183033090635
 20
49.2317893451315
 10
16.6179774353614
 20
49.2317076927011
 10
16.6178809231569
 20
49.2318180846983
 10
16.6177488762186
 20
49.2318160730041
 97
0
 75
0
 76
1
 98
0
  0
HATCH
  5
200BC
100
AcDbEntity
  8
skládky a antropogenní uloženiny
100
AcDbHatch
 10
0
 20
0
 30
0
210
0
220
0
230
1
  2
SOLID
 70
1
 71
0
 91
1
 92
2
 72
0
 73
1
 93
28
 10
16.6245661068456
 20
49.2305446039862
 10
16.6258045892738
 20
49.2306321081362
 10
16.6257409668527
 20
49.231018334341
 10
16.6258247841923
 20
49.2314149769097
 10
16.6258607765303
 20
49.2315852997088
 10
16.6262342653569
 20
49.2320983608168
 10
16.626150701256
 20
49.2321908909561
 10
16.6260518304461
 20
49.2323003694164
 10
16.6255627156664
 20
49.2321109319439
 10
16.6254225484947
 20
49.232158984944
 10
16.6254421327844
 20
49.23224445083
 10
16.6256259584113
 20
49.2326219320274
 10
16.6255481351422
 20
49.2326642505892
 10
16.6253665704214
 20
49.2326761026002
 10
16.6250121991332
 20
49.2323636729667
 10
16.624907476028
 20
49.2322976659856
 10
16.6247468004985
 20
49.2323449213651
 10
16.6243691881856
 20
49.2328261778973
 10
16.6242050122323
 20
49.2328292298296
 10
16.624101178971
 20
49.2327359943648
 10
16.6243104866936
 20
49.232118732047
 10
16.6243905139703
 20
49.2319046055769
 10
16.6233468320393
 20
49.2320604045934
 10
16.623211704791
 20
49.2318621017197
 10
16.6232861568047
 20
49.2317044667157
 10
16.623863824648
 20
49.2312764228941
 10
16.6243319603468
 20
49.2309295314087
 10
16.6245661068456
 20
49.2305446039862
 97
0
 75
0
 76
1
 98
0
  0
HATCH
  5
200BD
100
AcDbEntity
  8
skládky a antropogenní uloženiny
100
AcDbHatch
 10
0
 20
0
 30
0
210
0
220
0
230
1
  2
SOLID
 70
1
 71
0
 91
1
 92
2
 72
0
 73
1
 93
19
 10
16.6180978961635
 20
49.2262071477541
 10
16.6181327508343
 20
49.2261190968848
 10
16.6181616235724
 20
49.226084508282
 10
16.6182321771018
 20
49.2260633639159
 10
16.6182874417364
 20
49.2260468012125
 10
16.6185463677805
 20
49.2260740677561
 10
16.6186838215753
 20
49.2261285319742
 10
16.6187611670934
 20
49.2261871579136
 10
16.6188336613738
 20
49.2262860437174
 10
16.6188438005849
 20
49.2263232293371
 10
16.6188411510178
 20
49.226399238942
 10
16.6187922931191
 20
49.226443090894
 10
16.6186884166223
 20
49.2264710080343
 10
16.6186208105127
 20
49.2264808561571
 10
16.6185418620077
 20
49.2264923559804
 10
16.6184323929012
 20
49.2264666921728
 10
16.6182044846187
 20
49.2263250723288
 10
16.6181365939237
 20
49.2262805425701
 10
16.6180978961635
 20
49.2262071477541
 97
0
 75
0
 76
1
 98
0
  0
HATCH
  5
200BE
100
AcDbEntity
  8
skládky a antropogenní uloženiny
100
AcDbHatch
 10
0
 20
0
 30
0
210
0
220
0
230
1
  2
SOLID
 70
1
 71
0
 91
1
 92
2
 72
0
 73
1
 93
5
 10
16.6820511240757
 20
49.208977562623
 10
16.682187672429
 20
49.2087610652615
 10
16.6828751894276
 20
49.2088051896389
 10
16.6829108917306
 20
49.2090433818195
 10
16.6820511240757
 20
49.208977562623
 97
0
 75
0
 76
1
 98
0
  0
HATCH
  5
200BF
100
AcDbEntity
  8
skládky a antropogenní uloženiny
100
AcDbHatch
 10
0
 20
0
 30
0
210
0
220
0
230
1
  2
SOLID
 70
1
 71
0
 91
1
 92
2
 72
0
 73
1
 93
5
 10
16.6866476476416
 20
49.2093291190528
 10
16.6869226132087
 20
49.2089100057186
 10
16.6870918626777
 20
49.208937422231
 10
16.6868654163665
 20
49.2093512887003
 10
16.6866476476416
 20
49.2093291190528
 97
0
 75
0
 76
1
 98
0
  0
HATCH
  5
200C0
100
AcDbEntity
  8
skládky a antropogenní uloženiny
100
AcDbHatch
 10
0
 20
0
 30
0
210
0
220
0
230
1
  2
SOLID
 70
1
 71
0
 91
1
 92
2
 72
0
 73
1
 93
5
 10
16.7145833329448
 20
49.199142000104
 10
16.7146037526328
 20
49.1990580289689
 10
16.7153399868356
 20
49.1990454271426
 10
16.7154045020632
 20
49.1991764120718
 10
16.7145833329448
 20
49.199142000104
 97
0
 75
0
 76
1
 98
0
  0
HATCH
  5
200C1
100
AcDbEntity
  8
skládky a antropogenní uloženiny
100
AcDbHatch
 10
0
 20
0
 30
0
210
0
220
0
230
1
  2
SOLID
 70
1
 71
0
 91
1
 92
2
 72
0
 73
1
 93
10
 10
16.6986987253375
 20
49.2205401866265
 10
16.698924610077
 20
49.2205437070903
 10
16.6990698964137
 20
49.2206704003337
 10
16.6990133109633
 20
49.2207595094334
 10
16.6988813148639
 20
49.2208345014137
 10
16.6987460890343
 20
49.220829488326
 10
16.6986491242401
 20
49.2207959261323
 10
16.6985654415138
 20
49.2207145343883
 10
16.6985967513799
 20
49.2206080767061
 10
16.6986987253375
 20
49.2205401866265
 97
0
 75
0
 76
1
 98
0
  0
HATCH
  5
200C2
100
AcDbEntity
  8
skládky a antropogenní uloženiny
100
AcDbHatch
 10
0
 20
0
 30
0
210
0
220
0
230
1
  2
SOLID
 70
1
 71
0
 91
1
 92
2
 72
0
 73
1
 93
29
 10
16.665961630337
 20
49.2002987590994
 10
16.6655973314676
 20
49.2003631417922
 10
16.665423950981
 20
49.2003632266389
 10
16.6652505703475
 20
49.2003633121193
 10
16.6650498727257
 20
49.2002740142274
 10
16.6649501140402
 20
49.2001016024789
 10
16.6649972187408
 20
49.1998979134954
 10
16.6651936766353
 20
49.1997047313036
 10
16.6654712852445
 20
49.1994317497022
 10
16.6654832284899
 20
49.1992700233505
 10
16.6654693010938
 20
49.1991121125589
 10
16.6653910591433
 20
49.1988771055566
 10
16.6653128165699
 20
49.1986420983967
 10
16.6651809554934
 20
49.1985248212113
 10
16.665049093823
 20
49.1984075428832
 10
16.6651039432835
 20
49.1982403994009
 10
16.665324095772
 20
49.1982378863476
 10
16.6656404803989
 20
49.1983186440382
 10
16.6659568646928
 20
49.1983994007649
 10
16.6662656953229
 20
49.1986101270787
 10
16.6664270959578
 20
49.1988824826398
 10
16.6665118553336
 20
49.1991168255286
 10
16.666596615364
 20
49.1993511692408
 10
16.6666497366776
 20
49.1996759084605
 10
16.6667028588329
 20
49.2000006467449
 10
16.6666324661465
 20
49.2002553353425
 10
16.6664867993558
 20
49.2003626990797
 10
16.6662862747036
 20
49.2003710950826
 10
16.665961630337
 20
49.2002987590994
 97
0
 75
0
 76
1
 98
0
  0
HATCH
  5
200C3
100
AcDbEntity
  8
skládky a antropogenní uloženiny
100
AcDbHatch
 10
0
 20
0
 30
0
210
0
220
0
230
1
  2
SOLID
 70
1
 71
0
 91
1
 92
2
 72
0
 73
1
 93
20
 10
16.6974766792489
 20
49.2260132035951
 10
16.697514284741
 20
49.2258236059052
 10
16.6975857948543
 20
49.2255923645528
 10
16.6976202858751
 20
49.2255203332249
 10
16.6976519348674
 20
49.2254811904675
 10
16.6976859347225
 20
49.2254740591119
 10
16.6977212167066
 20
49.2254899055394
 10
16.6977610326166
 20
49.2255401156754
 10
16.6977817908929
 20
49.2256596268382
 10
16.6978106515149
 20
49.2258860430575
 10
16.6978013370475
 20
49.2260359381414
 10
16.6977879421259
 20
49.226087051656
 10
16.6977414319309
 20
49.2261243868966
 10
16.6976890911589
 20
49.2261422287368
 10
16.6976477882685
 20
49.2261409905787
 10
16.6975772304611
 20
49.2261383775503
 10
16.6975384008222
 20
49.2261234439004
 10
16.6975099611103
 20
49.2261065445741
 10
16.6974856163068
 20
49.2260667690494
 10
16.6974766792489
 20
49.2260132035951
 97
0
 75
0
 76
1
 98
0
  0
HATCH
  5
200C4
100
AcDbEntity
  8
skládky a antropogenní uloženiny
100
AcDbHatch
 10
0
 20
0
 30
0
210
0
220
0
230
1
  2
SOLID
 70
1
 71
0
 91
1
 92
2
 72
0
 73
1
 93
14
 10
16.6994418911398
 20
49.2284786422163
 10
16.6993528612944
 20
49.2283614118042
 10
16.6993931319726
 20
49.2282384992992
 10
16.6994966136086
 20
49.2281630259349
 10
16.6995978905553
 20
49.2281601904488
 10
16.6998522901301
 20
49.228211086226
 10
16.7002016321505
 20
49.228361271628
 10
16.7002897864508
 20
49.2284402346479
 10
16.7003652507006
 20
49.2285474247287
 10
16.7003355386082
 20
49.2286551947813
 10
16.7001513065572
 20
49.2287200070139
 10
16.6999431024807
 20
49.2287071326905
 10
16.6996515636983
 20
49.2285742277896
 10
16.6994418911398
 20
49.2284786422163
 97
0
 75
0
 76
1
 98
0
  0
HATCH
  5
200C5
100
AcDbEntity
  8
skládky a antropogenní uloženiny
100
AcDbHatch
 10
0
 20
0
 30
0
210
0
220
0
230
1
  2
SOLID
 70
1
 71
0
 91
1
 92
2
 72
0
 73
1
 93
33
 10
16.6918940964816
 20
49.2201304393244
 10
16.6922701971016
 20
49.2202475256938
 10
16.6925199567099
 20
49.2203741349441
 10
16.6926999972595
 20
49.2205233819309
 10
16.692960215359
 20
49.2207593984021
 10
16.6931448333338
 20
49.2210387227934
 10
16.6932550755961
 20
49.2212326306931
 10
16.6932922607234
 20
49.221357979397
 10
16.6932457901301
 20
49.2215043454725
 10
16.6931473844998
 20
49.2216440110348
 10
16.6930568157528
 20
49.2217299662175
 10
16.6929428473145
 20
49.2218181804628
 10
16.6925354785328
 20
49.2219750303886
 10
16.6921953307667
 20
49.2220643059255
 10
16.6919393343324
 20
49.222131799293
 10
16.6917346431321
 20
49.2221655203497
 10
16.6916173040365
 20
49.2221778968881
 10
16.6914946880129
 20
49.2221912012707
 10
16.6912985701497
 20
49.2221887328935
 10
16.6910195303275
 20
49.2221471789217
 10
16.6908961651107
 20
49.2221101326439
 10
16.6905111602463
 20
49.2218911884818
 10
16.689984007234
 20
49.2214111820237
 10
16.6898216642996
 20
49.221026811705
 10
16.6897813747594
 20
49.2206999102823
 10
16.6897844942762
 20
49.2203705342256
 10
16.6897546494594
 20
49.2201040754184
 10
16.6897590534098
 20
49.2198904345497
 10
16.6897609419659
 20
49.2198440768047
 10
16.6905017586638
 20
49.2199091240202
 10
16.691184126463
 20
49.2199845461319
 10
16.6916372954239
 20
49.2200750320923
 10
16.6918940964816
 20
49.2201304393244
 97
0
 75
0
 76
1
 98
0
  0
HATCH
  5
200C6
100
AcDbEntity
  8
skládky a antropogenní uloženiny
100
AcDbHatch
 10
0
 20
0
 30
0
210
0
220
0
230
1
  2
SOLID
 70
1
 71
0
 91
1
 92
2
 72
0
 73
1
 93
30
 10
16.6920367213311
 20
49.2227473232094
 10
16.6930057772828
 20
49.2220086474747
 10
16.6936252773863
 20
49.2215976116533
 10
16.6937990325299
 20
49.2215920095598
 10
16.6940354252821
 20
49.2216538160419
 10
16.6941581634979
 20
49.2217688478815
 10
16.6941068728428
 20
49.2219224479351
 10
16.6939052229753
 20
49.2221474865882
 10
16.6937872334946
 20
49.2222338218442
 10
16.6936946327932
 20
49.2223656574435
 10
16.693644205903
 20
49.2225087646823
 10
16.6935683015487
 20
49.2225850805681
 10
16.6934779869353
 20
49.2226224342436
 10
16.6934100053987
 20
49.222619741969
 10
16.6932969536164
 20
49.2225960164725
 10
16.6932035331987
 20
49.2225371989254
 10
16.6931580502328
 20
49.2225407920972
 10
16.6931681561033
 20
49.2225849034496
 10
16.693187351971
 20
49.2226877412673
 10
16.6931862536087
 20
49.2229235694215
 10
16.693180275494
 20
49.222966360226
 10
16.693134801015
 20
49.22301210105
 10
16.6930945820219
 20
49.223033694958
 10
16.6930310288383
 20
49.2230517600303
 10
16.6929107128191
 20
49.2230521904933
 10
16.6927888352656
 20
49.2230338955467
 10
16.6926783735661
 20
49.2230067262101
 10
16.6925471476088
 20
49.2229527635366
 10
16.6922537555439
 20
49.2228061639309
 10
16.6920367213311
 20
49.2227473232094
 97
0
 75
0
 76
1
 98
0
  0
HATCH
  5
200C7
100
AcDbEntity
  8
skládky a antropogenní uloženiny
100
AcDbHatch
 10
0
 20
0
 30
0
210
0
220
0
230
1
  2
SOLID
 70
1
 71
0
 91
1
 92
2
 72
0
 73
1
 93
14
 10
16.6969699545125
 20
49.220733286623
 10
16.6969917408369
 20
49.2206901560454
 10
16.6970690353536
 20
49.220644432421
 10
16.6971928584819
 20
49.2206295900001
 10
16.6973013170833
 20
49.2206489883018
 10
16.6973368104314
 20
49.2206881404012
 10
16.6978713111716
 20
49.2220120589381
 10
16.6978520902298
 20
49.2220583628068
 10
16.697780917202
 20
49.2220929921438
 10
16.6975899200246
 20
49.2221070823415
 10
16.6974923674922
 20
49.2220624845088
 10
16.6974308067768
 20
49.2219980907624
 10
16.6971797673209
 20
49.2212058338587
 10
16.6969699545125
 20
49.220733286623
 97
0
 75
0
 76
1
 98
0
  0
HATCH
  5
200C8
100
AcDbEntity
  8
skládky a antropogenní uloženiny
100
AcDbHatch
 10
0
 20
0
 30
0
210
0
220
0
230
1
  2
SOLID
 70
1
 71
0
 91
1
 92
2
 72
0
 73
1
 93
13
 10
16.6975967408547
 20
49.2211416423498
 10
16.6976793370575
 20
49.2211087013055
 10
16.6977351179565
 20
49.2211036960343
 10
16.6977873431746
 20
49.2211304051936
 10
16.6978152980753
 20
49.2211802696868
 10
16.697814395279
 20
49.2212215646174
 10
16.6977991425602
 20
49.2212668458689
 10
16.6977458526033
 20
49.2213043137699
 10
16.6976619950892
 20
49.2213151720464
 10
16.6976208430439
 20
49.2212939094477
 10
16.6975862943879
 20
49.2212382065812
 10
16.6975738766788
 20
49.2211858379518
 10
16.6975967408547
 20
49.2211416423498
 97
0
 75
0
 76
1
 98
0
  0
HATCH
  5
200C9
100
AcDbEntity
  8
skládky a antropogenní uloženiny
100
AcDbHatch
 10
0
 20
0
 30
0
210
0
220
0
230
1
  2
SOLID
 70
1
 71
0
 91
1
 92
2
 72
0
 73
1
 93
27
 10
16.6929282991272
 20
49.2264953155187
 10
16.6930301410119
 20
49.2262973097144
 10
16.693197407228
 20
49.2260707991412
 10
16.6932739887823
 20
49.2259710645247
 10
16.6933125179336
 20
49.2259394309135
 10
16.69335486556
 20
49.2259230115836
 10
16.6933997035222
 20
49.2259154985482
 10
16.6934552065854
 20
49.2259304849655
 10
16.6934888304009
 20
49.2259947005949
 10
16.6935835045801
 20
49.226125515494
 10
16.6937016956722
 20
49.2262450985581
 10
16.6938678004008
 20
49.2263725411612
 10
16.6939856649504
 20
49.2264363339903
 10
16.6942571925498
 20
49.2265201190801
 10
16.6942970787761
 20
49.2265973964531
 10
16.6942365256007
 20
49.2266741102255
 10
16.694145104252
 20
49.2266992930398
 10
16.6939933354023
 20
49.2266821843594
 10
16.6938375001545
 20
49.2266371236946
 10
16.6936824854327
 20
49.2266554461175
 10
16.6935871222751
 20
49.2267300735429
 10
16.6934867569524
 20
49.2267392248782
 10
16.6932030417304
 20
49.2266946157132
 10
16.6929848262505
 20
49.2266131824797
 10
16.6929474236867
 20
49.2265945044769
 10
16.6929177491383
 20
49.2265599036189
 10
16.6929282991272
 20
49.2264953155187
 97
0
 75
0
 76
1
 98
0
  0
HATCH
  5
200CA
100
AcDbEntity
  8
skládky a antropogenní uloženiny
100
AcDbHatch
 10
0
 20
0
 30
0
210
0
220
0
230
1
  2
SOLID
 70
1
 71
0
 91
1
 92
2
 72
0
 73
1
 93
31
 10
16.698074624209
 20
49.225622994548
 10
16.6981576216796
 20
49.2257256587822
 10
16.6983465962739
 20
49.226185840743
 10
16.6983319942266
 20
49.2262022673709
 10
16.6983297260313
 20
49.2262048189717
 10
16.6983201592926
 20
49.2262155813463
 10
16.6981976032148
 20
49.226243828884
 10
16.6981241172511
 20
49.226292592358
 10
16.6981376850819
 20
49.2263274963574
 10
16.6983031649582
 20
49.2264634425159
 10
16.6983728835188
 20
49.2265888107606
 10
16.6983662786004
 20
49.2266556167899
 10
16.6983053133614
 20
49.2266932668559
 10
16.6981619095285
 20
49.2267361652724
 10
16.6980612791952
 20
49.2267417721824
 10
16.6979189539367
 20
49.2267390060232
 10
16.6978219171754
 20
49.2267136325642
 10
16.6977100126872
 20
49.2266457132784
 10
16.6975983695932
 20
49.2265589305533
 10
16.6975211435483
 20
49.2264628650946
 10
16.6974518444612
 20
49.2263551229444
 10
16.6974563355038
 20
49.2262925523747
 10
16.6974923538544
 20
49.2262067032835
 10
16.6975240770686
 20
49.2261712031362
 10
16.697663655755
 20
49.2261872826501
 10
16.6977587362487
 20
49.2261706240104
 10
16.6978158588921
 20
49.2261428088834
 10
16.6978492453099
 20
49.2260147544014
 10
16.6978754091957
 20
49.2256440776508
 10
16.6979500459288
 20
49.2256046368017
 10
16.698074624209
 20
49.225622994548
 97
0
 75
0
 76
1
 98
0
  0
HATCH
  5
200CB
100
AcDbEntity
  8
skládky a antropogenní uloženiny
100
AcDbHatch
 10
0
 20
0
 30
0
210
0
220
0
230
1
  2
SOLID
 70
1
 71
0
 91
1
 92
2
 72
0
 73
1
 93
27
 10
16.6951827328541
 20
49.2266731068797
 10
16.6952124874882
 20
49.2265527676844
 10
16.6953503637191
 20
49.2265127947351
 10
16.6959718540317
 20
49.2265430900349
 10
16.6961627435888
 20
49.2264569028924
 10
16.6962663073295
 20
49.2263388453781
 10
16.6963644263204
 20
49.2263367097442
 10
16.6966431052766
 20
49.2263882702875
 10
16.6968204376541
 20
49.2263832413196
 10
16.697026732019
 20
49.2263324185605
 10
16.6971993821738
 20
49.226265100313
 10
16.6972945343178
 20
49.2262552199453
 10
16.6973738531567
 20
49.2263104050242
 10
16.6976188811657
 20
49.2266352747449
 10
16.6981931929748
 20
49.2269236446438
 10
16.6987926406574
 20
49.2271509042304
 10
16.6990384468735
 20
49.2272705219333
 10
16.6990955477251
 20
49.2273744577876
 10
16.6990695968174
 20
49.2274349922512
 10
16.6990333091595
 20
49.2274988401545
 10
16.6988345600292
 20
49.2276369120171
 10
16.698668368167
 20
49.2276792865279
 10
16.6985095456338
 20
49.2276472428178
 10
16.6971872248073
 20
49.227209322211
 10
16.6960540215835
 20
49.2269061883237
 10
16.6955485809565
 20
49.2268046122697
 10
16.6951827328541
 20
49.2266731068797
 97
0
 75
0
 76
1
 98
0
  0
HATCH
  5
200CC
100
AcDbEntity
  8
skládky a antropogenní uloženiny
100
AcDbHatch
 10
0
 20
0
 30
0
210
0
220
0
230
1
  2
SOLID
 70
1
 71
0
 91
1
 92
2
 72
0
 73
1
 93
22
 10
16.7014484272077
 20
49.2275804284586
 10
16.7017121856196
 20
49.2277027614288
 10
16.7019410133201
 20
49.2278465742294
 10
16.7022144895529
 20
49.2280339429145
 10
16.7024841962658
 20
49.2282586553154
 10
16.7025653020602
 20
49.2283417372053
 10
16.7025293887216
 20
49.2284736407833
 10
16.702420338333
 20
49.2285862519845
 10
16.7022906462759
 20
49.2286435261401
 10
16.7020864890254
 20
49.2286738712669
 10
16.701833823797
 20
49.2286802213975
 10
16.7016473115429
 20
49.2286100758993
 10
16.7015143379062
 20
49.2284367893089
 10
16.7013410327932
 20
49.2281341759265
 10
16.7011401304085
 20
49.2278663164294
 10
16.700968427091
 20
49.2277581036469
 10
16.7007956281706
 20
49.2276534612078
 10
16.7008619518179
 20
49.2275625754598
 10
16.7010268839367
 20
49.2275328542123
 10
16.7011537323312
 20
49.227515094485
 10
16.7013304263232
 20
49.2275233269428
 10
16.7014484272077
 20
49.2275804284586
 97
0
 75
0
 76
1
 98
0
  0
HATCH
  5
200CD
100
AcDbEntity
  8
skládky a antropogenní uloženiny
100
AcDbHatch
 10
0
 20
0
 30
0
210
0
220
0
230
1
  2
SOLID
 70
1
 71
0
 91
1
 92
2
 72
0
 73
1
 93
23
 10
16.7025990054945
 20
49.2286649523875
 10
16.7031474388713
 20
49.2280963811168
 10
16.7034226706658
 20
49.2277684078624
 10
16.7037121395855
 20
49.2274503040586
 10
16.7038072190864
 20
49.2274072462964
 10
16.7039224044817
 20
49.2274227794977
 10
16.7039655434865
 20
49.2274454426185
 10
16.7039733557785
 20
49.2275030269563
 10
16.703951721721
 20
49.2275376762999
 10
16.7038178240981
 20
49.2276654824654
 10
16.7037086067411
 20
49.2278218616513
 10
16.703631273623
 20
49.2280575530597
 10
16.7036024787643
 20
49.2282340682344
 10
16.7036280336989
 20
49.2283871873554
 10
16.7036943844249
 20
49.2285383333981
 10
16.7037012902415
 20
49.2285602745901
 10
16.7036896508123
 20
49.2286075256602
 10
16.7036472868933
 20
49.2286397749397
 10
16.7035965349386
 20
49.2286593974108
 10
16.7035169381028
 20
49.2286606731524
 10
16.7032764040252
 20
49.2286356751244
 10
16.7028705767494
 20
49.2286394775481
 10
16.7025990054945
 20
49.2286649523875
 97
0
 75
0
 76
1
 98
0
  0
HATCH
  5
200CE
100
AcDbEntity
  8
skládky a antropogenní uloženiny
100
AcDbHatch
 10
0
 20
0
 30
0
210
0
220
0
230
1
  2
SOLID
 70
1
 71
0
 91
1
 92
2
 72
0
 73
1
 93
11
 10
16.7041914178931
 20
49.2263204389906
 10
16.7042647333291
 20
49.2262918637645
 10
16.7043894490937
 20
49.2262904843518
 10
16.7044486340827
 20
49.2263104707758
 10
16.7044806759786
 20
49.2263336252636
 10
16.704485538835
 20
49.2263755927291
 10
16.7044477987258
 20
49.2264141507715
 10
16.7044013517682
 20
49.2264418006563
 10
16.704346675527
 20
49.2264447362143
 10
16.7042764808045
 20
49.2263852172241
 10
16.7041914178931
 20
49.2263204389906
 97
0
 75
0
 76
1
 98
0
  0
HATCH
  5
200CF
100
AcDbEntity
  8
skládky a antropogenní uloženiny
100
AcDbHatch
 10
0
 20
0
 30
0
210
0
220
0
230
1
  2
SOLID
 70
1
 71
0
 91
1
 92
2
 72
0
 73
1
 93
14
 10
16.7010559354934
 20
49.2158405623203
 10
16.7011465129161
 20
49.2157090723235
 10
16.7012908497552
 20
49.2156917113938
 10
16.7017805842715
 20
49.2158701932295
 10
16.702305487181
 20
49.2160580014234
 10
16.7026082382367
 20
49.2162830220659
 10
16.7026178004127
 20
49.2165318650559
 10
16.7024745641004
 20
49.2167564905008
 10
16.7021943483855
 20
49.2166750763919
 10
16.7019979512479
 20
49.2165617641244
 10
16.7019598940263
 20
49.2163773904403
 10
16.7018930169035
 20
49.2162612881364
 10
16.7014301646781
 20
49.2160585245658
 10
16.7010559354934
 20
49.2158405623203
 97
0
 75
0
 76
1
 98
0
  0
HATCH
  5
200D0
100
AcDbEntity
  8
skládky a antropogenní uloženiny
100
AcDbHatch
 10
0
 20
0
 30
0
210
0
220
0
230
1
  2
SOLID
 70
1
 71
0
 91
1
 92
2
 72
0
 73
1
 93
29
 10
16.7041229423151
 20
49.226962655013
 10
16.7041431080212
 20
49.226945318376
 10
16.704155677358
 20
49.2269387096418
 10
16.7041692801463
 20
49.2269338327337
 10
16.7041833917452
 20
49.2269308734183
 10
16.7041974728049
 20
49.226929946797
 10
16.7042109792081
 20
49.2269310871487
 10
16.7042233945443
 20
49.2269342520113
 10
16.7042342403954
 20
49.2269393183787
 10
16.704243100817
 20
49.2269460934581
 10
16.704249633406
 20
49.2269543145393
 10
16.7042535883738
 20
49.2269636675124
 10
16.7042548144979
 20
49.2269737927105
 10
16.7042532636141
 20
49.2269842996936
 10
16.7042421735519
 20
49.227004848798
 10
16.7042220078563
 20
49.2270221854521
 10
16.704209438653
 20
49.2270287932992
 10
16.7041958356967
 20
49.2270336711062
 10
16.7041817240693
 20
49.2270366304231
 10
16.704167642979
 20
49.2270375570425
 10
16.7041541351825
 20
49.2270364165901
 10
16.7041417211903
 20
49.2270332518157
 10
16.704130875474
 20
49.2270281845455
 10
16.7041220149073
 20
49.2270214103518
 10
16.7041154824765
 20
49.2270131883693
 10
16.7041115275307
 20
49.2270038353915
 10
16.7041103012893
 20
49.2269937110861
 10
16.7041118523496
 20
49.2269832032108
 10
16.7041229423151
 20
49.226962655013
 97
0
 75
0
 76
1
 98
0
  0
HATCH
  5
200D1
100
AcDbEntity
  8
skládky a antropogenní uloženiny
100
AcDbHatch
 10
0
 20
0
 30
0
210
0
220
0
230
1
  2
SOLID
 70
1
 71
0
 91
1
 92
2
 72
0
 73
1
 93
33
 10
16.7045025125858
 20
49.2267670483583
 10
16.7044810864599
 20
49.226756244218
 10
16.7044637878271
 20
49.22674221357
 10
16.7044512829217
 20
49.2267254941022
 10
16.7044440521625
 20
49.2267067298787
 10
16.704442371757
 20
49.2266866402081
 10
16.7044463088652
 20
49.226665998504
 10
16.7044557093951
 20
49.2266455970657
 10
16.7044702146661
 20
49.2266262211122
 10
16.7044892657333
 20
49.2266086138147
 10
16.7045121320464
 20
49.2265934529803
 10
16.7045379315722
 20
49.2265813208062
 10
16.7045656755442
 20
49.2265726834984
 10
16.7045942977562
 20
49.2265678725205
 10
16.704622697706
 20
49.2265670740471
 10
16.7046497838855
 20
49.2265703175229
 10
16.704674516102
 20
49.2265774786234
 10
16.7046959421927
 20
49.2265882827281
 10
16.7047132394723
 20
49.2266023132462
 10
16.7047257458003
 20
49.2266190327816
 10
16.7047329766534
 20
49.2266377969877
 10
16.7047346558099
 20
49.2266578865588
 10
16.7047307201877
 20
49.2266785283681
 10
16.7047213183995
 20
49.2266989297332
 10
16.7047068132055
 20
49.2267183057181
 10
16.7046877621734
 20
49.2267359130511
 10
16.7046648972136
 20
49.2267510740155
 10
16.7046390962652
 20
49.226763206122
 10
16.7046113521992
 20
49.2267718434471
 10
16.704582729871
 20
49.2267766544291
 10
16.7045543298004
 20
49.2267774528927
 10
16.7045272435139
 20
49.2267742093946
 10
16.7045025125858
 20
49.2267670483583
 97
0
 75
0
 76
1
 98
0
  0
HATCH
  5
200D2
100
AcDbEntity
  8
skládky a antropogenní uloženiny
100
AcDbHatch
 10
0
 20
0
 30
0
210
0
220
0
230
1
  2
SOLID
 70
1
 71
0
 91
1
 92
2
 72
0
 73
1
 93
24
 10
16.7000524074477
 20
49.2264534683233
 10
16.7002845947053
 20
49.2265770561622
 10
16.7006019081314
 20
49.2267794288231
 10
16.700787435623
 20
49.2269245834154
 10
16.7010691354386
 20
49.2271338526484
 10
16.7011912561695
 20
49.2273353946316
 10
16.7012177447696
 20
49.2274207485692
 10
16.7011329780204
 20
49.2275236749435
 10
16.7008509977184
 20
49.2275630052057
 10
16.7005848390055
 20
49.2275258234498
 10
16.700378593899
 20
49.2274666307683
 10
16.7001611288513
 20
49.2273743090997
 10
16.6999044016727
 20
49.227249756709
 10
16.6997468874679
 20
49.2271616526615
 10
16.699663927171
 20
49.2270884833832
 10
16.6995560492874
 20
49.2269819390538
 10
16.6995111215758
 20
49.2269140449491
 10
16.6994616303858
 20
49.226789599945
 10
16.6994733440223
 20
49.2266559320569
 10
16.6995068994685
 20
49.2265959995811
 10
16.6995589097937
 20
49.2265031040555
 10
16.6996753556095
 20
49.2264417730215
 10
16.6998503868193
 20
49.2264093294732
 10
16.7000524074477
 20
49.2264534683233
 97
0
 75
0
 76
1
 98
0
  0
HATCH
  5
200D3
100
AcDbEntity
  8
skládky a antropogenní uloženiny
100
AcDbHatch
 10
0
 20
0
 30
0
210
0
220
0
230
1
  2
SOLID
 70
1
 71
0
 91
1
 92
2
 72
0
 73
1
 93
22
 10
16.7038137016888
 20
49.2264569994443
 10
16.7038151451455
 20
49.2264121821701
 10
16.7038418080863
 20
49.226384421541
 10
16.7038959745455
 20
49.2263549407444
 10
16.7039645233106
 20
49.2263399965475
 10
16.7040404210364
 20
49.2263324324964
 10
16.7041157946095
 20
49.2263445723143
 10
16.7041875436761
 20
49.2263581758785
 10
16.7042603101271
 20
49.2263933601144
 10
16.7043465276147
 20
49.2264645722614
 10
16.7043962232216
 20
49.2265455574003
 10
16.7044306318001
 20
49.2266357194453
 10
16.7044202226582
 20
49.2266796254235
 10
16.704390455836
 20
49.226726323558
 10
16.7043392544274
 20
49.2267559623062
 10
16.7042761517387
 20
49.226785286544
 10
16.7041996838125
 20
49.2267965540872
 10
16.7041532188692
 20
49.2267935137541
 10
16.7041140990522
 20
49.2267727525147
 10
16.7040692921014
 20
49.2266997738322
 10
16.7039555150701
 20
49.2265670414705
 10
16.7038137016888
 20
49.2264569994443
 97
0
 75
0
 76
1
 98
0
  0
HATCH
  5
200D4
100
AcDbEntity
  8
skládky a antropogenní uloženiny
100
AcDbHatch
 10
0
 20
0
 30
0
210
0
220
0
230
1
  2
SOLID
 70
1
 71
0
 91
1
 92
2
 72
0
 73
1
 93
12
 10
16.7034125772945
 20
49.2257248767587
 10
16.7034733115214
 20
49.225703947184
 10
16.7035755711925
 20
49.2256956525405
 10
16.7036782084144
 20
49.2257011180026
 10
16.7037713222231
 20
49.225724800251
 10
16.7038634968875
 20
49.2257870514146
 10
16.7039302950989
 20
49.2258749699879
 10
16.7037538913246
 20
49.2259012260945
 10
16.7034831132215
 20
49.225918329609
 10
16.7034111562028
 20
49.2258457369557
 10
16.703395937058
 20
49.2257850612616
 10
16.7034125772945
 20
49.2257248767587
 97
0
 75
0
 76
1
 98
0
  0
HATCH
  5
200D5
100
AcDbEntity
  8
skládky a antropogenní uloženiny
100
AcDbHatch
 10
0
 20
0
 30
0
210
0
220
0
230
1
  2
SOLID
 70
1
 71
0
 91
1
 92
2
 72
0
 73
1
 93
13
 10
16.6955427930987
 20
49.2156118806999
 10
16.6956663244139
 20
49.2156336450873
 10
16.6956929692503
 20
49.2157748852584
 10
16.6956738071245
 20
49.2159008726224
 10
16.6956167543933
 20
49.2160256244251
 10
16.6954343350409
 20
49.2163467795157
 10
16.6953537662327
 20
49.2162681313028
 10
16.695322545549
 20
49.2162380482842
 10
16.6953058448884
 20
49.2162205694907
 10
16.6954538793255
 20
49.2159889586964
 10
16.6955051452449
 20
49.2158467439651
 10
16.6955230163694
 20
49.2157313731396
 10
16.6955427930987
 20
49.2156118806999
 97
0
 75
0
 76
1
 98
0
  0
HATCH
  5
200D6
100
AcDbEntity
  8
skládky a antropogenní uloženiny
100
AcDbHatch
 10
0
 20
0
 30
0
210
0
220
0
230
1
  2
SOLID
 70
1
 71
0
 91
1
 92
2
 72
0
 73
1
 93
8
 10
16.6953759109934
 20
49.2163692480778
 10
16.6952345132484
 20
49.2163284416448
 10
16.6949387171657
 20
49.2161231481983
 10
16.6950268905156
 20
49.2160512478119
 10
16.6951837976418
 20
49.2161334820972
 10
16.6953046187484
 20
49.2162200549091
 10
16.6954355751131
 20
49.2163474117371
 10
16.6953759109934
 20
49.2163692480778
 97
0
 75
0
 76
1
 98
0
  0
HATCH
  5
200D7
100
AcDbEntity
  8
skládky a antropogenní uloženiny
100
AcDbHatch
 10
0
 20
0
 30
0
210
0
220
0
230
1
  2
SOLID
 70
1
 71
0
 91
1
 92
2
 72
0
 73
1
 93
8
 10
16.6991516038421
 20
49.2160013127589
 10
16.6991062443725
 20
49.215842939642
 10
16.6994245165437
 20
49.2158451336359
 10
16.6998184415721
 20
49.2159147819534
 10
16.7000691810132
 20
49.2160294227754
 10
16.700011428765
 20
49.2161467698978
 10
16.6994905638658
 20
49.2160291545452
 10
16.6991516038421
 20
49.2160013127589
 97
0
 75
0
 76
1
 98
0
  0
HATCH
  5
200D8
100
AcDbEntity
  8
skládky a antropogenní uloženiny
100
AcDbHatch
 10
0
 20
0
 30
0
210
0
220
0
230
1
  2
SOLID
 70
1
 71
0
 91
1
 92
2
 72
0
 73
1
 93
13
 10
16.7017479383866
 20
49.2148173272807
 10
16.7017760621697
 20
49.2148055631821
 10
16.7021554234023
 20
49.2150284923071
 10
16.702543500532
 20
49.2153056051449
 10
16.702786669988
 20
49.2155119036079
 10
16.7026648471076
 20
49.2155818823833
 10
16.7026067102885
 20
49.2155928943
 10
16.7024339863071
 20
49.2155903170279
 10
16.7022915712652
 20
49.2155489038398
 10
16.7020807205075
 20
49.2153796470284
 10
16.7019621606197
 20
49.2152752151836
 10
16.7018764946715
 20
49.2151215881008
 10
16.7017479383866
 20
49.2148173272807
 97
0
 75
0
 76
1
 98
0
  0
HATCH
  5
200D9
100
AcDbEntity
  8
skládky a antropogenní uloženiny
100
AcDbHatch
 10
0
 20
0
 30
0
210
0
220
0
230
1
  2
SOLID
 70
1
 71
0
 91
1
 92
2
 72
0
 73
1
 93
27
 10
16.6805375370989
 20
49.214436022609
 10
16.6802538558558
 20
49.2142478748261
 10
16.6802992085026
 20
49.2142224557271
 10
16.6809971443321
 20
49.2143996150646
 10
16.6812041929724
 20
49.2144727859729
 10
16.6813958018602
 20
49.2145174260711
 10
16.6815880906371
 20
49.2145395324668
 10
16.681867289607
 20
49.2145566011923
 10
16.6823594719996
 20
49.2145097792986
 10
16.6826894803697
 20
49.2144282733019
 10
16.6830659343196
 20
49.2143467742406
 10
16.6832267058973
 20
49.2144324821237
 10
16.6833432963651
 20
49.2145848640009
 10
16.6833477104698
 20
49.2146684453101
 10
16.6832545573907
 20
49.2147429593379
 10
16.68292958622
 20
49.2148280844684
 10
16.6826014358702
 20
49.2149995466319
 10
16.6821431645384
 20
49.2153534582814
 10
16.6818836232908
 20
49.215402574912
 10
16.6817352094695
 20
49.2154127596649
 10
16.6815838348577
 20
49.2154090031146
 10
16.6813948929887
 20
49.2153785753132
 10
16.6811676440172
 20
49.2152939583652
 10
16.6810355138495
 20
49.2151404832709
 10
16.6810228704245
 20
49.2149614278948
 10
16.6808898082465
 20
49.2147744333026
 10
16.6805375370989
 20
49.214436022609
 97
0
 75
0
 76
1
 98
0
  0
HATCH
  5
200DA
100
AcDbEntity
  8
skládky a antropogenní uloženiny
100
AcDbHatch
 10
0
 20
0
 30
0
210
0
220
0
230
1
  2
SOLID
 70
1
 71
0
 91
1
 92
2
 72
0
 73
1
 93
12
 10
16.6876066358413
 20
49.2072893780794
 10
16.687909906155
 20
49.2073896164102
 10
16.6875733403288
 20
49.2076470602855
 10
16.6873618200737
 20
49.2080821483561
 10
16.687239752517
 20
49.2081936717486
 10
16.6871723478944
 20
49.2082442864008
 10
16.6869610732223
 20
49.2082314500623
 10
16.6868403690447
 20
49.2081626329235
 10
16.686803313982
 20
49.2080363929025
 10
16.6870072500176
 20
49.2077551012584
 10
16.6873106265929
 20
49.2075295503625
 10
16.6876066358413
 20
49.2072893780794
 97
0
 75
0
 76
1
 98
0
  0
HATCH
  5
200DB
100
AcDbEntity
  8
skládky a antropogenní uloženiny
100
AcDbHatch
 10
0
 20
0
 30
0
210
0
220
0
230
1
  2
SOLID
 70
1
 71
0
 91
1
 92
2
 72
0
 73
1
 93
16
 10
16.690955729952
 20
49.2003228269459
 10
16.6905735138794
 20
49.200265232092
 10
16.6904568357655
 20
49.2000677852919
 10
16.6904333706606
 20
49.1997677629171
 10
16.6903925084791
 20
49.1989271638929
 10
16.6922165604307
 20
49.1989864000138
 10
16.694245198044
 20
49.1990898410746
 10
16.6939724494005
 20
49.2001051578574
 10
16.6937921423653
 20
49.2007953337096
 10
16.693718799865
 20
49.2013628615009
 10
16.6933604858418
 20
49.2016072549011
 10
16.6929250541606
 20
49.2016000651104
 10
16.6925290476967
 20
49.2013476451987
 10
16.6920898434508
 20
49.2009963116861
 10
16.6917526109082
 20
49.2004579984595
 10
16.690955729952
 20
49.2003228269459
 97
0
 75
0
 76
1
 98
0
  0
HATCH
  5
200DC
100
AcDbEntity
  8
skládky a antropogenní uloženiny
100
AcDbHatch
 10
0
 20
0
 30
0
210
0
220
0
230
1
  2
SOLID
 70
1
 71
0
 91
1
 92
2
 72
0
 73
1
 93
13
 10
16.6972230328379
 20
49.1989356073721
 10
16.6977908730707
 20
49.1992122910894
 10
16.6984376893877
 20
49.1994224053134
 10
16.7000337625691
 20
49.1997230409572
 10
16.7011280390233
 20
49.1994733875018
 10
16.7006725945811
 20
49.1998490321691
 10
16.7004143216529
 20
49.2000617117849
 10
16.7002309523146
 20
49.2001522807906
 10
16.6996129843456
 20
49.2000334635531
 10
16.6982853049102
 20
49.1997047510462
 10
16.6975321341081
 20
49.1994173273056
 10
16.6971476224586
 20
49.1991665600879
 10
16.6972230328379
 20
49.1989356073721
 97
0
 75
0
 76
1
 98
0
  0
HATCH
  5
200DD
100
AcDbEntity
  8
skládky a antropogenní uloženiny
100
AcDbHatch
 10
0
 20
0
 30
0
210
0
220
0
230
1
  2
SOLID
 70
1
 71
0
 91
1
 92
2
 72
0
 73
1
 93
7
 10
16.7010944374582
 20
49.1994899357659
 10
16.7012722228261
 20
49.1993281129848
 10
16.7023768054798
 20
49.1980612893086
 10
16.7029366343968
 20
49.1982322608082
 10
16.701708977335
 20
49.1995885917633
 10
16.7013975826174
 20
49.199609127904
 10
16.7010944374582
 20
49.1994899357659
 97
0
 75
0
 76
1
 98
0
  0
HATCH
  5
200DE
100
AcDbEntity
  8
skládky a antropogenní uloženiny
100
AcDbHatch
 10
0
 20
0
 30
0
210
0
220
0
230
1
  2
SOLID
 70
1
 71
0
 91
1
 92
2
 72
0
 73
1
 93
10
 10
16.6985734427108
 20
49.1994431490253
 10
16.6998674929545
 20
49.1970974715807
 10
16.7003977572356
 20
49.1972664681518
 10
16.7018653816945
 20
49.1979046475654
 10
16.7023768054798
 20
49.1980612893086
 10
16.701521571429
 20
49.1991057342592
 10
16.7010944374582
 20
49.1994899357659
 10
16.7000130426154
 20
49.1997215896755
 10
16.6995085744308
 20
49.1996196104219
 10
16.6985734427108
 20
49.1994431490253
 97
0
 75
0
 76
1
 98
0
  0
HATCH
  5
200DF
100
AcDbEntity
  8
skládky a antropogenní uloženiny
100
AcDbHatch
 10
0
 20
0
 30
0
210
0
220
0
230
1
  2
SOLID
 70
1
 71
0
 91
1
 92
2
 72
0
 73
1
 93
7
 10
16.7151355092405
 20
49.1981771057678
 10
16.7150993190733
 20
49.1980959252053
 10
16.7157618593539
 20
49.1977480312511
 10
16.7165276510082
 20
49.1976539123047
 10
16.7165359087501
 20
49.197740224533
 10
16.715836339833
 20
49.1979208573889
 10
16.7151355092405
 20
49.1981771057678
 97
0
 75
0
 76
1
 98
0
  0
HATCH
  5
200E0
100
AcDbEntity
  8
skládky a antropogenní uloženiny
100
AcDbHatch
 10
0
 20
0
 30
0
210
0
220
0
230
1
  2
SOLID
 70
1
 71
0
 91
1
 92
2
 72
0
 73
1
 93
18
 10
16.7048648833021
 20
49.224732714475
 10
16.7049686015879
 20
49.2246833231649
 10
16.7051467233694
 20
49.2246683185249
 10
16.7052485558259
 20
49.2246943261418
 10
16.7053756697707
 20
49.2247586072101
 10
16.7054485553556
 20
49.224825580471
 10
16.7055133294325
 20
49.2249269861687
 10
16.7055104079852
 20
49.2250620735183
 10
16.7054593832597
 20
49.2251573287692
 10
16.705390157171
 20
49.2252161913053
 10
16.7052505009298
 20
49.2252609480578
 10
16.705137938594
 20
49.2252650894234
 10
16.7050349259121
 20
49.2252325112736
 10
16.7049176628566
 20
49.22517243076
 10
16.7048567181332
 20
49.2250720350751
 10
16.7047944448606
 20
49.2248560457404
 10
16.7048052822972
 20
49.2247847881351
 10
16.7048648833021
 20
49.224732714475
 97
0
 75
0
 76
1
 98
0
  0
HATCH
  5
200E1
100
AcDbEntity
  8
skládky a antropogenní uloženiny
100
AcDbHatch
 10
0
 20
0
 30
0
210
0
220
0
230
1
  2
SOLID
 70
1
 71
0
 91
1
 92
2
 72
0
 73
1
 93
28
 10
16.6636478635097
 20
49.1995222516516
 10
16.6633593248564
 20
49.1993646102638
 10
16.6629840666052
 20
49.1990327626805
 10
16.6629031145827
 20
49.1989672338374
 10
16.6628792432105
 20
49.1989050786185
 10
16.6629344463491
 20
49.1986960882658
 10
16.6628840060274
 20
49.1985242982128
 10
16.6628091745795
 20
49.1984156626252
 10
16.6626839121446
 20
49.1983385445019
 10
16.6624403317226
 20
49.1981943644125
 10
16.6621499268553
 20
49.1981121247415
 10
16.661869087856
 20
49.1980740505662
 10
16.6617538306113
 20
49.197987458797
 10
16.6617023305152
 20
49.1979020819781
 10
16.6617273628757
 20
49.1977493375396
 10
16.6617501700258
 20
49.1976101702374
 10
16.6618287051636
 20
49.1974337238823
 10
16.6619130702779
 20
49.1973194892234
 10
16.6620532116823
 20
49.1972469489455
 10
16.6622266588517
 20
49.1972282551611
 10
16.6627988045036
 20
49.1972856868189
 10
16.6635301958813
 20
49.1974264247033
 10
16.6641735710877
 20
49.1974648271659
 10
16.6647274024864
 20
49.1975381281095
 10
16.6651388691174
 20
49.1975925854323
 10
16.6644771311306
 20
49.1980424066638
 10
16.663907112802
 20
49.1987713962246
 10
16.6636478635097
 20
49.1995222516516
 97
0
 75
0
 76
1
 98
0
  0
HATCH
  5
200E2
100
AcDbEntity
  8
skládky a antropogenní uloženiny
100
AcDbHatch
 10
0
 20
0
 30
0
210
0
220
0
230
1
  2
SOLID
 70
1
 71
0
 91
1
 92
2
 72
0
 73
1
 93
11
 10
16.650658775348
 20
49.2116916263262
 10
16.6506952493987
 20
49.2116251421696
 10
16.6509012056278
 20
49.2117416831667
 10
16.6512409753965
 20
49.2119057101849
 10
16.651454043327
 20
49.2119368347135
 10
16.6514052767697
 20
49.2120018958948
 10
16.6512643470998
 20
49.2119883041574
 10
16.6509729410048
 20
49.2118667203849
 10
16.6507583146306
 20
49.2117961383385
 10
16.6506402981732
 20
49.211727361305
 10
16.650658775348
 20
49.2116916263262
 97
0
 75
0
 76
1
 98
0
  0
HATCH
  5
200E3
100
AcDbEntity
  8
skládky a antropogenní uloženiny
100
AcDbHatch
 10
0
 20
0
 30
0
210
0
220
0
230
1
  2
SOLID
 70
1
 71
0
 91
1
 92
2
 72
0
 73
1
 93
6
 10
16.6508787759619
 20
49.213301510562
 10
16.6515448912935
 20
49.2131425886696
 10
16.6517512028586
 20
49.2130911502911
 10
16.65184365036
 20
49.2132313543284
 10
16.6510018081941
 20
49.2134077278915
 10
16.6508787759619
 20
49.213301510562
 97
0
 75
0
 76
1
 98
0
  0
HATCH
  5
200E4
100
AcDbEntity
  8
skládky a antropogenní uloženiny
100
AcDbHatch
 10
0
 20
0
 30
0
210
0
220
0
230
1
  2
SOLID
 70
1
 71
0
 91
1
 92
2
 72
0
 73
1
 93
33
 10
16.6588227262712
 20
49.2255448352329
 10
16.6587489413616
 20
49.2253523360886
 10
16.6585848165353
 20
49.2251179356675
 10
16.6585390278445
 20
49.2247320497547
 10
16.6587149319749
 20
49.2245149745728
 10
16.6585642000845
 20
49.2240592077506
 10
16.6585718133855
 20
49.2239446097252
 10
16.6587698992557
 20
49.2234942155
 10
16.6590153056979
 20
49.2235230612311
 10
16.6589726992175
 20
49.2239326632773
 10
16.6589233454891
 20
49.2240416107909
 10
16.658967294141
 20
49.224171865979
 10
16.6592566298348
 20
49.2239484821417
 10
16.6592772088797
 20
49.2237472479013
 10
16.6594107987424
 20
49.2236736214675
 10
16.6595370281529
 20
49.2236751775893
 10
16.6597240166525
 20
49.2234788691835
 10
16.6599220973131
 20
49.2232081831264
 10
16.6600769916614
 20
49.2230728356351
 10
16.6602246932805
 20
49.2233147609916
 10
16.6600273486703
 20
49.2236003318669
 10
16.659960441061
 20
49.2237094012103
 10
16.6597565011179
 20
49.2238701490308
 10
16.6597734095529
 20
49.2239497525674
 10
16.6596432923572
 20
49.2240426167504
 10
16.659369002291
 20
49.2241902742263
 10
16.6592416733489
 20
49.2243595775121
 10
16.6591153445523
 20
49.224569921678
 10
16.6590102981764
 20
49.2248096197266
 10
16.6590725129085
 20
49.2252258740299
 10
16.6591598576922
 20
49.225552911011
 10
16.6590690900163
 20
49.2255708533171
 10
16.6588227262712
 20
49.2255448352329
 97
0
 75
0
 76
1
 98
0
  0
HATCH
  5
200E5
100
AcDbEntity
  8
skládky a antropogenní uloženiny
100
AcDbHatch
 10
0
 20
0
 30
0
210
0
220
0
230
1
  2
SOLID
 70
1
 71
0
 91
1
 92
2
 72
0
 73
1
 93
9
 10
16.6597231616578
 20
49.2254651120973
 10
16.6597518641378
 20
49.2251789811122
 10
16.6598322773723
 20
49.2248562414535
 10
16.6598601937047
 20
49.2248704153799
 10
16.6599741729277
 20
49.2248742743939
 10
16.6600745207906
 20
49.2248997849031
 10
16.6600550105856
 20
49.2255391786368
 10
16.6599072092266
 20
49.2255511390557
 10
16.6597231616578
 20
49.2254651120973
 97
0
 75
0
 76
1
 98
0
  0
HATCH
  5
200E6
100
AcDbEntity
  8
skládky a antropogenní uloženiny
100
AcDbHatch
 10
0
 20
0
 30
0
210
0
220
0
230
1
  2
SOLID
 70
1
 71
0
 91
1
 92
2
 72
0
 73
1
 93
19
 10
16.666631927109
 20
49.2179069093727
 10
16.6667149180086
 20
49.2177541255232
 10
16.6667987623422
 20
49.217950363639
 10
16.6669069847604
 20
49.2180942702205
 10
16.6673962038234
 20
49.2183599143484
 10
16.6677058717524
 20
49.2185329661864
 10
16.6679858315334
 20
49.2186962374997
 10
16.6680389760497
 20
49.2187703135146
 10
16.6680035059991
 20
49.2188523596302
 10
16.6679077622133
 20
49.2189250406641
 10
16.6678121419205
 20
49.2189360010991
 10
16.6676846650945
 20
49.2189106046362
 10
16.6674726876767
 20
49.2188236802645
 10
16.6672367922963
 20
49.2186713269207
 10
16.6670008985133
 20
49.2185189721972
 10
16.6667152703734
 20
49.2183183405724
 10
16.6665880185984
 20
49.2182012947625
 10
16.6665525238989
 20
49.2180759988894
 10
16.666631927109
 20
49.2179069093727
 97
0
 75
0
 76
1
 98
0
  0
HATCH
  5
200E7
100
AcDbEntity
  8
skládky a antropogenní uloženiny
100
AcDbHatch
 10
0
 20
0
 30
0
210
0
220
0
230
1
  2
SOLID
 70
1
 71
0
 91
1
 92
2
 72
0
 73
1
 93
27
 10
16.6669397300096
 20
49.2170100115761
 10
16.667039526829
 20
49.2169728308964
 10
16.6671781551514
 20
49.2168915440023
 10
16.6673785098426
 20
49.2165861025086
 10
16.6674909731182
 20
49.216390731155
 10
16.6676242404729
 20
49.2163239835567
 10
16.6677735481846
 20
49.2162902840282
 10
16.6679276823214
 20
49.2162876150425
 10
16.6680473566991
 20
49.2163119883875
 10
16.6683076458107
 20
49.2164162239591
 10
16.6686529710114
 20
49.2165927925605
 10
16.6689690268829
 20
49.2166263140102
 10
16.6689916348183
 20
49.2166720386616
 10
16.6685243316215
 20
49.2167097352722
 10
16.6677238317944
 20
49.2170287952119
 10
16.6669233216579
 20
49.2173478495831
 10
16.6666605633536
 20
49.2175721215281
 10
16.6663896722406
 20
49.2178940411783
 10
16.6663396249023
 20
49.217917202645
 10
16.6662621148114
 20
49.2177921341692
 10
16.6662451294835
 20
49.2176805943279
 10
16.6662496597866
 20
49.217498675879
 10
16.6662879095516
 20
49.2172934681552
 10
16.6663159672667
 20
49.2172328162379
 10
16.6664586215472
 20
49.2171554263114
 10
16.6666923620139
 20
49.2170785563941
 10
16.6669397300096
 20
49.2170100115761
 97
0
 75
0
 76
1
 98
0
  0
HATCH
  5
200E8
100
AcDbEntity
  8
skládky a antropogenní uloženiny
100
AcDbHatch
 10
0
 20
0
 30
0
210
0
220
0
230
1
  2
SOLID
 70
1
 71
0
 91
1
 92
2
 72
0
 73
1
 93
33
 10
16.6642347067917
 20
49.2129633119178
 10
16.6644080877193
 20
49.2131977173302
 10
16.6640874195632
 20
49.2132379584128
 10
16.66376248272
 20
49.2132855072933
 10
16.6635295118414
 20
49.2133398075935
 10
16.6633997568682
 20
49.2133750873814
 10
16.6631659004281
 20
49.2134230434826
 10
16.6629731408507
 20
49.2134594863536
 10
16.66280509727
 20
49.2134790482802
 10
16.6627478285754
 20
49.2136229490134
 10
16.6627012467334
 20
49.2136856823572
 10
16.6626589925377
 20
49.2137220052333
 10
16.6626041359587
 20
49.2137443174008
 10
16.6625410828214
 20
49.2137504768982
 10
16.662483701846
 20
49.2137379004827
 10
16.6624318016435
 20
49.2137086404013
 10
16.6623981173372
 20
49.2136741789063
 10
16.6623709706641
 20
49.2135998354424
 10
16.6623168012643
 20
49.2134503938605
 10
16.6621760402261
 20
49.2134245592763
 10
16.6620175552114
 20
49.2133761167876
 10
16.6619212961164
 20
49.2133306782932
 10
16.6616896590909
 20
49.2131966696371
 10
16.6614946200914
 20
49.2130690766157
 10
16.6617251650535
 20
49.2128781868987
 10
16.6619228032826
 20
49.2130018897905
 10
16.6621829842281
 20
49.2130973083553
 10
16.6623820694036
 20
49.2131451991617
 10
16.6626189931598
 20
49.2131697240476
 10
16.6629784187652
 20
49.2131432692021
 10
16.6634318341226
 20
49.2130861246801
 10
16.6637879101168
 20
49.2130331383549
 10
16.6642347067917
 20
49.2129633119178
 97
0
 75
0
 76
1
 98
0
  0
HATCH
  5
200E9
100
AcDbEntity
  8
skládky a antropogenní uloženiny
100
AcDbHatch
 10
0
 20
0
 30
0
210
0
220
0
230
1
  2
SOLID
 70
1
 71
0
 91
1
 92
2
 72
0
 73
1
 93
37
 10
16.6593360009729
 20
49.215671311681
 10
16.6589994201204
 20
49.2154883510581
 10
16.6586593252274
 20
49.2153249706676
 10
16.6585444213431
 20
49.2151690460993
 10
16.6585316793607
 20
49.2150263391412
 10
16.6585484299072
 20
49.2148556411183
 10
16.6586183812988
 20
49.2147133875925
 10
16.6587587028469
 20
49.2146323967483
 10
16.6589815274806
 20
49.214567957084
 10
16.6595060224551
 20
49.2145473623182
 10
16.6596847325189
 20
49.2144175269282
 10
16.6598064880481
 20
49.2142935894075
 10
16.6599377058858
 20
49.2139998546301
 10
16.659957872394
 20
49.2136794329379
 10
16.6604523437955
 20
49.2136219826047
 10
16.6610437891043
 20
49.2141870895753
 10
16.6613521677672
 20
49.2145664017067
 10
16.6614672120232
 20
49.2148412423138
 10
16.6614264999074
 20
49.2150710415471
 10
16.6614002198858
 20
49.2151547060291
 10
16.6612955429343
 20
49.2154290825387
 10
16.6611831628467
 20
49.2155795288121
 10
16.661070782223
 20
49.2157299740783
 10
16.6606636075412
 20
49.2160824099089
 10
16.6604077345064
 20
49.216545660248
 10
16.6601270772621
 20
49.2173237495081
 10
16.6595850526452
 20
49.2178098141728
 10
16.6589254452396
 20
49.2181065877511
 10
16.6579869126947
 20
49.2182548125729
 10
16.6571933952669
 20
49.2181467907617
 10
16.6581294278215
 20
49.2178243795056
 10
16.6589430737461
 20
49.2175229593361
 10
16.6594482459203
 20
49.2171852920446
 10
16.659750926718
 20
49.2166951950697
 10
16.6598461377036
 20
49.2160880669311
 10
16.6596629696263
 20
49.2159084908013
 10
16.6593360009729
 20
49.215671311681
 97
0
 75
0
 76
1
 98
0
  0
HATCH
  5
200EA
100
AcDbEntity
  8
skládky a antropogenní uloženiny
100
AcDbHatch
 10
0
 20
0
 30
0
210
0
220
0
230
1
  2
SOLID
 70
1
 71
0
 91
1
 92
2
 72
0
 73
1
 93
27
 10
16.6549355386955
 20
49.2172103819656
 10
16.6546554867614
 20
49.2173021303363
 10
16.6544258341945
 20
49.217360759478
 10
16.6544474092249
 20
49.2171792210709
 10
16.6544504581493
 20
49.2168085269345
 10
16.6543356163251
 20
49.2162968051809
 10
16.6543376266471
 20
49.2161289026575
 10
16.655095137895
 20
49.2160226671779
 10
16.6552249472438
 20
49.2155571783665
 10
16.6549457654411
 20
49.2154540362417
 10
16.6540939519973
 20
49.2151402278754
 10
16.653889649542
 20
49.215060461995
 10
16.6539087706487
 20
49.2149439415841
 10
16.6540474723797
 20
49.214785699753
 10
16.654280275688
 20
49.2147266971013
 10
16.6548928805025
 20
49.2147563602978
 10
16.656371707519
 20
49.2157410451358
 10
16.6564172182368
 20
49.2157751210962
 10
16.6563579106321
 20
49.2160764631139
 10
16.6563431430489
 20
49.2162350250826
 10
16.6563133669304
 20
49.2163838976118
 10
16.656246924514
 20
49.2165950980929
 10
16.6560555937619
 20
49.2167083153791
 10
16.6558001079514
 20
49.2168376519924
 10
16.6554242770335
 20
49.2170291737208
 10
16.655175288528
 20
49.2171322867402
 10
16.6549355386955
 20
49.2172103819656
 97
0
 75
0
 76
1
 98
0
  0
HATCH
  5
200EB
100
AcDbEntity
  8
skládky a antropogenní uloženiny
100
AcDbHatch
 10
0
 20
0
 30
0
210
0
220
0
230
1
  2
SOLID
 70
1
 71
0
 91
1
 92
2
 72
0
 73
1
 93
13
 10
16.6544521103624
 20
49.2249125511651
 10
16.6543427691987
 20
49.2248610782226
 10
16.6545431363003
 20
49.224661241488
 10
16.6547830413634
 20
49.2244784103604
 10
16.655221807812
 20
49.2241914599519
 10
16.6552954073411
 20
49.2241512062669
 10
16.6553577891574
 20
49.2241263820195
 10
16.6555293578799
 20
49.2241623218455
 10
16.6555328871188
 20
49.2243051649541
 10
16.6554105267442
 20
49.2243863548718
 10
16.6551069606825
 20
49.2245000302338
 10
16.6547942294037
 20
49.2246695342686
 10
16.6544521103624
 20
49.2249125511651
 97
0
 75
0
 76
1
 98
0
  0
HATCH
  5
200EC
100
AcDbEntity
  8
skládky a antropogenní uloženiny
100
AcDbHatch
 10
0
 20
0
 30
0
210
0
220
0
230
1
  2
SOLID
 70
1
 71
0
 91
1
 92
2
 72
0
 73
1
 93
14
 10
16.6614268132794
 20
49.2243824459044
 10
16.6614115899305
 20
49.2241909003691
 10
16.6614384607698
 20
49.2240236631353
 10
16.6616193384697
 20
49.2238558565964
 10
16.6618744650261
 20
49.2237554211904
 10
16.6622148636909
 20
49.2237307813798
 10
16.6625434176461
 20
49.2237783912371
 10
16.6628520249786
 20
49.2238994671603
 10
16.6630340206991
 20
49.2240123039118
 10
16.662455638317
 20
49.2243284051541
 10
16.6621116809714
 20
49.2245993389487
 10
16.6617173822512
 20
49.224541621844
 10
16.6615501175706
 20
49.2244850415772
 10
16.6614268132794
 20
49.2243824459044
 97
0
 75
0
 76
1
 98
0
  0
HATCH
  5
200ED
100
AcDbEntity
  8
skládky a antropogenní uloženiny
100
AcDbHatch
 10
0
 20
0
 30
0
210
0
220
0
230
1
  2
SOLID
 70
1
 71
0
 91
1
 92
2
 72
0
 73
1
 93
11
 10
16.6448893586223
 20
49.2144317404643
 10
16.6449216457902
 20
49.2142820153789
 10
16.6451416379126
 20
49.2142173463939
 10
16.6455065958163
 20
49.2141820714605
 10
16.6456614867666
 20
49.2142493833912
 10
16.6458152452721
 20
49.2144610101433
 10
16.6456437095667
 20
49.2145273780704
 10
16.645354462367
 20
49.2145875273389
 10
16.6451652414916
 20
49.2146067380657
 10
16.6449797715003
 20
49.2145615413226
 10
16.6448893586223
 20
49.2144317404643
 97
0
 75
0
 76
1
 98
0
  0
HATCH
  5
200EE
100
AcDbEntity
  8
skládky a antropogenní uloženiny
100
AcDbHatch
 10
0
 20
0
 30
0
210
0
220
0
230
1
  2
SOLID
 70
1
 71
0
 91
1
 92
2
 72
0
 73
1
 93
6
 10
16.6386124949705
 20
49.2095914962823
 10
16.6390134528911
 20
49.2093765364369
 10
16.6404012343171
 20
49.2107011658667
 10
16.640207685921
 20
49.2107090641008
 10
16.6398058360868
 20
49.210629674011
 10
16.6386124949705
 20
49.2095914962823
 97
0
 75
0
 76
1
 98
0
  0
HATCH
  5
200EF
100
AcDbEntity
  8
skládky a antropogenní uloženiny
100
AcDbHatch
 10
0
 20
0
 30
0
210
0
220
0
230
1
  2
SOLID
 70
1
 71
0
 91
1
 92
2
 72
0
 73
1
 93
25
 10
16.6642233505687
 20
49.2202908868362
 10
16.6642258804332
 20
49.2202613843348
 10
16.6642970912544
 20
49.2198916360559
 10
16.6643635319416
 20
49.2197937471591
 10
16.6646212975842
 20
49.2196691568961
 10
16.664663561496
 20
49.2196551711702
 10
16.6647221774986
 20
49.2196374514935
 10
16.6647955275504
 20
49.2196129302174
 10
16.6648304707694
 20
49.2196055664128
 10
16.665192539124
 20
49.2195362215403
 10
16.6656706218635
 20
49.2194446574161
 10
16.665574785449
 20
49.2197299288118
 10
16.6655362047377
 20
49.2199283807802
 10
16.6654995323068
 20
49.2200081785397
 10
16.665468743202
 20
49.2201058027976
 10
16.6653854181474
 20
49.2203564373289
 10
16.6651509131734
 20
49.2206579689543
 10
16.6649842148986
 20
49.2207403699707
 10
16.664792812689
 20
49.2207970031005
 10
16.6642802447703
 20
49.220851128333
 10
16.6642480057692
 20
49.2207184434474
 10
16.664215527611
 20
49.2205434147669
 10
16.6642163335174
 20
49.2203852853119
 10
16.6642216036172
 20
49.2203201784974
 10
16.6642233505687
 20
49.2202908868362
 97
0
 75
0
 76
1
 98
0
  0
HATCH
  5
200F0
100
AcDbEntity
  8
skládky a antropogenní uloženiny
100
AcDbHatch
 10
0
 20
0
 30
0
210
0
220
0
230
1
  2
SOLID
 70
1
 71
0
 91
1
 92
2
 72
0
 73
1
 93
37
 10
16.6653854181474
 20
49.2203564373289
 10
16.665468743202
 20
49.2201058027976
 10
16.6654995323068
 20
49.2200081785397
 10
16.6655362047377
 20
49.2199283807802
 10
16.665574785449
 20
49.2197299288118
 10
16.6656706218635
 20
49.2194446574161
 10
16.6659277049956
 20
49.2193824948366
 10
16.6663348079741
 20
49.2193397602105
 10
16.6668698973916
 20
49.2193765941947
 10
16.6670767304823
 20
49.2194094770521
 10
16.6672539634683
 20
49.2195856909608
 10
16.6675018712562
 20
49.2199577258873
 10
16.6679208259588
 20
49.2205037911716
 10
16.6676877769175
 20
49.2212312606792
 10
16.667482049342
 20
49.2215242556066
 10
16.6674108769007
 20
49.2216487650216
 10
16.6658527469474
 20
49.2215619411168
 10
16.6655705138307
 20
49.2217287047837
 10
16.665865813794
 20
49.2221226821128
 10
16.6657810172191
 20
49.2224113637161
 10
16.6655927688454
 20
49.2224688651444
 10
16.6654169013563
 20
49.2224294120342
 10
16.6648885655551
 20
49.2223044152258
 10
16.6646664716366
 20
49.2220985065964
 10
16.6644850401463
 20
49.2216044963487
 10
16.6643897677215
 20
49.2213118843596
 10
16.664331291954
 20
49.2211308400488
 10
16.6643262566047
 20
49.2210581566115
 10
16.6643160838005
 20
49.2210145001629
 10
16.6643058175381
 20
49.2209662164481
 10
16.664303372629
 20
49.2209552628957
 10
16.6642950505948
 20
49.2209177021648
 10
16.6642802447703
 20
49.220851128333
 10
16.664792812689
 20
49.2207970031005
 10
16.6649842148986
 20
49.2207403699707
 10
16.6651509131734
 20
49.2206579689543
 10
16.6653854181474
 20
49.2203564373289
 97
0
 75
0
 76
1
 98
0
  0
HATCH
  5
200F1
100
AcDbEntity
  8
skládky a antropogenní uloženiny
100
AcDbHatch
 10
0
 20
0
 30
0
210
0
220
0
230
1
  2
SOLID
 70
1
 71
0
 91
1
 92
2
 72
0
 73
1
 93
16
 10
16.6648885655551
 20
49.2223044152258
 10
16.6640580098288
 20
49.2221514768553
 10
16.6637875769073
 20
49.2216270234552
 10
16.6637574898706
 20
49.2211367001882
 10
16.663868923413
 20
49.2210616921545
 10
16.6637888623954
 20
49.2209360446395
 10
16.6639582601934
 20
49.2207491662219
 10
16.6642480057692
 20
49.2207184434474
 10
16.6642802447703
 20
49.220851128333
 10
16.6643058175381
 20
49.2209662164481
 10
16.6643160970027
 20
49.2210145291285
 10
16.6643262566047
 20
49.2210581566115
 10
16.6643554147482
 20
49.2211894228009
 10
16.6644850401463
 20
49.2216044963487
 10
16.6646664716366
 20
49.2220985065964
 10
16.6648885655551
 20
49.2223044152258
 97
0
 75
0
 76
1
 98
0
  0
HATCH
  5
200F2
100
AcDbEntity
  8
skládky a antropogenní uloženiny
100
AcDbHatch
 10
0
 20
0
 30
0
210
0
220
0
230
1
  2
SOLID
 70
1
 71
0
 91
1
 92
2
 72
0
 73
1
 93
26
 10
16.6672574388256
 20
49.2177359066832
 10
16.6671134086567
 20
49.2177300929438
 10
16.6670191407615
 20
49.2177092334266
 10
16.6668801222727
 20
49.2176712226036
 10
16.6667722180278
 20
49.2176364076265
 10
16.6670260590817
 20
49.2173983039838
 10
16.6678042033837
 20
49.2170902027586
 10
16.6685823380084
 20
49.216782096272
 10
16.6691085978969
 20
49.2167207778419
 10
16.6695381970726
 20
49.2165432289658
 10
16.6704442236387
 20
49.21618201216
 10
16.6709179660573
 20
49.2160400295836
 10
16.6716208156344
 20
49.215739954506
 10
16.6717408250893
 20
49.2160336365354
 10
16.6717932964327
 20
49.2161637867075
 10
16.6718389996888
 20
49.2162738056612
 10
16.6719164972148
 20
49.2164635306172
 10
16.6716116117299
 20
49.2165796885277
 10
16.6715164781055
 20
49.2166159325535
 10
16.6711164550242
 20
49.216768333898
 10
16.6709666859916
 20
49.2168267210948
 10
16.6699701422181
 20
49.216945578282
 10
16.668948515233
 20
49.2172175219064
 10
16.6676244212372
 20
49.2177039078193
 10
16.6674317162309
 20
49.2177331510524
 10
16.6672574388256
 20
49.2177359066832
 97
0
 75
0
 76
1
 98
0
  0
HATCH
  5
200F3
100
AcDbEntity
  8
skládky a antropogenní uloženiny
100
AcDbHatch
 10
0
 20
0
 30
0
210
0
220
0
230
1
  2
SOLID
 70
1
 71
0
 91
1
 92
2
 72
0
 73
1
 93
50
 10
16.6702821485244
 20
49.2174966339809
 10
16.670613067835
 20
49.2173885643544
 10
16.6709248322133
 20
49.2173944777725
 10
16.6709433730655
 20
49.2172619690275
 10
16.670959764109
 20
49.2171810995694
 10
16.6709864415589
 20
49.2169961042594
 10
16.6709557616097
 20
49.2169225176844
 10
16.6709666859916
 20
49.2168267210948
 10
16.6711164550242
 20
49.216768333898
 10
16.6716116117299
 20
49.2165796885277
 10
16.6719164972148
 20
49.2164635306172
 10
16.6717408250893
 20
49.2160336365354
 10
16.6716208156344
 20
49.215739954506
 10
16.6724272412484
 20
49.2154480576623
 10
16.6731141023203
 20
49.2153635935024
 10
16.6735309550164
 20
49.2154024659774
 10
16.6732013879409
 20
49.2156613270163
 10
16.6729934034753
 20
49.2158632906804
 10
16.6731050098569
 20
49.2160877074707
 10
16.6734895537862
 20
49.2167705547149
 10
16.6740831470614
 20
49.2174211765417
 10
16.6744617682638
 20
49.2176085037043
 10
16.6753459098397
 20
49.2180696879896
 10
16.67517913271
 20
49.2182642222563
 10
16.6748492669859
 20
49.218264328952
 10
16.6746825386214
 20
49.2185043406893
 10
16.6748138183929
 20
49.2185724890977
 10
16.6747456474064
 20
49.2188856594606
 10
16.6734674485111
 20
49.2193409012634
 10
16.6722346752627
 20
49.220006331059
 10
16.6706156556396
 20
49.2205526127826
 10
16.6702973249973
 20
49.22065267629
 10
16.6691906067951
 20
49.2212174555375
 10
16.6687311190923
 20
49.2214105051123
 10
16.6684491909756
 20
49.2215012848337
 10
16.6680619843406
 20
49.2215846637928
 10
16.6674108769007
 20
49.2216487650216
 10
16.667482049342
 20
49.2215242556066
 10
16.6676701371139
 20
49.221260710281
 10
16.6678043029033
 20
49.2208675264902
 10
16.6679208259588
 20
49.2205037911716
 10
16.6670829245697
 20
49.2194116580447
 10
16.6674770410804
 20
49.21913557101
 10
16.6678948930313
 20
49.2189335681728
 10
16.6682966210292
 20
49.2187626278942
 10
16.6687312897524
 20
49.2183891876398
 10
16.669285666313
 20
49.2180099878309
 10
16.669683699747
 20
49.2178077443474
 10
16.6700697651657
 20
49.2176232533772
 10
16.6702821485244
 20
49.2174966339809
 97
0
 75
0
 76
1
 98
0
  0
HATCH
  5
200F4
100
AcDbEntity
  8
skládky a antropogenní uloženiny
100
AcDbHatch
 10
0
 20
0
 30
0
210
0
220
0
230
1
  2
SOLID
 70
1
 71
0
 91
1
 92
2
 72
0
 73
1
 93
21
 10
16.6542938926286
 20
49.2212090879675
 10
16.6539409046251
 20
49.2208482566066
 10
16.6543250566559
 20
49.2206551553742
 10
16.6547223488247
 20
49.2204978225001
 10
16.6548649145321
 20
49.2204469016077
 10
16.6551577536472
 20
49.2203969521544
 10
16.6552801603258
 20
49.2203834713652
 10
16.6558624788504
 20
49.22044411154
 10
16.6564771095438
 20
49.2205342647757
 10
16.6574556076627
 20
49.220574923262
 10
16.6575177333121
 20
49.2206023707566
 10
16.6575257988232
 20
49.2206705781026
 10
16.6574701527634
 20
49.2207438898607
 10
16.6572383250669
 20
49.2208212360699
 10
16.6566302717289
 20
49.2208136798758
 10
16.655409822
 20
49.2206939193612
 10
16.6550916299533
 20
49.2207556953736
 10
16.6547691196593
 20
49.2209128592675
 10
16.6544936981792
 20
49.2211074324544
 10
16.6543244767272
 20
49.2212271106839
 10
16.6542938926286
 20
49.2212090879675
 97
0
 75
0
 76
1
 98
0
  0
HATCH
  5
200F5
100
AcDbEntity
  8
skládky a antropogenní uloženiny
100
AcDbHatch
 10
0
 20
0
 30
0
210
0
220
0
230
1
  2
SOLID
 70
1
 71
0
 91
1
 92
2
 72
0
 73
1
 93
17
 10
16.5541186790734
 20
49.2426898706303
 10
16.5541763913059
 20
49.2426548907611
 10
16.5542949955007
 20
49.2426698578811
 10
16.5544136011326
 20
49.2426848249765
 10
16.5545052682496
 20
49.2427369647978
 10
16.5545969354111
 20
49.2427891054399
 10
16.5546371653014
 20
49.2428592984381
 10
16.5546387120457
 20
49.2429332506114
 10
16.5545902466296
 20
49.2430166711772
 10
16.5545296813063
 20
49.2430688227561
 10
16.5544152675258
 20
49.2430910759886
 10
16.5542781373923
 20
49.2430834763547
 10
16.5541391632664
 20
49.2430453392476
 10
16.5540681617199
 20
49.2429729532661
 10
16.5540397658539
 20
49.2428731974012
 10
16.554053473619
 20
49.242769926281
 10
16.5541186790734
 20
49.2426898706303
 97
0
 75
0
 76
1
 98
0
  0
HATCH
  5
200F6
100
AcDbEntity
  8
skládky a antropogenní uloženiny
100
AcDbHatch
 10
0
 20
0
 30
0
210
0
220
0
230
1
  2
SOLID
 70
1
 71
0
 91
1
 92
2
 72
0
 73
1
 93
22
 10
16.5674937306359
 20
49.2418238639996
 10
16.5673654917242
 20
49.2418544500171
 10
16.5672219857027
 20
49.241890869473
 10
16.567143843647
 20
49.2418064789404
 10
16.567100040785
 20
49.2417317705455
 10
16.567076120285
 20
49.2416570158675
 10
16.5670851475957
 20
49.2415557241479
 10
16.5671323057306
 20
49.2414435545655
 10
16.5671977495561
 20
49.2413462758197
 10
16.5672744009893
 20
49.2412752790577
 10
16.5673713447571
 20
49.241222715115
 10
16.5674860745167
 20
49.2412036951278
 10
16.5676008520539
 20
49.241206572005
 10
16.5677116375857
 20
49.2412673115314
 10
16.5678533047519
 20
49.2413449810926
 10
16.5679550103553
 20
49.2414255749486
 10
16.5680275679889
 20
49.2415253066576
 10
16.5681260977009
 20
49.2416633389897
 10
16.5679676002866
 20
49.2417243366264
 10
16.5677947849582
 20
49.2417588073624
 10
16.5676219693892
 20
49.2417932778395
 10
16.5674937306359
 20
49.2418238639996
 97
0
 75
0
 76
1
 98
0
  0
HATCH
  5
200F7
100
AcDbEntity
  8
skládky a antropogenní uloženiny
100
AcDbHatch
 10
0
 20
0
 30
0
210
0
220
0
230
1
  2
SOLID
 70
1
 71
0
 91
1
 92
2
 72
0
 73
1
 93
10
 10
16.598732316332
 20
49.2644931184408
 10
16.5989143193733
 20
49.2633926750316
 10
16.600263188741
 20
49.2634882171447
 10
16.6002371930164
 20
49.2636454238052
 10
16.5993317837771
 20
49.2635812943084
 10
16.6002730340989
 20
49.2643330903963
 10
16.6000872099081
 20
49.2644385633907
 10
16.5991089294079
 20
49.2636377102392
 10
16.5989214557404
 20
49.2645835716098
 10
16.598732316332
 20
49.2644931184408
 97
0
 75
0
 76
1
 98
0
  0
HATCH
  5
200F8
100
AcDbEntity
  8
skládky a antropogenní uloženiny
100
AcDbHatch
 10
0
 20
0
 30
0
210
0
220
0
230
1
  2
SOLID
 70
1
 71
0
 91
1
 92
2
 72
0
 73
1
 93
8
 10
16.5644617933994
 20
49.1792759821763
 10
16.5645127963958
 20
49.1782546458179
 10
16.5648990426272
 20
49.1781999636175
 10
16.5648622681652
 20
49.1789805980665
 10
16.5648255481535
 20
49.1794646325321
 10
16.5647840656714
 20
49.1795084421434
 10
16.5645990886423
 20
49.1797529156786
 10
16.5644617933994
 20
49.1792759821763
 97
0
 75
0
 76
1
 98
0
  0
HATCH
  5
200F9
100
AcDbEntity
  8
skládky a antropogenní uloženiny
100
AcDbHatch
 10
0
 20
0
 30
0
210
0
220
0
230
1
  2
SOLID
 70
1
 71
0
 91
1
 92
2
 72
0
 73
1
 93
11
 10
16.5636670055972
 20
49.1803886635673
 10
16.5636405914831
 20
49.1802758344809
 10
16.5636126796789
 20
49.1801761648798
 10
16.5636137943624
 20
49.18012209752
 10
16.5636230337722
 20
49.18003808942
 10
16.5636455468563
 20
49.1798881805091
 10
16.5637441053884
 20
49.1797764360606
 10
16.5638844956538
 20
49.1800431543068
 10
16.5640234596465
 20
49.1804419281718
 10
16.563897542223
 20
49.1804329530796
 10
16.5636670055972
 20
49.1803886635673
 97
0
 75
0
 76
1
 98
0
  0
HATCH
  5
200FA
100
AcDbEntity
  8
skládky a antropogenní uloženiny
100
AcDbHatch
 10
0
 20
0
 30
0
210
0
220
0
230
1
  2
SOLID
 70
1
 71
0
 91
1
 92
2
 72
0
 73
1
 93
14
 10
16.5658064983645
 20
49.1830294543428
 10
16.5658077322727
 20
49.1829217194045
 10
16.5658450555245
 20
49.1828047963909
 10
16.565697008236
 20
49.1827564385499
 10
16.5656060760909
 20
49.1825225551114
 10
16.5654384075155
 20
49.1823403721245
 10
16.5653413803037
 20
49.1822081782974
 10
16.5651905628172
 20
49.1819564139875
 10
16.5650650293831
 20
49.1816961389682
 10
16.5664683527505
 20
49.1819732310004
 10
16.566259677262
 20
49.1824104608573
 10
16.5662228648908
 20
49.183099459989
 10
16.5659324969033
 20
49.1830406017543
 10
16.5658064983645
 20
49.1830294543428
 97
0
 75
0
 76
1
 98
0
  0
HATCH
  5
200FB
100
AcDbEntity
  8
skládky a antropogenní uloženiny
100
AcDbHatch
 10
0
 20
0
 30
0
210
0
220
0
230
1
  2
SOLID
 70
1
 71
0
 91
1
 92
2
 72
0
 73
1
 93
18
 10
16.5569459884957
 20
49.1771413305963
 10
16.5570753504463
 20
49.1771075909566
 10
16.5576501281047
 20
49.1769680362272
 10
16.5584610166593
 20
49.1767375841279
 10
16.5587163449377
 20
49.1766705831021
 10
16.5589649518868
 20
49.1766715324935
 10
16.5592072438336
 20
49.1766729138773
 10
16.5592068562738
 20
49.176746146834
 10
16.5591931099763
 20
49.1767541642738
 10
16.5590276762405
 20
49.1767646446055
 10
16.5585698003278
 20
49.1767791186101
 10
16.5582648105921
 20
49.1768764707328
 10
16.5581377995715
 20
49.1769093978218
 10
16.5579210409947
 20
49.1769633439903
 10
16.5576398648427
 20
49.1770392569672
 10
16.5572513729267
 20
49.1771513537527
 10
16.55707569681
 20
49.1772069370254
 10
16.5569459884957
 20
49.1771413305963
 97
0
 75
0
 76
1
 98
0
  0
HATCH
  5
200FC
100
AcDbEntity
  8
skládky a antropogenní uloženiny
100
AcDbHatch
 10
0
 20
0
 30
0
210
0
220
0
230
1
  2
SOLID
 70
1
 71
0
 91
1
 92
2
 72
0
 73
1
 93
27
 10
16.6470526112408
 20
49.2316968024029
 10
16.6473685341987
 20
49.2317413567579
 10
16.6476033185306
 20
49.2318237423831
 10
16.6471278299761
 20
49.2324133105493
 10
16.6469988048816
 20
49.2324391309091
 10
16.6466103433282
 20
49.2328776375195
 10
16.6465618123909
 20
49.2328939347108
 10
16.6465325448494
 20
49.2329569018502
 10
16.6465338520711
 20
49.2329775248157
 10
16.6463220447365
 20
49.2331915144093
 10
16.6461971621875
 20
49.2332311925977
 10
16.6460761705196
 20
49.2332295404475
 10
16.6459950320848
 20
49.2332022065926
 10
16.6456815378161
 20
49.2329499337657
 10
16.6456824245957
 20
49.2328134252153
 10
16.6457007414317
 20
49.2326464894474
 10
16.6457514626328
 20
49.2326084594215
 10
16.6457817384344
 20
49.2324964973916
 10
16.6458042424905
 20
49.2323931677835
 10
16.6457949559433
 20
49.2323547075938
 10
16.6457886288147
 20
49.2323411020537
 10
16.6459671910552
 20
49.232157963808
 10
16.6460629727846
 20
49.2320440607286
 10
16.6463857601767
 20
49.2319556508109
 10
16.6465441005484
 20
49.2318661439048
 10
16.6467608549209
 20
49.2317842350016
 10
16.6470526112408
 20
49.2316968024029
 97
0
 75
0
 76
1
 98
0
  0
HATCH
  5
200FD
100
AcDbEntity
  8
skládky a antropogenní uloženiny
100
AcDbHatch
 10
0
 20
0
 30
0
210
0
220
0
230
1
  2
SOLID
 70
1
 71
0
 91
1
 92
2
 72
0
 73
1
 93
34
 10
16.6315186138872
 20
49.232260652041
 10
16.6314466213692
 20
49.231897583374
 10
16.6319662691578
 20
49.2315858693765
 10
16.6321862572675
 20
49.2314047689482
 10
16.6324199657746
 20
49.2312082659835
 10
16.6327542370403
 20
49.2309629654949
 10
16.6328353031937
 20
49.2308421536539
 10
16.6330014327127
 20
49.2306056056655
 10
16.6333415117874
 20
49.2303526641967
 10
16.6335076912935
 20
49.2303046087499
 10
16.6340433085513
 20
49.2301314924011
 10
16.6348826193359
 20
49.2298567996304
 10
16.6350791947639
 20
49.2298648833388
 10
16.6353720144787
 20
49.2298403239774
 10
16.6355876112556
 20
49.2298645821823
 10
16.6356991968988
 20
49.2300282940704
 10
16.6359870125301
 20
49.2305554604618
 10
16.6358040209554
 20
49.230792178614
 10
16.6355392959106
 20
49.2312234665533
 10
16.6355147293927
 20
49.2315490561649
 10
16.6355636530866
 20
49.2316605005198
 10
16.6352344734
 20
49.2317506914892
 10
16.6352038160911
 20
49.2315173650669
 10
16.6351731589237
 20
49.2312840395215
 10
16.6356503126723
 20
49.2305363676933
 10
16.6353978774234
 20
49.2301379681783
 10
16.6350701361114
 20
49.2301237548093
 10
16.6335678485705
 20
49.2305976506113
 10
16.6332606561612
 20
49.2307985758601
 10
16.6330745105394
 20
49.2311301205017
 10
16.6322179461155
 20
49.2317374825855
 10
16.6318824108079
 20
49.2320290672862
 10
16.6317766615734
 20
49.2322135406117
 10
16.6315186138872
 20
49.232260652041
 97
0
 75
0
 76
1
 98
0
  0
HATCH
  5
200FE
100
AcDbEntity
  8
skládky a antropogenní uloženiny
100
AcDbHatch
 10
0
 20
0
 30
0
210
0
220
0
230
1
  2
SOLID
 70
1
 71
0
 91
1
 92
2
 72
0
 73
1
 93
9
 10
16.6362592909812
 20
49.2326797940676
 10
16.6364979820155
 20
49.2330645218959
 10
16.634371737492
 20
49.2341083949972
 10
16.6315346648103
 20
49.2361052059887
 10
16.6310189494625
 20
49.2359698970953
 10
16.6338794606518
 20
49.2339013134911
 10
16.6317834009342
 20
49.234643801416
 10
16.6314811538176
 20
49.2342778958932
 10
16.6362592909812
 20
49.2326797940676
 97
0
 75
0
 76
1
 98
0
  0
HATCH
  5
200FF
100
AcDbEntity
  8
skládky a antropogenní uloženiny
100
AcDbHatch
 10
0
 20
0
 30
0
210
0
220
0
230
1
  2
SOLID
 70
1
 71
0
 91
1
 92
2
 72
0
 73
1
 93
14
 10
16.6342621695775
 20
49.2341078442682
 10
16.6348713992245
 20
49.2338707813325
 10
16.63442649671
 20
49.235059602377
 10
16.633689031007
 20
49.2358887872612
 10
16.6333392936554
 20
49.2362820104369
 10
16.6332183162146
 20
49.2366540689747
 10
16.6331171348271
 20
49.2371722833574
 10
16.6326312045435
 20
49.2375070977622
 10
16.6322555438433
 20
49.2373583002454
 10
16.6327243323245
 20
49.2369219366884
 10
16.6325989931424
 20
49.236415915714
 10
16.6333195705229
 20
49.2355708520767
 10
16.6337815985576
 20
49.2350289884739
 10
16.6342621695775
 20
49.2341078442682
 97
0
 75
0
 76
1
 98
0
  0
HATCH
  5
20100
100
AcDbEntity
  8
skládky a antropogenní uloženiny
100
AcDbHatch
 10
0
 20
0
 30
0
210
0
220
0
230
1
  2
SOLID
 70
1
 71
0
 91
1
 92
2
 72
0
 73
1
 93
16
 10
16.6481272404672
 20
49.2443780056236
 10
16.6484870494774
 20
49.244486881642
 10
16.6486121647291
 20
49.2445539845338
 10
16.6483388938382
 20
49.2446272620725
 10
16.6479216083279
 20
49.2446613511912
 10
16.647852134881
 20
49.2446990342941
 10
16.6475227245114
 20
49.2449997458825
 10
16.6474654250622
 20
49.2451164073081
 10
16.6474248609102
 20
49.2452140333015
 10
16.6471563126172
 20
49.2451664912987
 10
16.6471983904254
 20
49.2449953505552
 10
16.6470913233929
 20
49.2447734562474
 10
16.6473476920105
 20
49.2446416493813
 10
16.6474669341778
 20
49.2446028369775
 10
16.6480637189108
 20
49.2443775201313
 10
16.6481272404672
 20
49.2443780056236
 97
0
 75
0
 76
1
 98
0
  0
HATCH
  5
20101
100
AcDbEntity
  8
skládky a antropogenní uloženiny
100
AcDbHatch
 10
0
 20
0
 30
0
210
0
220
0
230
1
  2
SOLID
 70
1
 71
0
 91
1
 92
2
 72
0
 73
1
 93
24
 10
16.6549121844009
 20
49.2419077978116
 10
16.6562892593834
 20
49.2409492360738
 10
16.6571138910675
 20
49.2403694572208
 10
16.6593437773214
 20
49.2398189857565
 10
16.6594124245946
 20
49.23976135852
 10
16.6590615732059
 20
49.2392183973988
 10
16.6579202993662
 20
49.2371052268256
 10
16.6581976609446
 20
49.2369973977941
 10
16.6584073948622
 20
49.2372629964606
 10
16.6587712921002
 20
49.2379662389353
 10
16.6586793412996
 20
49.2381032122465
 10
16.6590648701808
 20
49.238962586363
 10
16.6592097532451
 20
49.239066205323
 10
16.6593082626889
 20
49.239268942971
 10
16.659476558274
 20
49.2394028786742
 10
16.6598131668921
 20
49.2398344811062
 10
16.6596441690391
 20
49.2400218904291
 10
16.658098027866
 20
49.2403549927019
 10
16.6572404650743
 20
49.2406995253537
 10
16.6566616673634
 20
49.2412032120082
 10
16.6554287879353
 20
49.24184828441
 10
16.6553409710191
 20
49.2418900392143
 10
16.6552531539548
 20
49.2419317939515
 10
16.6549121844009
 20
49.2419077978116
 97
0
 75
0
 76
1
 98
0
  0
HATCH
  5
20102
100
AcDbEntity
  8
skládky a antropogenní uloženiny
100
AcDbHatch
 10
0
 20
0
 30
0
210
0
220
0
230
1
  2
SOLID
 70
1
 71
0
 91
1
 92
2
 72
0
 73
1
 93
16
 10
16.6620423959241
 20
49.2258396793276
 10
16.6621354682689
 20
49.2259072617871
 10
16.662106096911
 20
49.2260566516185
 10
16.662113799517
 20
49.2262918009604
 10
16.6619955022559
 20
49.2264934078968
 10
16.6619238490853
 20
49.2265960767233
 10
16.6618285902722
 20
49.2266755444611
 10
16.66178909049
 20
49.2267158492355
 10
16.6617474204366
 20
49.226753017649
 10
16.6614436019439
 20
49.2266246985735
 10
16.6616734477406
 20
49.2264887420504
 10
16.6618235736224
 20
49.22641190466
 10
16.6618360840866
 20
49.2263756878685
 10
16.6618401667397
 20
49.2261496880937
 10
16.6617422351118
 20
49.2259547245285
 10
16.6620423959241
 20
49.2258396793276
 97
0
 75
0
 76
1
 98
0
  0
HATCH
  5
20103
100
AcDbEntity
  8
skládky a antropogenní uloženiny
100
AcDbHatch
 10
0
 20
0
 30
0
210
0
220
0
230
1
  2
SOLID
 70
1
 71
0
 91
1
 92
2
 72
0
 73
1
 93
6
 10
16.6611660302213
 20
49.2268243153679
 10
16.6612986552951
 20
49.2267507089764
 10
16.6619985658658
 20
49.2272842599446
 10
16.6619760029651
 20
49.2274193313977
 10
16.6615751460051
 20
49.2271353645544
 10
16.6611660302213
 20
49.2268243153679
 97
0
 75
0
 76
1
 98
0
  0
HATCH
  5
20104
100
AcDbEntity
  8
skládky a antropogenní uloženiny
100
AcDbHatch
 10
0
 20
0
 30
0
210
0
220
0
230
1
  2
SOLID
 70
1
 71
0
 91
1
 92
2
 72
0
 73
1
 93
21
 10
16.6344898233773
 20
49.2275580730344
 10
16.634326765136
 20
49.22733039893
 10
16.6344562918598
 20
49.2273136731767
 10
16.6345257443777
 20
49.2272910794029
 10
16.6345980184779
 20
49.2272177636826
 10
16.6347596742455
 20
49.2272189523124
 10
16.6349123093121
 20
49.227136474781
 10
16.6351406922203
 20
49.2270082408971
 10
16.635430499943
 20
49.2269372521978
 10
16.635482868433
 20
49.2269022370178
 10
16.6357463827135
 20
49.2267908621882
 10
16.6359157389689
 20
49.2265681063517
 10
16.6362603188842
 20
49.2264243733606
 10
16.636422067319
 20
49.2263519435924
 10
16.6365780298966
 20
49.2264683177115
 10
16.6364746546391
 20
49.2266266294978
 10
16.6361959528539
 20
49.2267132373585
 10
16.635968832575
 20
49.2268623646652
 10
16.6353659408254
 20
49.2270904337535
 10
16.6349002096697
 20
49.2273552234317
 10
16.6344898233773
 20
49.2275580730344
 97
0
 75
0
 76
1
 98
0
  0
HATCH
  5
20105
100
AcDbEntity
  8
skládky a antropogenní uloženiny
100
AcDbHatch
 10
0
 20
0
 30
0
210
0
220
0
230
1
  2
SOLID
 70
1
 71
0
 91
1
 92
2
 72
0
 73
1
 93
14
 10
16.6419100281862
 20
49.2299689311032
 10
16.6424834806617
 20
49.23027364289
 10
16.6430388161034
 20
49.2305457802129
 10
16.6434427233935
 20
49.2306830591385
 10
16.6432910214902
 20
49.23078677752
 10
16.6431194874961
 20
49.2308319799739
 10
16.6430384448265
 20
49.2311841720107
 10
16.6428436856691
 20
49.2312112894728
 10
16.6426852779277
 20
49.2305533021056
 10
16.6422634810049
 20
49.2306913737918
 10
16.6420619607396
 20
49.23064974262
 10
16.6419157008903
 20
49.2302874575344
 10
16.6417534166843
 20
49.230070582926
 10
16.6419100281862
 20
49.2299689311032
 97
0
 75
0
 76
1
 98
0
  0
HATCH
  5
20106
100
AcDbEntity
  8
skládky a antropogenní uloženiny
100
AcDbHatch
 10
0
 20
0
 30
0
210
0
220
0
230
1
  2
SOLID
 70
1
 71
0
 91
1
 92
2
 72
0
 73
1
 93
23
 10
16.6502059746078
 20
49.2325587024427
 10
16.6503765168188
 20
49.2326454657975
 10
16.6504127317865
 20
49.232879866388
 10
16.650394954403
 20
49.233063031931
 10
16.6503692174006
 20
49.233217883298
 10
16.6501822255999
 20
49.2332886334249
 10
16.649895869915
 20
49.2333090702795
 10
16.6498533715905
 20
49.2333575883404
 10
16.6499370693521
 20
49.2334245819343
 10
16.65029552153
 20
49.2335993961929
 10
16.650399707617
 20
49.2336942862691
 10
16.65036537837
 20
49.2338524333398
 10
16.6502086942303
 20
49.2340602241783
 10
16.6499139980552
 20
49.2341257888035
 10
16.6496886840164
 20
49.2341593014694
 10
16.649211302811
 20
49.234226069086
 10
16.6491354405926
 20
49.2339496649483
 10
16.6492283866064
 20
49.2337908624087
 10
16.6494831845656
 20
49.2333650197331
 10
16.6495788267217
 20
49.2332700071075
 10
16.6497310994469
 20
49.2329937541904
 10
16.6499549596216
 20
49.2327962551519
 10
16.6502059746078
 20
49.2325587024427
 97
0
 75
0
 76
1
 98
0
  0
HATCH
  5
20107
100
AcDbEntity
  8
skládky a antropogenní uloženiny
100
AcDbHatch
 10
0
 20
0
 30
0
210
0
220
0
230
1
  2
SOLID
 70
1
 71
0
 91
1
 92
2
 72
0
 73
1
 93
7
 10
16.6476453210143
 20
49.2395625207409
 10
16.6479174299165
 20
49.2390899892564
 10
16.6491629738465
 20
49.2392168401134
 10
16.649265590518
 20
49.2394287175485
 10
16.6491010140857
 20
49.2396780811469
 10
16.6485091009261
 20
49.2396872512344
 10
16.6476453210143
 20
49.2395625207409
 97
0
 75
0
 76
1
 98
0
  0
HATCH
  5
20108
100
AcDbEntity
  8
skládky a antropogenní uloženiny
100
AcDbHatch
 10
0
 20
0
 30
0
210
0
220
0
230
1
  2
SOLID
 70
1
 71
0
 91
1
 92
2
 72
0
 73
1
 93
30
 10
16.6386151496262
 20
49.2380950056058
 10
16.6387202444859
 20
49.2384147618726
 10
16.6380516078032
 20
49.2385941176122
 10
16.6375445082684
 20
49.2387490266777
 10
16.637134991787
 20
49.2388348374932
 10
16.6366838279829
 20
49.2389721744469
 10
16.636286646056
 20
49.2390603494565
 10
16.6359870766267
 20
49.2393673252825
 10
16.6352735980463
 20
49.2400459032185
 10
16.6346552351181
 20
49.2405408859641
 10
16.6342270014036
 20
49.2405979874665
 10
16.6338981247678
 20
49.2406223258463
 10
16.634810535691
 20
49.2400096658432
 10
16.6353547953484
 20
49.2395577227747
 10
16.6356303035524
 20
49.2392346879541
 10
16.6339865113834
 20
49.2395022285358
 10
16.6316681862169
 20
49.2400188766239
 10
16.6314055871888
 20
49.2398373154967
 10
16.6326099459555
 20
49.2395660023552
 10
16.6334028497985
 20
49.2393324371829
 10
16.6319969496888
 20
49.239350873823
 10
16.6304276339661
 20
49.2395018397878
 10
16.6303082722919
 20
49.2392835670928
 10
16.6311782523581
 20
49.2391389453211
 10
16.6303741286737
 20
49.2388269954997
 10
16.6304562757749
 20
49.238583908383
 10
16.6314487311643
 20
49.2389085459222
 10
16.6344939574623
 20
49.2389032470209
 10
16.6362878201839
 20
49.2386543120135
 10
16.6386151496262
 20
49.2380950056058
 97
0
 75
0
 76
1
 98
0
  0
HATCH
  5
20109
100
AcDbEntity
  8
skládky a antropogenní uloženiny
100
AcDbHatch
 10
0
 20
0
 30
0
210
0
220
0
230
1
  2
SOLID
 70
1
 71
0
 91
1
 92
2
 72
0
 73
1
 93
12
 10
16.6289113275448
 20
49.2421961147158
 10
16.6320091181398
 20
49.2418331388566
 10
16.6345876639906
 20
49.2419568013936
 10
16.6362611637173
 20
49.2421594755811
 10
16.6356770476191
 20
49.2424863834761
 10
16.6348859969083
 20
49.2427787245475
 10
16.6343488191117
 20
49.242634581423
 10
16.6349795279757
 20
49.2423183742185
 10
16.6349193970469
 20
49.2423156196943
 10
16.6318976451803
 20
49.2421771352367
 10
16.6288598858699
 20
49.2425084436687
 10
16.6289113275448
 20
49.2421961147158
 97
0
 75
0
 76
1
 98
0
  0
HATCH
  5
2010A
100
AcDbEntity
  8
skládky a antropogenní uloženiny
100
AcDbHatch
 10
0
 20
0
 30
0
210
0
220
0
230
1
  2
SOLID
 70
1
 71
0
 91
1
 92
2
 72
0
 73
1
 93
11
 10
16.652944287902
 20
49.2409797314652
 10
16.6529041964301
 20
49.240741642498
 10
16.6530987351267
 20
49.2407344683703
 10
16.6534883058398
 20
49.240448942511
 10
16.653969661787
 20
49.2400961406497
 10
16.6543503465354
 20
49.2396105435878
 10
16.6544840366208
 20
49.239746826176
 10
16.6543710649558
 20
49.2398909241128
 10
16.6541596509979
 20
49.2401605850222
 10
16.6535369925606
 20
49.2406274723699
 10
16.652944287902
 20
49.2409797314652
 97
0
 75
0
 76
1
 98
0
  0
HATCH
  5
2010B
100
AcDbEntity
  8
skládky a antropogenní uloženiny
100
AcDbHatch
 10
0
 20
0
 30
0
210
0
220
0
230
1
  2
SOLID
 70
1
 71
0
 91
1
 92
2
 72
0
 73
1
 93
5
 10
16.6343943383118
 20
49.245746792814
 10
16.6342575555707
 20
49.245324324861
 10
16.6365962159929
 20
49.2449685643159
 10
16.6367454871301
 20
49.2453891314405
 10
16.6343943383118
 20
49.245746792814
 97
0
 75
0
 76
1
 98
0
  0
HATCH
  5
2010C
100
AcDbEntity
  8
skládky a antropogenní uloženiny
100
AcDbHatch
 10
0
 20
0
 30
0
210
0
220
0
230
1
  2
SOLID
 70
1
 71
0
 91
1
 92
2
 72
0
 73
1
 93
7
 10
16.6310235361418
 20
49.2307644497103
 10
16.631246418259
 20
49.2308292075087
 10
16.6306571140816
 20
49.2322512197299
 10
16.6304488501263
 20
49.2327784816424
 10
16.6303191018281
 20
49.2327576051601
 10
16.6301996423568
 20
49.2327409362729
 10
16.6310235361418
 20
49.2307644497103
 97
0
 75
0
 76
1
 98
0
  0
HATCH
  5
2010D
100
AcDbEntity
  8
skládky a antropogenní uloženiny
100
AcDbHatch
 10
0
 20
0
 30
0
210
0
220
0
230
1
  2
SOLID
 70
1
 71
0
 91
1
 92
2
 72
0
 73
1
 93
18
 10
16.607136580263
 20
49.2756922030615
 10
16.6068654280537
 20
49.2756813135476
 10
16.6067905752818
 20
49.2754497926978
 10
16.6068435220732
 20
49.2751036051536
 10
16.6068601604704
 20
49.274937131044
 10
16.6068787693794
 20
49.2748245292435
 10
16.6068836691549
 20
49.2747296279405
 10
16.6069631197645
 20
49.274176705482
 10
16.6069915851587
 20
49.2740194220003
 10
16.6070445329247
 20
49.2736153509703
 10
16.60746212129
 20
49.273516117873
 10
16.6075002696043
 20
49.273859195107
 10
16.6074234007776
 20
49.2741144833601
 10
16.6072958865755
 20
49.274466651748
 10
16.6072490829943
 20
49.2749168322273
 10
16.6072028126017
 20
49.2751490681457
 10
16.607138103578
 20
49.2754768565775
 10
16.607136580263
 20
49.2756922030615
 97
0
 75
0
 76
1
 98
0
  0
HATCH
  5
2010E
100
AcDbEntity
  8
skládky a antropogenní uloženiny
100
AcDbHatch
 10
0
 20
0
 30
0
210
0
220
0
230
1
  2
SOLID
 70
1
 71
0
 91
1
 92
2
 72
0
 73
1
 93
5
 10
16.6058385009704
 20
49.2793696807284
 10
16.6061424404825
 20
49.2793057110216
 10
16.6065606820511
 20
49.2796961012012
 10
16.6061132393794
 20
49.2799189680535
 10
16.6058385009704
 20
49.2793696807284
 97
0
 75
0
 76
1
 98
0
  0
HATCH
  5
2010F
100
AcDbEntity
  8
skládky a antropogenní uloženiny
100
AcDbHatch
 10
0
 20
0
 30
0
210
0
220
0
230
1
  2
SOLID
 70
1
 71
0
 91
1
 92
2
 72
0
 73
1
 93
9
 10
16.6061795734125
 20
49.2798856727085
 10
16.6066845687137
 20
49.2800007324584
 10
16.6065493500876
 20
49.2797560792322
 10
16.6070541036651
 20
49.280118490126
 10
16.6076627860108
 20
49.2805303065912
 10
16.6072358846092
 20
49.2804548842187
 10
16.6065229340407
 20
49.2800917668143
 10
16.6063126370691
 20
49.280039171714
 10
16.6061795734125
 20
49.2798856727085
 97
0
 75
0
 76
1
 98
0
  0
HATCH
  5
20110
100
AcDbEntity
  8
skládky a antropogenní uloženiny
100
AcDbHatch
 10
0
 20
0
 30
0
210
0
220
0
230
1
  2
SOLID
 70
1
 71
0
 91
1
 92
2
 72
0
 73
1
 93
7
 10
16.6020477552437
 20
49.2800338502799
 10
16.6025635938319
 20
49.2797653683206
 10
16.6034242856119
 20
49.2799521913998
 10
16.6034528738353
 20
49.280251701835
 10
16.6032596897969
 20
49.2803697722112
 10
16.6025672112084
 20
49.2802452929202
 10
16.6020477552437
 20
49.2800338502799
 97
0
 75
0
 76
1
 98
0
  0
HATCH
  5
20111
100
AcDbEntity
  8
skládky a antropogenní uloženiny
100
AcDbHatch
 10
0
 20
0
 30
0
210
0
220
0
230
1
  2
SOLID
 70
1
 71
0
 91
1
 92
2
 72
0
 73
1
 93
7
 10
16.6057782731549
 20
49.282505711304
 10
16.6035328725511
 20
49.2818472514394
 10
16.6024980511122
 20
49.2812643191311
 10
16.602616023736
 20
49.2811729715413
 10
16.6036252617187
 20
49.2817308098202
 10
16.60585407974
 20
49.2824310274016
 10
16.6057782731549
 20
49.282505711304
 97
0
 75
0
 76
1
 98
0
  0
HATCH
  5
20112
100
AcDbEntity
  8
skládky a antropogenní uloženiny
100
AcDbHatch
 10
0
 20
0
 30
0
210
0
220
0
230
1
  2
SOLID
 70
1
 71
0
 91
1
 92
2
 72
0
 73
1
 93
8
 10
16.6003118121972
 20
49.2767299809445
 10
16.6003504757263
 20
49.2765884071506
 10
16.6009866165617
 20
49.2767180785714
 10
16.6021204623547
 20
49.2773233666873
 10
16.602284948739
 20
49.2774796641742
 10
16.6011808345974
 20
49.2769992274675
 10
16.6008411551836
 20
49.2768415112377
 10
16.6003118121972
 20
49.2767299809445
 97
0
 75
0
 76
1
 98
0
  0
HATCH
  5
20113
100
AcDbEntity
  8
skládky a antropogenní uloženiny
100
AcDbHatch
 10
0
 20
0
 30
0
210
0
220
0
230
1
  2
SOLID
 70
1
 71
0
 91
1
 92
2
 72
0
 73
1
 93
32
 10
16.6081957545996
 20
49.2157334423379
 10
16.6084153634158
 20
49.2157898789712
 10
16.6087672319348
 20
49.215962276397
 10
16.6091191029032
 20
49.2161346727458
 10
16.6093473150452
 20
49.2163590478985
 10
16.6097009452664
 20
49.2165538624451
 10
16.6100833164003
 20
49.2166862204601
 10
16.6101363875181
 20
49.2167206405186
 10
16.610242456271
 20
49.2167916008994
 10
16.6102802658052
 20
49.2168235383148
 10
16.6103202109965
 20
49.2169065498206
 10
16.6103378536035
 20
49.2169556918339
 10
16.6103401987072
 20
49.2170377143875
 10
16.6103309862028
 20
49.2170920506871
 10
16.6103080796142
 20
49.2171476659585
 10
16.6102841725868
 20
49.2171881641708
 10
16.6101488270737
 20
49.2173260874359
 10
16.6100210497947
 20
49.2174347832499
 10
16.6097326815097
 20
49.2176694758606
 10
16.6094312379484
 20
49.2179228650405
 10
16.6087168331533
 20
49.2177741558738
 10
16.608280397196
 20
49.2182403878622
 10
16.6080251012163
 20
49.218032609604
 10
16.6072605269612
 20
49.2174468802155
 10
16.6064310926303
 20
49.216839905313
 10
16.6068111106923
 20
49.2164400071599
 10
16.6075441172525
 20
49.215892209249
 10
16.6077222265943
 20
49.2157838383935
 10
16.607804416614
 20
49.2157328827923
 10
16.6078754005277
 20
49.2157043310333
 10
16.6080355775166
 20
49.2157188867968
 10
16.6081957545996
 20
49.2157334423379
 97
0
 75
0
 76
1
 98
0
  0
HATCH
  5
20114
100
AcDbEntity
  8
skládky a antropogenní uloženiny
100
AcDbHatch
 10
0
 20
0
 30
0
210
0
220
0
230
1
  2
SOLID
 70
1
 71
0
 91
1
 92
2
 72
0
 73
1
 93
27
 10
16.6077662777793
 20
49.2139546279533
 10
16.6077110499309
 20
49.213953739832
 10
16.6076167443141
 20
49.2139379906184
 10
16.6075136850713
 20
49.2138913912143
 10
16.6074445289996
 20
49.2138351000896
 10
16.6073915215061
 20
49.2137648377536
 10
16.6073841265844
 20
49.2136978072435
 10
16.6074142077189
 20
49.2136273838709
 10
16.6074600675026
 20
49.2135731941015
 10
16.6075125842616
 20
49.2135345917957
 10
16.6076193420241
 20
49.2135028534484
 10
16.6076968816246
 20
49.2135083457695
 10
16.6077522325296
 20
49.2135364516877
 10
16.6077808315023
 20
49.2135868462032
 10
16.6077805832376
 20
49.2136442668035
 10
16.6078258374526
 20
49.2136839767406
 10
16.6078681082545
 20
49.2137290651206
 10
16.6079730160962
 20
49.2137364957262
 10
16.6080660899283
 20
49.2137037886357
 10
16.6081288370833
 20
49.213687071343
 10
16.6082281976943
 20
49.2137001553698
 10
16.6082972318322
 20
49.2137292292283
 10
16.6083031485864
 20
49.2138052242693
 10
16.6082098281688
 20
49.2138953531403
 10
16.6081345058337
 20
49.213932340486
 10
16.6079694383563
 20
49.21395390279
 10
16.6077662777793
 20
49.2139546279533
 97
0
 75
0
 76
1
 98
0
  0
HATCH
  5
20115
100
AcDbEntity
  8
skládky a antropogenní uloženiny
100
AcDbHatch
 10
0
 20
0
 30
0
210
0
220
0
230
1
  2
SOLID
 70
1
 71
0
 91
1
 92
2
 72
0
 73
1
 93
13
 10
16.6132850250598
 20
49.1395585606783
 10
16.613229345928
 20
49.1386220375697
 10
16.6131169810656
 20
49.1378745535992
 10
16.6130708107719
 20
49.1375547057962
 10
16.6134878399006
 20
49.1375269020127
 10
16.6135648230851
 20
49.1378681317417
 10
16.6136180095891
 20
49.1378682840781
 10
16.6137538979731
 20
49.1387684856916
 10
16.6138376990131
 20
49.1393429028762
 10
16.613823214275
 20
49.1393429615282
 10
16.6137548358248
 20
49.1395338478643
 10
16.6135443276153
 20
49.1395539298662
 10
16.6132850250598
 20
49.1395585606783
 97
0
 75
0
 76
1
 98
0
  0
HATCH
  5
20116
100
AcDbEntity
  8
skládky a antropogenní uloženiny
100
AcDbHatch
 10
0
 20
0
 30
0
210
0
220
0
230
1
  2
SOLID
 70
1
 71
0
 91
1
 92
2
 72
0
 73
1
 93
20
 10
16.6251200495244
 20
49.1424959091443
 10
16.6253518690753
 20
49.1422154661369
 10
16.6255648649609
 20
49.1420780215086
 10
16.6256618758982
 20
49.1420034146321
 10
16.6258704934473
 20
49.1418607257237
 10
16.6259989970899
 20
49.14176386411
 10
16.6260787571902
 20
49.1416315556828
 10
16.6260787209843
 20
49.1414581223522
 10
16.6260261904888
 20
49.1412082950156
 10
16.6259599915051
 20
49.1410701082227
 10
16.6261135497802
 20
49.1408279022975
 10
16.6262261735408
 20
49.1408950262589
 10
16.6263682695817
 20
49.1410461819367
 10
16.62649955304
 20
49.1416764899272
 10
16.6262886492865
 20
49.1419513599204
 10
16.6262007290873
 20
49.1420400177543
 10
16.625935752411
 20
49.1422462995556
 10
16.6256504964501
 20
49.1423729983369
 10
16.6253120893934
 20
49.1424707899061
 10
16.6251200495244
 20
49.1424959091443
 97
0
 75
0
 76
1
 98
0
  0
HATCH
  5
20117
100
AcDbEntity
  8
skládky a antropogenní uloženiny
100
AcDbHatch
 10
0
 20
0
 30
0
210
0
220
0
230
1
  2
SOLID
 70
1
 71
0
 91
1
 92
2
 72
0
 73
1
 93
4
 10
16.6285727419841
 20
49.1444961052435
 10
16.628486976602
 20
49.1438641285006
 10
16.6291779426583
 20
49.144445216428
 10
16.6285727419841
 20
49.1444961052435
 97
0
 75
0
 76
1
 98
0
  0
HATCH
  5
20118
100
AcDbEntity
  8
skládky a antropogenní uloženiny
100
AcDbHatch
 10
0
 20
0
 30
0
210
0
220
0
230
1
  2
SOLID
 70
1
 71
0
 91
1
 92
2
 72
0
 73
1
 93
9
 10
16.5983053491267
 20
49.1392994756213
 10
16.5981757767485
 20
49.1373845893418
 10
16.5993183230832
 20
49.1373652888513
 10
16.5993584015905
 20
49.1374270163328
 10
16.5994109946074
 20
49.13792552173
 10
16.5994326488362
 20
49.137927963981
 10
16.5997888754331
 20
49.1381995598557
 10
16.5996915998983
 20
49.1392589862969
 10
16.5983053491267
 20
49.1392994756213
 97
0
 75
0
 76
1
 98
0
  0
HATCH
  5
20119
100
AcDbEntity
  8
skládky a antropogenní uloženiny
100
AcDbHatch
 10
0
 20
0
 30
0
210
0
220
0
230
1
  2
SOLID
 70
1
 71
0
 91
1
 92
2
 72
0
 73
1
 93
21
 10
16.5892384750664
 20
49.2471451182529
 10
16.5895279247224
 20
49.2471484672404
 10
16.5895629344525
 20
49.2473405371076
 10
16.5895979444542
 20
49.2475326069581
 10
16.5896398906382
 20
49.247756645922
 10
16.5896949359321
 20
49.247924087003
 10
16.5897602268208
 20
49.2482099320939
 10
16.5897937219356
 20
49.2483564877044
 10
16.5897529390939
 20
49.2484513725527
 10
16.5896620748223
 20
49.2485216330897
 10
16.5895686182582
 20
49.2485329886242
 10
16.5894679587244
 20
49.2485048648188
 10
16.5893673006706
 20
49.2484767410225
 10
16.5893362215776
 20
49.2484301317756
 10
16.5893067317172
 20
49.2482760812635
 10
16.5892569190309
 20
49.2480056703823
 10
16.5892503365565
 20
49.247778758182
 10
16.5892483375163
 20
49.2476714766117
 10
16.5892416877751
 20
49.2474704287379
 10
16.5892442033742
 20
49.2474368688121
 10
16.5892384750664
 20
49.2471451182529
 97
0
 75
0
 76
1
 98
0
  0
HATCH
  5
2011A
100
AcDbEntity
  8
skládky a antropogenní uloženiny
100
AcDbHatch
 10
0
 20
0
 30
0
210
0
220
0
230
1
  2
SOLID
 70
1
 71
0
 91
1
 92
2
 72
0
 73
1
 93
18
 10
16.5987756088623
 20
49.2512810394608
 10
16.5989244043303
 20
49.2510457841149
 10
16.599166892596
 20
49.2508531382482
 10
16.5994120628131
 20
49.2506996497297
 10
16.5998155223796
 20
49.2505303977351
 10
16.6002189807003
 20
49.2503611435289
 10
16.6007562610292
 20
49.2502001651669
 10
16.60107757088
 20
49.2501324746427
 10
16.601257183463
 20
49.2501469280959
 10
16.6012351048884
 20
49.2502645083233
 10
16.6010690009724
 20
49.2504543331802
 10
16.600950447561
 20
49.2505898156117
 10
16.6006932257496
 20
49.2507526361425
 10
16.6003269032041
 20
49.2508993524965
 10
16.599919894663
 20
49.251062359897
 10
16.5995252484434
 20
49.2511782816657
 10
16.5991243692463
 20
49.2512487969292
 10
16.5987756088623
 20
49.2512810394608
 97
0
 75
0
 76
1
 98
0
  0
HATCH
  5
2011B
100
AcDbEntity
  8
skládky a antropogenní uloženiny
100
AcDbHatch
 10
0
 20
0
 30
0
210
0
220
0
230
1
  2
SOLID
 70
1
 71
0
 91
1
 92
2
 72
0
 73
1
 93
16
 10
16.5796815615573
 20
49.2549675698982
 10
16.579657620069
 20
49.2548769095005
 10
16.5797778889313
 20
49.2545022935949
 10
16.5798585221724
 20
49.2543101097255
 10
16.5799295413158
 20
49.2542151127513
 10
16.5801394610076
 20
49.2539273661749
 10
16.5802329358003
 20
49.253925320838
 10
16.5804476873558
 20
49.2538852141826
 10
16.5805584952617
 20
49.2538469521281
 10
16.580804120912
 20
49.2536889164085
 10
16.5809363590489
 20
49.2536989397106
 10
16.5810597596511
 20
49.253703089085
 10
16.5807164944737
 20
49.2540559009175
 10
16.5805310597507
 20
49.2542776381377
 10
16.5799962279177
 20
49.2548699310868
 10
16.5796815615573
 20
49.2549675698982
 97
0
 75
0
 76
1
 98
0
  0
HATCH
  5
2011C
100
AcDbEntity
  8
skládky a antropogenní uloženiny
100
AcDbHatch
 10
0
 20
0
 30
0
210
0
220
0
230
1
  2
SOLID
 70
1
 71
0
 91
1
 92
2
 72
0
 73
1
 93
5
 10
16.5833165553808
 20
49.2552920074273
 10
16.5833402454733
 20
49.2558804970925
 10
16.5829568139568
 20
49.2560403790175
 10
16.5828894996668
 20
49.2555859510839
 10
16.5833165553808
 20
49.2552920074273
 97
0
 75
0
 76
1
 98
0
  0
HATCH
  5
2011D
100
AcDbEntity
  8
skládky a antropogenní uloženiny
100
AcDbHatch
 10
0
 20
0
 30
0
210
0
220
0
230
1
  2
SOLID
 70
1
 71
0
 91
1
 92
2
 72
0
 73
1
 93
14
 10
16.5841228815128
 20
49.253685625028
 10
16.584833660383
 20
49.2539394103927
 10
16.5843086852379
 20
49.2544540115901
 10
16.5839728123991
 20
49.254351282837
 10
16.5839033067394
 20
49.2542923710593
 10
16.5839035798766
 20
49.2542354364096
 10
16.5839457414367
 20
49.2541993918171
 10
16.5840213549371
 20
49.2541824625331
 10
16.5841683352929
 20
49.2541744882605
 10
16.5842451899446
 20
49.2541197023175
 10
16.5842471114906
 20
49.2540617232923
 10
16.5841431421633
 20
49.2539227051416
 10
16.5840391747858
 20
49.253783686991
 10
16.5841228815128
 20
49.253685625028
 97
0
 75
0
 76
1
 98
0
  0
HATCH
  5
2011E
100
AcDbEntity
  8
skládky a antropogenní uloženiny
100
AcDbHatch
 10
0
 20
0
 30
0
210
0
220
0
230
1
  2
SOLID
 70
1
 71
0
 91
1
 92
2
 72
0
 73
1
 93
7
 10
16.6250625136738
 20
49.2400721348609
 10
16.6247143066196
 20
49.2400309339053
 10
16.6248890428534
 20
49.2391811066832
 10
16.6254489135254
 20
49.2386404049101
 10
16.6257103503098
 20
49.2387564666166
 10
16.6251977232113
 20
49.2392515452729
 10
16.6250625136738
 20
49.2400721348609
 97
0
 75
0
 76
1
 98
0
  0
HATCH
  5
2011F
100
AcDbEntity
  8
skládky a antropogenní uloženiny
100
AcDbHatch
 10
0
 20
0
 30
0
210
0
220
0
230
1
  2
SOLID
 70
1
 71
0
 91
1
 92
2
 72
0
 73
1
 93
18
 10
16.5936147392557
 20
49.2559992233863
 10
16.5938918996297
 20
49.2555301451242
 10
16.5940746909515
 20
49.2553166881984
 10
16.594291786169
 20
49.2551936822606
 10
16.5944419011913
 20
49.2551086269371
 10
16.5946861989473
 20
49.2550539910547
 10
16.5947897625045
 20
49.2550444179768
 10
16.5948781202503
 20
49.2550766405433
 10
16.5949534406069
 20
49.2551325414587
 10
16.5949891621269
 20
49.2552164790714
 10
16.594964445259
 20
49.2553049063028
 10
16.5948663737017
 20
49.2553823450274
 10
16.5944096146729
 20
49.2557334779224
 10
16.594255169109
 20
49.2559336414185
 10
16.5941475594997
 20
49.2560628649544
 10
16.5939620193701
 20
49.2561828554016
 10
16.5938002850802
 20
49.2561314105521
 10
16.5936147392557
 20
49.2559992233863
 97
0
 75
0
 76
1
 98
0
  0
HATCH
  5
20120
100
AcDbEntity
  8
skládky a antropogenní uloženiny
100
AcDbHatch
 10
0
 20
0
 30
0
210
0
220
0
230
1
  2
SOLID
 70
1
 71
0
 91
1
 92
2
 72
0
 73
1
 93
6
 10
16.5623946021869
 20
49.2507154235816
 10
16.5628456334799
 20
49.2502944385617
 10
16.5631636318468
 20
49.2500533642264
 10
16.5633175007638
 20
49.2501266916351
 10
16.562582228848
 20
49.2507878710984
 10
16.5623946021869
 20
49.2507154235816
 97
0
 75
0
 76
1
 98
0
  0
HATCH
  5
20121
100
AcDbEntity
  8
skládky a antropogenní uloženiny
100
AcDbHatch
 10
0
 20
0
 30
0
210
0
220
0
230
1
  2
SOLID
 70
1
 71
0
 91
1
 92
2
 72
0
 73
1
 93
11
 10
16.58275656839
 20
49.2402159175803
 10
16.5822332735254
 20
49.2407888579631
 10
16.5814421548212
 20
49.2413255896959
 10
16.5805869171334
 20
49.2416697118032
 10
16.580107370158
 20
49.2417941221608
 10
16.5796353578451
 20
49.2417529946155
 10
16.5793994066324
 20
49.2415962120514
 10
16.5790582512648
 20
49.2410405653593
 10
16.5814853140723
 20
49.2399076451166
 10
16.5825453936354
 20
49.2394591932818
 10
16.58275656839
 20
49.2402159175803
 97
0
 75
0
 76
1
 98
0
  0
HATCH
  5
20122
100
AcDbEntity
  8
skládky a antropogenní uloženiny
100
AcDbHatch
 10
0
 20
0
 30
0
210
0
220
0
230
1
  2
SOLID
 70
1
 71
0
 91
1
 92
2
 72
0
 73
1
 93
12
 10
16.6144382903791
 20
49.2553976323376
 10
16.6144564237686
 20
49.2552877611439
 10
16.6150056084288
 20
49.2552285168935
 10
16.615940625481
 20
49.2548892424413
 10
16.6166184002806
 20
49.2546433025461
 10
16.6173854934642
 20
49.2545028298772
 10
16.6179338089826
 20
49.2544024551269
 10
16.6179635685074
 20
49.2544339812518
 10
16.617497682885
 20
49.2545963265361
 10
16.6168697849032
 20
49.2547064704953
 10
16.6150787487972
 20
49.2553906112433
 10
16.6144382903791
 20
49.2553976323376
 97
0
 75
0
 76
1
 98
0
  0
HATCH
  5
20123
100
AcDbEntity
  8
skládky a antropogenní uloženiny
100
AcDbHatch
 10
0
 20
0
 30
0
210
0
220
0
230
1
  2
SOLID
 70
1
 71
0
 91
1
 92
2
 72
0
 73
1
 93
11
 10
16.6159937270029
 20
49.254870112506
 10
16.6164541415281
 20
49.2545920866993
 10
16.6167585669376
 20
49.2542605324019
 10
16.6171225836318
 20
49.2536585763076
 10
16.6172633981935
 20
49.2534317565455
 10
16.6176249787062
 20
49.2532167843175
 10
16.6174317006657
 20
49.2535104287136
 10
16.6172533482384
 20
49.2537135894892
 10
16.6169341591531
 20
49.2542860225418
 10
16.6166155954966
 20
49.2546427316175
 10
16.6159937270029
 20
49.254870112506
 97
0
 75
0
 76
1
 98
0
  0
HATCH
  5
20124
100
AcDbEntity
  8
skládky a antropogenní uloženiny
100
AcDbHatch
 10
0
 20
0
 30
0
210
0
220
0
230
1
  2
SOLID
 70
1
 71
0
 91
1
 92
2
 72
0
 73
1
 93
6
 10
16.566287374959
 20
49.2525442714254
 10
16.5674075309119
 20
49.2517282908884
 10
16.5677715499443
 20
49.2519906645915
 10
16.566634867282
 20
49.2526664356646
 10
16.5663897241144
 20
49.2526661932982
 10
16.566287374959
 20
49.2525442714254
 97
0
 75
0
 76
1
 98
0
  0
HATCH
  5
20125
100
AcDbEntity
  8
skládky a antropogenní uloženiny
100
AcDbHatch
 10
0
 20
0
 30
0
210
0
220
0
230
1
  2
SOLID
 70
1
 71
0
 91
1
 92
2
 72
0
 73
1
 93
13
 10
16.6188518983128
 20
49.2466456604921
 10
16.6186869339911
 20
49.2466923663655
 10
16.6183399907986
 20
49.2459448291522
 10
16.6181236188446
 20
49.2459550701464
 10
16.6177814022048
 20
49.2461077349242
 10
16.6176859121503
 20
49.2465157559453
 10
16.6173103846482
 20
49.2465749855292
 10
16.6175296548085
 20
49.2460024675063
 10
16.6179777873871
 20
49.2458224616738
 10
16.6182169316364
 20
49.2457563531163
 10
16.6180557114814
 20
49.2452285162092
 10
16.6183828090473
 20
49.2451835375265
 10
16.6188518983128
 20
49.2466456604921
 97
0
 75
0
 76
1
 98
0
  0
HATCH
  5
20126
100
AcDbEntity
  8
skládky a antropogenní uloženiny
100
AcDbHatch
 10
0
 20
0
 30
0
210
0
220
0
230
1
  2
SOLID
 70
1
 71
0
 91
1
 92
2
 72
0
 73
1
 93
11
 10
16.609914965577
 20
49.2359045724491
 10
16.6098692301475
 20
49.2353368260492
 10
16.6101669071841
 20
49.2346854666528
 10
16.6105570380538
 20
49.2341651743861
 10
16.6109471622366
 20
49.2336448799583
 10
16.611093113953
 20
49.233691809675
 10
16.6105088772384
 20
49.234470984267
 10
16.6101178157434
 20
49.2352132945029
 10
16.6100334946971
 20
49.2353785171811
 10
16.6100737380763
 20
49.2358428388391
 10
16.609914965577
 20
49.2359045724491
 97
0
 75
0
 76
1
 98
0
  0
HATCH
  5
20127
100
AcDbEntity
  8
skládky a antropogenní uloženiny
100
AcDbHatch
 10
0
 20
0
 30
0
210
0
220
0
230
1
  2
SOLID
 70
1
 71
0
 91
1
 92
2
 72
0
 73
1
 93
15
 10
16.6261308507307
 20
49.2402057093075
 10
16.6262533094144
 20
49.2397702333635
 10
16.6264668768641
 20
49.2393502570835
 10
16.6262653561742
 20
49.2390014317226
 10
16.6268858528804
 20
49.2390213903479
 10
16.6271203697042
 20
49.2394273209841
 10
16.6269354726831
 20
49.2397852089195
 10
16.6270106066343
 20
49.2400724692971
 10
16.6268277454777
 20
49.2409132169203
 10
16.6263512502986
 20
49.2408687857501
 10
16.6262999682835
 20
49.2404874498446
 10
16.6256706721595
 20
49.2412010620069
 10
16.6253576307113
 20
49.2410827433916
 10
16.6255383364549
 20
49.2408777787624
 10
16.6261308507307
 20
49.2402057093075
 97
0
 75
0
 76
1
 98
0
  0
HATCH
  5
20128
100
AcDbEntity
  8
skládky a antropogenní uloženiny
100
AcDbHatch
 10
0
 20
0
 30
0
210
0
220
0
230
1
  2
SOLID
 70
1
 71
0
 91
1
 92
2
 72
0
 73
1
 93
5
 10
16.6009692928736
 20
49.2386373798894
 10
16.6007606028404
 20
49.2382908355609
 10
16.6013546207215
 20
49.2380543636961
 10
16.601557629042
 20
49.2385296351369
 10
16.6009692928736
 20
49.2386373798894
 97
0
 75
0
 76
1
 98
0
  0
HATCH
  5
20129
100
AcDbEntity
  8
skládky a antropogenní uloženiny
100
AcDbHatch
 10
0
 20
0
 30
0
210
0
220
0
230
1
  2
SOLID
 70
1
 71
0
 91
1
 92
2
 72
0
 73
1
 93
14
 10
16.6202399659939
 20
49.2368973522348
 10
16.6200299131012
 20
49.2364011937871
 10
16.618145839738
 20
49.2357654459466
 10
16.6182640497169
 20
49.2355718541092
 10
16.6184323877308
 20
49.2353417182993
 10
16.6190052408983
 20
49.2356270635631
 10
16.6194085156813
 20
49.2357547055915
 10
16.6200834041006
 20
49.2359364599296
 10
16.6204222105968
 20
49.2359834742484
 10
16.6205757123409
 20
49.2363770086412
 10
16.6207409809836
 20
49.236817321725
 10
16.6208256453709
 20
49.2369263647775
 10
16.6203344606529
 20
49.2370208196416
 10
16.6202399659939
 20
49.2368973522348
 97
0
 75
0
 76
1
 98
0
  0
HATCH
  5
2012A
100
AcDbEntity
  8
skládky a antropogenní uloženiny
100
AcDbHatch
 10
0
 20
0
 30
0
210
0
220
0
230
1
  2
SOLID
 70
1
 71
0
 91
1
 92
2
 72
0
 73
1
 93
65
 10
16.6171540308701
 20
49.2387831230479
 10
16.6171816627479
 20
49.2388292653359
 10
16.6172047010924
 20
49.238876466648
 10
16.6172226776146
 20
49.2389237722091
 10
16.6172356134535
 20
49.2389712296458
 10
16.6172432467132
 20
49.2390178806873
 10
16.6172455835124
 20
49.239063771897
 10
16.6172425765501
 20
49.2391079755532
 10
16.6172342252665
 20
49.2391505368408
 10
16.6172206951573
 20
49.2391905946394
 10
16.6172019753325
 20
49.239228189784
 10
16.6171784425801
 20
49.2392625620186
 10
16.6171500732456
 20
49.2392937458473
 10
16.6171174408395
 20
49.2393211116018
 10
16.6170805145529
 20
49.2393446869477
 10
16.6170400374259
 20
49.2393639953025
 10
16.6169959704244
 20
49.2393790556096
 10
16.6169492037571
 20
49.2393895626909
 10
16.6168996910869
 20
49.2393955295463
 10
16.6168484334413
 20
49.2393968334001
 10
16.6167953779159
 20
49.2393934768391
 10
16.6167415964998
 20
49.2393855266215
 10
16.6166870379117
 20
49.2393729755007
 10
16.6166328012574
 20
49.2393560775733
 10
16.6165788342931
 20
49.2393348146725
 10
16.6165262264806
 20
49.2393096165892
 10
16.616474926605
 20
49.2392804588998
 10
16.6164259701208
 20
49.2392479312894
 10
16.6163793074305
 20
49.2392119995009
 10
16.6163358822611
 20
49.2391733905477
 10
16.6162956513557
 20
49.2391320651949
 10
16.6162594271488
 20
49.2390888596596
 10
16.6162271742373
 20
49.2390437289318
 10
16.6161995431295
 20
49.2389975864172
 10
16.6161765055395
 20
49.2389503857997
 10
16.6161585286419
 20
49.2389030799795
 10
16.6161455940006
 20
49.2388556215276
 10
16.6161379631656
 20
49.2388089705089
 10
16.616135627405
 20
49.2387630792751
 10
16.6161386339692
 20
49.2387188755487
 10
16.616146987487
 20
49.2386763144339
 10
16.6161605183243
 20
49.2386362567577
 10
16.6161792385684
 20
49.2385986626725
 10
16.6162027716988
 20
49.2385642906377
 10
16.6162311413593
 20
49.2385331061438
 10
16.6162637723703
 20
49.2385057405396
 10
16.6163006997853
 20
49.2384821655482
 10
16.6163411764796
 20
49.2384628574496
 10
16.6163852427172
 20
49.2384477982841
 10
16.6164320073966
 20
49.2384372904389
 10
16.6164815190173
 20
49.238431324677
 10
16.6165327771859
 20
49.2384300201883
 10
16.6165858315136
 20
49.2384333777644
 10
16.6166396106525
 20
49.238441327065
 10
16.6166941695675
 20
49.2384538783067
 10
16.616748405107
 20
49.2384707771018
 10
16.6168023712024
 20
49.2384920399263
 10
16.616854977069
 20
49.2385172368965
 10
16.6169062777432
 20
49.2385463945173
 10
16.6169552337019
 20
49.2385789228218
 10
16.6170018962137
 20
49.2386148543813
 10
16.6170453214127
 20
49.2386534630878
 10
16.6170855527026
 20
49.2386947872886
 10
16.6171217771947
 20
49.2387379934616
 10
16.6171540308701
 20
49.2387831230479
 97
0
 75
0
 76
1
 98
0
  0
HATCH
  5
2012B
100
AcDbEntity
  8
skládky a antropogenní uloženiny
100
AcDbHatch
 10
0
 20
0
 30
0
210
0
220
0
230
1
  2
SOLID
 70
1
 71
0
 91
1
 92
2
 72
0
 73
1
 93
56
 10
16.613149962665
 20
49.2313602788394
 10
16.6131201206752
 20
49.2313243394738
 10
16.6128770697513
 20
49.2310412221468
 10
16.6127312706845
 20
49.230896950607
 10
16.6126697362002
 20
49.2308312720197
 10
16.612783616979
 20
49.2307295258992
 10
16.6128509409992
 20
49.2306697095718
 10
16.6129022034229
 20
49.2306059527595
 10
16.6130202995449
 20
49.2304518636495
 10
16.6130669569485
 20
49.2303892281144
 10
16.6131639317846
 20
49.2302430012697
 10
16.6132451969756
 20
49.2301183744203
 10
16.6132623918571
 20
49.2300920042947
 10
16.6133578974288
 20
49.2300112079337
 10
16.6135568177113
 20
49.2298451999949
 10
16.6137517369254
 20
49.2297486445423
 10
16.6138540541938
 20
49.229688499862
 10
16.6140208713356
 20
49.2295488015917
 10
16.6140672099415
 20
49.2294244573452
 10
16.6141127112674
 20
49.229371327285
 10
16.6142205068361
 20
49.2292829882422
 10
16.6141097221798
 20
49.2291324221577
 10
16.6140754556935
 20
49.2290839593806
 10
16.6141262554107
 20
49.2288689395705
 10
16.6141718889864
 20
49.2287497010137
 10
16.6141328650347
 20
49.2285844039291
 10
16.6139709522551
 20
49.2285286280399
 10
16.6138393686351
 20
49.2284832287145
 10
16.6137146585565
 20
49.2284355116735
 10
16.6135840858968
 20
49.2283856611261
 10
16.6134595128221
 20
49.2283379534683
 10
16.6137364757519
 20
49.2281241033212
 10
16.6139488281384
 20
49.2282014478456
 10
16.6143014113298
 20
49.2283119590353
 10
16.6144351387872
 20
49.2283912468043
 10
16.6145211189155
 20
49.2284544029994
 10
16.6145844383557
 20
49.2285486077655
 10
16.6145960978611
 20
49.2286462125345
 10
16.6145827166319
 20
49.2287131021624
 10
16.6145699066943
 20
49.2287137334835
 10
16.6145704023852
 20
49.2288170607021
 10
16.6146282650596
 20
49.2289376520773
 10
16.6146479154971
 20
49.2290286767453
 10
16.6146256867555
 20
49.229126597384
 10
16.6146328372964
 20
49.229219722492
 10
16.6144530702279
 20
49.2293391492723
 10
16.614137152866
 20
49.2296878174187
 10
16.6139470357003
 20
49.2298615944683
 10
16.6137436592636
 20
49.2299884852645
 10
16.6134685053775
 20
49.2302448844887
 10
16.6132961982079
 20
49.2304278804299
 10
16.6131843369737
 20
49.230605294436
 10
16.6131499753129
 20
49.2307691980324
 10
16.6131950236876
 20
49.2311030657486
 10
16.6131933817651
 20
49.2312235175634
 10
16.613149962665
 20
49.2313602788394
 97
0
 75
0
 76
1
 98
0
  0
HATCH
  5
2012C
100
AcDbEntity
  8
skládky a antropogenní uloženiny
100
AcDbHatch
 10
0
 20
0
 30
0
210
0
220
0
230
1
  2
SOLID
 70
1
 71
0
 91
1
 92
2
 72
0
 73
1
 93
43
 10
16.6704837122539
 20
49.1664165509025
 10
16.6705669219294
 20
49.1663732944964
 10
16.6709542119836
 20
49.1666367286119
 10
16.6713333112318
 20
49.1668946106672
 10
16.6714029079628
 20
49.1669379440106
 10
16.6716746938834
 20
49.1670774394762
 10
16.6718080601973
 20
49.1671592641025
 10
16.6719475284787
 20
49.1673530326766
 10
16.6719566219913
 20
49.167454695947
 10
16.6719250591658
 20
49.167487024817
 10
16.6718875692635
 20
49.1675484208841
 10
16.6718694283993
 20
49.1677132868564
 10
16.6719006866665
 20
49.1679142768552
 10
16.6719891132765
 20
49.1680912506728
 10
16.6721071777452
 20
49.1682771824587
 10
16.6723176232809
 20
49.1686007520218
 10
16.6724102643682
 20
49.168869187138
 10
16.6723400269457
 20
49.1689638239471
 10
16.6721640748744
 20
49.1690006496639
 10
16.6720764536812
 20
49.169008460458
 10
16.6718102856043
 20
49.1690183650659
 10
16.6714952738433
 20
49.1689980175326
 10
16.6710455741683
 20
49.1689612311542
 10
16.6707442872521
 20
49.1689151665137
 10
16.6701245849836
 20
49.1687650320987
 10
16.6699260268169
 20
49.1686609831502
 10
16.6697357404967
 20
49.1684836244368
 10
16.6696551068475
 20
49.1684436740068
 10
16.6695744733281
 20
49.1684037235202
 10
16.6695613512967
 20
49.1683920377009
 10
16.6692288236664
 20
49.1681769952208
 10
16.6691826184719
 20
49.1681508624238
 10
16.6691024874359
 20
49.1680901451645
 10
16.66902519203
 20
49.1680247434627
 10
16.668864437739
 20
49.1678886223026
 10
16.6688938133897
 20
49.1677664214062
 10
16.6689450275063
 20
49.1675941145005
 10
16.6690677799936
 20
49.1673025732799
 10
16.669337000873
 20
49.1670994795195
 10
16.6697442632431
 20
49.1668298996404
 10
16.6698576710067
 20
49.1667588770736
 10
16.6701750145632
 20
49.1665768940724
 10
16.6704837122539
 20
49.1664165509025
 97
0
 75
0
 76
1
 98
0
  0
HATCH
  5
2012D
100
AcDbEntity
  8
skládky a antropogenní uloženiny
100
AcDbHatch
 10
0
 20
0
 30
0
210
0
220
0
230
1
  2
SOLID
 70
1
 71
0
 91
1
 92
2
 72
0
 73
1
 93
7
 10
16.6638455114297
 20
49.1857155679993
 10
16.6637345254436
 20
49.1854568685371
 10
16.6635540794871
 20
49.1848427518348
 10
16.6637384069569
 20
49.1848467434279
 10
16.6638480580577
 20
49.1853484655271
 10
16.663978246399
 20
49.185664177473
 10
16.6638455114297
 20
49.1857155679993
 97
0
 75
0
 76
1
 98
0
  0
HATCH
  5
2012E
100
AcDbEntity
  8
skládky a antropogenní uloženiny
100
AcDbHatch
 10
0
 20
0
 30
0
210
0
220
0
230
1
  2
SOLID
 70
1
 71
0
 91
1
 92
2
 72
0
 73
1
 93
21
 10
16.666831204532
 20
49.1864895715871
 10
16.6665452789477
 20
49.1856429251406
 10
16.6664128537017
 20
49.1853618512433
 10
16.6663118144053
 20
49.185042628136
 10
16.6667496358456
 20
49.184982293192
 10
16.6669895184311
 20
49.1847157362428
 10
16.6673255330545
 20
49.184661504735
 10
16.6677194437349
 20
49.1845924454257
 10
16.667975445735
 20
49.1843326689897
 10
16.6681493782286
 20
49.1840512735896
 10
16.6682660427775
 20
49.1840156401691
 10
16.6685408286036
 20
49.1840529328263
 10
16.6685516682479
 20
49.1842378229012
 10
16.6685742753845
 20
49.1847693417873
 10
16.668627844204
 20
49.1851151837147
 10
16.6686228088202
 20
49.1855400333454
 10
16.668621471907
 20
49.1856528816513
 10
16.6682201366022
 20
49.1856965072576
 10
16.667986956023
 20
49.185909314304
 10
16.6674640737804
 20
49.1861103779456
 10
16.666831204532
 20
49.1864895715871
 97
0
 75
0
 76
1
 98
0
  0
HATCH
  5
2012F
100
AcDbEntity
  8
skládky a antropogenní uloženiny
100
AcDbHatch
 10
0
 20
0
 30
0
210
0
220
0
230
1
  2
SOLID
 70
1
 71
0
 91
1
 92
2
 72
0
 73
1
 93
20
 10
16.6770427918131
 20
49.184943677466
 10
16.6773314124544
 20
49.1844907062133
 10
16.6774825888588
 20
49.1846422543691
 10
16.6776031706305
 20
49.1847427892023
 10
16.6777701178582
 20
49.1848934570319
 10
16.6778912555132
 20
49.1850239212723
 10
16.6779817415377
 20
49.1851081455149
 10
16.678026713939
 20
49.1851901976612
 10
16.6780437817053
 20
49.185240174291
 10
16.6779831629058
 20
49.1853308449817
 10
16.6778672701796
 20
49.185421600825
 10
16.6777111932807
 20
49.1854936175046
 10
16.6775855228546
 20
49.1855106098305
 10
16.6774461743863
 20
49.1855131689026
 10
16.6773177477933
 20
49.1854767725927
 10
16.6772207130197
 20
49.1854299652837
 10
16.6771244335775
 20
49.185360889194
 10
16.6770554925767
 20
49.1852791394546
 10
16.6769906155076
 20
49.1851527377503
 10
16.6770427918131
 20
49.184943677466
 97
0
 75
0
 76
1
 98
0
  0
HATCH
  5
20130
100
AcDbEntity
  8
skládky a antropogenní uloženiny
100
AcDbHatch
 10
0
 20
0
 30
0
210
0
220
0
230
1
  2
SOLID
 70
1
 71
0
 91
1
 92
2
 72
0
 73
1
 93
20
 10
16.6779937669723
 20
49.1893978029916
 10
16.6778781061218
 20
49.189308541357
 10
16.6777947739078
 20
49.1891983454147
 10
16.6777652645736
 20
49.1890673885603
 10
16.6778139075216
 20
49.188972066983
 10
16.6779028542882
 20
49.1889173295774
 10
16.6780585856635
 20
49.1889015201976
 10
16.6782306552293
 20
49.188944849045
 10
16.6783077616991
 20
49.1889736916642
 10
16.6784156667302
 20
49.1890459559549
 10
16.6785057469204
 20
49.1891690239269
 10
16.6785574783666
 20
49.1893046272984
 10
16.678570474691
 20
49.1893807562456
 10
16.6785116300492
 20
49.1894427882682
 10
16.6784238643791
 20
49.1894917105741
 10
16.6783408987342
 20
49.1895184411984
 10
16.6782496800505
 20
49.1895190551291
 10
16.6781648849731
 20
49.1894937268794
 10
16.6781126464107
 20
49.1894687257848
 10
16.6779937669723
 20
49.1893978029916
 97
0
 75
0
 76
1
 98
0
  0
HATCH
  5
20131
100
AcDbEntity
  8
skládky a antropogenní uloženiny
100
AcDbHatch
 10
0
 20
0
 30
0
210
0
220
0
230
1
  2
SOLID
 70
1
 71
0
 91
1
 92
2
 72
0
 73
1
 93
12
 10
16.6827361257377
 20
49.1878460912379
 10
16.6825630992107
 20
49.1876995239697
 10
16.6825342535039
 20
49.1876140212911
 10
16.6825812903002
 20
49.1875210311577
 10
16.6829268891668
 20
49.1875788078768
 10
16.6831997235069
 20
49.1875820348546
 10
16.6835725766824
 20
49.1875365754142
 10
16.6835769605893
 20
49.1875744701326
 10
16.683637367097
 20
49.1877383894008
 10
16.6835540106568
 20
49.1877552560486
 10
16.6832449486238
 20
49.1878007688859
 10
16.6827361257377
 20
49.1878460912379
 97
0
 75
0
 76
1
 98
0
  0
HATCH
  5
20132
100
AcDbEntity
  8
skládky a antropogenní uloženiny
100
AcDbHatch
 10
0
 20
0
 30
0
210
0
220
0
230
1
  2
SOLID
 70
1
 71
0
 91
1
 92
2
 72
0
 73
1
 93
8
 10
16.5508949495728
 20
49.1685529003531
 10
16.5502138806496
 20
49.1680132296137
 10
16.5500981688754
 20
49.167908678992
 10
16.5496662541969
 20
49.1678064670687
 10
16.5497244092389
 20
49.1677316501606
 10
16.55015776739
 20
49.1678671176946
 10
16.5510112838563
 20
49.1685728659535
 10
16.5508949495728
 20
49.1685529003531
 97
0
 75
0
 76
1
 98
0
  0
HATCH
  5
20133
100
AcDbEntity
  8
skládky a antropogenní uloženiny
100
AcDbHatch
 10
0
 20
0
 30
0
210
0
220
0
230
1
  2
SOLID
 70
1
 71
0
 91
1
 92
2
 72
0
 73
1
 93
12
 10
16.5602346717945
 20
49.1705988147345
 10
16.5595840954024
 20
49.1690851705708
 10
16.559414878988
 20
49.167942205193
 10
16.558782728282
 20
49.1671613154473
 10
16.5588516784811
 20
49.1670845964869
 10
16.5595352701459
 20
49.1678996420762
 10
16.560271250914
 20
49.1677994351218
 10
16.5602482890773
 20
49.1679136694621
 10
16.5595820553842
 20
49.1680007893121
 10
16.5597805863888
 20
49.1691233030287
 10
16.5603934456611
 20
49.1706101368035
 10
16.5602346717945
 20
49.1705988147345
 97
0
 75
0
 76
1
 98
0
  0
HATCH
  5
20134
100
AcDbEntity
  8
skládky a antropogenní uloženiny
100
AcDbHatch
 10
0
 20
0
 30
0
210
0
220
0
230
1
  2
SOLID
 70
1
 71
0
 91
1
 92
2
 72
0
 73
1
 93
8
 10
16.6232669292285
 20
49.2669571749514
 10
16.6238070226949
 20
49.2669432343299
 10
16.624478778141
 20
49.2669763717759
 10
16.6244499659236
 20
49.2672173701404
 10
16.6241754586032
 20
49.2674910570828
 10
16.6236777683532
 20
49.2672077110748
 10
16.6229083721853
 20
49.2671695287107
 10
16.6232669292285
 20
49.2669571749514
 97
0
 75
0
 76
1
 98
0
  0
HATCH
  5
20135
100
AcDbEntity
  8
skládky a antropogenní uloženiny
100
AcDbHatch
 10
0
 20
0
 30
0
210
0
220
0
230
1
  2
SOLID
 70
1
 71
0
 91
1
 92
2
 72
0
 73
1
 93
7
 10
16.6244875155021
 20
49.2669233782889
 10
16.6238126685993
 20
49.2668942246958
 10
16.6233205667581
 20
49.2669124570689
 10
16.6238363799789
 20
49.2665664614473
 10
16.6243725839204
 20
49.2665936014611
 10
16.6245265420449
 20
49.2666866746888
 10
16.6244875155021
 20
49.2669233782889
 97
0
 75
0
 76
1
 98
0
  0
HATCH
  5
20136
100
AcDbEntity
  8
skládky a antropogenní uloženiny
100
AcDbHatch
 10
0
 20
0
 30
0
210
0
220
0
230
1
  2
SOLID
 70
1
 71
0
 91
1
 92
2
 72
0
 73
1
 93
6
 10
16.6182409647707
 20
49.2618209462419
 10
16.6180616106157
 20
49.2619707148302
 10
16.6176558890415
 20
49.2617755135681
 10
16.6181403756741
 20
49.2613542737511
 10
16.618547191492
 20
49.2615546927008
 10
16.6182409647707
 20
49.2618209462419
 97
0
 75
0
 76
1
 98
0
  0
HATCH
  5
20137
100
AcDbEntity
  8
skládky a antropogenní uloženiny
100
AcDbHatch
 10
0
 20
0
 30
0
210
0
220
0
230
1
  2
SOLID
 70
1
 71
0
 91
1
 92
2
 72
0
 73
1
 93
22
 10
16.6187019489963
 20
49.2603611403616
 10
16.6179707043442
 20
49.2605884928483
 10
16.6175981043428
 20
49.2608591888454
 10
16.616832555218
 20
49.2612122748119
 10
16.6158943917745
 20
49.2615896047395
 10
16.6150491351813
 20
49.2620026206244
 10
16.6160583482972
 20
49.2627968239312
 10
16.6148103680144
 20
49.2621644343832
 10
16.6141779304292
 20
49.2626990072298
 10
16.6140246942607
 20
49.2630656746237
 10
16.61296919656
 20
49.2633181505848
 10
16.6119136880893
 20
49.2635706168914
 10
16.6101352134694
 20
49.2633495722434
 10
16.6100320562395
 20
49.2632462303742
 10
16.6118865362373
 20
49.2634541104039
 10
16.6137675119405
 20
49.2629539107944
 10
16.6140775735964
 20
49.2625530430407
 10
16.6148042564775
 20
49.2619289679209
 10
16.6173939955643
 20
49.2607288288638
 10
16.618016332895
 20
49.2604404070137
 10
16.6186386628243
 20
49.2601519826908
 10
16.6187019489963
 20
49.2603611403616
 97
0
 75
0
 76
1
 98
0
  0
HATCH
  5
20138
100
AcDbEntity
  8
skládky a antropogenní uloženiny
100
AcDbHatch
 10
0
 20
0
 30
0
210
0
220
0
230
1
  2
SOLID
 70
1
 71
0
 91
1
 92
2
 72
0
 73
1
 93
7
 10
16.6279128372614
 20
49.2573402562318
 10
16.6277977708785
 20
49.2572083883567
 10
16.6280102067857
 20
49.2571469856001
 10
16.6297990072527
 20
49.2566299268931
 10
16.6298032504033
 20
49.2570019217515
 10
16.6286684977637
 20
49.2573935972928
 10
16.6279128372614
 20
49.2573402562318
 97
0
 75
0
 76
1
 98
0
  0
HATCH
  5
20139
100
AcDbEntity
  8
skládky a antropogenní uloženiny
100
AcDbHatch
 10
0
 20
0
 30
0
210
0
220
0
230
1
  2
SOLID
 70
1
 71
0
 91
1
 92
2
 72
0
 73
1
 93
5
 10
16.6289602578671
 20
49.2555513131978
 10
16.6288830087985
 20
49.2554287435173
 10
16.6293683986669
 20
49.2550323024371
 10
16.6295420166088
 20
49.2551573927846
 10
16.6289602578671
 20
49.2555513131978
 97
0
 75
0
 76
1
 98
0
  0
HATCH
  5
2013A
100
AcDbEntity
  8
skládky a antropogenní uloženiny
100
AcDbHatch
 10
0
 20
0
 30
0
210
0
220
0
230
1
  2
SOLID
 70
1
 71
0
 91
1
 92
2
 72
0
 73
1
 93
11
 10
16.6319746840912
 20
49.2500500706571
 10
16.6318876918334
 20
49.2499152680129
 10
16.6332357904768
 20
49.2495529232619
 10
16.634641530999
 20
49.2488601935121
 10
16.6356573997956
 20
49.2487342186148
 10
16.6376060914706
 20
49.2484925402599
 10
16.6376598891362
 20
49.2486784309732
 10
16.6356758675717
 20
49.2489244907422
 10
16.6348399369013
 20
49.2490942593325
 10
16.6333636347448
 20
49.2497049019644
 10
16.6319746840912
 20
49.2500500706571
 97
0
 75
0
 76
1
 98
0
  0
HATCH
  5
2013B
100
AcDbEntity
  8
skládky a antropogenní uloženiny
100
AcDbHatch
 10
0
 20
0
 30
0
210
0
220
0
230
1
  2
SOLID
 70
1
 71
0
 91
1
 92
2
 72
0
 73
1
 93
7
 10
16.6263196493119
 20
49.2540378502095
 10
16.6253547912174
 20
49.2539346234575
 10
16.6240212446954
 20
49.2538338162205
 10
16.6238618331339
 20
49.2534634146899
 10
16.625033049325
 20
49.2535717876975
 10
16.6262801268352
 20
49.2535671992402
 10
16.6263196493119
 20
49.2540378502095
 97
0
 75
0
 76
1
 98
0
  0
HATCH
  5
2013C
100
AcDbEntity
  8
skládky a antropogenní uloženiny
100
AcDbHatch
 10
0
 20
0
 30
0
210
0
220
0
230
1
  2
SOLID
 70
1
 71
0
 91
1
 92
2
 72
0
 73
1
 93
41
 10
16.6182420633685
 20
49.2556023937401
 10
16.6181253605513
 20
49.2557042199504
 10
16.6182149452853
 20
49.2555911365298
 10
16.618489024657
 20
49.2552595958699
 10
16.6185594561639
 20
49.2551743975625
 10
16.6185556701042
 20
49.2551630049258
 10
16.6185429748925
 20
49.2551252050618
 10
16.6185322618033
 20
49.2550862790202
 10
16.6185216020179
 20
49.2550554065764
 10
16.6184805449135
 20
49.254923164734
 10
16.6184579448014
 20
49.2548440538308
 10
16.6183431721666
 20
49.2547247817419
 10
16.61832124781
 20
49.2547018865041
 10
16.6182428095544
 20
49.2546144873968
 10
16.6181650237303
 20
49.2545398874437
 10
16.6181328113978
 20
49.2545165363314
 10
16.6179543353371
 20
49.2543872437372
 10
16.6178995027794
 20
49.2543477315943
 10
16.6178430254731
 20
49.2543165147929
 10
16.6177423251125
 20
49.2542660723541
 10
16.6176309350056
 20
49.2541975082359
 10
16.6174602148767
 20
49.2540974348636
 10
16.6173450979512
 20
49.2540330389094
 10
16.6174064859258
 20
49.2538862402246
 10
16.61748336795
 20
49.2537694800503
 10
16.6175436960926
 20
49.253603974192
 10
16.6173256372613
 20
49.2534667266948
 10
16.6172205794493
 20
49.2534150711271
 10
16.6168605292203
 20
49.2532013058152
 10
16.6169151698204
 20
49.2531649193362
 10
16.6167120124188
 20
49.2530356946733
 10
16.6168194559413
 20
49.2529735479821
 10
16.6170255357805
 20
49.2531262141839
 10
16.6176590437198
 20
49.2535955135108
 10
16.6174470089063
 20
49.2539764528185
 10
16.617871195863
 20
49.2542718865652
 10
16.6182277902588
 20
49.2545202412727
 10
16.6184986200024
 20
49.254811337564
 10
16.6186508375035
 20
49.2551372775572
 10
16.6185954862659
 20
49.2552002578175
 10
16.6182420633685
 20
49.2556023937401
 97
0
 75
0
 76
1
 98
0
  0
HATCH
  5
2013D
100
AcDbEntity
  8
skládky a antropogenní uloženiny
100
AcDbHatch
 10
0
 20
0
 30
0
210
0
220
0
230
1
  2
SOLID
 70
1
 71
0
 91
1
 92
2
 72
0
 73
1
 93
59
 10
16.5865045655377
 20
49.177130255757
 10
16.5854553056498
 20
49.1768424821289
 10
16.5854228037887
 20
49.1765822452935
 10
16.585257021956
 20
49.1764432165851
 10
16.5845588347071
 20
49.1762591046568
 10
16.5848527328198
 20
49.1752369830381
 10
16.5852026344779
 20
49.1742532145943
 10
16.5868923656175
 20
49.1737780479115
 10
16.5869048690681
 20
49.1735409552222
 10
16.5878537248132
 20
49.1734751513841
 10
16.5880307670766
 20
49.1734156417425
 10
16.588823986597
 20
49.1734000066225
 10
16.5891244604313
 20
49.1733457381556
 10
16.5896407938629
 20
49.1733125945548
 10
16.5901539040833
 20
49.1733131393483
 10
16.5907685377371
 20
49.1733496577909
 10
16.5913278961984
 20
49.1734098643092
 10
16.591025434175
 20
49.1736619736522
 10
16.5909881960059
 20
49.1738873233247
 10
16.5906444912944
 20
49.1738629075437
 10
16.5902003893783
 20
49.1740251543104
 10
16.5901176384818
 20
49.1745810571216
 10
16.5902693763732
 20
49.1750121300154
 10
16.5908360713333
 20
49.1753444770454
 10
16.5912862204752
 20
49.1757920233404
 10
16.5909419019699
 20
49.1760613881873
 10
16.59119691906
 20
49.1764330566855
 10
16.5914519414835
 20
49.1768047238034
 10
16.5906868841876
 20
49.1781798888694
 10
16.5896402372676
 20
49.1783585338844
 10
16.5894669401331
 20
49.178475959354
 10
16.5894557294556
 20
49.178556361146
 10
16.5893005319512
 20
49.1792552965452
 10
16.589288663588
 20
49.1793149425376
 10
16.5892595826547
 20
49.1794667144129
 10
16.5892402716317
 20
49.1795772773806
 10
16.589210181979
 20
49.1796528835879
 10
16.5891428209263
 20
49.1797890292714
 10
16.5889526176102
 20
49.1801215070436
 10
16.5888259519341
 20
49.1803508792801
 10
16.5885497121559
 20
49.1807932847943
 10
16.5883964611116
 20
49.1808972677373
 10
16.5876062968656
 20
49.1807569174315
 10
16.5865686984926
 20
49.1805408130963
 10
16.5861527450878
 20
49.1804642335166
 10
16.5861510738047
 20
49.180457585857
 10
16.5856747830859
 20
49.1802914970752
 10
16.58524415588
 20
49.1802093285103
 10
16.5856564029068
 20
49.1793893668505
 10
16.5857661683233
 20
49.1789085870852
 10
16.5857955454702
 20
49.1786889750286
 10
16.5858861050481
 20
49.1785693653679
 10
16.5859924833114
 20
49.1784825836716
 10
16.5859966627574
 20
49.1784705673688
 10
16.5862412758559
 20
49.1783835364014
 10
16.5862993222234
 20
49.1782824244502
 10
16.586213060447
 20
49.1779571716355
 10
16.5865937261081
 20
49.1775207454104
 10
16.5865045655377
 20
49.177130255757
 97
0
 75
0
 76
1
 98
0
  0
HATCH
  5
2013E
100
AcDbEntity
  8
skládky a antropogenní uloženiny
100
AcDbHatch
 10
0
 20
0
 30
0
210
0
220
0
230
1
  2
SOLID
 70
1
 71
0
 91
1
 92
2
 72
0
 73
1
 93
10
 10
16.6042719914038
 20
49.1746070939872
 10
16.6039567986874
 20
49.1745573766899
 10
16.6043169319212
 20
49.1743360947015
 10
16.604326882023
 20
49.1743302707171
 10
16.6044397709122
 20
49.1742744184274
 10
16.6050028284035
 20
49.1739090388362
 10
16.6052630235703
 20
49.1735920089789
 10
16.6056908930461
 20
49.1737822649959
 10
16.6053905303704
 20
49.1740651516153
 10
16.6042719914038
 20
49.1746070939872
 97
0
 75
0
 76
1
 98
0
  0
HATCH
  5
2013F
100
AcDbEntity
  8
skládky a antropogenní uloženiny
100
AcDbHatch
 10
0
 20
0
 30
0
210
0
220
0
230
1
  2
SOLID
 70
1
 71
0
 91
1
 92
2
 72
0
 73
1
 93
8
 10
16.6639958400348
 20
49.1597929087752
 10
16.6641805873286
 20
49.1593808352452
 10
16.6646405434133
 20
49.1583649872034
 10
16.6654751781054
 20
49.1586923676294
 10
16.6651094463933
 20
49.1590699032441
 10
16.6647441379563
 20
49.1596196261153
 10
16.664555182634
 20
49.1598156521659
 10
16.6639958400348
 20
49.1597929087752
 97
0
 75
0
 76
1
 98
0
  0
HATCH
  5
20140
100
AcDbEntity
  8
skládky a antropogenní uloženiny
100
AcDbHatch
 10
0
 20
0
 30
0
210
0
220
0
230
1
  2
SOLID
 70
1
 71
0
 91
1
 92
2
 72
0
 73
1
 93
44
 10
16.6649016558542
 20
49.1580473186662
 10
16.6636917935047
 20
49.1574905770174
 10
16.6621876533628
 20
49.1569169726852
 10
16.6620594498007
 20
49.1568182896578
 10
16.66213170393
 20
49.1567337251693
 10
16.6622457206826
 20
49.1567038638521
 10
16.6627291736641
 20
49.1566916024712
 10
16.6629923527397
 20
49.1566524660426
 10
16.6629835477422
 20
49.1565529624926
 10
16.6626054187729
 20
49.1564934237872
 10
16.6625405496029
 20
49.1563814932418
 10
16.6626761347345
 20
49.1562836811929
 10
16.6631343712841
 20
49.1562163125036
 10
16.6639369807515
 20
49.1562228026594
 10
16.6658980845615
 20
49.1563855412717
 10
16.6663461532004
 20
49.1564775506309
 10
16.6667351287919
 20
49.1566260138955
 10
16.666926373191
 20
49.1567696073836
 10
16.6669654970524
 20
49.156811657025
 10
16.6670038263467
 20
49.1568585626615
 10
16.6670073657118
 20
49.1569023174811
 10
16.6670126776842
 20
49.1569835173717
 10
16.6670093241564
 20
49.157101762202
 10
16.6669168879591
 20
49.1572440128511
 10
16.6667808035392
 20
49.1573358404758
 10
16.6669253991171
 20
49.1573783261557
 10
16.6670469431296
 20
49.1574456507287
 10
16.6671884966734
 20
49.1575999324897
 10
16.6672373617874
 20
49.157710203942
 10
16.6672737660407
 20
49.1578438133726
 10
16.6672628978541
 20
49.1579298480327
 10
16.6672506146527
 20
49.1579656832636
 10
16.6672025468771
 20
49.1580240504525
 10
16.6671301511815
 20
49.1580807042779
 10
16.6669890042752
 20
49.1581325194976
 10
16.6670327901295
 20
49.158218482445
 10
16.6670750176218
 20
49.1583273343484
 10
16.6670693150584
 20
49.1584132406169
 10
16.6670000811616
 20
49.1585094134262
 10
16.6668537457486
 20
49.1586239272628
 10
16.6668252917754
 20
49.1586427406309
 10
16.6662356362762
 20
49.1585284797664
 10
16.6656873053842
 20
49.158372089018
 10
16.6649016558542
 20
49.1580473186662
 97
0
 75
0
 76
1
 98
0
  0
HATCH
  5
20141
100
AcDbEntity
  8
skládky a antropogenní uloženiny
100
AcDbHatch
 10
0
 20
0
 30
0
210
0
220
0
230
1
  2
SOLID
 70
1
 71
0
 91
1
 92
2
 72
0
 73
1
 93
50
 10
16.6668446567865
 20
49.15864614778
 10
16.6662356362762
 20
49.1585284797664
 10
16.6660346015892
 20
49.1584689249421
 10
16.6656873053842
 20
49.158372089018
 10
16.6649016558542
 20
49.1580473186662
 10
16.6642967212844
 20
49.157768949433
 10
16.6636917935047
 20
49.1574905770174
 10
16.6629397190114
 20
49.1572037777552
 10
16.6622026530552
 20
49.156932886322
 10
16.6620594498007
 20
49.1568182896578
 10
16.66213170393
 20
49.1567337251693
 10
16.6622457206826
 20
49.1567038638521
 10
16.6624874478847
 20
49.156697733463
 10
16.6627291736641
 20
49.1566916024712
 10
16.6629923527397
 20
49.1566524660426
 10
16.6629835477422
 20
49.1565529624926
 10
16.6626054187729
 20
49.1564934237872
 10
16.6625405496029
 20
49.1563814932418
 10
16.6626761347345
 20
49.1562836811929
 10
16.6631343712841
 20
49.1562163125036
 10
16.663535675991
 20
49.1562195582797
 10
16.6639369807515
 20
49.1562228026594
 10
16.6649175310451
 20
49.1563041761341
 10
16.6658980845615
 20
49.1563855412717
 10
16.666122118673
 20
49.156431546169
 10
16.6663461532004
 20
49.1564775506309
 10
16.6665406400966
 20
49.1565517819324
 10
16.6667351287919
 20
49.1566260138955
 10
16.666926373191
 20
49.1567696073836
 10
16.6670055952737
 20
49.1568804404705
 10
16.6670126776842
 20
49.1569835173717
 10
16.6670093241564
 20
49.157101762202
 10
16.6669168879591
 20
49.1572440128511
 10
16.6667808035392
 20
49.1573358404758
 10
16.6669253991171
 20
49.1573783261557
 10
16.6670469431296
 20
49.1574456507287
 10
16.6671177204731
 20
49.1575227916793
 10
16.66719162233
 20
49.1576255958491
 10
16.6672373617874
 20
49.157710203942
 10
16.6672737660407
 20
49.1578438133726
 10
16.667256755574
 20
49.1579477656004
 10
16.6672265800974
 20
49.1579948668127
 10
16.6671301511815
 20
49.1580807042779
 10
16.6669890042752
 20
49.1581325194976
 10
16.6670327901295
 20
49.158218482445
 10
16.6670750176218
 20
49.1583273343484
 10
16.6670693150584
 20
49.1584132406169
 10
16.6670000811616
 20
49.1585094134262
 10
16.6668537457486
 20
49.1586239272628
 10
16.6668446567865
 20
49.15864614778
 97
0
 75
0
 76
1
 98
0
  0
HATCH
  5
20142
100
AcDbEntity
  8
skládky a antropogenní uloženiny
100
AcDbHatch
 10
0
 20
0
 30
0
210
0
220
0
230
1
  2
SOLID
 70
1
 71
0
 91
1
 92
2
 72
0
 73
1
 93
32
 10
16.6678460200773
 20
49.1567592584256
 10
16.6682648850199
 20
49.1567101488358
 10
16.6686837503514
 20
49.1566610387143
 10
16.6687931324926
 20
49.1567248726925
 10
16.6689025147691
 20
49.1567887074606
 10
16.6690118974733
 20
49.1568525412303
 10
16.6691212803127
 20
49.1569163757899
 10
16.6691407024873
 20
49.1569333547926
 10
16.6691601245288
 20
49.1569503346861
 10
16.6691629047716
 20
49.156974212703
 10
16.6691656848707
 20
49.1569980916139
 10
16.669150744727
 20
49.1570137051449
 10
16.6691358044275
 20
49.1570293195681
 10
16.6691053301427
 20
49.1570458187725
 10
16.6690883117433
 20
49.1570557771904
 10
16.6690419842973
 20
49.1570673404299
 10
16.6690125243405
 20
49.1570692692631
 10
16.6689830630182
 20
49.1570711979927
 10
16.6689548447799
 20
49.157065528395
 10
16.668926626548
 20
49.1570598587903
 10
16.6689002267337
 20
49.1570494043151
 10
16.6688738254211
 20
49.157038950632
 10
16.6688235210811
 20
49.1570027814351
 10
16.6687743268083
 20
49.1569598275564
 10
16.668725132767
 20
49.1569168727625
 10
16.6685528396041
 20
49.1568569906151
 10
16.6684027947254
 20
49.1568859438781
 10
16.6683319203852
 20
49.1569281856785
 10
16.6682697797096
 20
49.1569357405872
 10
16.6680962856314
 20
49.1568905497137
 10
16.6679559785957
 20
49.1569241799411
 10
16.6678460200773
 20
49.1567592584256
 97
0
 75
0
 76
1
 98
0
  0
HATCH
  5
20143
100
AcDbEntity
  8
skládky a antropogenní uloženiny
100
AcDbHatch
 10
0
 20
0
 30
0
210
0
220
0
230
1
  2
SOLID
 70
1
 71
0
 91
1
 92
2
 72
0
 73
1
 93
10
 10
16.5615144908272
 20
49.2225404130768
 10
16.5617445097419
 20
49.2225296156554
 10
16.5617105108113
 20
49.2231399751712
 10
16.5621103915499
 20
49.2232559456127
 10
16.5621514974932
 20
49.2235749221668
 10
16.5621386211493
 20
49.2239883692169
 10
16.5619158037171
 20
49.2241365026244
 10
16.5614436631391
 20
49.2241062787117
 10
16.5614303111379
 20
49.2233448690935
 10
16.5615144908272
 20
49.2225404130768
 97
0
 75
0
 76
1
 98
0
  0
HATCH
  5
20144
100
AcDbEntity
  8
skládky a antropogenní uloženiny
100
AcDbHatch
 10
0
 20
0
 30
0
210
0
220
0
230
1
  2
SOLID
 70
1
 71
0
 91
1
 92
2
 72
0
 73
1
 93
32
 10
16.6606338231267
 20
49.1561068385581
 10
16.6606852985442
 20
49.1559505888125
 10
16.6609441350649
 20
49.1554662830577
 10
16.6623261303195
 20
49.1528802909135
 10
16.6626433700794
 20
49.1528527844
 10
16.6628808957498
 20
49.1527720078144
 10
16.6630492739374
 20
49.1526844837992
 10
16.6631398959832
 20
49.1526282129264
 10
16.6632342566284
 20
49.1526098912211
 10
16.6633348590763
 20
49.1526131167125
 10
16.6635186374228
 20
49.1526632207348
 10
16.6636802008198
 20
49.1527252304952
 10
16.6637463609457
 20
49.1527801348347
 10
16.6637537865469
 20
49.1529696434139
 10
16.663817694677
 20
49.1530877960955
 10
16.6639467086649
 20
49.1531361777713
 10
16.6642191043516
 20
49.1531974640665
 10
16.6642565060312
 20
49.1532197458581
 10
16.6642802643743
 20
49.1532943966398
 10
16.6641630084776
 20
49.1539976726141
 10
16.6640726306244
 20
49.154968086761
 10
16.6640203431606
 20
49.1551960104964
 10
16.6638827890075
 20
49.1553827607454
 10
16.6636177102252
 20
49.1555381164578
 10
16.6627970942808
 20
49.1557539887855
 10
16.6623786553918
 20
49.1558788935391
 10
16.6621697892154
 20
49.1560045237261
 10
16.6620394586434
 20
49.1562255048287
 10
16.662036472784
 20
49.1565312400633
 10
16.6620321524301
 20
49.156766710793
 10
16.6608096297124
 20
49.1562876353119
 10
16.6606338231267
 20
49.1561068385581
 97
0
 75
0
 76
1
 98
0
  0
HATCH
  5
20145
100
AcDbEntity
  8
skládky a antropogenní uloženiny
100
AcDbHatch
 10
0
 20
0
 30
0
210
0
220
0
230
1
  2
SOLID
 70
1
 71
0
 91
1
 92
2
 72
0
 73
1
 93
28
 10
16.6568211356853
 20
49.1457128968272
 10
16.6569134256573
 20
49.1456628763684
 10
16.6570032169338
 20
49.1456196249059
 10
16.6570317461666
 20
49.1455760667348
 10
16.657042196494
 20
49.1455318545063
 10
16.6570719742686
 20
49.1454578142218
 10
16.6571135211277
 20
49.1454098682825
 10
16.6571735254872
 20
49.1453863808299
 10
16.657273052568
 20
49.1453762044891
 10
16.6573469770348
 20
49.1453750475858
 10
16.6574430845293
 20
49.1453895944261
 10
16.6575220234482
 20
49.1454137543722
 10
16.6575790984564
 20
49.1454469359953
 10
16.6576019387929
 20
49.1454940801341
 10
16.657600578461
 20
49.1455322240048
 10
16.6575926591654
 20
49.1455806575169
 10
16.6575354599949
 20
49.1456353914888
 10
16.6574648734914
 20
49.1456656255642
 10
16.6574143957256
 20
49.1456782205567
 10
16.6573299647974
 20
49.1456851126933
 10
16.6572495928048
 20
49.1456896218963
 10
16.6571857366756
 20
49.1456795064991
 10
16.6570984373108
 20
49.1456782643051
 10
16.6569611237258
 20
49.145721967038
 10
16.6568782596157
 20
49.1457490533449
 10
16.6568345797876
 20
49.1457466758536
 10
16.6568162559255
 20
49.1457292451923
 10
16.6568211356853
 20
49.1457128968272
 97
0
 75
0
 76
1
 98
0
  0
HATCH
  5
20146
100
AcDbEntity
  8
skládky a antropogenní uloženiny
100
AcDbHatch
 10
0
 20
0
 30
0
210
0
220
0
230
1
  2
SOLID
 70
1
 71
0
 91
1
 92
2
 72
0
 73
1
 93
7
 10
16.6680008219988
 20
49.1544138287478
 10
16.6679306115753
 20
49.1542253912713
 10
16.6681310494004
 20
49.1541352952723
 10
16.6686844802949
 20
49.1540970582984
 10
16.6686567665177
 20
49.1542102347942
 10
16.6682403860838
 20
49.1544520362577
 10
16.6680008219988
 20
49.1544138287478
 97
0
 75
0
 76
1
 98
0
  0
HATCH
  5
20147
100
AcDbEntity
  8
skládky a antropogenní uloženiny
100
AcDbHatch
 10
0
 20
0
 30
0
210
0
220
0
230
1
  2
SOLID
 70
1
 71
0
 91
1
 92
2
 72
0
 73
1
 93
6
 10
16.668397889074
 20
49.1538439240177
 10
16.6683015719112
 20
49.1536511539509
 10
16.6685814029201
 20
49.1536245767338
 10
16.6688552591718
 20
49.1537947168753
 10
16.6686322402789
 20
49.1538239295694
 10
16.668397889074
 20
49.1538439240177
 97
0
 75
0
 76
1
 98
0
  0
HATCH
  5
20148
100
AcDbEntity
  8
skládky a antropogenní uloženiny
100
AcDbHatch
 10
0
 20
0
 30
0
210
0
220
0
230
1
  2
SOLID
 70
1
 71
0
 91
1
 92
2
 72
0
 73
1
 93
16
 10
16.6738769910901
 20
49.1659064102924
 10
16.6740767974137
 20
49.1656759956157
 10
16.674075190873
 20
49.1654010908416
 10
16.6742288829099
 20
49.16537190126
 10
16.6743834924397
 20
49.1654003159067
 10
16.6745148072463
 20
49.1655133999465
 10
16.6745575510648
 20
49.1655662261618
 10
16.6745933727035
 20
49.1656873320371
 10
16.674594501774
 20
49.1658047630918
 10
16.674495562975
 20
49.1659190315792
 10
16.6742853238134
 20
49.166053008818
 10
16.6742516956122
 20
49.1660688935313
 10
16.6741101610667
 20
49.1660771797103
 10
16.6739702353469
 20
49.1660301507308
 10
16.6738755968651
 20
49.1659607409968
 10
16.6738769910901
 20
49.1659064102924
 97
0
 75
0
 76
1
 98
0
  0
HATCH
  5
20149
100
AcDbEntity
  8
skládky a antropogenní uloženiny
100
AcDbHatch
 10
0
 20
0
 30
0
210
0
220
0
230
1
  2
SOLID
 70
1
 71
0
 91
1
 92
2
 72
0
 73
1
 93
9
 10
16.6373201626466
 20
49.28634552878
 10
16.6368940313126
 20
49.2859131064026
 10
16.6363559820753
 20
49.2853671022838
 10
16.6359800859336
 20
49.2850653133603
 10
16.636105280389
 20
49.285099821703
 10
16.6364777773632
 20
49.2852787256751
 10
16.6371576651242
 20
49.2859017197495
 10
16.6375312454408
 20
49.2862440307822
 10
16.6373201626466
 20
49.28634552878
 97
0
 75
0
 76
1
 98
0
  0
HATCH
  5
2014A
100
AcDbEntity
  8
skládky a antropogenní uloženiny
100
AcDbHatch
 10
0
 20
0
 30
0
210
0
220
0
230
1
  2
SOLID
 70
1
 71
0
 91
1
 92
2
 72
0
 73
1
 93
7
 10
16.6387531905214
 20
49.2862667103862
 10
16.6386765606752
 20
49.2861756957304
 10
16.6390878879684
 20
49.286101937965
 10
16.639585783434
 20
49.2858784988179
 10
16.6397454504494
 20
49.2859248819608
 10
16.6391196067203
 20
49.2862041299882
 10
16.6387531905214
 20
49.2862667103862
 97
0
 75
0
 76
1
 98
0
  0
HATCH
  5
2014B
100
AcDbEntity
  8
skládky a antropogenní uloženiny
100
AcDbHatch
 10
0
 20
0
 30
0
210
0
220
0
230
1
  2
SOLID
 70
1
 71
0
 91
1
 92
2
 72
0
 73
1
 93
14
 10
16.5162514484054
 20
49.2001732544445
 10
16.5167127916791
 20
49.1993134799848
 10
16.5168168591035
 20
49.1991043452231
 10
16.5169368485578
 20
49.198862274361
 10
16.5170512908347
 20
49.1986839423217
 10
16.517087102115
 20
49.1986538062949
 10
16.5173196717608
 20
49.1986923518624
 10
16.5172868686635
 20
49.1987554595862
 10
16.5171298462589
 20
49.1990814499464
 10
16.517060148661
 20
49.1992240894961
 10
16.517022455277
 20
49.1993296260664
 10
16.5169847617323
 20
49.1994351626226
 10
16.516516031838
 20
49.2003845337009
 10
16.5162514484054
 20
49.2001732544445
 97
0
 75
0
 76
1
 98
0
  0
HATCH
  5
2014C
100
AcDbEntity
  8
skládky a antropogenní uloženiny
100
AcDbHatch
 10
0
 20
0
 30
0
210
0
220
0
230
1
  2
SOLID
 70
1
 71
0
 91
1
 92
2
 72
0
 73
1
 93
10
 10
16.5152048305687
 20
49.2024055730381
 10
16.5150541616048
 20
49.2021941319861
 10
16.5156497858945
 20
49.2011749742351
 10
16.5160104321985
 20
49.2004795125196
 10
16.5161683768869
 20
49.2007215604154
 10
16.5162201197763
 20
49.2007804495262
 10
16.5160715643111
 20
49.2010841591901
 10
16.5158259477553
 20
49.2015074697381
 10
16.5153741693322
 20
49.2022437497404
 10
16.5152048305687
 20
49.2024055730381
 97
0
 75
0
 76
1
 98
0
  0
HATCH
  5
2014D
100
AcDbEntity
  8
skládky a antropogenní uloženiny
100
AcDbHatch
 10
0
 20
0
 30
0
210
0
220
0
230
1
  2
SOLID
 70
1
 71
0
 91
1
 92
2
 72
0
 73
1
 93
16
 10
16.5244358116968
 20
49.1963883837501
 10
16.5245284114254
 20
49.1963744328578
 10
16.5246714636854
 20
49.1962962933491
 10
16.5247309037258
 20
49.1963048904545
 10
16.5248262566906
 20
49.1963241092985
 10
16.5253246712363
 20
49.1963863818768
 10
16.5255194535511
 20
49.1964724210386
 10
16.5250615023549
 20
49.1969773384863
 10
16.5247727350405
 20
49.1970079591159
 10
16.524619901081
 20
49.1969716897311
 10
16.5244890402644
 20
49.196919534199
 10
16.5244003426341
 20
49.1967999280179
 10
16.5243754307103
 20
49.1967249620287
 10
16.5243536151984
 20
49.1966194122372
 10
16.524343211916
 20
49.1964023345682
 10
16.5244358116968
 20
49.1963883837501
 97
0
 75
0
 76
1
 98
0
  0
HATCH
  5
2014E
100
AcDbEntity
  8
skládky a antropogenní uloženiny
100
AcDbHatch
 10
0
 20
0
 30
0
210
0
220
0
230
1
  2
SOLID
 70
1
 71
0
 91
1
 92
2
 72
0
 73
1
 93
7
 10
16.5085116101521
 20
49.2038782880624
 10
16.5085795086924
 20
49.2036494926328
 10
16.508648049794
 20
49.2034656127112
 10
16.5091684431352
 20
49.2036892843199
 10
16.5089879009591
 20
49.2039982030606
 10
16.5088029682625
 20
49.2039721859117
 10
16.5085116101521
 20
49.2038782880624
 97
0
 75
0
 76
1
 98
0
  0
HATCH
  5
2014F
100
AcDbEntity
  8
skládky a antropogenní uloženiny
100
AcDbHatch
 10
0
 20
0
 30
0
210
0
220
0
230
1
  2
SOLID
 70
1
 71
0
 91
1
 92
2
 72
0
 73
1
 93
9
 10
16.5070589386308
 20
49.2011381043387
 10
16.5067937970558
 20
49.2010845695798
 10
16.5064958181482
 20
49.201020001306
 10
16.5063165616093
 20
49.2009369425265
 10
16.5063052694473
 20
49.2008883282202
 10
16.5068053300703
 20
49.2007968693098
 10
16.5070441960462
 20
49.2009619108336
 10
16.5072306475462
 20
49.2011407417941
 10
16.5070589386308
 20
49.2011381043387
 97
0
 75
0
 76
1
 98
0
  0
HATCH
  5
20150
100
AcDbEntity
  8
skládky a antropogenní uloženiny
100
AcDbHatch
 10
0
 20
0
 30
0
210
0
220
0
230
1
  2
SOLID
 70
1
 71
0
 91
1
 92
2
 72
0
 73
1
 93
5
 10
16.4998048279286
 20
49.194547632183
 10
16.4998228296784
 20
49.1940937822728
 10
16.5040444291241
 20
49.1946666549467
 10
16.5035954438979
 20
49.1951339696652
 10
16.4998048279286
 20
49.194547632183
 97
0
 75
0
 76
1
 98
0
  0
HATCH
  5
20151
100
AcDbEntity
  8
skládky a antropogenní uloženiny
100
AcDbHatch
 10
0
 20
0
 30
0
210
0
220
0
230
1
  2
SOLID
 70
1
 71
0
 91
1
 92
2
 72
0
 73
1
 93
5
 10
16.4911975431477
 20
49.2016089236788
 10
16.4918024662104
 20
49.2016123279646
 10
16.4917825551295
 20
49.2016592920822
 10
16.4911988829875
 20
49.2019861869696
 10
16.4911975431477
 20
49.2016089236788
 97
0
 75
0
 76
1
 98
0
  0
HATCH
  5
20152
100
AcDbEntity
  8
skládky a antropogenní uloženiny
100
AcDbHatch
 10
0
 20
0
 30
0
210
0
220
0
230
1
  2
SOLID
 70
1
 71
0
 91
1
 92
2
 72
0
 73
1
 93
5
 10
16.4793521572284
 20
49.2017448995405
 10
16.4795073428473
 20
49.2015570174772
 10
16.4816559924931
 20
49.2015669424199
 10
16.4815240980229
 20
49.2017587842784
 10
16.4793521572284
 20
49.2017448995405
 97
0
 75
0
 76
1
 98
0
  0
HATCH
  5
20153
100
AcDbEntity
  8
skládky a antropogenní uloženiny
100
AcDbHatch
 10
0
 20
0
 30
0
210
0
220
0
230
1
  2
SOLID
 70
1
 71
0
 91
1
 92
2
 72
0
 73
1
 93
8
 10
16.4829140241807
 20
49.2099614789274
 10
16.4824637764925
 20
49.2100044265363
 10
16.4820422952163
 20
49.2095141412791
 10
16.4818362744748
 20
49.2092274787832
 10
16.4828124767514
 20
49.2091064107858
 10
16.4834262297893
 20
49.2098167485119
 10
16.4833277588472
 20
49.2098841000738
 10
16.4829140241807
 20
49.2099614789274
 97
0
 75
0
 76
1
 98
0
  0
HATCH
  5
20154
100
AcDbEntity
  8
skládky a antropogenní uloženiny
100
AcDbHatch
 10
0
 20
0
 30
0
210
0
220
0
230
1
  2
SOLID
 70
1
 71
0
 91
1
 92
2
 72
0
 73
1
 93
13
 10
16.4780553871913
 20
49.210426817308
 10
16.4782693452315
 20
49.2103106239112
 10
16.4784611497478
 20
49.210536521309
 10
16.4785795950552
 20
49.2107093073516
 10
16.4780940625013
 20
49.2110837041098
 10
16.477944368769
 20
49.2109087155048
 10
16.4780437200899
 20
49.2107897450391
 10
16.4782051120507
 20
49.210640771994
 10
16.4782549266848
 20
49.2105892622666
 10
16.4779816172937
 20
49.2106720411359
 10
16.4778707749739
 20
49.2107282113268
 10
16.4778042433693
 20
49.2106253850911
 10
16.4780553871913
 20
49.210426817308
 97
0
 75
0
 76
1
 98
0
  0
HATCH
  5
20155
100
AcDbEntity
  8
skládky a antropogenní uloženiny
100
AcDbHatch
 10
0
 20
0
 30
0
210
0
220
0
230
1
  2
SOLID
 70
1
 71
0
 91
1
 92
2
 72
0
 73
1
 93
19
 10
16.4948284373427
 20
49.2180555723067
 10
16.4949257753815
 20
49.2180676738345
 10
16.4950283453938
 20
49.2181009125222
 10
16.4951775555095
 20
49.2181649110635
 10
16.495260373726
 20
49.2182122004652
 10
16.4955566527135
 20
49.2182770798841
 10
16.49569677853
 20
49.218271582196
 10
16.4958129324931
 20
49.2183383625939
 10
16.496267061597
 20
49.2183644575112
 10
16.4965441334634
 20
49.2184285883706
 10
16.4968922950246
 20
49.2184677432759
 10
16.4967649032542
 20
49.2185667465274
 10
16.4965100724481
 20
49.2185438363851
 10
16.4962066314976
 20
49.2185176162773
 10
16.4957627817717
 20
49.2185060098793
 10
16.4953731113247
 20
49.2183918161386
 10
16.4950744735359
 20
49.2182824394663
 10
16.4949188172084
 20
49.2181967188043
 10
16.4948284373427
 20
49.2180555723067
 97
0
 75
0
 76
1
 98
0
  0
HATCH
  5
20156
100
AcDbEntity
  8
skládky a antropogenní uloženiny
100
AcDbHatch
 10
0
 20
0
 30
0
210
0
220
0
230
1
  2
SOLID
 70
1
 71
0
 91
1
 92
2
 72
0
 73
1
 93
39
 10
16.4618435659212
 20
49.2106770746335
 10
16.4616911059888
 20
49.2103730520317
 10
16.4615410582072
 20
49.2100497522859
 10
16.461416226056
 20
49.209614189781
 10
16.4616867931523
 20
49.2090968621008
 10
16.4617922932218
 20
49.2088395785039
 10
16.4618610274021
 20
49.2082956624271
 10
16.4619297600679
 20
49.2077517462652
 10
16.4622598329441
 20
49.2071295593891
 10
16.4626820390449
 20
49.2064635347974
 10
16.4632839817868
 20
49.2060569968578
 10
16.464225686486
 20
49.2054368417011
 10
16.4647923996275
 20
49.2050738510695
 10
16.4651876961746
 20
49.2050376655106
 10
16.4656323769294
 20
49.2048917880099
 10
16.4660752123788
 20
49.2048296091337
 10
16.4666524792799
 20
49.2046371800925
 10
16.4671153177413
 20
49.2043684688347
 10
16.467391249709
 20
49.2041159582028
 10
16.4677223616286
 20
49.2036889309591
 10
16.4677084730419
 20
49.2029516568493
 10
16.4704459863343
 20
49.2045758293871
 10
16.4689767986375
 20
49.2051558026193
 10
16.467817921089
 20
49.2055838376921
 10
16.4675588172798
 20
49.205671508734
 10
16.4672118873425
 20
49.2057979022323
 10
16.4668347737305
 20
49.205925195137
 10
16.4663468782097
 20
49.2060329976459
 10
16.4662495292502
 20
49.2061000882686
 10
16.465820217495
 20
49.2063959573452
 10
16.4656679655602
 20
49.2066037338751
 10
16.4656103948345
 20
49.2072088866454
 10
16.4653327169941
 20
49.207545223392
 10
16.464914387244
 20
49.2078853519847
 10
16.4644642885157
 20
49.2085379281624
 10
16.4641021362594
 20
49.2088904279721
 10
16.4632322896375
 20
49.2094514901514
 10
16.4622244041617
 20
49.2101691454297
 10
16.4618435659212
 20
49.2106770746335
 97
0
 75
0
 76
1
 98
0
  0
HATCH
  5
20157
100
AcDbEntity
  8
skládky a antropogenní uloženiny
100
AcDbHatch
 10
0
 20
0
 30
0
210
0
220
0
230
1
  2
SOLID
 70
1
 71
0
 91
1
 92
2
 72
0
 73
1
 93
33
 10
16.4791472738374
 20
49.2136263548858
 10
16.4788867035902
 20
49.2135865273329
 10
16.4785121035771
 20
49.2135452825858
 10
16.4784722832675
 20
49.2133963716325
 10
16.4784426464305
 20
49.2131745665443
 10
16.4784461086346
 20
49.2131132605742
 10
16.478473966143
 20
49.2130117718351
 10
16.4783795243634
 20
49.2127374660965
 10
16.4783350582246
 20
49.2127057690711
 10
16.4779623344536
 20
49.2126021384055
 10
16.4779143162605
 20
49.2125916260935
 10
16.47787463085
 20
49.2125828895498
 10
16.4774884400909
 20
49.2124747597751
 10
16.4773100394297
 20
49.2123915362175
 10
16.4771454500117
 20
49.2123577060627
 10
16.4765544239901
 20
49.2123484107102
 10
16.4765351791701
 20
49.2122485515557
 10
16.4771276742736
 20
49.2122570092693
 10
16.4774364851925
 20
49.2123012146369
 10
16.4776004456152
 20
49.2123873792056
 10
16.4779397433237
 20
49.2124589325029
 10
16.4783342663452
 20
49.2125804070757
 10
16.478510864952
 20
49.212656840863
 10
16.478605859798
 20
49.2127736571884
 10
16.4787002127979
 20
49.2129529665957
 10
16.4787420953688
 20
49.2130326056155
 10
16.4787826322783
 20
49.2131219181354
 10
16.4787693738678
 20
49.2132438172978
 10
16.4787562345189
 20
49.2133645942
 10
16.4787495894923
 20
49.2134252260113
 10
16.479009321069
 20
49.2134607434857
 10
16.4791699218424
 20
49.2134949168664
 10
16.4791472738374
 20
49.2136263548858
 97
0
 75
0
 76
1
 98
0
  0
HATCH
  5
20158
100
AcDbEntity
  8
skládky a antropogenní uloženiny
100
AcDbHatch
 10
0
 20
0
 30
0
210
0
220
0
230
1
  2
SOLID
 70
1
 71
0
 91
1
 92
2
 72
0
 73
1
 93
12
 10
16.4741604484355
 20
49.2125442122794
 10
16.4749906649096
 20
49.2123399158138
 10
16.4756687318953
 20
49.2122087040518
 10
16.476458585066
 20
49.2120761650046
 10
16.4765351791701
 20
49.2122485515557
 10
16.4760654302803
 20
49.2123381327205
 10
16.4759511262815
 20
49.2123848626683
 10
16.4752706701208
 20
49.2126315659997
 10
16.4748379344673
 20
49.2127268379692
 10
16.4744051971497
 20
49.2128221083136
 10
16.4741013468413
 20
49.2128619285603
 10
16.4741604484355
 20
49.2125442122794
 97
0
 75
0
 76
1
 98
0
  0
HATCH
  5
20159
100
AcDbEntity
  8
skládky a antropogenní uloženiny
100
AcDbHatch
 10
0
 20
0
 30
0
210
0
220
0
230
1
  2
SOLID
 70
1
 71
0
 91
1
 92
2
 72
0
 73
1
 93
13
 10
16.4832189684859
 20
49.2107729628049
 10
16.4832222278051
 20
49.2106434738305
 10
16.4832682143832
 20
49.2105974460197
 10
16.4833367753366
 20
49.2105044355491
 10
16.4833995407172
 20
49.210419607875
 10
16.4835842830682
 20
49.2102778445546
 10
16.4840555178206
 20
49.2100747704648
 10
16.4845529231183
 20
49.2100396554281
 10
16.4843448664926
 20
49.2106480911708
 10
16.484153640085
 20
49.2111917507047
 10
16.4836668051244
 20
49.2110789817958
 10
16.483459681088
 20
49.2109762432448
 10
16.4832189684859
 20
49.2107729628049
 97
0
 75
0
 76
1
 98
0
  0
HATCH
  5
2015A
100
AcDbEntity
  8
skládky a antropogenní uloženiny
100
AcDbHatch
 10
0
 20
0
 30
0
210
0
220
0
230
1
  2
SOLID
 70
1
 71
0
 91
1
 92
2
 72
0
 73
1
 93
8
 10
16.4779193341214
 20
49.2034503805042
 10
16.4783456734534
 20
49.2036577932493
 10
16.4788848106831
 20
49.2040923159319
 10
16.4798769581222
 20
49.2045687710187
 10
16.4798627947024
 20
49.2045881971188
 10
16.4788653831039
 20
49.2042234826222
 10
16.4781088125585
 20
49.2036617553476
 10
16.4779193341214
 20
49.2034503805042
 97
0
 75
0
 76
1
 98
0
  0
HATCH
  5
2015B
100
AcDbEntity
  8
skládky a antropogenní uloženiny
100
AcDbHatch
 10
0
 20
0
 30
0
210
0
220
0
230
1
  2
SOLID
 70
1
 71
0
 91
1
 92
2
 72
0
 73
1
 93
10
 10
16.4949716220718
 20
49.2152538216909
 10
16.4952786116583
 20
49.215179833713
 10
16.4954596620202
 20
49.2154616571381
 10
16.4958183446393
 20
49.2155578862901
 10
16.4958366640455
 20
49.2157091912294
 10
16.4956360104369
 20
49.2157867841532
 10
16.4955100763404
 20
49.2158308882466
 10
16.4953841420197
 20
49.2158749922022
 10
16.4952851506959
 20
49.2159153271666
 10
16.4949716220718
 20
49.2152538216909
 97
0
 75
0
 76
1
 98
0
  0
HATCH
  5
2015C
100
AcDbEntity
  8
skládky a antropogenní uloženiny
100
AcDbHatch
 10
0
 20
0
 30
0
210
0
220
0
230
1
  2
SOLID
 70
1
 71
0
 91
1
 92
2
 72
0
 73
1
 93
15
 10
16.5021967847228
 20
49.2116032464342
 10
16.502236892889
 20
49.2115530823422
 10
16.5023975414865
 20
49.2114521644712
 10
16.5025581894292
 20
49.2113512463748
 10
16.5027188367173
 20
49.211250328053
 10
16.5028794833506
 20
49.2111494095059
 10
16.5030019537566
 20
49.2110908021731
 10
16.503135789997
 20
49.2111702881263
 10
16.503269626667
 20
49.2112497739235
 10
16.5031133142953
 20
49.2113043249737
 10
16.5029549040224
 20
49.2114102440936
 10
16.5027964930719
 20
49.2115161629942
 10
16.5026357056101
 20
49.2116395967572
 10
16.5025236282538
 20
49.2117244349037
 10
16.5021967847228
 20
49.2116032464342
 97
0
 75
0
 76
1
 98
0
  0
HATCH
  5
2015D
100
AcDbEntity
  8
skládky a antropogenní uloženiny
100
AcDbHatch
 10
0
 20
0
 30
0
210
0
220
0
230
1
  2
SOLID
 70
1
 71
0
 91
1
 92
2
 72
0
 73
1
 93
28
 10
16.4764031844765
 20
49.2088991107109
 10
16.4764026395025
 20
49.2089402338264
 10
16.4764012529878
 20
49.2090382451457
 10
16.4763998664675
 20
49.2091362564636
 10
16.4764037551611
 20
49.2091571175832
 10
16.476424194289
 20
49.2092670133195
 10
16.476434007919
 20
49.2093196476764
 10
16.4763679213197
 20
49.2094452978791
 10
16.4763018343849
 20
49.2095709480416
 10
16.4761798767672
 20
49.2096921689205
 10
16.4764237095054
 20
49.2100413732586
 10
16.4765882571367
 20
49.21027845257
 10
16.4761209212408
 20
49.2104186107792
 10
16.4760776390043
 20
49.2103700941425
 10
16.4758182119612
 20
49.2100792934705
 10
16.4756856300803
 20
49.2099641736266
 10
16.4755639245465
 20
49.2098451323656
 10
16.4757808377275
 20
49.2097900492769
 10
16.4759977504262
 20
49.2097349657797
 10
16.4758781789043
 20
49.2097126969903
 10
16.4759179202843
 20
49.2096506934436
 10
16.4759576615647
 20
49.2095886898826
 10
16.4760152898391
 20
49.2094661400285
 10
16.4760729178281
 20
49.2093435901432
 10
16.4760757647818
 20
49.2092031193255
 10
16.4760909207714
 20
49.2090798186789
 10
16.4761060766854
 20
49.208956518028
 10
16.4764031844765
 20
49.2088991107109
 97
0
 75
0
 76
1
 98
0
  0
HATCH
  5
2015E
100
AcDbEntity
  8
skládky a antropogenní uloženiny
100
AcDbHatch
 10
0
 20
0
 30
0
210
0
220
0
230
1
  2
SOLID
 70
1
 71
0
 91
1
 92
2
 72
0
 73
1
 93
9
 10
16.6547370876542
 20
49.210073658047
 10
16.6546438499325
 20
49.2100335968843
 10
16.6551054896867
 20
49.2097320097307
 10
16.6553357716316
 20
49.2094617918437
 10
16.655412636159
 20
49.2093522419202
 10
16.6555217366996
 20
49.2095429823243
 10
16.655169990077
 20
49.2099688018807
 10
16.6548719072458
 20
49.2101137740818
 10
16.6547370876542
 20
49.210073658047
 97
0
 75
0
 76
1
 98
0
  0
HATCH
  5
2015F
100
AcDbEntity
  8
skládky a antropogenní uloženiny
100
AcDbHatch
 10
0
 20
0
 30
0
210
0
220
0
230
1
  2
SOLID
 70
1
 71
0
 91
1
 92
2
 72
0
 73
1
 93
5
 10
16.6537337970809
 20
49.2101468993263
 10
16.6534692631049
 20
49.2100683570392
 10
16.6553389594223
 20
49.2089208539207
 10
16.6554114081107
 20
49.2091477775522
 10
16.6537337970809
 20
49.2101468993263
 97
0
 75
0
 76
1
 98
0
  0
HATCH
  5
20160
100
AcDbEntity
  8
skládky a antropogenní uloženiny
100
AcDbHatch
 10
0
 20
0
 30
0
210
0
220
0
230
1
  2
SOLID
 70
1
 71
0
 91
1
 92
2
 72
0
 73
1
 93
12
 10
16.6495405639812
 20
49.2065902832662
 10
16.6496962526286
 20
49.2065029424402
 10
16.6509549966123
 20
49.2065518488123
 10
16.6514346869615
 20
49.2065921601666
 10
16.6521822578607
 20
49.2067539059678
 10
16.6525794141492
 20
49.2068875241631
 10
16.652575749877
 20
49.2069973362435
 10
16.6524240352891
 20
49.2070789913708
 10
16.6518042477614
 20
49.2068703562022
 10
16.6513060817805
 20
49.2067743879329
 10
16.6506426945097
 20
49.2067624649993
 10
16.6495405639812
 20
49.2065902832662
 97
0
 75
0
 76
1
 98
0
  0
HATCH
  5
20161
100
AcDbEntity
  8
skládky a antropogenní uloženiny
100
AcDbHatch
 10
0
 20
0
 30
0
210
0
220
0
230
1
  2
SOLID
 70
1
 71
0
 91
1
 92
2
 72
0
 73
1
 93
10
 10
16.6789203022417
 20
49.2147758430183
 10
16.6791099208525
 20
49.2152640576908
 10
16.6791951554301
 20
49.2155050959563
 10
16.6793458656757
 20
49.2157184885905
 10
16.679489119494
 20
49.2159116415027
 10
16.679380157089
 20
49.2160367587418
 10
16.6792081017642
 20
49.2160576457749
 10
16.6786302919903
 20
49.2157847757094
 10
16.6786365030127
 20
49.2152667258105
 10
16.6789203022417
 20
49.2147758430183
 97
0
 75
0
 76
1
 98
0
  0
HATCH
  5
20162
100
AcDbEntity
  8
skládky a antropogenní uloženiny
100
AcDbHatch
 10
0
 20
0
 30
0
210
0
220
0
230
1
  2
SOLID
 70
1
 71
0
 91
1
 92
2
 72
0
 73
1
 93
17
 10
16.6625674844789
 20
49.1872860142169
 10
16.6632725545078
 20
49.1880299567749
 10
16.6647590918738
 20
49.1891981765533
 10
16.6647599735823
 20
49.1895073035241
 10
16.6636842004928
 20
49.1901742208554
 10
16.6627575969134
 20
49.1895321025243
 10
16.6622281193267
 20
49.1898231848855
 10
16.661868025133
 20
49.1895417894665
 10
16.6610981960857
 20
49.189779823361
 10
16.6602021037118
 20
49.1885347647031
 10
16.6606711752665
 20
49.1884112030587
 10
16.6603325889978
 20
49.1878589831607
 10
16.6602688511109
 20
49.1877593375341
 10
16.6608252513014
 20
49.1876466392007
 10
16.6618464741003
 20
49.1874339813672
 10
16.6621926969219
 20
49.1873609524026
 10
16.6625674844789
 20
49.1872860142169
 97
0
 75
0
 76
1
 98
0
  0
HATCH
  5
20163
100
AcDbEntity
  8
skládky a antropogenní uloženiny
100
AcDbHatch
 10
0
 20
0
 30
0
210
0
220
0
230
1
  2
SOLID
 70
1
 71
0
 91
1
 92
2
 72
0
 73
1
 93
34
 10
16.6635689357079
 20
49.2112861211803
 10
16.6639312039484
 20
49.2107107895241
 10
16.6643630282542
 20
49.2103509964221
 10
16.6645788801518
 20
49.2101343186272
 10
16.6647613816517
 20
49.2098980438232
 10
16.6652531345387
 20
49.2092566660193
 10
16.6659446216906
 20
49.2083473355057
 10
16.6664206191
 20
49.2076780757752
 10
16.6670878748723
 20
49.2067664040125
 10
16.6680949178352
 20
49.2065350044181
 10
16.6693572491341
 20
49.2067178600238
 10
16.6699685733609
 20
49.20679854953
 10
16.6703268243172
 20
49.2068045589419
 10
16.6706128360653
 20
49.2068820935652
 10
16.6707314823103
 20
49.2069844924071
 10
16.6712069844513
 20
49.2074652376774
 10
16.6713989896605
 20
49.2078379207597
 10
16.6712597403761
 20
49.2082049131948
 10
16.6707162213792
 20
49.2095288972434
 10
16.6704415416078
 20
49.210206126605
 10
16.6702810347343
 20
49.210503476833
 10
16.66997514909
 20
49.211216372162
 10
16.6696336378008
 20
49.2118952549794
 10
16.6694308390088
 20
49.2121354772508
 10
16.6691606421961
 20
49.2122758910643
 10
16.668960213847
 20
49.212380047941
 10
16.6686826205573
 20
49.2125243028747
 10
16.6683623955178
 20
49.2125882025983
 10
16.6679880641973
 20
49.2125576033904
 10
16.6670599084318
 20
49.2123243802751
 10
16.6661881588346
 20
49.2121080362142
 10
16.6652893068176
 20
49.2118515227817
 10
16.6642517879031
 20
49.2115207988399
 10
16.6635689357079
 20
49.2112861211803
 97
0
 75
0
 76
1
 98
0
  0
HATCH
  5
20164
100
AcDbEntity
  8
skládky a antropogenní uloženiny
100
AcDbHatch
 10
0
 20
0
 30
0
210
0
220
0
230
1
  2
SOLID
 70
1
 71
0
 91
1
 92
2
 72
0
 73
1
 93
22
 10
16.6692465156136
 20
49.2117094949579
 10
16.6688643796986
 20
49.2116826319489
 10
16.6686345834514
 20
49.2116465801493
 10
16.66850987243
 20
49.2116135129017
 10
16.6684405411173
 20
49.2115732470739
 10
16.6683545451441
 20
49.2115167293486
 10
16.6683343665524
 20
49.2114713614296
 10
16.6683119178555
 20
49.2113471441013
 10
16.6683393534241
 20
49.2112723529476
 10
16.6684226945497
 20
49.2112102252091
 10
16.6685728608489
 20
49.2111719437227
 10
16.6687475190692
 20
49.2111824135706
 10
16.6692341457827
 20
49.2112455639336
 10
16.6693771074218
 20
49.2112700841545
 10
16.6694973048756
 20
49.2113285512036
 10
16.6695560244762
 20
49.2113958948082
 10
16.669576466997
 20
49.2114396575624
 10
16.6695735370885
 20
49.2114633390602
 10
16.6695368786401
 20
49.2115296606837
 10
16.6694352640298
 20
49.2116359389277
 10
16.6693723147712
 20
49.2116747089144
 10
16.6692465156136
 20
49.2117094949579
 97
0
 75
0
 76
1
 98
0
  0
HATCH
  5
20165
100
AcDbEntity
  8
skládky a antropogenní uloženiny
100
AcDbHatch
 10
0
 20
0
 30
0
210
0
220
0
230
1
  2
SOLID
 70
1
 71
0
 91
1
 92
2
 72
0
 73
1
 93
18
 10
16.668993253578
 20
49.2100528872934
 10
16.6688639320624
 20
49.2094939099801
 10
16.6694379304206
 20
49.2093606135876
 10
16.6695649917985
 20
49.2093813029666
 10
16.6696448186963
 20
49.20942489994
 10
16.6697095344098
 20
49.2094764787832
 10
16.6697396903503
 20
49.2095410033193
 10
16.6696268052557
 20
49.209673984375
 10
16.6694643586794
 20
49.2097387088606
 10
16.6701365741934
 20
49.2098149023758
 10
16.6709254883818
 20
49.2098359847929
 10
16.6712283530161
 20
49.2098916384596
 10
16.6714760137924
 20
49.2099640766267
 10
16.6714043456077
 20
49.2101391549184
 10
16.6710707593772
 20
49.2102133872364
 10
16.6705906364756
 20
49.2102444148997
 10
16.6700721511863
 20
49.2102083171346
 10
16.668993253578
 20
49.2100528872934
 97
0
 75
0
 76
1
 98
0
  0
HATCH
  5
20166
100
AcDbEntity
  8
skládky a antropogenní uloženiny
100
AcDbHatch
 10
0
 20
0
 30
0
210
0
220
0
230
1
  2
SOLID
 70
1
 71
0
 91
1
 92
2
 72
0
 73
1
 93
17
 10
16.6692517666635
 20
49.2100927664504
 10
16.6691509316274
 20
49.209427262141
 10
16.6695014610963
 20
49.2093709582946
 10
16.6696771765362
 20
49.2094506893662
 10
16.6697396903503
 20
49.2095410033193
 10
16.6696268052557
 20
49.209673984375
 10
16.6694643586794
 20
49.2097387088606
 10
16.6698004661778
 20
49.2097768061076
 10
16.6702699300715
 20
49.2098098052561
 10
16.6705738411917
 20
49.2098803847616
 10
16.6705775520586
 20
49.2099544277984
 10
16.6705443802621
 20
49.2100895674307
 10
16.6703313937364
 20
49.2102263663082
 10
16.6700721511863
 20
49.2102083171346
 10
16.6699431401136
 20
49.2101858806683
 10
16.6695327015357
 20
49.2101306034748
 10
16.6692517666635
 20
49.2100927664504
 97
0
 75
0
 76
1
 98
0
  0
HATCH
  5
20167
100
AcDbEntity
  8
skládky a antropogenní uloženiny
100
AcDbHatch
 10
0
 20
0
 30
0
210
0
220
0
230
1
  2
SOLID
 70
1
 71
0
 91
1
 92
2
 72
0
 73
1
 93
18
 10
16.6710792757948
 20
49.2075477704339
 10
16.6707486205237
 20
49.2076113536786
 10
16.6703134008223
 20
49.2078578408527
 10
16.6698893364207
 20
49.2081551033725
 10
16.6697508790631
 20
49.2083262538167
 10
16.6695993767599
 20
49.2084168984499
 10
16.669465433079
 20
49.2084508945641
 10
16.6692852891453
 20
49.2084635543403
 10
16.6690833221735
 20
49.2084240322694
 10
16.668965392036
 20
49.2083433881306
 10
16.6689574213944
 20
49.2082487683248
 10
16.6690238345158
 20
49.208121392347
 10
16.6692335435046
 20
49.2079787665552
 10
16.6700883236364
 20
49.2075468524745
 10
16.6707633202452
 20
49.2072279180141
 10
16.6709584719455
 20
49.2072064547992
 10
16.6711725192223
 20
49.2074213813442
 10
16.6710792757948
 20
49.2075477704339
 97
0
 75
0
 76
1
 98
0
  0
HATCH
  5
20168
100
AcDbEntity
  8
skládky a antropogenní uloženiny
100
AcDbHatch
 10
0
 20
0
 30
0
210
0
220
0
230
1
  2
SOLID
 70
1
 71
0
 91
1
 92
2
 72
0
 73
1
 93
26
 10
16.6680808929379
 20
49.2065565835455
 10
16.6682848217145
 20
49.2065663955633
 10
16.6682750183997
 20
49.2066622150127
 10
16.6682414683596
 20
49.2069901290536
 10
16.6681856138833
 20
49.2075360162115
 10
16.6682560683661
 20
49.2078449269414
 10
16.6683062973999
 20
49.208065162646
 10
16.6683296273941
 20
49.2082756458627
 10
16.6683266623705
 20
49.2083072846887
 10
16.6682216659054
 20
49.2083236588914
 10
16.6681407344378
 20
49.2082962625904
 10
16.668011556076
 20
49.2082032616775
 10
16.6678508454749
 20
49.2080624372291
 10
16.6676751619116
 20
49.2076159629459
 10
16.6676077416582
 20
49.2074882212086
 10
16.667599076324
 20
49.2074315686321
 10
16.6676416606445
 20
49.2073906959133
 10
16.6677218870276
 20
49.2073273497354
 10
16.6677034312219
 20
49.2072855177411
 10
16.6676227076814
 20
49.2071861663607
 10
16.6675916329786
 20
49.2071399170761
 10
16.6676175950208
 20
49.2070909694131
 10
16.667715159728
 20
49.2070262404184
 10
16.6677970086941
 20
49.2068720535732
 10
16.6678652033883
 20
49.2065992099884
 10
16.6680808929379
 20
49.2065565835455
 97
0
 75
0
 76
1
 98
0
  0
HATCH
  5
20169
100
AcDbEntity
  8
skládky a antropogenní uloženiny
100
AcDbHatch
 10
0
 20
0
 30
0
210
0
220
0
230
1
  2
SOLID
 70
1
 71
0
 91
1
 92
2
 72
0
 73
1
 93
21
 10
16.6715813976995
 20
49.2155880568392
 10
16.6718086842657
 20
49.2154232981139
 10
16.6720359693202
 20
49.2152585389366
 10
16.6723372994375
 20
49.2151019612294
 10
16.6726386288689
 20
49.2149453837217
 10
16.672945136066
 20
49.2148588841074
 10
16.6731915720844
 20
49.2148202954679
 10
16.6734593983749
 20
49.2148311754284
 10
16.6738344332362
 20
49.2149213612069
 10
16.6743582011172
 20
49.2151103852318
 10
16.6748012448844
 20
49.2153404283755
 10
16.6747946137284
 20
49.2154209488254
 10
16.6747022280865
 20
49.215527404846
 10
16.6744945733197
 20
49.2155357824212
 10
16.6740733714794
 20
49.2153850173909
 10
16.6737852814566
 20
49.2153132170856
 10
16.6734796039868
 20
49.2152324920317
 10
16.6731734966089
 20
49.2152039430402
 10
16.6728484711318
 20
49.2152203934488
 10
16.6722500159445
 20
49.2153502188097
 10
16.6715813976995
 20
49.2155880568392
 97
0
 75
0
 76
1
 98
0
  0
HATCH
  5
2016A
100
AcDbEntity
  8
skládky a antropogenní uloženiny
100
AcDbHatch
 10
0
 20
0
 30
0
210
0
220
0
230
1
  2
SOLID
 70
1
 71
0
 91
1
 92
2
 72
0
 73
1
 93
15
 10
16.6520866580793
 20
49.2110297008243
 10
16.6523523620131
 20
49.2110026529609
 10
16.6531056776465
 20
49.210837085743
 10
16.6533206697528
 20
49.210696369252
 10
16.6535383511989
 20
49.2106484453818
 10
16.6546438499325
 20
49.2100335968843
 10
16.6548719072458
 20
49.2101137740818
 10
16.6550726638848
 20
49.2101711891264
 10
16.6540494346176
 20
49.2107295644507
 10
16.6530362733653
 20
49.2112201302863
 10
16.6516696858659
 20
49.2112505742279
 10
16.6516661988406
 20
49.2111212650479
 10
16.6517277204697
 20
49.2110475461172
 10
16.6518781038042
 20
49.2110565124965
 10
16.6520866580793
 20
49.2110297008243
 97
0
 75
0
 76
1
 98
0
  0
HATCH
  5
2016B
100
AcDbEntity
  8
skládky a antropogenní uloženiny
100
AcDbHatch
 10
0
 20
0
 30
0
210
0
220
0
230
1
  2
SOLID
 70
1
 71
0
 91
1
 92
2
 72
0
 73
1
 93
10
 10
16.6527665524687
 20
49.2100020896036
 10
16.6532446198065
 20
49.2098450278229
 10
16.6537677560682
 20
49.2095124852061
 10
16.6539377448842
 20
49.20964129233
 10
16.6535376618902
 20
49.2099126995358
 10
16.6527909751259
 20
49.2103232638968
 10
16.6520226266992
 20
49.210689650337
 10
16.6517735462023
 20
49.2106205046454
 10
16.652344373615
 20
49.2102633500972
 10
16.6527665524687
 20
49.2100020896036
 97
0
 75
0
 76
1
 98
0
  0
HATCH
  5
2016C
100
AcDbEntity
  8
skládky a antropogenní uloženiny
100
AcDbHatch
 10
0
 20
0
 30
0
210
0
220
0
230
1
  2
SOLID
 70
1
 71
0
 91
1
 92
2
 72
0
 73
1
 93
25
 10
16.6566071263376
 20
49.2099489843189
 10
16.6562532764451
 20
49.2100485197893
 10
16.6558959865223
 20
49.2100848634218
 10
16.655541461151
 20
49.210127912588
 10
16.6555761779465
 20
49.2099297536484
 10
16.6559350064158
 20
49.2098949664978
 10
16.6561603956775
 20
49.2098228355314
 10
16.6566092050246
 20
49.2096446984008
 10
16.6570580111452
 20
49.2094665595195
 10
16.6573255127917
 20
49.2093608939861
 10
16.6577558445131
 20
49.2092251940332
 10
16.6578994465682
 20
49.2091799468074
 10
16.6581196223687
 20
49.2091034623004
 10
16.6581806641444
 20
49.2091041416871
 10
16.6584777486576
 20
49.2092252658183
 10
16.6585869231829
 20
49.2092657817539
 10
16.6585869354486
 20
49.2093145314438
 10
16.658223611923
 20
49.2094508489566
 10
16.6577738241787
 20
49.209611015209
 10
16.6573502770114
 20
49.2097062801953
 10
16.6571383194075
 20
49.2097756507988
 10
16.6570623583044
 20
49.2098093516811
 10
16.6568211661672
 20
49.2098790231738
 10
16.6567166611814
 20
49.2099135640376
 10
16.6566071263376
 20
49.2099489843189
 97
0
 75
0
 76
1
 98
0
  0
HATCH
  5
2016D
100
AcDbEntity
  8
skládky a antropogenní uloženiny
100
AcDbHatch
 10
0
 20
0
 30
0
210
0
220
0
230
1
  2
SOLID
 70
1
 71
0
 91
1
 92
2
 72
0
 73
1
 93
7
 10
16.6550726638848
 20
49.2101711891264
 10
16.6548719072458
 20
49.2101137740818
 10
16.655169990077
 20
49.2099688018807
 10
16.6555761779465
 20
49.2099297536484
 10
16.655541461151
 20
49.210127912588
 10
16.6551726260916
 20
49.2101542610591
 10
16.6550726638848
 20
49.2101711891264
 97
0
 75
0
 76
1
 98
0
  0
HATCH
  5
2016E
100
AcDbEntity
  8
skládky a antropogenní uloženiny
100
AcDbHatch
 10
0
 20
0
 30
0
210
0
220
0
230
1
  2
SOLID
 70
1
 71
0
 91
1
 92
2
 72
0
 73
1
 93
17
 10
16.6522751179786
 20
49.2097343345109
 10
16.6525533111955
 20
49.2092314468527
 10
16.6527510680216
 20
49.20942960274
 10
16.652657075763
 20
49.2096334896517
 10
16.6524321299414
 20
49.209932523772
 10
16.6522674834806
 20
49.2101066968549
 10
16.652110088321
 20
49.2102957611972
 10
16.6518633455202
 20
49.2104542015332
 10
16.6516340528472
 20
49.2106585501507
 10
16.6512388295087
 20
49.2110743786216
 10
16.6511098645955
 20
49.2111611631184
 10
16.6508428245951
 20
49.2113490131643
 10
16.6507128317246
 20
49.2113323020906
 10
16.6515691840642
 20
49.2105487032682
 10
16.6519465107752
 20
49.21018145697
 10
16.6520742511201
 20
49.2099812972982
 10
16.6522751179786
 20
49.2097343345109
 97
0
 75
0
 76
1
 98
0
  0
HATCH
  5
2016F
100
AcDbEntity
  8
skládky a antropogenní uloženiny
100
AcDbHatch
 10
0
 20
0
 30
0
210
0
220
0
230
1
  2
SOLID
 70
1
 71
0
 91
1
 92
2
 72
0
 73
1
 93
7
 10
16.6515106712009
 20
49.2094085139642
 10
16.6503809862979
 20
49.2103528355437
 10
16.650267994523
 20
49.2103774282626
 10
16.6500737764818
 20
49.2103261433604
 10
16.6500844753049
 20
49.2102364838388
 10
16.6512367357656
 20
49.2093020257339
 10
16.6515106712009
 20
49.2094085139642
 97
0
 75
0
 76
1
 98
0
  0
HATCH
  5
20170
100
AcDbEntity
  8
skládky a antropogenní uloženiny
100
AcDbHatch
 10
0
 20
0
 30
0
210
0
220
0
230
1
  2
SOLID
 70
1
 71
0
 91
1
 92
2
 72
0
 73
1
 93
49
 10
16.6476851850743
 20
49.2093146510655
 10
16.6476972418664
 20
49.2093279261838
 10
16.6477060263438
 20
49.2093426511018
 10
16.6477113597291
 20
49.2093585274143
 10
16.647713246053
 20
49.2093755725907
 10
16.6477116508883
 20
49.2093934414199
 10
16.6477065685653
 20
49.2094121515913
 10
16.6476981051472
 20
49.2094313261919
 10
16.6476862495054
 20
49.2094509825257
 10
16.6476530695381
 20
49.209490572911
 10
16.6476083029968
 20
49.2095293999382
 10
16.6475536716899
 20
49.2095659732423
 10
16.6474912742451
 20
49.2095988869038
 10
16.6474235092584
 20
49.2096268755359
 10
16.6473529800693
 20
49.2096488645549
 10
16.6472823974957
 20
49.2096640076428
 10
16.6472144743776
 20
49.2096717236328
 10
16.6471824154861
 20
49.2096726917218
 10
16.6471518189634
 20
49.2096717152225
 10
16.6471233040982
 20
49.209668814275
 10
16.6470968426756
 20
49.2096639841783
 10
16.6470729664886
 20
49.2096573239236
 10
16.647051654585
 20
49.2096488266086
 10
16.6470333371313
 20
49.2096386636519
 10
16.6470179936142
 20
49.2096268254688
 10
16.6470059369313
 20
49.2096135502802
 10
16.646997152614
 20
49.2095988253096
 10
16.6469918209433
 20
49.2095829481668
 10
16.6469899333482
 20
49.2095659037772
 10
16.6469915301435
 20
49.2095480350547
 10
16.6469966115325
 20
49.2095293239249
 10
16.6470050764566
 20
49.2095101503664
 10
16.6470169310182
 20
49.2094904940066
 10
16.6470501114936
 20
49.2094509038043
 10
16.6470948785482
 20
49.209412076099
 10
16.6471495100239
 20
49.2093755030112
 10
16.6472119072674
 20
49.2093425904274
 10
16.6472796721316
 20
49.2093146010241
 10
16.6473502007305
 20
49.2092926129427
 10
16.6474207827543
 20
49.2092774698123
 10
16.6474887066645
 20
49.2092697537965
 10
16.6475207640715
 20
49.209268784632
 10
16.6475513603527
 20
49.2092697610336
 10
16.6475798748666
 20
49.2092726627696
 10
16.6476063376388
 20
49.2092774919579
 10
16.647630212203
 20
49.2092841529006
 10
16.647651524049
 20
49.2092926501093
 10
16.6476698428664
 20
49.2093028130647
 10
16.6476851850743
 20
49.2093146510655
 97
0
 75
0
 76
1
 98
0
  0
HATCH
  5
20171
100
AcDbEntity
  8
skládky a antropogenní uloženiny
100
AcDbHatch
 10
0
 20
0
 30
0
210
0
220
0
230
1
  2
SOLID
 70
1
 71
0
 91
1
 92
2
 72
0
 73
1
 93
33
 10
16.6475797765196
 20
49.2080544939701
 10
16.6475971464576
 20
49.2080583186625
 10
16.6476131137414
 20
49.2080676674144
 10
16.6476270623103
 20
49.2080821811488
 10
16.6476384570435
 20
49.2081013020896
 10
16.6476468608529
 20
49.2081242957689
 10
16.6476519496765
 20
49.2081502774084
 10
16.6476535296587
 20
49.2081782502122
 10
16.6476515373242
 20
49.2082071379389
 10
16.6476460513431
 20
49.2082358309535
 10
16.6476372830492
 20
49.2082632271629
 10
16.6476255671054
 20
49.2082882720585
 10
16.6476113552342
 20
49.2083100053052
 10
16.6475951934867
 20
49.2083275898901
 10
16.6475777021358
 20
49.2083403505015
 10
16.6475595536777
 20
49.2083477982069
 10
16.6475414469901
 20
49.2083496449116
 10
16.6475240769543
 20
49.2083458202111
 10
16.6475081109623
 20
49.2083364715434
 10
16.6474941609921
 20
49.2083219576991
 10
16.6474827662638
 20
49.2083028367448
 10
16.6474743625004
 20
49.2082798430542
 10
16.6474692739035
 20
49.2082538605133
 10
16.647467693876
 20
49.2082258886014
 10
16.6474696864652
 20
49.2081969999839
 10
16.6474751725442
 20
49.2081683069775
 10
16.6474839421287
 20
49.2081409117703
 10
16.6474956568915
 20
49.2081158658982
 10
16.6475098699754
 20
49.2080941336554
 10
16.647526031677
 20
49.2080765490817
 10
16.6475435217303
 20
49.2080637874874
 10
16.6475616699399
 20
49.2080563406782
 10
16.6475797765196
 20
49.2080544939701
 97
0
 75
0
 76
1
 98
0
  0
HATCH
  5
20172
100
AcDbEntity
  8
skládky a antropogenní uloženiny
100
AcDbHatch
 10
0
 20
0
 30
0
210
0
220
0
230
1
  2
SOLID
 70
1
 71
0
 91
1
 92
2
 72
0
 73
1
 93
27
 10
16.6460071609922
 20
49.206284253607
 10
16.646363673602
 20
49.2061792224609
 10
16.6466730803221
 20
49.2060720839791
 10
16.6471696974689
 20
49.20601934472
 10
16.6475248665972
 20
49.2060588536117
 10
16.6476573056485
 20
49.2060882294531
 10
16.6479678933406
 20
49.2062335256104
 10
16.6481087630632
 20
49.2063243742388
 10
16.6483199013371
 20
49.2065416452542
 10
16.6484651303804
 20
49.2067995602326
 10
16.6486277776948
 20
49.2068239740482
 10
16.6488188919856
 20
49.2068790486035
 10
16.648895026215
 20
49.2069472191806
 10
16.6489096245896
 20
49.2070578892622
 10
16.6489047179689
 20
49.2070841096662
 10
16.6488686078696
 20
49.2071457421303
 10
16.6487947907158
 20
49.2072192296705
 10
16.6486945025298
 20
49.2072835625441
 10
16.648499547228
 20
49.2073579099265
 10
16.6482686968552
 20
49.207421990335
 10
16.647964495613
 20
49.207481956394
 10
16.6473955252965
 20
49.2074271070081
 10
16.6469219702191
 20
49.2072670108337
 10
16.6463873887591
 20
49.2071574493467
 10
16.6462279144822
 20
49.2069767822157
 10
16.6460847665488
 20
49.2065976751492
 10
16.6460071609922
 20
49.206284253607
 97
0
 75
0
 76
1
 98
0
  0
HATCH
  5
20173
100
AcDbEntity
  8
skládky a antropogenní uloženiny
100
AcDbHatch
 10
0
 20
0
 30
0
210
0
220
0
230
1
  2
SOLID
 70
1
 71
0
 91
1
 92
2
 72
0
 73
1
 93
27
 10
16.6627108444558
 20
49.2097887069848
 10
16.6622633534361
 20
49.2095577940447
 10
16.6622472967594
 20
49.2094834175386
 10
16.6622773127144
 20
49.2094656320761
 10
16.6623357046162
 20
49.2094400662706
 10
16.6633740324369
 20
49.209664309086
 10
16.6639088093905
 20
49.2097706346845
 10
16.6643659526491
 20
49.2099079912508
 10
16.6646938011789
 20
49.2099897905072
 10
16.6661876568906
 20
49.2105777642014
 10
16.6662263793187
 20
49.2105958090954
 10
16.6661974655732
 20
49.2106519173865
 10
16.6661253743203
 20
49.210730830382
 10
16.6659298858721
 20
49.2107203132656
 10
16.6657602264366
 20
49.2106865471614
 10
16.6656517918376
 20
49.2106587643494
 10
16.6655675641634
 20
49.2107049526064
 10
16.6656288969753
 20
49.2108120707716
 10
16.6655604464403
 20
49.2108687565169
 10
16.6654093491113
 20
49.210858129921
 10
16.664877033928
 20
49.2105099755529
 10
16.6644008933145
 20
49.2103204222887
 10
16.6641341011287
 20
49.2102435801209
 10
16.6637747976382
 20
49.2101324022426
 10
16.6633559432925
 20
49.2100296541255
 10
16.6630816012733
 20
49.2099918775178
 10
16.6627108444558
 20
49.2097887069848
 97
0
 75
0
 76
1
 98
0
  0
HATCH
  5
20174
100
AcDbEntity
  8
skládky a antropogenní uloženiny
100
AcDbHatch
 10
0
 20
0
 30
0
210
0
220
0
230
1
  2
SOLID
 70
1
 71
0
 91
1
 92
2
 72
0
 73
1
 93
34
 10
16.6662196387584
 20
49.2021329501213
 10
16.6662415583897
 20
49.2022510718609
 10
16.6662837095669
 20
49.2024782427903
 10
16.666353391606
 20
49.2028533237107
 10
16.6663517520569
 20
49.2029273709913
 10
16.666242784588
 20
49.20293788579
 10
16.6662528310496
 20
49.2029962040811
 10
16.6663497407645
 20
49.2029893633144
 10
16.666356748257
 20
49.2030662346
 10
16.6663678452505
 20
49.2031240388814
 10
16.6664203016942
 20
49.2032284808618
 10
16.6664859137513
 20
49.2035032914511
 10
16.6665515265354
 20
49.2037781019911
 10
16.6666036305304
 20
49.203772631809
 10
16.6666311129753
 20
49.2039145238521
 10
16.666494441253
 20
49.2039187955116
 10
16.6657777857639
 20
49.2038059934549
 10
16.6649677141384
 20
49.2035806423506
 10
16.6642229185142
 20
49.2033435750501
 10
16.6634075778515
 20
49.2030748937114
 10
16.6631167636517
 20
49.2029279841969
 10
16.6629969829803
 20
49.2028524567997
 10
16.6628835008949
 20
49.2027384965819
 10
16.6628840501532
 20
49.2026057419239
 10
16.6629607830415
 20
49.2025333604744
 10
16.6631547484591
 20
49.2024308710417
 10
16.66335394938
 20
49.2023785166443
 10
16.663856685938
 20
49.2022690300376
 10
16.6643266395922
 20
49.2018702466539
 10
16.6644818356858
 20
49.2018083877484
 10
16.6648355127079
 20
49.2017897750435
 10
16.6653903214686
 20
49.2018334973876
 10
16.6656478781663
 20
49.201926125338
 10
16.6662196387584
 20
49.2021329501213
 97
0
 75
0
 76
1
 98
0
  0
HATCH
  5
20175
100
AcDbEntity
  8
skládky a antropogenní uloženiny
100
AcDbHatch
 10
0
 20
0
 30
0
210
0
220
0
230
1
  2
SOLID
 70
1
 71
0
 91
1
 92
2
 72
0
 73
1
 93
13
 10
16.6588643226667
 20
49.1949845262688
 10
16.6599419163724
 20
49.1949635300853
 10
16.6601115562292
 20
49.1949410139086
 10
16.6605871672604
 20
49.1950131147646
 10
16.660059996215
 20
49.1956933980118
 10
16.6599415832398
 20
49.1958322263441
 10
16.6597776277111
 20
49.1959485568577
 10
16.6595096076258
 20
49.1960477196631
 10
16.6588644397486
 20
49.1963113822421
 10
16.658287113564
 20
49.1966660147332
 10
16.65773582703
 20
49.1966168399778
 10
16.6579120582738
 20
49.1961727593775
 10
16.6588643226667
 20
49.1949845262688
 97
0
 75
0
 76
1
 98
0
  0
HATCH
  5
20176
100
AcDbEntity
  8
skládky a antropogenní uloženiny
100
AcDbHatch
 10
0
 20
0
 30
0
210
0
220
0
230
1
  2
SOLID
 70
1
 71
0
 91
1
 92
2
 72
0
 73
1
 93
18
 10
16.6611480406769
 20
49.2004274620135
 10
16.6611009714129
 20
49.2003014941159
 10
16.6610829297172
 20
49.2001947877596
 10
16.6610833625413
 20
49.2001176161607
 10
16.661083519453
 20
49.2000896875827
 10
16.6615765440742
 20
49.1998003486485
 10
16.6616223489668
 20
49.199803237727
 10
16.6616970722872
 20
49.1998116440737
 10
16.66177979091
 20
49.1998579297686
 10
16.6618645017502
 20
49.1999848813519
 10
16.6618736108556
 20
49.2000431073541
 10
16.6618833400364
 20
49.2001052976878
 10
16.6618476719129
 20
49.2001724094558
 10
16.6617474008795
 20
49.2002345152031
 10
16.6613393606209
 20
49.2004340302309
 10
16.6612337156668
 20
49.2004935315919
 10
16.6611998304613
 20
49.2004875289788
 10
16.6611480406769
 20
49.2004274620135
 97
0
 75
0
 76
1
 98
0
  0
HATCH
  5
20177
100
AcDbEntity
  8
skládky a antropogenní uloženiny
100
AcDbHatch
 10
0
 20
0
 30
0
210
0
220
0
230
1
  2
SOLID
 70
1
 71
0
 91
1
 92
2
 72
0
 73
1
 93
13
 10
16.6556648519811
 20
49.1939545616779
 10
16.6563412912803
 20
49.194307315671
 10
16.6567416217395
 20
49.1945408427922
 10
16.656792368611
 20
49.1945932563604
 10
16.6568022645663
 20
49.1946843968516
 10
16.6567550750869
 20
49.1947701946005
 10
16.6566738465871
 20
49.1948363419822
 10
16.656614239258
 20
49.1948716260756
 10
16.6565005222929
 20
49.1948972963021
 10
16.6563429457374
 20
49.1949107153637
 10
16.656189488791
 20
49.1948782004577
 10
16.6554552781959
 20
49.1945081230209
 10
16.6556648519811
 20
49.1939545616779
 97
0
 75
0
 76
1
 98
0
  0
HATCH
  5
20178
100
AcDbEntity
  8
skládky a antropogenní uloženiny
100
AcDbHatch
 10
0
 20
0
 30
0
210
0
220
0
230
1
  2
SOLID
 70
1
 71
0
 91
1
 92
2
 72
0
 73
1
 93
22
 10
16.6523834851049
 20
49.1903013068499
 10
16.652589606847
 20
49.1900926076506
 10
16.6535617827912
 20
49.190413815345
 10
16.654355582607
 20
49.190380242915
 10
16.6544733428679
 20
49.1902279657186
 10
16.6542158977453
 20
49.1898291304369
 10
16.6544055556669
 20
49.1895410880208
 10
16.6545593695605
 20
49.1893367419831
 10
16.6546898956882
 20
49.1892743881008
 10
16.6548522621635
 20
49.1893949932317
 10
16.6546875579649
 20
49.1895873400914
 10
16.6545580318975
 20
49.1898849095469
 10
16.6549074152637
 20
49.1903443788452
 10
16.6548317387015
 20
49.1904507454405
 10
16.6548010805538
 20
49.190492541218
 10
16.6547704223545
 20
49.1905343369872
 10
16.6547075827696
 20
49.1905678961897
 10
16.6546447430995
 20
49.1906014553579
 10
16.6545039404961
 20
49.1906404653869
 10
16.6540709250013
 20
49.1906572588072
 10
16.6534226500422
 20
49.1906487530471
 10
16.6523834851049
 20
49.1903013068499
 97
0
 75
0
 76
1
 98
0
  0
HATCH
  5
20179
100
AcDbEntity
  8
skládky a antropogenní uloženiny
100
AcDbHatch
 10
0
 20
0
 30
0
210
0
220
0
230
1
  2
SOLID
 70
1
 71
0
 91
1
 92
2
 72
0
 73
1
 93
58
 10
16.6546898956882
 20
49.1892743881008
 10
16.6551577237674
 20
49.1891111843176
 10
16.6561333142752
 20
49.1890858500202
 10
16.6561213567048
 20
49.1892260998624
 10
16.656192598517
 20
49.1893975346639
 10
16.6564135132989
 20
49.1895650413656
 10
16.6565966904365
 20
49.1895924150816
 10
16.6567798677766
 20
49.1896197885068
 10
16.6570230263151
 20
49.1897228856149
 10
16.6571276907242
 20
49.189699230817
 10
16.6574350621558
 20
49.1896297585271
 10
16.6578133711703
 20
49.1895442524174
 10
16.6580135515265
 20
49.189467906922
 10
16.6580981976274
 20
49.1893219231572
 10
16.6580867446611
 20
49.1892234376649
 10
16.6578634169557
 20
49.189074802863
 10
16.6577082864886
 20
49.1888337230512
 10
16.6571495677558
 20
49.1883071638604
 10
16.6571003392215
 20
49.1880670960377
 10
16.6571010867505
 20
49.1879606965901
 10
16.6572913453922
 20
49.1881661995417
 10
16.6576159647347
 20
49.1884969329351
 10
16.6579405884079
 20
49.1888276653992
 10
16.6579983735201
 20
49.1889111895976
 10
16.6580561588269
 20
49.188994713766
 10
16.6581034800542
 20
49.189028435388
 10
16.6581508013458
 20
49.1890621569905
 10
16.6581799562031
 20
49.189087589841
 10
16.6582091110904
 20
49.1891130226841
 10
16.6582547356982
 20
49.1891604625887
 10
16.6582857348769
 20
49.1892070533829
 10
16.6583137127148
 20
49.1892552402602
 10
16.6583267381982
 20
49.1892927871367
 10
16.6583327895782
 20
49.1893459418005
 10
16.6583309021329
 20
49.1893717661397
 10
16.6583180179792
 20
49.1894200600153
 10
16.6583021654559
 20
49.1894603667162
 10
16.6582807075791
 20
49.1894953042825
 10
16.6582597999318
 20
49.1895201509331
 10
16.6582388922635
 20
49.1895449975797
 10
16.6582086013158
 20
49.1895690025329
 10
16.6581880770522
 20
49.1895809879862
 10
16.6581427748415
 20
49.1896056541996
 10
16.6580667177805
 20
49.1896403191409
 10
16.6580154386238
 20
49.1896623033009
 10
16.6577748492768
 20
49.1897469275146
 10
16.6574948636653
 20
49.1898201844964
 10
16.6572548853048
 20
49.1898509916437
 10
16.6569665344107
 20
49.1898856267339
 10
16.6568911972532
 20
49.1898847521413
 10
16.6567088709166
 20
49.189808418472
 10
16.6565144529965
 20
49.1897511303647
 10
16.656335050933
 20
49.1897242938035
 10
16.6559697595594
 20
49.1894821303513
 10
16.6558774559445
 20
49.1892632662717
 10
16.6551698905621
 20
49.1892562903232
 10
16.6548522621635
 20
49.1893949932317
 10
16.6546898956882
 20
49.1892743881008
 97
0
 75
0
 76
1
 98
0
  0
HATCH
  5
2017A
100
AcDbEntity
  8
skládky a antropogenní uloženiny
100
AcDbHatch
 10
0
 20
0
 30
0
210
0
220
0
230
1
  2
SOLID
 70
1
 71
0
 91
1
 92
2
 72
0
 73
1
 93
6
 10
16.6589122298731
 20
49.1875378218557
 10
16.6602316637648
 20
49.1872327791113
 10
16.6621750786147
 20
49.1868920579585
 10
16.6624384436342
 20
49.1871710722199
 10
16.6601890170448
 20
49.1876277264526
 10
16.6589122298731
 20
49.1875378218557
 97
0
 75
0
 76
1
 98
0
  0
HATCH
  5
2017B
100
AcDbEntity
  8
skládky a antropogenní uloženiny
100
AcDbHatch
 10
0
 20
0
 30
0
210
0
220
0
230
1
  2
SOLID
 70
1
 71
0
 91
1
 92
2
 72
0
 73
1
 93
31
 10
16.6682649206621
 20
49.2125647375478
 10
16.668161698714
 20
49.2123900674875
 10
16.6683706153592
 20
49.2123012895251
 10
16.6692503316031
 20
49.212267725099
 10
16.6697956070456
 20
49.2122743990699
 10
16.6702203012293
 20
49.2121662722521
 10
16.6704384541988
 20
49.2121317483691
 10
16.6708508446636
 20
49.2120519184132
 10
16.6709500868777
 20
49.2120444225532
 10
16.6709985817991
 20
49.2120644141076
 10
16.6710362484974
 20
49.2121168122367
 10
16.6710276645335
 20
49.2121680726168
 10
16.6707526623564
 20
49.2122299844599
 10
16.6706461074101
 20
49.2123037346627
 10
16.670808544602
 20
49.2123674650547
 10
16.6715163728064
 20
49.2123663967979
 10
16.6722393968029
 20
49.2122724985414
 10
16.6731309384443
 20
49.2119471837928
 10
16.6744959119772
 20
49.2130605068088
 10
16.6730991467109
 20
49.2127887319879
 10
16.6729740732972
 20
49.2126376359369
 10
16.6719889596197
 20
49.2127903131337
 10
16.6703515712931
 20
49.2127403603117
 10
16.6702484212258
 20
49.2127801400538
 10
16.6702383666274
 20
49.2130121973475
 10
16.6701042722046
 20
49.2130702744376
 10
16.6699267465469
 20
49.2130216201224
 10
16.6697654570467
 20
49.212873827793
 10
16.6694857018927
 20
49.2126831177566
 10
16.6692057367519
 20
49.2126055554724
 10
16.6682649206621
 20
49.2125647375478
 97
0
 75
0
 76
1
 98
0
  0
HATCH
  5
2017C
100
AcDbEntity
  8
skládky a antropogenní uloženiny
100
AcDbHatch
 10
0
 20
0
 30
0
210
0
220
0
230
1
  2
SOLID
 70
1
 71
0
 91
1
 92
2
 72
0
 73
1
 93
19
 10
16.6635735679313
 20
49.2112824612394
 10
16.6639312039484
 20
49.2107107895241
 10
16.6643630282542
 20
49.2103509964221
 10
16.6650072596867
 20
49.2095773551917
 10
16.6670878748723
 20
49.2067664040125
 10
16.6681439312119
 20
49.2065332502647
 10
16.6698695670979
 20
49.2067886503887
 10
16.6702611015132
 20
49.2068038280704
 10
16.6706128360653
 20
49.2068820935652
 10
16.6712069844513
 20
49.2074652376774
 10
16.6713989896605
 20
49.2078379207597
 10
16.6707162213792
 20
49.2095288972434
 10
16.6696468709834
 20
49.2119035254041
 10
16.6694594852619
 20
49.2121322850589
 10
16.6686826205573
 20
49.2125243028747
 10
16.6683623955178
 20
49.2125882025983
 10
16.6679880641973
 20
49.2125576033904
 10
16.6657387315893
 20
49.211979780821
 10
16.6635735679313
 20
49.2112824612394
 97
0
 75
0
 76
1
 98
0
  0
ENDSEC
  0
SECTION
  2
OBJECTS
  0
DICTIONARY
  5
C
330
0
100
AcDbDictionary
281
     1
  3
ACAD_GROUP
350
D
  3
ACAD_LAYOUT
350
1A
  3
ACAD_MLEADERSTYLE
350
43
  3
ACAD_PLOTSETTINGS
350
19
  3
ACAD_PLOTSTYLENAME
350
E
  3
ACAD_TABLESTYLE
350
42
  0
DICTIONARY
  5
D
102
{ACAD_REACTORS
330
C
102
}
330
C
100
AcDbDictionary
281
     1
  0
DICTIONARY
  5
1A
102
{ACAD_REACTORS
330
C
102
}
330
C
100
AcDbDictionary
281
     1
  3
Layout1
350
1E
  3
Model
350
22
  0
DICTIONARY
  5
43
102
{ACAD_REACTORS
330
C
102
}
330
C
100
AcDbDictionary
281
     1
  0
DICTIONARY
  5
19
102
{ACAD_REACTORS
330
C
102
}
330
C
100
AcDbDictionary
281
     1
  0
ACDBDICTIONARYWDFLT
  5
E
102
{ACAD_REACTORS
330
C
102
}
330
C
100
AcDbDictionary
281
     1
  3
Normal
350
F
100
AcDbDictionaryWithDefault
340
F
  0
DICTIONARY
  5
42
102
{ACAD_REACTORS
330
C
102
}
330
C
100
AcDbDictionary
281
     1
  0
LAYOUT
  5
1E
102
{ACAD_REACTORS
330
1A
102
}
330
1A
100
AcDbPlotSettings
  1

  2
none_device
  4

  6

 40
0.0
 41
0.0
 42
0.0
 43
0.0
 44
0.0
 45
0.0
 46
0.0
 47
0.0
 48
0.0
 49
0.0
140
0.0
141
0.0
142
1.0
143
1.0
 70
   688
 72
     0
 73
     0
 74
     5
  7

 75
    16
 76
     0
 77
     2
 78
   300
147
1.0
148
0.0
149
0.0
100
AcDbLayout
  1
Layout1
 70
     1
 71
     1
 10
0.0
 20
0.0
 11
12.0
 21
9.0
 12
0.0
 22
0.0
 32
0.0
 14
1.000000000000000E+20
 24
1.000000000000000E+20
 34
1.000000000000000E+20
 15
-1.000000000000000E+20
 25
-1.000000000000000E+20
 35
-1.000000000000000E+20
146
0.0
 13
0.0
 23
0.0
 33
0.0
 16
1.0
 26
0.0
 36
0.0
 17
0.0
 27
1.0
 37
0.0
 76
     0
330
1B
  0
LAYOUT
  5
22
102
{ACAD_REACTORS
330
1A
102
}
330
1A
100
AcDbPlotSettings
  1

  2
none_device
  4

  6

 40
0.0
 41
0.0
 42
0.0
 43
0.0
 44
0.0
 45
0.0
 46
0.0
 47
0.0
 48
0.0
 49
0.0
140
0.0
141
0.0
142
1.0
143
1.0
 70
  1712
 72
     0
 73
     0
 74
     0
  7

 75
     0
 76
     0
 77
     2
 78
   300
147
1.0
148
0.0
149
0.0
100
AcDbLayout
  1
Model
 70
     1
 71
     0
 10
0.0
 20
0.0
 11
12.0
 21
9.0
 12
0.0
 22
0.0
 32
0.0
 14
30.0
 24
49.75
 34
0.0
 15
130.5
 25
163.1318914119703
 35
0.0
146
0.0
 13
0.0
 23
0.0
 33
0.0
 16
1.0
 26
0.0
 36
0.0
 17
0.0
 27
1.0
 37
0.0
 76
     0
330
1F
331
29
  0
ENDSEC
  0
EOF
