  0
SECTION
  2
HEADER
  9
$ACADVER
  1
AC1018
  9
$ACADMAINTVER
 70
     0
  9
$DWGCODEPAGE
  3
ANSI_1252
  9
$EXTMIN
 10
-606183.7779
 20
-1169502.7049
 30
0.0
  9
$EXTMAX
 10
-591322.7396
 20
-1152250.2833
 30
0.0
  9
$LIMMIN
 10
0.0
 20
0.0
  9
$LIMMAX
 10
12.0
 20
9.0
  9
$ORTHOMODE
 70
     0
  9
$REGENMODE
 70
     1
  9
$FILLMODE
 70
     1
  9
$QTEXTMODE
 70
     0
  9
$MIRRTEXT
 70
     1
  9
$LTSCALE
 40
1.0
  9
$ATTMODE
 70
     1
  9
$TEXTSIZE
 40
0.2
  9
$TRACEWID
 40
0.05
  9
$TEXTSTYLE
  7
Standard
  9
$CLAYER
  8
0
  9
$CELTYPE
  6
ByLayer
  9
$CECOLOR
 62
   256
  9
$CELTSCALE
 40
1.0
  9
$DISPSILH
 70
     0
  9
$LUNITS
 70
     2
  9
$LUPREC
 70
     4
  9
$SKETCHINC
 40
0.1
  9
$FILLETRAD
 40
0.5
  9
$AUNITS
 70
     0
  9
$AUPREC
 70
     0
  9
$MENU
  1
.
  9
$ELEVATION
 40
0.0
  9
$PELEVATION
 40
0.0
  9
$THICKNESS
 40
0.0
  9
$LIMCHECK
 70
     0
  9
$CHAMFERA
 40
0.5
  9
$CHAMFERB
 40
0.5
  9
$CHAMFERC
 40
1.0
  9
$CHAMFERD
 40
0.0
  9
$SKPOLY
 70
     0
  9
$ANGBASE
 50
0.0
  9
$ANGDIR
 70
     0
  9
$PDMODE
 70
     0
  9
$PDSIZE
 40
0.0
  9
$PLINEWID
 40
0.0
  9
$SPLFRAME
 70
     0
  9
$SPLINETYPE
 70
     6
  9
$SPLINESEGS
 70
     8
  9
$HANDSEED
  5
000205C4
  9
$SURFTAB1
 70
     6
  9
$SURFTAB2
 70
     6
  9
$SURFTYPE
 70
     6
  9
$SURFU
 70
     6
  9
$SURFV
 70
     6
  9
$UCSBASE
  2

  9
$UCSNAME
  2

  9
$UCSORG
 10
0.0
 20
0.0
 30
0.0
  9
$UCSXDIR
 10
1.0
 20
0.0
 30
0.0
  9
$UCSYDIR
 10
0.0
 20
1.0
 30
0.0
  9
$UCSORTHOREF
  2

  9
$UCSORTHOVIEW
 70
     0
  9
$UCSORGTOP
 10
0.0
 20
0.0
 30
0.0
  9
$UCSORGBOTTOM
 10
0.0
 20
0.0
 30
0.0
  9
$UCSORGLEFT
 10
0.0
 20
0.0
 30
0.0
  9
$UCSORGRIGHT
 10
0.0
 20
0.0
 30
0.0
  9
$UCSORGFRONT
 10
0.0
 20
0.0
 30
0.0
  9
$UCSORGBACK
 10
0.0
 20
0.0
 30
0.0
  9
$PUCSBASE
  2

  9
$PUCSNAME
  2

  9
$PUCSORG
 10
0.0
 20
0.0
 30
0.0
  9
$PUCSXDIR
 10
1.0
 20
0.0
 30
0.0
  9
$PUCSYDIR
 10
0.0
 20
1.0
 30
0.0
  9
$PUCSORTHOREF
  2

  9
$PUCSORTHOVIEW
 70
     0
  9
$PUCSORGTOP
 10
0.0
 20
0.0
 30
0.0
  9
$PUCSORGBOTTOM
 10
0.0
 20
0.0
 30
0.0
  9
$PUCSORGLEFT
 10
0.0
 20
0.0
 30
0.0
  9
$PUCSORGRIGHT
 10
0.0
 20
0.0
 30
0.0
  9
$PUCSORGFRONT
 10
0.0
 20
0.0
 30
0.0
  9
$PUCSORGBACK
 10
0.0
 20
0.0
 30
0.0
  9
$WORLDVIEW
 70
     1
  9
$SHADEDGE
 70
     3
  9
$SHADEDIF
 70
    70
  9
$TILEMODE
 70
     1
  9
$MAXACTVP
 70
    64
  9
$PINSBASE
 10
0.0
 20
0.0
 30
0.0
  9
$PLIMCHECK
 70
     0
  9
$PEXTMIN
 10
1.000000000000000E+20
 20
1.000000000000000E+20
 30
1.000000000000000E+20
  9
$PEXTMAX
 10
-1.000000000000000E+20
 20
-1.000000000000000E+20
 30
-1.000000000000000E+20
  9
$PLIMMIN
 10
0.0
 20
0.0
  9
$PLIMMAX
 10
12.0
 20
9.0
  9
$UNITMODE
 70
     0
  9
$VISRETAIN
 70
     1
  9
$PLINEGEN
 70
     0
  9
$PSLTSCALE
 70
     1
  9
$TREEDEPTH
 70
  3020
  9
$CMLSTYLE
  2
Standard
  9
$CMLJUST
 70
     0
  9
$CMLSCALE
 40
1.0
  9
$PROXYGRAPHICS
 70
     1
  9
$MEASUREMENT
 70
     0
  9
$CELWEIGHT
370
    -1
  9
$ENDCAPS
280
     0
  9
$JOINSTYLE
280
     0
  9
$LWDISPLAY
290
     0
  9
$INSUNITS
 70
     1
  9
$HYPERLINKBASE
  1

  9
$STYLESHEET
  1

  9
$XEDIT
290
     1
  9
$CEPSNTYPE
380
     0
  9
$PSTYLEMODE
290
     1
  9
$EXTNAMES
290
     1
  9
$PSVPSCALE
 40
0.0
  9
$OLESTARTUP
290
     0
  9
$SORTENTS
280
   127
  9
$INDEXCTL
280
     0
  9
$HIDETEXT
280
     1
  9
$XCLIPFRAME
290
     0
  9
$HALOGAP
280
     0
  9
$OBSCOLOR
 70
   257
  9
$OBSLTYPE
280
     0
  9
$INTERSECTIONDISPLAY
280
     0
  9
$INTERSECTIONCOLOR
 70
   257
  9
$DIMASSOC
280
     2
  9
$PROJECTNAME
  1

  0
ENDSEC
  0
SECTION
  2
CLASSES
  0
CLASS
  1
ACDBDICTIONARYWDFLT
  2
AcDbDictionaryWithDefault
  3
ObjectDBX Classes
 90
        0
 91
        4
280
     0
281
     0
  0
ENDSEC
  0
SECTION
  2
TABLES
  0
TABLE
  2
VPORT
  5
8
330
0
100
AcDbSymbolTable
 70
     1
  0
VPORT
  5
29
330
8
100
AcDbSymbolTableRecord
100
AcDbViewportTableRecord
  2
*Active
 70
     0
 10
0.0
 20
0.0
 11
1.0
 21
1.0
 12
80.25
 22
106.4409457059851
 13
0.0
 23
0.0
 14
0.5
 24
0.5
 15
0.5
 25
0.5
 16
0.0
 26
0.0
 36
1.0
 17
0.0
 27
0.0
 37
0.0
 40
113.3818914119703
 41
0.8863849310366128
 42
50.0
 43
0.0
 44
0.0
 50
0.0
 51
0.0
 71
     0
 72
  1000
 73
     1
 74
     3
 75
     0
 76
     0
 77
     0
 78
     0
281
     0
 65
     1
110
0.0
120
0.0
130
0.0
111
1.0
121
0.0
131
0.0
112
0.0
122
1.0
132
0.0
 79
     0
146
0.0
  0
ENDTAB
  0
TABLE
  2
LTYPE
  5
5
330
0
100
AcDbSymbolTable
 70
     1
  0
LTYPE
  5
14
330
5
100
AcDbSymbolTableRecord
100
AcDbLinetypeTableRecord
  2
ByBlock
 70
     0
  3

 72
    65
 73
     0
 40
0.0
  0
LTYPE
  5
15
330
5
100
AcDbSymbolTableRecord
100
AcDbLinetypeTableRecord
  2
ByLayer
 70
     0
  3

 72
    65
 73
     0
 40
0.0
  0
LTYPE
  5
16
330
5
100
AcDbSymbolTableRecord
100
AcDbLinetypeTableRecord
  2
Continuous
 70
     0
  3
Solid line
 72
    65
 73
     0
 40
0.0
  0
ENDTAB
  0
TABLE
  2
LAYER
  5
2
330
0
100
AcDbSymbolTable
 70
     1
  0
LAYER
  5
10
330
2
100
AcDbSymbolTableRecord
100
AcDbLayerTableRecord
  2
0
 70
     0
 62
     7
  6
Continuous
370
    -3
390
F
  0
LAYER
  5
205C3
330
2
100
AcDbSymbolTableRecord
100
AcDbLayerTableRecord
  2
směr proudění podzemních vod
 70
     0
 62
     7
  6
Continuous
370
    -3
390
F
  0
ENDTAB
  0
TABLE
  2
STYLE
  5
3
330
0
100
AcDbSymbolTable
 70
     1
  0
STYLE
  5
11
330
3
100
AcDbSymbolTableRecord
100
AcDbTextStyleTableRecord
  2
Standard
 70
     0
 40
0.0
 41
1.0
 50
0.0
 71
     0
 42
0.2
  3
txt
  4

  0
ENDTAB
  0
TABLE
  2
VIEW
  5
6
330
0
100
AcDbSymbolTable
 70
     0
  0
ENDTAB
  0
TABLE
  2
UCS
  5
7
330
0
100
AcDbSymbolTable
 70
     0
  0
ENDTAB
  0
TABLE
  2
APPID
  5
9
330
0
100
AcDbSymbolTable
 70
     1
  0
APPID
  5
12
330
9
100
AcDbSymbolTableRecord
100
AcDbRegAppTableRecord
  2
ACAD
 70
     0
  0
ENDTAB
  0
TABLE
  2
DIMSTYLE
  5
A
330
0
100
AcDbSymbolTable
 70
     1
100
AcDbDimStyleTable
  0
DIMSTYLE
105
27
330
A
100
AcDbSymbolTableRecord
100
AcDbDimStyleTableRecord
  2
Standard
 70
     0
340
11
  0
ENDTAB
  0
TABLE
  2
BLOCK_RECORD
  5
1
330
0
100
AcDbSymbolTable
 70
     1
  0
BLOCK_RECORD
  5
1F
330
1
100
AcDbSymbolTableRecord
100
AcDbBlockTableRecord
  2
*Model_Space
340
22
  0
BLOCK_RECORD
  5
1B
330
1
100
AcDbSymbolTableRecord
100
AcDbBlockTableRecord
  2
*Paper_Space
340
1E
  0
ENDTAB
  0
ENDSEC
  0
SECTION
  2
BLOCKS
  0
BLOCK
  5
20
330
1F
100
AcDbEntity
  8
0
100
AcDbBlockBegin
  2
*Model_Space
 70
     0
 10
0.0
 20
0.0
 30
0.0
  3
*Model_Space
  1

  0
ENDBLK
  5
21
330
1F
100
AcDbEntity
  8
0
100
AcDbBlockEnd
  0
BLOCK
  5
1C
330
1B
100
AcDbEntity
 67
     1
  8
0
100
AcDbBlockBegin
  2
*Paper_Space
 70
     0
 10
0.0
 20
0.0
 30
0.0
  3
*Paper_Space
  1

  0
ENDBLK
  5
1D
330
1B
100
AcDbEntity
 67
     1
  8
0
100
AcDbBlockEnd
  0
ENDSEC
  0
SECTION
  2
ENTITIES
  0
LWPOLYLINE
  5
20000
100
AcDbEntity
  8
směr proudění podzemních vod
100
AcDbPolyline
 70
0
 90
2
 10
-600542.8589
 20
-1162505.417
 10
-600575.3588
 20
-1162545.3345
  0
LWPOLYLINE
  5
20001
100
AcDbEntity
  8
směr proudění podzemních vod
100
AcDbPolyline
 70
0
 90
3
 10
-600555.0475
 20
-1162524.9653
 10
-600575.3588
 20
-1162545.3345
 10
-600559.2677
 20
-1162521.3648
  0
LWPOLYLINE
  5
20002
100
AcDbEntity
  8
směr proudění podzemních vod
100
AcDbPolyline
 70
0
 90
2
 10
-600192.3546
 20
-1162355.642
 10
-600149.9728
 20
-1162326.4286
  0
LWPOLYLINE
  5
20003
100
AcDbEntity
  8
směr proudění podzemních vod
100
AcDbPolyline
 70
0
 90
3
 10
-600175.1774
 20
-1162340.2914
 10
-600149.9728
 20
-1162326.4286
 10
-600172.1349
 20
-1162344.9301
  0
LWPOLYLINE
  5
20004
100
AcDbEntity
  8
směr proudění podzemních vod
100
AcDbPolyline
 70
0
 90
2
 10
-601098.5027
 20
-1162870.5979
 10
-601109.1721
 20
-1162920.9548
  0
LWPOLYLINE
  5
20005
100
AcDbEntity
  8
směr proudění podzemních vod
100
AcDbPolyline
 70
0
 90
3
 10
-601100.4124
 20
-1162893.5555
 10
-601109.1721
 20
-1162920.9548
 10
-601105.8114
 20
-1162892.2812
  0
LWPOLYLINE
  5
20006
100
AcDbEntity
  8
směr proudění podzemních vod
100
AcDbPolyline
 70
0
 90
2
 10
-600196.5594
 20
-1162934.1111
 10
-600214.9777
 20
-1162982.1779
  0
LWPOLYLINE
  5
20007
100
AcDbEntity
  8
směr proudění podzemních vod
100
AcDbPolyline
 70
0
 90
3
 10
-600202.0382
 20
-1162956.487
 10
-600214.9777
 20
-1162982.1779
 10
-600207.1713
 20
-1162954.3835
  0
LWPOLYLINE
  5
20008
100
AcDbEntity
  8
směr proudění podzemních vod
100
AcDbPolyline
 70
0
 90
2
 10
-600331.2257
 20
-1163336.3563
 10
-600329.826
 20
-1163387.812
  0
LWPOLYLINE
  5
20009
100
AcDbEntity
  8
směr proudění podzemních vod
100
AcDbPolyline
 70
0
 90
3
 10
-600327.715
 20
-1163359.1241
 10
-600329.826
 20
-1163387.812
 10
-600333.2623
 20
-1163359.1474
  0
LWPOLYLINE
  5
2000A
100
AcDbEntity
  8
směr proudění podzemních vod
100
AcDbPolyline
 70
0
 90
2
 10
-600229.6473
 20
-1163761.1538
 10
-600217.5628
 20
-1163811.1899
  0
LWPOLYLINE
  5
2000B
100
AcDbEntity
  8
směr proudění podzemních vod
100
AcDbPolyline
 70
0
 90
3
 10
-600221.4722
 20
-1163782.6913
 10
-600217.5628
 20
-1163811.1899
 10
-600226.8931
 20
-1163783.8693
  0
LWPOLYLINE
  5
2000C
100
AcDbEntity
  8
směr proudění podzemních vod
100
AcDbPolyline
 70
0
 90
2
 10
-599786.5545
 20
-1164083.7554
 10
-599752.6792
 20
-1164122.5125
  0
LWPOLYLINE
  5
2000D
100
AcDbEntity
  8
směr proudění podzemních vod
100
AcDbPolyline
 70
0
 90
3
 10
-599769.3376
 20
-1164099.0615
 10
-599752.6792
 20
-1164122.5125
 10
-599773.5973
 20
-1164102.6152
  0
LWPOLYLINE
  5
2000E
100
AcDbEntity
  8
směr proudění podzemních vod
100
AcDbPolyline
 70
0
 90
2
 10
-601105.0766
 20
-1163349.6421
 10
-601103.7004
 20
-1163401.0984
  0
LWPOLYLINE
  5
2000F
100
AcDbEntity
  8
směr proudění podzemních vod
100
AcDbPolyline
 70
0
 90
3
 10
-601101.5763
 20
-1163372.4115
 10
-601103.7004
 20
-1163401.0984
 10
-601107.1237
 20
-1163372.4322
  0
LWPOLYLINE
  5
20010
100
AcDbEntity
  8
směr proudění podzemních vod
100
AcDbPolyline
 70
0
 90
2
 10
-601062.2276
 20
-1163926.9847
 10
-601048.0434
 20
-1163976.4666
  0
LWPOLYLINE
  5
20011
100
AcDbEntity
  8
směr proudění podzemních vod
100
AcDbPolyline
 70
0
 90
3
 10
-601053.1514
 20
-1163948.1583
 10
-601048.0434
 20
-1163976.4666
 10
-601058.5177
 20
-1163949.5639
  0
LWPOLYLINE
  5
20012
100
AcDbEntity
  8
směr proudění podzemních vod
100
AcDbPolyline
 70
0
 90
2
 10
-600091.1859
 20
-1164312.9912
 10
-600075.4585
 20
-1164362.0044
  0
LWPOLYLINE
  5
20013
100
AcDbEntity
  8
směr proudění podzemních vod
100
AcDbPolyline
 70
0
 90
3
 10
-600081.4508
 20
-1164333.8701
 10
-600075.4585
 20
-1164362.0044
 10
-600086.7705
 20
-1164335.443
  0
LWPOLYLINE
  5
20014
100
AcDbEntity
  8
směr proudění podzemních vod
100
AcDbPolyline
 70
0
 90
2
 10
-601018.9579
 20
-1162455.7187
 10
-601031.6621
 20
-1162505.6011
  0
LWPOLYLINE
  5
20015
100
AcDbEntity
  8
směr proudění podzemních vod
100
AcDbPolyline
 70
0
 90
3
 10
-601021.7976
 20
-1162478.5799
 10
-601031.6621
 20
-1162505.6011
 10
-601027.1405
 20
-1162477.0875
  0
LWPOLYLINE
  5
20016
100
AcDbEntity
  8
směr proudění podzemních vod
100
AcDbPolyline
 70
0
 90
2
 10
-599405.7793
 20
-1164380.2857
 10
-599368.4822
 20
-1164415.762
  0
LWPOLYLINE
  5
20017
100
AcDbEntity
  8
směr proudění podzemních vod
100
AcDbPolyline
 70
0
 90
3
 10
-599387.2273
 20
-1164393.943
 10
-599368.4822
 20
-1164415.762
 10
-599391.142
 20
-1164397.8735
  0
LWPOLYLINE
  5
20018
100
AcDbEntity
  8
směr proudění podzemních vod
100
AcDbPolyline
 70
0
 90
2
 10
-601088.713
 20
-1162042.8121
 10
-601083.5997
 20
-1161991.592
  0
LWPOLYLINE
  5
20019
100
AcDbEntity
  8
směr proudění podzemních vod
100
AcDbPolyline
 70
0
 90
3
 10
-601089.3187
 20
-1162019.7832
 10
-601083.5997
 20
-1161991.592
 10
-601083.8129
 20
-1162020.4611
  0
LWPOLYLINE
  5
2001A
100
AcDbEntity
  8
směr proudění podzemních vod
100
AcDbPolyline
 70
0
 90
2
 10
-601384.8059
 20
-1162233.1168
 10
-601436.0639
 20
-1162228.3976
  0
LWPOLYLINE
  5
2001B
100
AcDbEntity
  8
směr proudění podzemních vod
100
AcDbPolyline
 70
0
 90
3
 10
-601407.8295
 20
-1162233.8996
 10
-601436.0639
 20
-1162228.3976
 10
-601407.194
 20
-1162228.3887
  0
LWPOLYLINE
  5
2001C
100
AcDbEntity
  8
směr proudění podzemních vod
100
AcDbPolyline
 70
0
 90
2
 10
-603022.8583
 20
-1161990.6043
 10
-603055.4261
 20
-1162030.4072
  0
LWPOLYLINE
  5
2001D
100
AcDbEntity
  8
směr proudění podzemních vod
100
AcDbPolyline
 70
0
 90
3
 10
-603038.7289
 20
-1162004.7464
 10
-603055.4261
 20
-1162030.4072
 10
-603033.1762
 20
-1162008.0394
  0
LWPOLYLINE
  5
2001E
100
AcDbEntity
  8
směr proudění podzemních vod
100
AcDbPolyline
 70
0
 90
2
 10
-603482.2916
 20
-1161649.7064
 10
-603518.7134
 20
-1161686.016
  0
LWPOLYLINE
  5
2001F
100
AcDbEntity
  8
směr proudění podzemních vod
100
AcDbPolyline
 70
0
 90
3
 10
-603499.5095
 20
-1161662.1731
 10
-603518.7134
 20
-1161686.016
 10
-603494.3179
 20
-1161666.0101
  0
LWPOLYLINE
  5
20020
100
AcDbEntity
  8
směr proudění podzemních vod
100
AcDbPolyline
 70
0
 90
2
 10
-604797.1219
 20
-1160630.3541
 10
-604831.0984
 20
-1160668.9615
  0
LWPOLYLINE
  5
20021
100
AcDbEntity
  8
směr proudění podzemních vod
100
AcDbPolyline
 70
0
 90
3
 10
-604813.4902
 20
-1160643.917
 10
-604831.0984
 20
-1160668.9615
 10
-604808.0594
 20
-1160647.4074
  0
LWPOLYLINE
  5
20022
100
AcDbEntity
  8
směr proudění podzemních vod
100
AcDbPolyline
 70
0
 90
2
 10
-603853.3511
 20
-1161324.3333
 10
-603889.7729
 20
-1161360.6429
  0
LWPOLYLINE
  5
20023
100
AcDbEntity
  8
směr proudění podzemních vod
100
AcDbPolyline
 70
0
 90
3
 10
-603870.569
 20
-1161336.8
 10
-603889.7729
 20
-1161360.6429
 10
-603865.3774
 20
-1161340.637
  0
LWPOLYLINE
  5
20024
100
AcDbEntity
  8
směr proudění podzemních vod
100
AcDbPolyline
 70
0
 90
2
 10
-604268.2421
 20
-1160935.2433
 10
-604304.6639
 20
-1160971.5529
  0
LWPOLYLINE
  5
20025
100
AcDbEntity
  8
směr proudění podzemních vod
100
AcDbPolyline
 70
0
 90
3
 10
-604285.46
 20
-1160947.71
 10
-604304.6639
 20
-1160971.5529
 10
-604280.2684
 20
-1160951.547
  0
LWPOLYLINE
  5
20026
100
AcDbEntity
  8
směr proudění podzemních vod
100
AcDbPolyline
 70
0
 90
2
 10
-605295.9445
 20
-1160211.4197
 10
-605329.921
 20
-1160250.0271
  0
LWPOLYLINE
  5
20027
100
AcDbEntity
  8
směr proudění podzemních vod
100
AcDbPolyline
 70
0
 90
3
 10
-605312.3128
 20
-1160224.9827
 10
-605329.921
 20
-1160250.0271
 10
-605306.8821
 20
-1160228.473
  0
LWPOLYLINE
  5
20028
100
AcDbEntity
  8
směr proudění podzemních vod
100
AcDbPolyline
 70
0
 90
2
 10
-602839.4825
 20
-1162663.7905
 10
-602867.6183
 20
-1162706.8406
  0
LWPOLYLINE
  5
20029
100
AcDbEntity
  8
směr proudění podzemních vod
100
AcDbPolyline
 70
0
 90
3
 10
-602853.7538
 20
-1162679.545
 10
-602867.6183
 20
-1162706.8406
 10
-602847.8815
 20
-1162682.2269
  0
LWPOLYLINE
  5
2002A
100
AcDbEntity
  8
směr proudění podzemních vod
100
AcDbPolyline
 70
0
 90
2
 10
-603341.3971
 20
-1162428.135
 10
-603369.5329
 20
-1162471.185
  0
LWPOLYLINE
  5
2002B
100
AcDbEntity
  8
směr proudění podzemních vod
100
AcDbPolyline
 70
0
 90
3
 10
-603355.6684
 20
-1162443.8895
 10
-603369.5329
 20
-1162471.185
 10
-603349.7962
 20
-1162446.5713
  0
LWPOLYLINE
  5
2002C
100
AcDbEntity
  8
směr proudění podzemních vod
100
AcDbPolyline
 70
0
 90
2
 10
-603856.4655
 20
-1162091.1709
 10
-603894.4924
 20
-1162125.7959
  0
LWPOLYLINE
  5
2002D
100
AcDbEntity
  8
směr proudění podzemních vod
100
AcDbPolyline
 70
0
 90
3
 10
-603874.2297
 20
-1162102.846
 10
-603894.4924
 20
-1162125.7959
 10
-603869.2169
 20
-1162106.914
  0
LWPOLYLINE
  5
2002E
100
AcDbEntity
  8
směr proudění podzemních vod
100
AcDbPolyline
 70
0
 90
2
 10
-604234.2815
 20
-1161732.3722
 10
-604270.0409
 20
-1161769.3343
  0
LWPOLYLINE
  5
2002F
100
AcDbEntity
  8
směr proudění podzemních vod
100
AcDbPolyline
 70
0
 90
3
 10
-604251.2712
 20
-1161745.1481
 10
-604270.0409
 20
-1161769.3343
 10
-604246.0111
 20
-1161748.8907
  0
LWPOLYLINE
  5
20030
100
AcDbEntity
  8
směr proudění podzemních vod
100
AcDbPolyline
 70
0
 90
2
 10
-604696.2721
 20
-1161413.605
 10
-604732.1226
 20
-1161450.4787
  0
LWPOLYLINE
  5
20031
100
AcDbEntity
  8
směr proudění podzemních vod
100
AcDbPolyline
 70
0
 90
3
 10
-604713.2933
 20
-1161426.3389
 10
-604732.1226
 20
-1161450.4787
 10
-604708.0424
 20
-1161430.0945
  0
LWPOLYLINE
  5
20032
100
AcDbEntity
  8
směr proudění podzemních vod
100
AcDbPolyline
 70
0
 90
2
 10
-605171.5235
 20
-1161029.618
 10
-605203.346
 20
-1161070.0193
  0
LWPOLYLINE
  5
20033
100
AcDbEntity
  8
směr proudění podzemních vod
100
AcDbPolyline
 70
0
 90
3
 10
-605187.1285
 20
-1161044.0527
 10
-605203.346
 20
-1161070.0193
 10
-605181.5156
 20
-1161047.2419
  0
LWPOLYLINE
  5
20034
100
AcDbEntity
  8
směr proudění podzemních vod
100
AcDbPolyline
 70
0
 90
2
 10
-605687.8271
 20
-1160719.77
 10
-605715.9629
 20
-1160762.82
  0
LWPOLYLINE
  5
20035
100
AcDbEntity
  8
směr proudění podzemních vod
100
AcDbPolyline
 70
0
 90
3
 10
-605702.0984
 20
-1160735.5245
 10
-605715.9629
 20
-1160762.82
 10
-605696.2262
 20
-1160738.2063
  0
LWPOLYLINE
  5
20036
100
AcDbEntity
  8
směr proudění podzemních vod
100
AcDbPolyline
 70
0
 90
2
 10
-606155.6421
 20
-1160369.125
 10
-606183.7779
 20
-1160412.175
  0
LWPOLYLINE
  5
20037
100
AcDbEntity
  8
směr proudění podzemních vod
100
AcDbPolyline
 70
0
 90
3
 10
-606169.9134
 20
-1160384.8795
 10
-606183.7779
 20
-1160412.175
 10
-606164.0412
 20
-1160387.5613
  0
LWPOLYLINE
  5
20038
100
AcDbEntity
  8
směr proudění podzemních vod
100
AcDbPolyline
 70
0
 90
2
 10
-604497.2657
 20
-1162468.3149
 10
-604541.3617
 20
-1162494.7814
  0
LWPOLYLINE
  5
20039
100
AcDbEntity
  8
směr proudění podzemních vod
100
AcDbPolyline
 70
0
 90
3
 10
-604516.9797
 20
-1162476.2667
 10
-604541.3617
 20
-1162494.7814
 10
-604512.8653
 20
-1162481.2414
  0
LWPOLYLINE
  5
2003A
100
AcDbEntity
  8
směr proudění podzemních vod
100
AcDbPolyline
 70
0
 90
2
 10
-603808.9621
 20
-1162988.685
 10
-603837.0979
 20
-1163031.735
  0
LWPOLYLINE
  5
2003B
100
AcDbEntity
  8
směr proudění podzemních vod
100
AcDbPolyline
 70
0
 90
3
 10
-603823.2334
 20
-1163004.4395
 10
-603837.0979
 20
-1163031.735
 10
-603817.3612
 20
-1163007.1213
  0
LWPOLYLINE
  5
2003C
100
AcDbEntity
  8
směr proudění podzemních vod
100
AcDbPolyline
 70
0
 90
2
 10
-596341.1086
 20
-1164027.9833
 10
-596378.7109
 20
-1164063.1854
  0
LWPOLYLINE
  5
2003D
100
AcDbEntity
  8
směr proudění podzemních vod
100
AcDbPolyline
 70
0
 90
3
 10
-596359.7098
 20
-1164039.134
 10
-596378.7109
 20
-1164063.1854
 10
-596353.4094
 20
-1164045.0344
  0
LWPOLYLINE
  5
2003E
100
AcDbEntity
  8
směr proudění podzemních vod
100
AcDbPolyline
 70
0
 90
2
 10
-596238.5136
 20
-1164340.1283
 10
-596286.7515
 20
-1164358.1899
  0
LWPOLYLINE
  5
2003F
100
AcDbEntity
  8
směr proudění podzemních vod
100
AcDbPolyline
 70
0
 90
3
 10
-596259.9706
 20
-1164343.2802
 10
-596286.7515
 20
-1164358.1899
 10
-596256.4194
 20
-1164351.1477
  0
LWPOLYLINE
  5
20040
100
AcDbEntity
  8
směr proudění podzemních vod
100
AcDbPolyline
 70
0
 90
2
 10
-596213.5261
 20
-1164998.2497
 10
-596264.9618
 20
-1165000.9853
  0
LWPOLYLINE
  5
20041
100
AcDbEntity
  8
směr proudění podzemních vod
100
AcDbPolyline
 70
0
 90
3
 10
-596234.9389
 20
-1164994.8098
 10
-596264.9618
 20
-1165000.9853
 10
-596233.9153
 20
-1165003.3808
  0
LWPOLYLINE
  5
20042
100
AcDbEntity
  8
směr proudění podzemních vod
100
AcDbPolyline
 70
0
 90
2
 10
-595490.4257
 20
-1164965.9916
 10
-595541.9285
 20
-1164965.2333
  0
LWPOLYLINE
  5
20043
100
AcDbEntity
  8
směr proudění podzemních vod
100
AcDbPolyline
 70
0
 90
3
 10
-595511.5559
 20
-1164961.1078
 10
-595541.9285
 20
-1164965.2333
 10
-595511.1158
 20
-1164969.7284
  0
LWPOLYLINE
  5
20044
100
AcDbEntity
  8
směr proudění podzemních vod
100
AcDbPolyline
 70
0
 90
2
 10
-594656.3729
 20
-1164928.4857
 10
-594707.8812
 20
-1164928.338
  0
LWPOLYLINE
  5
20045
100
AcDbEntity
  8
směr proudění podzemních vod
100
AcDbPolyline
 70
0
 90
3
 10
-594677.5596
 20
-1164923.8527
 10
-594707.8812
 20
-1164928.338
 10
-594677.0173
 20
-1164932.4675
  0
LWPOLYLINE
  5
20046
100
AcDbEntity
  8
směr proudění podzemních vod
100
AcDbPolyline
 70
0
 90
2
 10
-595481.1976
 20
-1165625.8639
 10
-595532.4345
 20
-1165620.5816
  0
LWPOLYLINE
  5
20047
100
AcDbEntity
  8
směr proudění podzemních vod
100
AcDbPolyline
 70
0
 90
3
 10
-595501.8168
 20
-1165619.1417
 10
-595532.4345
 20
-1165620.5816
 10
-595502.1362
 20
-1165627.7676
  0
LWPOLYLINE
  5
20048
100
AcDbEntity
  8
směr proudění podzemních vod
100
AcDbPolyline
 70
0
 90
2
 10
-595456.2845
 20
-1166483.2751
 10
-595507.7319
 20
-1166480.7697
  0
LWPOLYLINE
  5
20049
100
AcDbEntity
  8
směr proudění podzemních vod
100
AcDbPolyline
 70
0
 90
3
 10
-595477.2369
 20
-1166477.6771
 10
-595507.7319
 20
-1166480.7697
 10
-595477.0895
 20
-1166486.3077
  0
LWPOLYLINE
  5
2004A
100
AcDbEntity
  8
směr proudění podzemních vod
100
AcDbPolyline
 70
0
 90
2
 10
-603604.4033
 20
-1157376.1594
 10
-603553.433
 20
-1157367.2485
  0
LWPOLYLINE
  5
2004B
100
AcDbEntity
  8
směr proudění podzemních vod
100
AcDbPolyline
 70
0
 90
3
 10
-603584.7993
 20
-1157368.897
 10
-603553.433
 20
-1157367.2485
 10
-603583.0172
 20
-1157376.3822
  0
LWPOLYLINE
  5
2004C
100
AcDbEntity
  8
směr proudění podzemních vod
100
AcDbPolyline
 70
0
 90
2
 10
-604110.7751
 20
-1157582.3304
 10
-604059.8049
 20
-1157573.4196
  0
LWPOLYLINE
  5
2004D
100
AcDbEntity
  8
směr proudění podzemních vod
100
AcDbPolyline
 70
0
 90
3
 10
-604091.1712
 20
-1157575.0681
 10
-604059.8049
 20
-1157573.4196
 10
-604089.389
 20
-1157582.5532
  0
LWPOLYLINE
  5
2004E
100
AcDbEntity
  8
směr proudění podzemních vod
100
AcDbPolyline
 70
0
 90
2
 10
-604205.01
 20
-1157112.0978
 10
-604176.3419
 20
-1157069.0221
  0
LWPOLYLINE
  5
2004F
100
AcDbEntity
  8
směr proudění podzemních vod
100
AcDbPolyline
 70
0
 90
3
 10
-604196.7629
 20
-1157092.8873
 10
-604176.3419
 20
-1157069.0221
 10
-604190.1107
 20
-1157096.7541
  0
LWPOLYLINE
  5
20050
100
AcDbEntity
  8
směr proudění podzemních vod
100
AcDbPolyline
 70
0
 90
2
 10
-603699.8401
 20
-1156929.8704
 10
-603648.8699
 20
-1156920.9596
  0
LWPOLYLINE
  5
20051
100
AcDbEntity
  8
směr proudění podzemních vod
100
AcDbPolyline
 70
0
 90
3
 10
-603680.2362
 20
-1156922.6081
 10
-603648.8699
 20
-1156920.9596
 10
-603678.454
 20
-1156930.0932
  0
LWPOLYLINE
  5
20052
100
AcDbEntity
  8
směr proudění podzemních vod
100
AcDbPolyline
 70
0
 90
2
 10
-603966.9551
 20
-1156559.7504
 10
-603940.7275
 20
-1156515.1468
  0
LWPOLYLINE
  5
20053
100
AcDbEntity
  8
směr proudění podzemních vod
100
AcDbPolyline
 70
0
 90
3
 10
-603959.7893
 20
-1156540.111
 10
-603940.7275
 20
-1156515.1468
 10
-603952.9324
 20
-1156543.6018
  0
LWPOLYLINE
  5
20054
100
AcDbEntity
  8
směr proudění podzemních vod
100
AcDbPolyline
 70
0
 90
2
 10
-604753.4201
 20
-1156695.6454
 10
-604747.649
 20
-1156644.2249
  0
LWPOLYLINE
  5
20055
100
AcDbEntity
  8
směr proudění podzemních vod
100
AcDbPolyline
 70
0
 90
3
 10
-604754.881
 20
-1156674.7906
 10
-604747.649
 20
-1156644.2249
 10
-604747.1967
 20
-1156675.1836
  0
LWPOLYLINE
  5
20056
100
AcDbEntity
  8
směr proudění podzemních vod
100
AcDbPolyline
 70
0
 90
2
 10
-604816.2117
 20
-1157196.7122
 10
-604814.6259
 20
-1157144.9931
  0
LWPOLYLINE
  5
20057
100
AcDbEntity
  8
směr proudění podzemních vod
100
AcDbPolyline
 70
0
 90
3
 10
-604819.3576
 20
-1157176.0443
 10
-604814.6259
 20
-1157144.9931
 10
-604811.6666
 20
-1157175.8134
  0
LWPOLYLINE
  5
20058
100
AcDbEntity
  8
směr proudění podzemních vod
100
AcDbPolyline
 70
0
 90
2
 10
-605658.6865
 20
-1156623.9331
 10
-605608.5202
 20
-1156611.2555
  0
LWPOLYLINE
  5
20059
100
AcDbEntity
  8
směr proudění podzemních vod
100
AcDbPolyline
 70
0
 90
3
 10
-605639.677
 20
-1156615.2326
 10
-605608.5202
 20
-1156611.2555
 10
-605637.343
 20
-1156622.5644
  0
LWPOLYLINE
  5
2005A
100
AcDbEntity
  8
směr proudění podzemních vod
100
AcDbPolyline
 70
0
 90
2
 10
-605150.8051
 20
-1156393.5954
 10
-605104.0985
 20
-1156371.3274
  0
LWPOLYLINE
  5
2005B
100
AcDbEntity
  8
směr proudění podzemních vod
100
AcDbPolyline
 70
0
 90
3
 10
-605133.8707
 20
-1156381.3365
 10
-605104.0985
 20
-1156371.3274
 10
-605130.1444
 20
-1156388.0684
  0
LWPOLYLINE
  5
2005C
100
AcDbEntity
  8
směr proudění podzemních vod
100
AcDbPolyline
 70
0
 90
2
 10
-605191.4383
 20
-1155701.4307
 10
-605146.17
 20
-1155676.3677
  0
LWPOLYLINE
  5
2005D
100
AcDbEntity
  8
směr proudění podzemních vod
100
AcDbPolyline
 70
0
 90
3
 10
-605175.2795
 20
-1155688.1661
 10
-605146.17
 20
-1155676.3677
 10
-605171.1512
 20
-1155694.6593
  0
LWPOLYLINE
  5
2005E
100
AcDbEntity
  8
směr proudění podzemních vod
100
AcDbPolyline
 70
0
 90
2
 10
-605509.1201
 20
-1154928.0604
 10
-605467.1067
 20
-1154897.8571
  0
LWPOLYLINE
  5
2005F
100
AcDbEntity
  8
směr proudění podzemních vod
100
AcDbPolyline
 70
0
 90
3
 10
-605494.63
 20
-1154912.9908
 10
-605467.1067
 20
-1154897.8571
 10
-605489.7682
 20
-1154918.9545
  0
LWPOLYLINE
  5
20060
100
AcDbEntity
  8
směr proudění podzemních vod
100
AcDbPolyline
 70
0
 90
2
 10
-595898.7523
 20
-1161643.091
 10
-595939.8309
 20
-1161674.5167
  0
LWPOLYLINE
  5
20061
100
AcDbEntity
  8
směr proudění podzemních vod
100
AcDbPolyline
 70
0
 90
3
 10
-595918.3804
 20
-1161653.3339
 10
-595939.8309
 20
-1161674.5167
 10
-595913.3885
 20
-1161658.8385
  0
LWPOLYLINE
  5
20062
100
AcDbEntity
  8
směr proudění podzemních vod
100
AcDbPolyline
 70
0
 90
2
 10
-596227.3274
 20
-1161853.2435
 10
-596258.8819
 20
-1161894.2232
  0
LWPOLYLINE
  5
20063
100
AcDbEntity
  8
směr proudění podzemních vod
100
AcDbPolyline
 70
0
 90
3
 10
-596243.639
 20
-1161868.2139
 10
-596258.8819
 20
-1161894.2232
 10
-596237.3934
 20
-1161872.2403
  0
LWPOLYLINE
  5
20064
100
AcDbEntity
  8
směr proudění podzemních vod
100
AcDbPolyline
 70
0
 90
2
 10
-596458.504
 20
-1162081.3666
 10
-596482.2392
 20
-1162127.3195
  0
LWPOLYLINE
  5
20065
100
AcDbEntity
  8
směr proudění podzemních vod
100
AcDbPolyline
 70
0
 90
3
 10
-596471.8823
 20
-1162099.0075
 10
-596482.2392
 20
-1162127.3195
 10
-596465.0185
 20
-1162101.8548
  0
LWPOLYLINE
  5
20066
100
AcDbEntity
  8
směr proudění podzemních vod
100
AcDbPolyline
 70
0
 90
2
 10
-595428.7367
 20
-1161917.9058
 10
-595476.0818
 20
-1161938.7256
  0
LWPOLYLINE
  5
20067
100
AcDbEntity
  8
směr proudění podzemních vod
100
AcDbPolyline
 70
0
 90
3
 10
-595450.2303
 20
-1161923.2164
 10
-595476.0818
 20
-1161938.7256
 10
-595446.6818
 20
-1161929.7453
  0
LWPOLYLINE
  5
20068
100
AcDbEntity
  8
směr proudění podzemních vod
100
AcDbPolyline
 70
0
 90
2
 10
-595876.1435
 20
-1162173.4854
 10
-595914.0258
 20
-1162208.6984
  0
LWPOLYLINE
  5
20069
100
AcDbEntity
  8
směr proudění podzemních vod
100
AcDbPolyline
 70
0
 90
3
 10
-595894.7012
 20
-1162185.5599
 10
-595914.0258
 20
-1162208.6984
 10
-595889.2054
 20
-1162190.5614
  0
LWPOLYLINE
  5
2006A
100
AcDbEntity
  8
směr proudění podzemních vod
100
AcDbPolyline
 70
0
 90
2
 10
-596329.8237
 20
-1162543.3191
 10
-596370.9023
 20
-1162574.7449
  0
LWPOLYLINE
  5
2006B
100
AcDbEntity
  8
směr proudění podzemních vod
100
AcDbPolyline
 70
0
 90
3
 10
-596349.4518
 20
-1162553.5621
 10
-596370.9023
 20
-1162574.7449
 10
-596344.4599
 20
-1162559.0667
  0
LWPOLYLINE
  5
2006C
100
AcDbEntity
  8
směr proudění podzemních vod
100
AcDbPolyline
 70
0
 90
2
 10
-594484.4357
 20
-1162227.9621
 10
-594525.5143
 20
-1162259.3879
  0
LWPOLYLINE
  5
2006D
100
AcDbEntity
  8
směr proudění podzemních vod
100
AcDbPolyline
 70
0
 90
3
 10
-594504.0638
 20
-1162238.2051
 10
-594525.5143
 20
-1162259.3879
 10
-594499.0719
 20
-1162243.7097
  0
LWPOLYLINE
  5
2006E
100
AcDbEntity
  8
směr proudění podzemních vod
100
AcDbPolyline
 70
0
 90
2
 10
-595203.7227
 20
-1162693.3995
 10
-595244.8013
 20
-1162724.8253
  0
LWPOLYLINE
  5
2006F
100
AcDbEntity
  8
směr proudění podzemních vod
100
AcDbPolyline
 70
0
 90
3
 10
-595223.3508
 20
-1162703.6425
 10
-595244.8013
 20
-1162724.8253
 10
-595218.3589
 20
-1162709.1471
  0
LWPOLYLINE
  5
20070
100
AcDbEntity
  8
směr proudění podzemních vod
100
AcDbPolyline
 70
0
 90
2
 10
-595880.7607
 20
-1163065.9571
 10
-595921.8393
 20
-1163097.3829
  0
LWPOLYLINE
  5
20071
100
AcDbEntity
  8
směr proudění podzemních vod
100
AcDbPolyline
 70
0
 90
3
 10
-595900.3888
 20
-1163076.2001
 10
-595921.8393
 20
-1163097.3829
 10
-595895.3969
 20
-1163081.7047
  0
LWPOLYLINE
  5
20072
100
AcDbEntity
  8
směr proudění podzemních vod
100
AcDbPolyline
 70
0
 90
2
 10
-596457.4107
 20
-1163393.9371
 10
-596498.4893
 20
-1163425.3629
  0
LWPOLYLINE
  5
20073
100
AcDbEntity
  8
směr proudění podzemních vod
100
AcDbPolyline
 70
0
 90
3
 10
-596477.0388
 20
-1163404.1801
 10
-596498.4893
 20
-1163425.3629
 10
-596472.0469
 20
-1163409.6847
  0
LWPOLYLINE
  5
20074
100
AcDbEntity
  8
směr proudění podzemních vod
100
AcDbPolyline
 70
0
 90
2
 10
-594088.1665
 20
-1162862.44
 10
-594134.6272
 20
-1162885.1651
  0
LWPOLYLINE
  5
20075
100
AcDbEntity
  8
směr proudění podzemních vod
100
AcDbPolyline
 70
0
 90
3
 10
-594109.4267
 20
-1162868.619
 10
-594134.6272
 20
-1162885.1651
 10
-594105.6161
 20
-1162874.9985
  0
LWPOLYLINE
  5
20076
100
AcDbEntity
  8
směr proudění podzemních vod
100
AcDbPolyline
 70
0
 90
2
 10
-594799.5326
 20
-1163160.2156
 10
-594847.6675
 20
-1163179.1379
  0
LWPOLYLINE
  5
20077
100
AcDbEntity
  8
směr proudění podzemních vod
100
AcDbPolyline
 70
0
 90
3
 10
-594821.2202
 20
-1163164.6681
 10
-594847.6675
 20
-1163179.1379
 10
-594817.9339
 20
-1163171.3329
  0
LWPOLYLINE
  5
20078
100
AcDbEntity
  8
směr proudění podzemních vod
100
AcDbPolyline
 70
0
 90
2
 10
-595366.9089
 20
-1163451.8294
 10
-595407.9874
 20
-1163483.2551
  0
LWPOLYLINE
  5
20079
100
AcDbEntity
  8
směr proudění podzemních vod
100
AcDbPolyline
 70
0
 90
3
 10
-595386.537
 20
-1163462.0723
 10
-595407.9874
 20
-1163483.2551
 10
-595381.5451
 20
-1163467.5769
  0
LWPOLYLINE
  5
2007A
100
AcDbEntity
  8
směr proudění podzemních vod
100
AcDbPolyline
 70
0
 90
2
 10
-595930.0607
 20
-1163781.8021
 10
-595971.1393
 20
-1163813.2279
  0
LWPOLYLINE
  5
2007B
100
AcDbEntity
  8
směr proudění podzemních vod
100
AcDbPolyline
 70
0
 90
3
 10
-595949.6888
 20
-1163792.0451
 10
-595971.1393
 20
-1163813.2279
 10
-595944.6969
 20
-1163797.5497
  0
LWPOLYLINE
  5
2007C
100
AcDbEntity
  8
směr proudění podzemních vod
100
AcDbPolyline
 70
0
 90
2
 10
-594252.9975
 20
-1163821.0717
 10
-594299.0632
 20
-1163844.5871
  0
LWPOLYLINE
  5
2007D
100
AcDbEntity
  8
směr proudění podzemních vod
100
AcDbPolyline
 70
0
 90
3
 10
-594274.1491
 20
-1163827.613
 10
-594299.0632
 20
-1163844.5871
 10
-594270.23
 20
-1163833.9264
  0
LWPOLYLINE
  5
2007E
100
AcDbEntity
  8
směr proudění podzemních vod
100
AcDbPolyline
 70
0
 90
2
 10
-594920.5028
 20
-1163988.4878
 10
-594969.8454
 20
-1164003.9903
  0
LWPOLYLINE
  5
2007F
100
AcDbEntity
  8
směr proudění podzemních vod
100
AcDbPolyline
 70
0
 90
3
 10
-594942.4491
 20
-1163991.4095
 10
-594969.8454
 20
-1164003.9903
 10
-594939.638
 20
-1163998.2882
  0
LWPOLYLINE
  5
20080
100
AcDbEntity
  8
směr proudění podzemních vod
100
AcDbPolyline
 70
0
 90
2
 10
-595604.3389
 20
-1164138.6001
 10
-595653.9719
 20
-1164153.1462
  0
LWPOLYLINE
  5
20081
100
AcDbEntity
  8
směr proudění podzemních vod
100
AcDbPolyline
 70
0
 90
3
 10
-595626.3376
 20
-1164141.0971
 10
-595653.9719
 20
-1164153.1462
 10
-595623.6599
 20
-1164148.0289
  0
LWPOLYLINE
  5
20082
100
AcDbEntity
  8
směr proudění podzemních vod
100
AcDbPolyline
 70
0
 90
2
 10
-594563.9671
 20
-1167135.4237
 10
-594615.8146
 20
-1167135.4237
  0
LWPOLYLINE
  5
20083
100
AcDbEntity
  8
směr proudění podzemních vod
100
AcDbPolyline
 70
0
 90
3
 10
-594586.9795
 20
-1167132.7908
 10
-594615.8146
 20
-1167135.4237
 10
-594586.9225
 20
-1167137.892
  0
LWPOLYLINE
  5
20084
100
AcDbEntity
  8
směr proudění podzemních vod
100
AcDbPolyline
 70
0
 90
2
 10
-595187.5097
 20
-1167142.4072
 10
-595239.305
 20
-1167144.7349
  0
LWPOLYLINE
  5
20085
100
AcDbEntity
  8
směr proudění podzemních vod
100
AcDbPolyline
 70
0
 90
3
 10
-595210.6171
 20
-1167140.8102
 10
-595239.305
 20
-1167144.7349
 10
-595210.4978
 20
-1167145.7211
  0
LWPOLYLINE
  5
20086
100
AcDbEntity
  8
směr proudění podzemních vod
100
AcDbPolyline
 70
0
 90
2
 10
-595768.458
 20
-1167182.5258
 10
-595820.2306
 20
-1167179.7399
  0
LWPOLYLINE
  5
20087
100
AcDbEntity
  8
směr proudění podzemních vod
100
AcDbPolyline
 70
0
 90
3
 10
-595791.2957
 20
-1167178.6602
 10
-595820.2306
 20
-1167179.7399
 10
-595791.6607
 20
-1167183.559
  0
LWPOLYLINE
  5
20088
100
AcDbEntity
  8
směr proudění podzemních vod
100
AcDbPolyline
 70
0
 90
2
 10
-596182.0099
 20
-1166827.4081
 10
-596208.22
 20
-1166872.1429
  0
LWPOLYLINE
  5
20089
100
AcDbEntity
  8
směr proudění podzemních vod
100
AcDbPolyline
 70
0
 90
3
 10
-596195.9149
 20
-1166845.9326
 10
-596208.22
 20
-1166872.1429
 10
-596191.7285
 20
-1166848.5027
  0
LWPOLYLINE
  5
2008A
100
AcDbEntity
  8
směr proudění podzemních vod
100
AcDbPolyline
 70
0
 90
2
 10
-594556.2941
 20
-1167891.877
 10
-594608.1417
 20
-1167891.877
  0
LWPOLYLINE
  5
2008B
100
AcDbEntity
  8
směr proudění podzemních vod
100
AcDbPolyline
 70
0
 90
3
 10
-594579.3065
 20
-1167889.2441
 10
-594608.1417
 20
-1167891.877
 10
-594579.2496
 20
-1167894.3453
  0
LWPOLYLINE
  5
2008C
100
AcDbEntity
  8
směr proudění podzemních vod
100
AcDbPolyline
 70
0
 90
2
 10
-595623.8551
 20
-1168084.7466
 10
-595675.7026
 20
-1168084.7466
  0
LWPOLYLINE
  5
2008D
100
AcDbEntity
  8
směr proudění podzemních vod
100
AcDbPolyline
 70
0
 90
3
 10
-595646.8675
 20
-1168082.1137
 10
-595675.7026
 20
-1168084.7466
 10
-595646.8106
 20
-1168087.2149
  0
LWPOLYLINE
  5
2008E
100
AcDbEntity
  8
směr proudění podzemních vod
100
AcDbPolyline
 70
0
 90
2
 10
-596878.7757
 20
-1168084.7466
 10
-596930.6232
 20
-1168084.7466
  0
LWPOLYLINE
  5
2008F
100
AcDbEntity
  8
směr proudění podzemních vod
100
AcDbPolyline
 70
0
 90
3
 10
-596901.7881
 20
-1168082.1137
 10
-596930.6232
 20
-1168084.7466
 10
-596901.7312
 20
-1168087.2149
  0
LWPOLYLINE
  5
20090
100
AcDbEntity
  8
směr proudění podzemních vod
100
AcDbPolyline
 70
0
 90
2
 10
-594379.6651
 20
-1168443.3566
 10
-594431.5126
 20
-1168443.3566
  0
LWPOLYLINE
  5
20091
100
AcDbEntity
  8
směr proudění podzemních vod
100
AcDbPolyline
 70
0
 90
3
 10
-594402.6775
 20
-1168440.7237
 10
-594431.5126
 20
-1168443.3566
 10
-594402.6206
 20
-1168445.8249
  0
LWPOLYLINE
  5
20092
100
AcDbEntity
  8
směr proudění podzemních vod
100
AcDbPolyline
 70
0
 90
2
 10
-595452.6771
 20
-1168620.5566
 10
-595504.5246
 20
-1168620.5566
  0
LWPOLYLINE
  5
20093
100
AcDbEntity
  8
směr proudění podzemních vod
100
AcDbPolyline
 70
0
 90
3
 10
-595475.6895
 20
-1168617.9237
 10
-595504.5246
 20
-1168620.5566
 10
-595475.6326
 20
-1168623.0249
  0
LWPOLYLINE
  5
20094
100
AcDbEntity
  8
směr proudění podzemních vod
100
AcDbPolyline
 70
0
 90
2
 10
-596857.7251
 20
-1168822.6766
 10
-596909.5726
 20
-1168822.6766
  0
LWPOLYLINE
  5
20095
100
AcDbEntity
  8
směr proudění podzemních vod
100
AcDbPolyline
 70
0
 90
3
 10
-596880.7375
 20
-1168820.0437
 10
-596909.5726
 20
-1168822.6766
 10
-596880.6806
 20
-1168825.1449
  0
LWPOLYLINE
  5
20096
100
AcDbEntity
  8
směr proudění podzemních vod
100
AcDbPolyline
 70
0
 90
2
 10
-595372.921
 20
-1169500.2366
 10
-595424.7685
 20
-1169500.2366
  0
LWPOLYLINE
  5
20097
100
AcDbEntity
  8
směr proudění podzemních vod
100
AcDbPolyline
 70
0
 90
3
 10
-595395.9333
 20
-1169497.6037
 10
-595424.7685
 20
-1169500.2366
 10
-595395.8764
 20
-1169502.7049
  0
LWPOLYLINE
  5
20098
100
AcDbEntity
  8
směr proudění podzemních vod
100
AcDbPolyline
 70
0
 90
2
 10
-594117.9718
 20
-1169449.364
 10
-594169.8193
 20
-1169449.364
  0
LWPOLYLINE
  5
20099
100
AcDbEntity
  8
směr proudění podzemních vod
100
AcDbPolyline
 70
0
 90
3
 10
-594140.9842
 20
-1169446.7311
 10
-594169.8193
 20
-1169449.364
 10
-594140.9272
 20
-1169451.8323
  0
LWPOLYLINE
  5
2009A
100
AcDbEntity
  8
směr proudění podzemních vod
100
AcDbPolyline
 70
0
 90
3
 10
-596266.3801
 20
-1167045.444
 10
-596270.3072
 20
-1167074.1315
 10
-596261.6177
 20
-1167046.6484
  0
LWPOLYLINE
  5
2009B
100
AcDbEntity
  8
směr proudění podzemních vod
100
AcDbPolyline
 70
0
 90
2
 10
-596258.6335
 20
-1167023.6153
 10
-596270.3072
 20
-1167074.1315
  0
LWPOLYLINE
  5
2009C
100
AcDbEntity
  8
směr proudění podzemních vod
100
AcDbPolyline
 70
0
 90
2
 10
-599085.5291
 20
-1164688.796
 10
-599107.8638
 20
-1164671.414
  0
LWPOLYLINE
  5
2009D
100
AcDbEntity
  8
směr proudění podzemních vod
100
AcDbPolyline
 70
0
 90
3
 10
-599121.517
 20
-1164652.4978
 10
-599085.5291
 20
-1164688.796
 10
-599102.5226
 20
-1164666.7613
  0
LWPOLYLINE
  5
2009E
100
AcDbEntity
  8
směr proudění podzemních vod
100
AcDbPolyline
 70
0
 90
2
 10
-598967.1268
 20
-1164769.2017
 10
-598992.3329
 20
-1164756.3322
  0
LWPOLYLINE
  5
2009F
100
AcDbEntity
  8
směr proudění podzemních vod
100
AcDbPolyline
 70
0
 90
3
 10
-599009.3012
 20
-1164740.3225
 10
-598967.1268
 20
-1164769.2017
 10
-598987.9624
 20
-1164750.7577
  0
LWPOLYLINE
  5
200A0
100
AcDbEntity
  8
směr proudění podzemních vod
100
AcDbPolyline
 70
0
 90
2
 10
-598671.8366
 20
-1164963.9852
 10
-598696.4592
 20
-1164950.0317
  0
LWPOLYLINE
  5
200A1
100
AcDbEntity
  8
směr proudění podzemních vod
100
AcDbPolyline
 70
0
 90
3
 10
-598712.7153
 20
-1164933.2993
 10
-598671.8366
 20
-1164963.9852
 10
-598691.8505
 20
-1164944.6525
  0
LWPOLYLINE
  5
200A2
100
AcDbEntity
  8
směr proudění podzemních vod
100
AcDbPolyline
 70
0
 90
2
 10
-598471.4133
 20
-1165116.1194
 10
-598496.8987
 20
-1165103.8121
  0
LWPOLYLINE
  5
200A3
100
AcDbEntity
  8
směr proudění podzemních vod
100
AcDbPolyline
 70
0
 90
3
 10
-598514.218
 20
-1165088.1828
 10
-598471.4133
 20
-1165116.1194
 10
-598492.653
 20
-1165098.1421
  0
LWPOLYLINE
  5
200A4
100
AcDbEntity
  8
směr proudění podzemních vod
100
AcDbPolyline
 70
0
 90
2
 10
-598095.413
 20
-1165427.6533
 10
-598118.3295
 20
-1165411.0458
  0
LWPOLYLINE
  5
200A5
100
AcDbEntity
  8
směr proudění podzemních vod
100
AcDbPolyline
 70
0
 90
3
 10
-598132.6221
 20
-1165392.608
 10
-598095.413
 20
-1165427.6533
 10
-598113.1506
 20
-1165406.2131
  0
LWPOLYLINE
  5
200A6
100
AcDbEntity
  8
směr proudění podzemních vod
100
AcDbPolyline
 70
0
 90
2
 10
-597864.2855
 20
-1165864.0586
 10
-597883.5691
 20
-1165843.3435
  0
LWPOLYLINE
  5
200A7
100
AcDbEntity
  8
směr proudění podzemních vod
100
AcDbPolyline
 70
0
 90
3
 10
-597894.0378
 20
-1165822.4955
 10
-597864.2855
 20
-1165864.0586
 10
-597877.5555
 20
-1165839.6002
  0
LWPOLYLINE
  5
200A8
100
AcDbEntity
  8
směr proudění podzemních vod
100
AcDbPolyline
 70
0
 90
2
 10
-598258.3166
 20
-1164753.9636
 10
-598281.802
 20
-1164738.1708
  0
LWPOLYLINE
  5
200A9
100
AcDbEntity
  8
směr proudění podzemních vod
100
AcDbPolyline
 70
0
 90
3
 10
-598296.733
 20
-1164720.246
 10
-598258.3166
 20
-1164753.9636
 10
-598276.7959
 20
-1164733.1592
  0
LWPOLYLINE
  5
200AA
100
AcDbEntity
  8
směr proudění podzemních vod
100
AcDbPolyline
 70
0
 90
2
 10
-597815.4263
 20
-1165097.1492
 10
-597838.6426
 20
-1165080.9633
  0
LWPOLYLINE
  5
200AB
100
AcDbEntity
  8
směr proudění podzemních vod
100
AcDbPolyline
 70
0
 90
3
 10
-597853.2697
 20
-1165062.7898
 10
-597815.4263
 20
-1165097.1492
 10
-597833.5529
 20
-1165076.0368
  0
LWPOLYLINE
  5
200AC
100
AcDbEntity
  8
směr proudění podzemních vod
100
AcDbPolyline
 70
0
 90
2
 10
-597525.5181
 20
-1165480.8452
 10
-597537.8222
 20
-1165455.3582
  0
LWPOLYLINE
  5
200AD
100
AcDbEntity
  8
směr proudění podzemních vod
100
AcDbPolyline
 70
0
 90
3
 10
-597541.6653
 20
-1165432.3482
 10
-597525.5181
 20
-1165480.8452
 10
-597530.9712
 20
-1165453.5584
  0
LWPOLYLINE
  5
200AE
100
AcDbEntity
  8
směr proudění podzemních vod
100
AcDbPolyline
 70
0
 90
2
 10
-599408.6596
 20
-1165026.8395
 10
-599431.6627
 20
-1165010.3522
  0
LWPOLYLINE
  5
200AF
100
AcDbEntity
  8
směr proudění podzemních vod
100
AcDbPolyline
 70
0
 90
3
 10
-599446.0516
 20
-1164991.9894
 10
-599408.6596
 20
-1165026.8395
 10
-599426.5092
 20
-1165005.4924
  0
LWPOLYLINE
  5
200B0
100
AcDbEntity
  8
směr proudění podzemních vod
100
AcDbPolyline
 70
0
 90
2
 10
-599278.5471
 20
-1165143.6682
 10
-599303.1215
 20
-1165129.6297
  0
LWPOLYLINE
  5
200B1
100
AcDbEntity
  8
směr proudění podzemních vod
100
AcDbPolyline
 70
0
 90
3
 10
-599319.3196
 20
-1165112.8413
 10
-599278.5471
 20
-1165143.6682
 10
-599298.4941
 20
-1165124.2665
  0
LWPOLYLINE
  5
200B2
100
AcDbEntity
  8
směr proudění podzemních vod
100
AcDbPolyline
 70
0
 90
2
 10
-599390.2047
 20
-1165545.6848
 10
-599417.1066
 20
-1165536.8948
  0
LWPOLYLINE
  5
200B3
100
AcDbEntity
  8
směr proudění podzemních vod
100
AcDbPolyline
 70
0
 90
3
 10
-599436.3596
 20
-1165523.7209
 10
-599390.2047
 20
-1165545.6848
 10
-599413.6569
 20
-1165530.708
  0
LWPOLYLINE
  5
200B4
100
AcDbEntity
  8
směr proudění podzemních vod
100
AcDbPolyline
 70
0
 90
2
 10
-598369.8016
 20
-1165529.5329
 10
-598395.2149
 20
-1165517.0774
  0
LWPOLYLINE
  5
200B5
100
AcDbEntity
  8
směr proudění podzemních vod
100
AcDbPolyline
 70
0
 90
3
 10
-598412.4428
 20
-1165501.3475
 10
-598369.8016
 20
-1165529.5329
 10
-598390.9362
 20
-1165511.4322
  0
LWPOLYLINE
  5
200B6
100
AcDbEntity
  8
směr proudění podzemních vod
100
AcDbPolyline
 70
0
 90
2
 10
-598218.8469
 20
-1165632.6923
 10
-598243.1085
 20
-1165618.12
  0
LWPOLYLINE
  5
200B7
100
AcDbEntity
  8
směr proudění podzemních vod
100
AcDbPolyline
 70
0
 90
3
 10
-598258.9358
 20
-1165600.9815
 10
-598218.8469
 20
-1165632.6923
 10
-598238.365
 20
-1165612.8592
  0
LWPOLYLINE
  5
200B8
100
AcDbEntity
  8
směr proudění podzemních vod
100
AcDbPolyline
 70
0
 90
3
 10
-598321.405
 20
-1165237.0713
 10
-598282.8216
 20
-1165270.5976
 10
-598301.4041
 20
-1165249.8853
  0
LWPOLYLINE
  5
200B9
100
AcDbEntity
  8
směr proudění podzemních vod
100
AcDbPolyline
 70
0
 90
2
 10
-598282.8216
 20
-1165270.5976
 10
-598306.3851
 20
-1165254.9216
  0
LWPOLYLINE
  5
200BA
100
AcDbEntity
  8
směr proudění podzemních vod
100
AcDbPolyline
 70
0
 90
3
 10
-597993.7051
 20
-1165499.2645
 10
-597956.6863
 20
-1165534.5109
 10
-597974.3076
 20
-1165512.9749
  0
LWPOLYLINE
  5
200BB
100
AcDbEntity
  8
směr proudění podzemních vod
100
AcDbPolyline
 70
0
 90
2
 10
-597956.6863
 20
-1165534.5109
 10
-597979.5126
 20
-1165517.7795
  0
LWPOLYLINE
  5
200BC
100
AcDbEntity
  8
směr proudění podzemních vod
100
AcDbPolyline
 70
0
 90
3
 10
-598059.1461
 20
-1164893.4635
 10
-598021.5702
 20
-1164928.1152
 10
-598039.5326
 20
-1164906.8629
  0
LWPOLYLINE
  5
200BD
100
AcDbEntity
  8
směr proudění podzemních vod
100
AcDbPolyline
 70
0
 90
2
 10
-598021.5702
 20
-1164928.1152
 10
-598044.6603
 20
-1164911.7499
  0
LWPOLYLINE
  5
200BE
100
AcDbEntity
  8
směr proudění podzemních vod
100
AcDbPolyline
 70
0
 90
3
 10
-597617.5898
 20
-1164812.8758
 10
-597575.2841
 20
-1164841.5624
 10
-597596.2037
 20
-1164823.2136
  0
LWPOLYLINE
  5
200BF
100
AcDbEntity
  8
směr proudění podzemních vod
100
AcDbPolyline
 70
0
 90
2
 10
-597575.2841
 20
-1164841.5624
 10
-597600.5487
 20
-1164828.8079
  0
LWPOLYLINE
  5
200C0
100
AcDbEntity
  8
směr proudění podzemních vod
100
AcDbPolyline
 70
0
 90
3
 10
-597663.3932
 20
-1165230.7587
 10
-597644.06
 20
-1165278.0759
 10
-597651.3137
 20
-1165251.2116
  0
LWPOLYLINE
  5
200C1
100
AcDbEntity
  8
směr proudění podzemních vod
100
AcDbPolyline
 70
0
 90
2
 10
-597644.06
 20
-1165278.0759
 10
-597658.03
 20
-1165253.4626
  0
LWPOLYLINE
  5
200C2
100
AcDbEntity
  8
směr proudění podzemních vod
100
AcDbPolyline
 70
0
 90
3
 10
-599088.3692
 20
-1165274.5568
 10
-599042.7351
 20
-1165297.5835
 10
-599065.8343
 20
-1165282.0677
  0
LWPOLYLINE
  5
200C3
100
AcDbEntity
  8
směr proudění podzemních vod
100
AcDbPolyline
 70
0
 90
2
 10
-599042.7351
 20
-1165297.5835
 10
-599069.4263
 20
-1165288.1729
  0
LWPOLYLINE
  5
200C4
100
AcDbEntity
  8
směr proudění podzemních vod
100
AcDbPolyline
 70
0
 90
3
 10
-598857.0886
 20
-1164845.1683
 10
-598814.9142
 20
-1164874.0475
 10
-598835.7498
 20
-1164855.6034
  0
LWPOLYLINE
  5
200C5
100
AcDbEntity
  8
směr proudění podzemních vod
100
AcDbPolyline
 70
0
 90
2
 10
-598814.9142
 20
-1164874.0475
 10
-598840.1203
 20
-1164861.1779
  0
LWPOLYLINE
  5
200C6
100
AcDbEntity
  8
směr proudění podzemních vod
100
AcDbPolyline
 70
0
 90
2
 10
-598055.7384
 20
-1165727.8839
 10
-598080.5669
 20
-1165714.3001
  0
LWPOLYLINE
  5
200C7
100
AcDbEntity
  8
směr proudění podzemních vod
100
AcDbPolyline
 70
0
 90
3
 10
-598097.0713
 20
-1165697.8126
 10
-598055.7384
 20
-1165727.8839
 10
-598076.0391
 20
-1165708.8527
  0
LWPOLYLINE
  5
200C8
100
AcDbEntity
  8
směr proudění podzemních vod
100
AcDbPolyline
 70
0
 90
3
 10
-599217.2461
 20
-1165611.1881
 10
-599171.0683
 20
-1165633.1038
 10
-599194.5361
 20
-1165618.1515
  0
LWPOLYLINE
  5
200C9
100
AcDbEntity
  8
směr proudění podzemních vod
100
AcDbPolyline
 70
0
 90
2
 10
-599171.0683
 20
-1165633.1038
 10
-599197.9793
 20
-1165624.3418
  0
LWPOLYLINE
  5
200CA
100
AcDbEntity
  8
směr proudění podzemních vod
100
AcDbPolyline
 70
0
 90
2
 10
-597184.3099
 20
-1165352.8583
 10
-597183.1946
 20
-1165324.5788
  0
LWPOLYLINE
  5
200CB
100
AcDbEntity
  8
směr proudění podzemních vod
100
AcDbPolyline
 70
0
 90
3
 10
-597175.7746
 20
-1165302.4615
 10
-597184.3099
 20
-1165352.8583
 10
-597176.3013
 20
-1165326.2093
  0
LWPOLYLINE
  5
200CC
100
AcDbEntity
  8
směr proudění podzemních vod
100
AcDbPolyline
 70
0
 90
2
 10
-597217.1253
 20
-1165128.4423
 10
-597207.4953
 20
-1165101.8296
  0
LWPOLYLINE
  5
200CD
100
AcDbEntity
  8
směr proudění podzemních vod
100
AcDbPolyline
 70
0
 90
3
 10
-597193.7236
 20
-1165082.9995
 10
-597217.1253
 20
-1165128.4423
 10
-597201.4199
 20
-1165105.4717
  0
LWPOLYLINE
  5
200CE
100
AcDbEntity
  8
směr proudění podzemních vod
100
AcDbPolyline
 70
0
 90
2
 10
-597174.2045
 20
-1164836.594
 10
-597148.3694
 20
-1164825.0386
  0
LWPOLYLINE
  5
200CF
100
AcDbEntity
  8
směr proudění podzemních vod
100
AcDbPolyline
 70
0
 90
3
 10
-597125.2571
 20
-1164821.8683
 10
-597174.2045
 20
-1164836.594
 10
-597146.7702
 20
-1164831.9392
  0
LWPOLYLINE
  5
200D0
100
AcDbEntity
  8
směr proudění podzemních vod
100
AcDbPolyline
 70
0
 90
3
 10
-597117.6301
 20
-1165635.6133
 10
-597125.446
 20
-1165686.1267
 10
-597117.8182
 20
-1165659.3662
  0
LWPOLYLINE
  5
200D1
100
AcDbEntity
  8
směr proudění podzemních vod
100
AcDbPolyline
 70
0
 90
2
 10
-597125.446
 20
-1165686.1267
 10
-597124.734
 20
-1165657.8342
  0
LWPOLYLINE
  5
200D2
100
AcDbEntity
  8
směr proudění podzemních vod
100
AcDbPolyline
 70
0
 90
3
 10
-598608.7442
 20
-1165442.3184
 10
-598558.3634
 20
-1165450.9482
 10
-598584.9974
 20
-1165442.8896
  0
LWPOLYLINE
  5
200D3
100
AcDbEntity
  8
směr proudění podzemních vod
100
AcDbPolyline
 70
0
 90
2
 10
-598558.3634
 20
-1165450.9482
 10
-598586.6408
 20
-1165449.7799
  0
LWPOLYLINE
  5
200D4
100
AcDbEntity
  8
směr proudění podzemních vod
100
AcDbPolyline
 70
0
 90
3
 10
-598843.2828
 20
-1165382.6325
 10
-598793.3259
 20
-1165393.4488
 10
-598819.5835
 20
-1165384.2377
  0
LWPOLYLINE
  5
200D5
100
AcDbEntity
  8
směr proudění podzemních vod
100
AcDbPolyline
 70
0
 90
2
 10
-598793.3259
 20
-1165393.4488
 10
-598821.5255
 20
-1165391.0498
  0
LWPOLYLINE
  5
200D6
100
AcDbEntity
  8
směr proudění podzemních vod
100
AcDbPolyline
 70
0
 90
3
 10
-597484.8503
 20
-1165665.5887
 10
-597487.0228
 20
-1165716.657
 10
-597482.4062
 20
-1165689.2163
  0
LWPOLYLINE
  5
200D7
100
AcDbEntity
  8
směr proudění podzemních vod
100
AcDbPolyline
 70
0
 90
2
 10
-597487.0228
 20
-1165716.657
 10
-597489.4491
 20
-1165688.4597
  0
LWPOLYLINE
  5
200D8
100
AcDbEntity
  8
směr proudění podzemních vod
100
AcDbPolyline
 70
0
 90
3
 10
-597762.3958
 20
-1165691.2625
 10
-597742.4997
 20
-1165738.3458
 10
-597750.0732
 20
-1165711.5699
  0
LWPOLYLINE
  5
200D9
100
AcDbEntity
  8
směr proudění podzemních vod
100
AcDbPolyline
 70
0
 90
2
 10
-597742.4997
 20
-1165738.3458
 10
-597756.7622
 20
-1165713.9009
  0
LWPOLYLINE
  5
200DA
100
AcDbEntity
  8
směr proudění podzemních vod
100
AcDbPolyline
 70
0
 90
3
 10
-597498.3401
 20
-1165939.4308
 10
-597500.5126
 20
-1165990.4992
 10
-597495.8959
 20
-1165963.0584
  0
LWPOLYLINE
  5
200DB
100
AcDbEntity
  8
směr proudění podzemních vod
100
AcDbPolyline
 70
0
 90
2
 10
-597500.5126
 20
-1165990.4992
 10
-597502.9389
 20
-1165962.3018
  0
LWPOLYLINE
  5
200DC
100
AcDbEntity
  8
směr proudění podzemních vod
100
AcDbPolyline
 70
0
 90
3
 10
-597519.7887
 20
-1166129.8156
 10
-597532.0834
 20
-1166179.4294
 10
-597522.0967
 20
-1166153.4568
  0
LWPOLYLINE
  5
200DD
100
AcDbEntity
  8
směr proudění podzemních vod
100
AcDbPolyline
 70
0
 90
2
 10
-597532.0834
 20
-1166179.4294
 10
-597528.8481
 20
-1166151.3134
  0
LWPOLYLINE
  5
200DE
100
AcDbEntity
  8
směr proudění podzemních vod
100
AcDbPolyline
 70
0
 90
2
 10
-592274.6126
 20
-1168039.6817
 10
-592323.9362
 20
-1168055.476
  0
LWPOLYLINE
  5
200DF
100
AcDbEntity
  8
směr proudění podzemních vod
100
AcDbPolyline
 70
0
 90
3
 10
-592299.445
 20
-1168043.6574
 10
-592323.9362
 20
-1168055.476
 10
-592296.531
 20
-1168050.6747
  0
LWPOLYLINE
  5
200E0
100
AcDbEntity
  8
směr proudění podzemních vod
100
AcDbPolyline
 70
0
 90
2
 10
-591512.4692
 20
-1167821.6748
 10
-591561.7927
 20
-1167837.4691
  0
LWPOLYLINE
  5
200E1
100
AcDbEntity
  8
směr proudění podzemních vod
100
AcDbPolyline
 70
0
 90
3
 10
-591537.3015
 20
-1167825.6505
 10
-591561.7927
 20
-1167837.4691
 10
-591534.3875
 20
-1167832.6678
  0
LWPOLYLINE
  5
200E2
100
AcDbEntity
  8
směr proudění podzemních vod
100
AcDbPolyline
 70
0
 90
2
 10
-591949.8061
 20
-1168837.3169
 10
-592000.6754
 20
-1168847.0428
  0
LWPOLYLINE
  5
200E3
100
AcDbEntity
  8
směr proudění podzemních vod
100
AcDbPolyline
 70
0
 90
3
 10
-591974.9368
 20
-1168838.2665
 10
-592000.6754
 20
-1168847.0428
 10
-591972.891
 20
-1168845.5842
  0
LWPOLYLINE
  5
200E4
100
AcDbEntity
  8
směr proudění podzemních vod
100
AcDbPolyline
 70
0
 90
2
 10
-592043.1136
 20
-1166607.3347
 10
-592092.4368
 20
-1166623.1301
  0
LWPOLYLINE
  5
200E5
100
AcDbEntity
  8
směr proudění podzemních vod
100
AcDbPolyline
 70
0
 90
3
 10
-592067.9459
 20
-1166611.3109
 10
-592092.4368
 20
-1166623.1301
 10
-592065.0317
 20
-1166618.3282
  0
LWPOLYLINE
  5
200E6
100
AcDbEntity
  8
směr proudění podzemních vod
100
AcDbPolyline
 70
0
 90
2
 10
-598410.5539
 20
-1163061.4359
 10
-598458.9441
 20
-1163080.3079
  0
LWPOLYLINE
  5
200E7
100
AcDbEntity
  8
směr proudění podzemních vod
100
AcDbPolyline
 70
0
 90
3
 10
-598436.2353
 20
-1163066.8683
 10
-598410.5539
 20
-1163061.4359
 10
-598432.8062
 20
-1163074.6974
  0
LWPOLYLINE
  5
200E8
100
AcDbEntity
  8
směr proudění podzemních vod
100
AcDbPolyline
 70
0
 90
2
 10
-598203.252
 20
-1162998.9055
 10
-598253.1896
 20
-1163013.1881
  0
LWPOLYLINE
  5
200E9
100
AcDbEntity
  8
směr proudění podzemních vod
100
AcDbPolyline
 70
0
 90
3
 10
-598229.3277
 20
-1163001.9221
 10
-598203.252
 20
-1162998.9055
 10
-598226.6428
 20
-1163010.0367
  0
LWPOLYLINE
  5
200EA
100
AcDbEntity
  8
směr proudění podzemních vod
100
AcDbPolyline
 70
0
 90
2
 10
-597968.6289
 20
-1162967.5382
 10
-598019.9628
 20
-1162975.4503
  0
LWPOLYLINE
  5
200EB
100
AcDbEntity
  8
směr proudění podzemních vod
100
AcDbPolyline
 70
0
 90
3
 10
-597994.8771
 20
-1162967.2634
 10
-597968.6289
 20
-1162967.5382
 10
-597993.2303
 20
-1162975.6504
  0
LWPOLYLINE
  5
200EC
100
AcDbEntity
  8
směr proudění podzemních vod
100
AcDbPolyline
 70
0
 90
2
 10
-597866.6811
 20
-1163422.6116
 10
-597918.5818
 20
-1163420.5936
  0
LWPOLYLINE
  5
200ED
100
AcDbEntity
  8
směr proudění podzemních vod
100
AcDbPolyline
 70
0
 90
3
 10
-597892.3956
 20
-1163417.3385
 10
-597866.6811
 20
-1163422.6116
 10
-597892.3777
 20
-1163425.8857
  0
LWPOLYLINE
  5
200EE
100
AcDbEntity
  8
směr proudění podzemních vod
100
AcDbPolyline
 70
0
 90
3
 10
-597763.6112
 20
-1162887.0953
 10
-597737.7018
 20
-1162882.8831
 10
-597760.5562
 20
-1162895.0779
  0
LWPOLYLINE
  5
200EF
100
AcDbEntity
  8
směr proudění podzemních vod
100
AcDbPolyline
 70
0
 90
2
 10
-597737.7018
 20
-1162882.8831
 10
-597786.9301
 20
-1162899.4463
  0
LWPOLYLINE
  5
200F0
100
AcDbEntity
  8
směr proudění podzemních vod
100
AcDbPolyline
 70
0
 90
2
 10
-598402.6165
 20
-1163454.5153
 10
-598454.5313
 20
-1163452.8972
  0
LWPOLYLINE
  5
200F1
100
AcDbEntity
  8
směr proudění podzemních vod
100
AcDbPolyline
 70
0
 90
3
 10
-598428.3709
 20
-1163449.4405
 10
-598402.6165
 20
-1163454.5153
 10
-598428.2872
 20
-1163457.9873
  0
LWPOLYLINE
  5
200F2
100
AcDbEntity
  8
směr proudění podzemních vod
100
AcDbPolyline
 70
0
 90
2
 10
-598248.7556
 20
-1163447.3207
 10
-598300.6726
 20
-1163448.8675
  0
LWPOLYLINE
  5
200F3
100
AcDbEntity
  8
směr proudění podzemních vod
100
AcDbPolyline
 70
0
 90
3
 10
-598267.3202
 20
-1163443.926
 10
-598241.3046
 20
-1163447.4228
 10
-598266.7161
 20
-1163452.4518
  0
LWPOLYLINE
  5
200F4
100
AcDbEntity
  8
směr proudění podzemních vod
100
AcDbPolyline
 70
0
 90
2
 10
-597995.052
 20
-1163427.9179
 10
-598046.5716
 20
-1163434.5128
  0
LWPOLYLINE
  5
200F5
100
AcDbEntity
  8
směr proudění podzemních vod
100
AcDbPolyline
 70
0
 90
3
 10
-598021.2845
 20
-1163426.971
 10
-597995.052
 20
-1163427.9179
 10
-598019.853
 20
-1163435.3974
  0
LWPOLYLINE
  5
200F6
100
AcDbEntity
  8
směr proudění podzemních vod
100
AcDbPolyline
 70
0
 90
2
 10
-598516.0951
 20
-1163447.3303
 10
-598568.0331
 20
-1163447.7799
  0
LWPOLYLINE
  5
200F7
100
AcDbEntity
  8
směr proudění podzemních vod
100
AcDbPolyline
 70
0
 90
3
 10
-598542.0311
 20
-1163443.2847
 10
-598516.0951
 20
-1163447.3303
 10
-598541.6072
 20
-1163451.8213
  0
LWPOLYLINE
  5
200F8
100
AcDbEntity
  8
směr proudění podzemních vod
100
AcDbPolyline
 70
0
 90
3
 10
-598224.2591
 20
-1163161.6703
 10
-598199.6097
 20
-1163170.6951
 10
-598225.5078
 20
-1163170.1258
  0
LWPOLYLINE
  5
200F9
100
AcDbEntity
  8
směr proudění podzemních vod
100
AcDbPolyline
 70
0
 90
2
 10
-598199.6097
 20
-1163170.6951
 10
-598250.6386
 20
-1163161.0096
  0
LWPOLYLINE
  5
200FA
100
AcDbEntity
  8
směr proudění podzemních vod
100
AcDbPolyline
 70
0
 90
3
 10
-598005.2822
 20
-1163217.7228
 10
-597981.0803
 20
-1163227.8869
 10
-598006.9237
 20
-1163226.1109
  0
LWPOLYLINE
  5
200FB
100
AcDbEntity
  8
směr proudění podzemních vod
100
AcDbPolyline
 70
0
 90
2
 10
-597981.0803
 20
-1163227.8869
 10
-598031.6022
 20
-1163215.833
  0
LWPOLYLINE
  5
200FC
100
AcDbEntity
  8
směr proudění podzemních vod
100
AcDbPolyline
 70
0
 90
3
 10
-597883.4576
 20
-1163225.3714
 10
-597857.535
 20
-1163229.5019
 10
-597883.0616
 20
-1163233.9094
  0
LWPOLYLINE
  5
200FD
100
AcDbEntity
  8
směr proudění podzemních vod
100
AcDbPolyline
 70
0
 90
2
 10
-597857.535
 20
-1163229.5019
 10
-597909.4742
 20
-1163229.7815
  0
LWPOLYLINE
  5
200FE
100
AcDbEntity
  8
směr proudění podzemních vod
100
AcDbPolyline
 70
0
 90
3
 10
-597678.1362
 20
-1163229.2317
 10
-597652.2818
 20
-1163233.7694
 10
-597677.8746
 20
-1163237.7748
  0
LWPOLYLINE
  5
200FF
100
AcDbEntity
  8
směr proudění podzemních vod
100
AcDbPolyline
 70
0
 90
2
 10
-597652.2818
 20
-1163233.7694
 10
-597704.219
 20
-1163233.232
  0
LWPOLYLINE
  5
20100
100
AcDbEntity
  8
směr proudění podzemních vod
100
AcDbPolyline
 70
0
 90
3
 10
-597678.4652
 20
-1163404.4493
 10
-597652.2626
 20
-1163406.021
 10
-597677.2348
 20
-1163412.9075
  0
LWPOLYLINE
  5
20101
100
AcDbEntity
  8
směr proudění podzemních vod
100
AcDbPolyline
 70
0
 90
2
 10
-597652.2626
 20
-1163406.021
 10
-597703.9247
 20
-1163411.3865
  0
LWPOLYLINE
  5
20102
100
AcDbEntity
  8
směr proudění podzemních vod
100
AcDbPolyline
 70
0
 90
2
 10
-598384.6482
 20
-1163157.6417
 10
-598436.571
 20
-1163156.3025
  0
LWPOLYLINE
  5
20103
100
AcDbEntity
  8
směr proudění podzemních vod
100
AcDbPolyline
 70
0
 90
3
 10
-598410.4295
 20
-1163152.7053
 10
-598384.6482
 20
-1163157.6417
 10
-598410.2998
 20
-1163161.2515
  0
LWPOLYLINE
  5
20104
100
AcDbEntity
  8
směr proudění podzemních vod
100
AcDbPolyline
 70
0
 90
2
 10
-598645.3958
 20
-1163666.6169
 10
-598697.146
 20
-1163662.181
  0
LWPOLYLINE
  5
20105
100
AcDbEntity
  8
směr proudění podzemních vod
100
AcDbPolyline
 70
0
 90
3
 10
-598670.8365
 20
-1163660.1505
 10
-598645.3958
 20
-1163666.6169
 10
-598671.2171
 20
-1163668.6892
  0
LWPOLYLINE
  5
20106
100
AcDbEntity
  8
směr proudění podzemních vod
100
AcDbPolyline
 70
0
 90
2
 10
-598498.268
 20
-1163673.9952
 10
-598550.1227
 20
-1163671.0197
  0
LWPOLYLINE
  5
20107
100
AcDbEntity
  8
směr proudění podzemních vod
100
AcDbPolyline
 70
0
 90
3
 10
-598523.8809
 20
-1163668.2484
 10
-598498.268
 20
-1163673.9952
 10
-598524.0207
 20
-1163676.7945
  0
LWPOLYLINE
  5
20108
100
AcDbEntity
  8
směr proudění podzemních vod
100
AcDbPolyline
 70
0
 90
2
 10
-598370.957
 20
-1163677.9825
 10
-598422.7107
 20
-1163673.5879
  0
LWPOLYLINE
  5
20109
100
AcDbEntity
  8
směr proudění podzemních vod
100
AcDbPolyline
 70
0
 90
3
 10
-598396.4028
 20
-1163671.5364
 10
-598370.957
 20
-1163677.9825
 10
-598396.7766
 20
-1163680.0754
  0
LWPOLYLINE
  5
2010A
100
AcDbEntity
  8
směr proudění podzemních vod
100
AcDbPolyline
 70
0
 90
2
 10
-598260.1743
 20
-1163686.4665
 10
-598311.9561
 20
-1163682.4159
  0
LWPOLYLINE
  5
2010B
100
AcDbEntity
  8
směr proudění podzemních vod
100
AcDbPolyline
 70
0
 90
3
 10
-598285.6624
 20
-1163680.1897
 10
-598260.1743
 20
-1163686.4665
 10
-598285.9795
 20
-1163688.7309
  0
LWPOLYLINE
  5
2010C
100
AcDbEntity
  8
směr proudění podzemních vod
100
AcDbPolyline
 70
0
 90
2
 10
-598124.882
 20
-1163706.688
 10
-598175.6477
 20
-1163695.7059
  0
LWPOLYLINE
  5
2010D
100
AcDbEntity
  8
směr proudění podzemních vod
100
AcDbPolyline
 70
0
 90
3
 10
-598149.2935
 20
-1163697.0383
 10
-598124.882
 20
-1163706.688
 10
-598150.7571
 20
-1163705.4592
  0
LWPOLYLINE
  5
2010E
100
AcDbEntity
  8
směr proudění podzemních vod
100
AcDbPolyline
 70
0
 90
2
 10
-597889.6347
 20
-1163761.4415
 10
-597940.6781
 20
-1163751.8325
  0
LWPOLYLINE
  5
2010F
100
AcDbEntity
  8
směr proudění podzemních vod
100
AcDbPolyline
 70
0
 90
3
 10
-597914.2977
 20
-1163752.4536
 10
-597889.6347
 20
-1163761.4415
 10
-597915.5336
 20
-1163760.911
  0
LWPOLYLINE
  5
20110
100
AcDbEntity
  8
směr proudění podzemních vod
100
AcDbPolyline
 70
0
 90
2
 10
-597565.6631
 20
-1163811.8854
 10
-597617.4529
 20
-1163807.9378
  0
LWPOLYLINE
  5
20111
100
AcDbEntity
  8
směr proudění podzemních vod
100
AcDbPolyline
 70
0
 90
3
 10
-597591.1636
 20
-1163805.6593
 10
-597565.6631
 20
-1163811.8854
 10
-597591.4637
 20
-1163814.2012
  0
LWPOLYLINE
  5
20112
100
AcDbEntity
  8
směr proudění podzemních vod
100
AcDbPolyline
 70
0
 90
2
 10
-598918.7047
 20
-1163922.8694
 10
-598955.2422
 20
-1163885.9536
  0
LWPOLYLINE
  5
20113
100
AcDbEntity
  8
směr proudění podzemních vod
100
AcDbPolyline
 70
0
 90
3
 10
-598933.8894
 20
-1163901.4575
 10
-598918.7047
 20
-1163922.8694
 10
-598939.7129
 20
-1163907.7138
  0
LWPOLYLINE
  5
20114
100
AcDbEntity
  8
směr proudění podzemních vod
100
AcDbPolyline
 70
0
 90
2
 10
-598811.5532
 20
-1164036.123
 10
-598848.0687
 20
-1163999.1855
  0
LWPOLYLINE
  5
20115
100
AcDbEntity
  8
směr proudění podzemních vod
100
AcDbPolyline
 70
0
 90
3
 10
-598826.7251
 20
-1164014.702
 10
-598811.5532
 20
-1164036.123
 10
-598832.5523
 20
-1164020.9548
  0
LWPOLYLINE
  5
20116
100
AcDbEntity
  8
směr proudění podzemních vod
100
AcDbPolyline
 70
0
 90
2
 10
-598684.6405
 20
-1164100.9939
 10
-598731.309
 20
-1164078.1944
  0
LWPOLYLINE
  5
20117
100
AcDbEntity
  8
směr proudění podzemních vod
100
AcDbPolyline
 70
0
 90
3
 10
-598706.0375
 20
-1164085.7883
 10
-598684.6405
 20
-1164100.9939
 10
-598709.4717
 20
-1164093.6152
  0
LWPOLYLINE
  5
20118
100
AcDbEntity
  8
směr proudění podzemních vod
100
AcDbPolyline
 70
0
 90
2
 10
-598553.3534
 20
-1164165.3175
 10
-598602.9055
 20
-1164149.7496
  0
LWPOLYLINE
  5
20119
100
AcDbEntity
  8
směr proudění podzemních vod
100
AcDbPolyline
 70
0
 90
3
 10
-598576.7828
 20
-1164153.4808
 10
-598553.3534
 20
-1164165.3175
 10
-598579.0086
 20
-1164161.7331
  0
LWPOLYLINE
  5
2011A
100
AcDbEntity
  8
směr proudění podzemních vod
100
AcDbPolyline
 70
0
 90
2
 10
-598425.2437
 20
-1164210.8329
 10
-598474.7677
 20
-1164195.1761
  0
LWPOLYLINE
  5
2011B
100
AcDbEntity
  8
směr proudění podzemních vod
100
AcDbPolyline
 70
0
 90
3
 10
-598448.6518
 20
-1164198.9542
 10
-598425.2437
 20
-1164210.8329
 10
-598450.8924
 20
-1164207.2025
  0
LWPOLYLINE
  5
2011C
100
AcDbEntity
  8
směr proudění podzemních vod
100
AcDbPolyline
 70
0
 90
2
 10
-598286.8514
 20
-1164263.449
 10
-598333.342
 20
-1164240.2889
  0
LWPOLYLINE
  5
2011D
100
AcDbEntity
  8
směr proudění podzemních vod
100
AcDbPolyline
 70
0
 90
3
 10
-598308.1301
 20
-1164248.0782
 10
-598286.8514
 20
-1164263.449
 10
-598311.6248
 20
-1164255.8783
  0
LWPOLYLINE
  5
2011E
100
AcDbEntity
  8
směr proudění podzemních vod
100
AcDbPolyline
 70
0
 90
2
 10
-598133.3178
 20
-1164352.6885
 10
-598177.5707
 20
-1164325.4959
  0
LWPOLYLINE
  5
2011F
100
AcDbEntity
  8
směr proudění podzemních vod
100
AcDbPolyline
 70
0
 90
3
 10
-598153.1491
 20
-1164335.4908
 10
-598133.3178
 20
-1164352.6885
 10
-598157.3219
 20
-1164342.9501
  0
LWPOLYLINE
  5
20120
100
AcDbEntity
  8
směr proudění podzemních vod
100
AcDbPolyline
 70
0
 90
2
 10
-597783.7966
 20
-1164485.5473
 10
-597831.3856
 20
-1164464.7375
  0
LWPOLYLINE
  5
20121
100
AcDbEntity
  8
směr proudění podzemních vod
100
AcDbPolyline
 70
0
 90
3
 10
-597805.8162
 20
-1164471.2582
 10
-597783.7966
 20
-1164485.5473
 10
-597808.9171
 20
-1164479.223
  0
LWPOLYLINE
  5
20122
100
AcDbEntity
  8
směr proudění podzemních vod
100
AcDbPolyline
 70
0
 90
2
 10
-597732.3526
 20
-1163795.5932
 10
-597784.0243
 20
-1163790.321
  0
LWPOLYLINE
  5
20123
100
AcDbEntity
  8
směr proudění podzemních vod
100
AcDbPolyline
 70
0
 90
3
 10
-597757.6854
 20
-1163788.7163
 10
-597732.3526
 20
-1163795.5932
 10
-597758.204
 20
-1163797.2477
  0
LWPOLYLINE
  5
20124
100
AcDbEntity
  8
směr proudění podzemních vod
100
AcDbPolyline
 70
0
 90
2
 10
-599215.8906
 20
-1164052.4489
 10
-599242.4453
 20
-1164007.8102
  0
LWPOLYLINE
  5
20125
100
AcDbEntity
  8
směr proudění podzemních vod
100
AcDbPolyline
 70
0
 90
3
 10
-599225.4624
 20
-1164028.0067
 10
-599215.8906
 20
-1164052.4489
 10
-599232.6229
 20
-1164032.6736
  0
LWPOLYLINE
  5
20126
100
AcDbEntity
  8
směr proudění podzemních vod
100
AcDbPolyline
 70
0
 90
2
 10
-599106.8124
 20
-1164217.371
 10
-599141.2238
 20
-1164178.4657
  0
LWPOLYLINE
  5
20127
100
AcDbEntity
  8
směr proudění podzemních vod
100
AcDbPolyline
 70
0
 90
3
 10
-599120.7733
 20
-1164195.1418
 10
-599106.8124
 20
-1164217.371
 10
-599126.9382
 20
-1164201.0619
  0
LWPOLYLINE
  5
20128
100
AcDbEntity
  8
směr proudění podzemních vod
100
AcDbPolyline
 70
0
 90
2
 10
-598950.7169
 20
-1164361.4865
 10
-598994.0473
 20
-1164332.8467
  0
LWPOLYLINE
  5
20129
100
AcDbEntity
  8
směr proudění podzemních vod
100
AcDbPolyline
 70
0
 90
3
 10
-598969.9692
 20
-1164343.643
 10
-598950.7169
 20
-1164361.4865
 10
-598974.3862
 20
-1164350.9604
  0
LWPOLYLINE
  5
2012A
100
AcDbEntity
  8
směr proudění podzemních vod
100
AcDbPolyline
 70
0
 90
2
 10
-598728.7157
 20
-1164512.1581
 10
-598773.8719
 20
-1164486.4933
  0
LWPOLYLINE
  5
2012B
100
AcDbEntity
  8
směr proudění podzemních vod
100
AcDbPolyline
 70
0
 90
3
 10
-598749.1231
 20
-1164495.648
 10
-598728.7157
 20
-1164512.1581
 10
-598753.0386
 20
-1164503.2456
  0
LWPOLYLINE
  5
2012C
100
AcDbEntity
  8
směr proudění podzemních vod
100
AcDbPolyline
 70
0
 90
2
 10
-598569.7651
 20
-1164580.5539
 10
-598617.1396
 20
-1164559.26
  0
LWPOLYLINE
  5
2012D
100
AcDbEntity
  8
směr proudění podzemních vod
100
AcDbPolyline
 70
0
 90
3
 10
-598591.6379
 20
-1164566.041
 10
-598569.7651
 20
-1164580.5539
 10
-598594.8198
 20
-1164573.9738
  0
LWPOLYLINE
  5
2012E
100
AcDbEntity
  8
směr proudění podzemních vod
100
AcDbPolyline
 70
0
 90
2
 10
-598406.9084
 20
-1164640.3405
 10
-598457.8715
 20
-1164630.3144
  0
LWPOLYLINE
  5
2012F
100
AcDbEntity
  8
směr proudění podzemních vod
100
AcDbPolyline
 70
0
 90
3
 10
-598431.497
 20
-1164631.1513
 10
-598406.9084
 20
-1164640.3405
 10
-598432.8021
 20
-1164639.5982
  0
LWPOLYLINE
  5
20130
100
AcDbEntity
  8
směr proudění podzemních vod
100
AcDbPolyline
 70
0
 90
2
 10
-598218.5696
 20
-1164675.7845
 10
-598269.6911
 20
-1164666.6002
  0
LWPOLYLINE
  5
20131
100
AcDbEntity
  8
směr proudění podzemních vod
100
AcDbPolyline
 70
0
 90
3
 10
-598243.3064
 20
-1164667.002
 10
-598218.5696
 20
-1164675.7845
 10
-598244.472
 20
-1164675.4693
  0
LWPOLYLINE
  5
20132
100
AcDbEntity
  8
směr proudění podzemních vod
100
AcDbPolyline
 70
0
 90
3
 10
-599121.517
 20
-1164652.4978
 10
-599085.5291
 20
-1164688.796
 10
-599102.5226
 20
-1164666.7613
  0
LWPOLYLINE
  5
20133
100
AcDbEntity
  8
směr proudění podzemních vod
100
AcDbPolyline
 70
0
 90
3
 10
-598009.2931
 20
-1162582.4127
 10
-597988.6126
 20
-1162570.4654
 10
-598005.1149
 20
-1162587.9458
  0
LWPOLYLINE
  5
20134
100
AcDbEntity
  8
směr proudění podzemních vod
100
AcDbPolyline
 70
0
 90
2
 10
-598028.7602
 20
-1162602.2396
 10
-597988.6126
 20
-1162570.4654
  0
LWPOLYLINE
  5
20135
100
AcDbEntity
  8
směr proudění podzemních vod
100
AcDbPolyline
 70
0
 90
2
 10
-599039.8172
 20
-1163776.3834
 10
-599071.3147
 20
-1163735.0836
  0
LWPOLYLINE
  5
20136
100
AcDbEntity
  8
směr proudění podzemních vod
100
AcDbPolyline
 70
0
 90
3
 10
-599052.1282
 20
-1163753.1998
 10
-599039.8172
 20
-1163776.3834
 10
-599058.7065
 20
-1163758.6569
  0
LWPOLYLINE
  5
20137
100
AcDbEntity
  8
směr proudění podzemních vod
100
AcDbPolyline
 70
0
 90
2
 10
-598973.8054
 20
-1163611.8314
 10
-599020.4868
 20
-1163589.0583
  0
LWPOLYLINE
  5
20138
100
AcDbEntity
  8
směr proudění podzemních vod
100
AcDbPolyline
 70
0
 90
3
 10
-598995.211
 20
-1163596.6378
 10
-598973.8054
 20
-1163611.8314
 10
-598998.6408
 20
-1163604.4667
  0
LWPOLYLINE
  5
20139
100
AcDbEntity
  8
směr proudění podzemních vod
100
AcDbPolyline
 70
0
 90
2
 10
-598982.809
 20
-1163442.7617
 10
-598931.7619
 20
-1163446.7158
  0
LWPOLYLINE
  5
2013A
100
AcDbEntity
  8
směr proudění podzemních vod
100
AcDbPolyline
 70
0
 90
3
 10
-598955.0544
 20
-1163441.4353
 10
-598931.7619
 20
-1163446.7158
 10
-598955.7468
 20
-1163448.3342
  0
LWPOLYLINE
  5
2013B
100
AcDbEntity
  8
směr proudění podzemních vod
100
AcDbPolyline
 70
0
 90
2
 10
-598936.7057
 20
-1163306.3604
 10
-598986.1193
 20
-1163322.362
  0
LWPOLYLINE
  5
2013C
100
AcDbEntity
  8
směr proudění podzemních vod
100
AcDbPolyline
 70
0
 90
3
 10
-598962.6614
 20
-1163310.2773
 10
-598936.7057
 20
-1163306.3604
 10
-598959.6974
 20
-1163318.2941
  0
LWPOLYLINE
  5
2013D
100
AcDbEntity
  8
směr proudění podzemních vod
100
AcDbPolyline
 70
0
 90
2
 10
-597423.4403
 20
-1164591.0096
 10
-597475.1461
 20
-1164586.0825
  0
LWPOLYLINE
  5
2013E
100
AcDbEntity
  8
směr proudění podzemních vod
100
AcDbPolyline
 70
0
 90
3
 10
-597448.8185
 20
-1164584.3019
 10
-597423.4403
 20
-1164591.0096
 10
-597449.2802
 20
-1164592.8366
  0
LWPOLYLINE
  5
2013F
100
AcDbEntity
  8
směr proudění podzemních vod
100
AcDbPolyline
 70
0
 90
3
 10
-597932.5926
 20
-1164741.4812
 10
-597910.573
 20
-1164755.7704
 10
-597935.6935
 20
-1164749.4461
  0
LWPOLYLINE
  5
20140
100
AcDbEntity
  8
směr proudění podzemních vod
100
AcDbPolyline
 70
0
 90
2
 10
-597910.573
 20
-1164755.7704
 10
-597958.162
 20
-1164734.9606
  0
LWPOLYLINE
  5
20141
100
AcDbEntity
  8
směr proudění podzemních vod
100
AcDbPolyline
 70
0
 90
3
 10
-597482.0091
 20
-1164847.4222
 10
-597458.5278
 20
-1164859.1556
 10
-597484.1985
 20
-1164855.6842
  0
LWPOLYLINE
  5
20142
100
AcDbEntity
  8
směr proudění podzemních vod
100
AcDbPolyline
 70
0
 90
2
 10
-597458.5278
 20
-1164859.1556
 10
-597508.1479
 20
-1164843.806
  0
LWPOLYLINE
  5
20143
100
AcDbEntity
  8
směr proudění podzemních vod
100
AcDbPolyline
 70
0
 90
2
 10
-596359.5749
 20
-1165644.038
 10
-596410.8781
 20
-1165642.5357
  0
LWPOLYLINE
  5
20144
100
AcDbEntity
  8
směr proudění podzemních vod
100
AcDbPolyline
 70
0
 90
3
 10
-596378.6452
 20
-1165639.9138
 10
-596410.8781
 20
-1165642.5357
 10
-596379.4255
 20
-1165647.0795
  0
LWPOLYLINE
  5
20145
100
AcDbEntity
  8
směr proudění podzemních vod
100
AcDbPolyline
 70
0
 90
3
 10
-596636.7233
 20
-1166286.1523
 10
-596668.6508
 20
-1166281.0077
 10
-596639.1908
 20
-1166292.9249
  0
LWPOLYLINE
  5
20146
100
AcDbEntity
  8
směr proudění podzemních vod
100
AcDbPolyline
 70
0
 90
2
 10
-596619.1878
 20
-1166294.7076
 10
-596668.6508
 20
-1166281.0077
  0
LWPOLYLINE
  5
20147
100
AcDbEntity
  8
směr proudění podzemních vod
100
AcDbPolyline
 70
0
 90
2
 10
-595711.7689
 20
-1158648.8822
 10
-595662.3652
 20
-1158633.8614
  0
LWPOLYLINE
  5
20148
100
AcDbEntity
  8
směr proudění podzemních vod
100
AcDbPolyline
 70
0
 90
3
 10
-595692.5323
 20
-1158639.7239
 10
-595662.3652
 20
-1158633.8614
 10
-595691.0751
 20
-1158645.7726
  0
LWPOLYLINE
  5
20149
100
AcDbEntity
  8
směr proudění podzemních vod
100
AcDbPolyline
 70
0
 90
2
 10
-596160.5416
 20
-1158646.7159
 10
-596109.5412
 20
-1158654.7971
  0
LWPOLYLINE
  5
2014A
100
AcDbEntity
  8
směr proudění podzemních vod
100
AcDbPolyline
 70
0
 90
3
 10
-596139.2369
 20
-1158646.8858
 10
-596109.5412
 20
-1158654.7971
 10
-596140.5698
 20
-1158652.9631
  0
LWPOLYLINE
  5
2014B
100
AcDbEntity
  8
směr proudění podzemních vod
100
AcDbPolyline
 70
0
 90
2
 10
-596390.1509
 20
-1158908.9693
 10
-596360.0915
 20
-1158950.9548
  0
LWPOLYLINE
  5
2014C
100
AcDbEntity
  8
směr proudění podzemních vod
100
AcDbPolyline
 70
0
 90
3
 10
-596375.3115
 20
-1158924.2569
 10
-596360.0915
 20
-1158950.9548
 10
-596380.5744
 20
-1158927.5754
  0
LWPOLYLINE
  5
2014D
100
AcDbEntity
  8
směr proudění podzemních vod
100
AcDbPolyline
 70
0
 90
2
 10
-595886.1985
 20
-1159120.8687
 10
-595893.5504
 20
-1159171.9793
  0
LWPOLYLINE
  5
2014E
100
AcDbEntity
  8
směr proudění podzemních vod
100
AcDbPolyline
 70
0
 90
3
 10
-595886.0641
 20
-1159142.1736
 10
-595893.5504
 20
-1159171.9793
 10
-595892.1598
 20
-1159140.9277
  0
LWPOLYLINE
  5
2014F
100
AcDbEntity
  8
směr proudění podzemních vod
100
AcDbPolyline
 70
0
 90
2
 10
-596495.4769
 20
-1159466.3607
 10
-596450.5937
 20
-1159491.8919
  0
LWPOLYLINE
  5
20150
100
AcDbEntity
  8
směr proudění podzemních vod
100
AcDbPolyline
 70
0
 90
3
 10
-596475.5981
 20
-1159474.0257
 10
-596450.5937
 20
-1159491.8919
 10
-596478.9866
 20
-1159479.2437
  0
LWPOLYLINE
  5
20151
100
AcDbEntity
  8
směr proudění podzemních vod
100
AcDbPolyline
 70
0
 90
2
 10
-595676.0079
 20
-1158093.913
 10
-595625.0098
 20
-1158102.0091
  0
LWPOLYLINE
  5
20152
100
AcDbEntity
  8
směr proudění podzemních vod
100
AcDbPolyline
 70
0
 90
3
 10
-595654.7032
 20
-1158094.0891
 10
-595625.0098
 20
-1158102.0091
 10
-595656.0379
 20
-1158100.1661
  0
LWPOLYLINE
  5
20153
100
AcDbEntity
  8
směr proudění podzemních vod
100
AcDbPolyline
 70
0
 90
2
 10
-601489.4905
 20
-1159395.7248
 10
-601441.6228
 20
-1159375.7115
  0
LWPOLYLINE
  5
20154
100
AcDbEntity
  8
směr proudění podzemních vod
100
AcDbPolyline
 70
0
 90
3
 10
-601467.6956
 20
-1159382.2112
 10
-601441.6228
 20
-1159375.7115
 10
-601464.0589
 20
-1159389.2412
  0
LWPOLYLINE
  5
20155
100
AcDbEntity
  8
směr proudění podzemních vod
100
AcDbPolyline
 70
0
 90
2
 10
-601245.4423
 20
-1159656.0472
 10
-601200.5177
 20
-1159630.0928
  0
LWPOLYLINE
  5
20156
100
AcDbEntity
  8
směr proudění podzemních vod
100
AcDbPolyline
 70
0
 90
3
 10
-601225.5487
 20
-1159639.8644
 10
-601200.5177
 20
-1159630.0928
 10
-601221.0452
 20
-1159646.3733
  0
LWPOLYLINE
  5
20157
100
AcDbEntity
  8
směr proudění podzemních vod
100
AcDbPolyline
 70
0
 90
2
 10
-601547.6223
 20
-1159881.9172
 10
-601502.6977
 20
-1159855.9628
  0
LWPOLYLINE
  5
20158
100
AcDbEntity
  8
směr proudění podzemních vod
100
AcDbPolyline
 70
0
 90
3
 10
-601527.7287
 20
-1159865.7344
 10
-601502.6977
 20
-1159855.9628
 10
-601523.2252
 20
-1159872.2433
  0
LWPOLYLINE
  5
20159
100
AcDbEntity
  8
směr proudění podzemních vod
100
AcDbPolyline
 70
0
 90
2
 10
-601813.7247
 20
-1159626.9548
 10
-601768.8001
 20
-1159601.0004
  0
LWPOLYLINE
  5
2015A
100
AcDbEntity
  8
směr proudění podzemních vod
100
AcDbPolyline
 70
0
 90
3
 10
-601793.8311
 20
-1159610.772
 10
-601768.8001
 20
-1159601.0004
 10
-601789.3276
 20
-1159617.2809
  0
LWPOLYLINE
  5
2015B
100
AcDbEntity
  8
směr proudění podzemních vod
100
AcDbPolyline
 70
0
 90
2
 10
-602009.7723
 20
-1159316.3572
 10
-601964.8477
 20
-1159290.4028
  0
LWPOLYLINE
  5
2015C
100
AcDbEntity
  8
směr proudění podzemních vod
100
AcDbPolyline
 70
0
 90
3
 10
-601989.8787
 20
-1159300.1744
 10
-601964.8477
 20
-1159290.4028
 10
-601985.3752
 20
-1159306.6833
  0
LWPOLYLINE
  5
2015D
100
AcDbEntity
  8
směr proudění podzemních vod
100
AcDbPolyline
 70
0
 90
2
 10
-601623.0473
 20
-1159135.7872
 10
-601578.1227
 20
-1159109.8328
  0
LWPOLYLINE
  5
2015E
100
AcDbEntity
  8
směr proudění podzemních vod
100
AcDbPolyline
 70
0
 90
3
 10
-601603.1537
 20
-1159119.6044
 10
-601578.1227
 20
-1159109.8328
 10
-601598.6502
 20
-1159126.1133
  0
LWPOLYLINE
  5
2015F
100
AcDbEntity
  8
směr proudění podzemních vod
100
AcDbPolyline
 70
0
 90
2
 10
-601809.5623
 20
-1158868.2372
 10
-601764.6377
 20
-1158842.2828
  0
LWPOLYLINE
  5
20160
100
AcDbEntity
  8
směr proudění podzemních vod
100
AcDbPolyline
 70
0
 90
3
 10
-601789.6687
 20
-1158852.0544
 10
-601764.6377
 20
-1158842.2828
 10
-601785.1652
 20
-1158858.5633
  0
LWPOLYLINE
  5
20161
100
AcDbEntity
  8
směr proudění podzemních vod
100
AcDbPolyline
 70
0
 90
2
 10
-602190.9123
 20
-1159022.3672
 10
-602145.9877
 20
-1158996.4128
  0
LWPOLYLINE
  5
20162
100
AcDbEntity
  8
směr proudění podzemních vod
100
AcDbPolyline
 70
0
 90
3
 10
-602171.0187
 20
-1159006.1844
 10
-602145.9877
 20
-1158996.4128
 10
-602166.5152
 20
-1159012.6933
  0
LWPOLYLINE
  5
20163
100
AcDbEntity
  8
směr proudění podzemních vod
100
AcDbPolyline
 70
0
 90
2
 10
-601999.0723
 20
-1158534.1872
 10
-601954.1477
 20
-1158508.2328
  0
LWPOLYLINE
  5
20164
100
AcDbEntity
  8
směr proudění podzemních vod
100
AcDbPolyline
 70
0
 90
3
 10
-601979.1787
 20
-1158518.0044
 10
-601954.1477
 20
-1158508.2328
 10
-601974.6752
 20
-1158524.5133
  0
LWPOLYLINE
  5
20165
100
AcDbEntity
  8
směr proudění podzemních vod
100
AcDbPolyline
 70
0
 90
2
 10
-602329.5731
 20
-1158031.2655
 10
-602303.6572
 20
-1157986.3187
  0
LWPOLYLINE
  5
20166
100
AcDbEntity
  8
směr proudění podzemních vod
100
AcDbPolyline
 70
0
 90
3
 10
-602320.4429
 20
-1158007.3014
 10
-602303.6572
 20
-1157986.3187
 10
-602313.2874
 20
-1158010.6845
  0
LWPOLYLINE
  5
20167
100
AcDbEntity
  8
směr proudění podzemních vod
100
AcDbPolyline
 70
0
 90
2
 10
-602888.144
 20
-1157834.2426
 10
-602860.0518
 20
-1157790.6229
  0
LWPOLYLINE
  5
20168
100
AcDbEntity
  8
směr proudění podzemních vod
100
AcDbPolyline
 70
0
 90
3
 10
-602877.8478
 20
-1157810.7558
 10
-602860.0518
 20
-1157790.6229
 10
-602870.8671
 20
-1157814.4863
  0
LWPOLYLINE
  5
20169
100
AcDbEntity
  8
směr proudění podzemních vod
100
AcDbPolyline
 70
0
 90
2
 10
-602372.4323
 20
-1158712.4322
 10
-602327.5077
 20
-1158686.4778
  0
LWPOLYLINE
  5
2016A
100
AcDbEntity
  8
směr proudění podzemních vod
100
AcDbPolyline
 70
0
 90
3
 10
-602352.5387
 20
-1158696.2494
 10
-602327.5077
 20
-1158686.4778
 10
-602348.0352
 20
-1158702.7583
  0
LWPOLYLINE
  5
2016B
100
AcDbEntity
  8
směr proudění podzemních vod
100
AcDbPolyline
 70
0
 90
2
 10
-602542.5123
 20
-1158330.6122
 10
-602508.7682
 20
-1158291.2017
  0
LWPOLYLINE
  5
2016C
100
AcDbEntity
  8
směr proudění podzemních vod
100
AcDbPolyline
 70
0
 90
3
 10
-602529.1284
 20
-1158308.7373
 10
-602508.7682
 20
-1158291.2017
 10
-602522.7176
 20
-1158313.3794
  0
LWPOLYLINE
  5
2016D
100
AcDbEntity
  8
směr proudění podzemních vod
100
AcDbPolyline
 70
0
 90
2
 10
-603054.6545
 20
-1158025.8258
 10
-603021.2942
 20
-1157986.09
  0
LWPOLYLINE
  5
2016E
100
AcDbEntity
  8
směr proudění podzemních vod
100
AcDbPolyline
 70
0
 90
3
 10
-603041.4833
 20
-1158003.8222
 10
-603021.2942
 20
-1157986.09
 10
-603035.0278
 20
-1158008.4018
  0
LWPOLYLINE
  5
2016F
100
AcDbEntity
  8
směr proudění podzemních vod
100
AcDbPolyline
 70
0
 90
2
 10
-603273.212
 20
-1157619.8126
 10
-603234.4719
 20
-1157585.3009
  0
LWPOLYLINE
  5
20170
100
AcDbEntity
  8
směr proudění podzemních vod
100
AcDbPolyline
 70
0
 90
3
 10
-603257.0064
 20
-1157599.9375
 10
-603234.4719
 20
-1157585.3009
 10
-603251.2785
 20
-1157605.3999
  0
LWPOLYLINE
  5
20171
100
AcDbEntity
  8
směr proudění podzemních vod
100
AcDbPolyline
 70
0
 90
2
 10
-603582.2096
 20
-1157971.0934
 10
-603541.0494
 20
-1157939.5073
  0
LWPOLYLINE
  5
20172
100
AcDbEntity
  8
směr proudění podzemních vod
100
AcDbPolyline
 70
0
 90
3
 10
-603564.594
 20
-1157952.4567
 10
-603541.0494
 20
-1157939.5073
 10
-603559.2809
 20
-1157958.3234
  0
LWPOLYLINE
  5
20173
100
AcDbEntity
  8
směr proudění podzemních vod
100
AcDbPolyline
 70
0
 90
2
 10
-602382.0128
 20
-1159560.0833
 10
-602337.0882
 20
-1159534.129
  0
LWPOLYLINE
  5
20174
100
AcDbEntity
  8
směr proudění podzemních vod
100
AcDbPolyline
 70
0
 90
3
 10
-602362.1192
 20
-1159543.9005
 10
-602337.0882
 20
-1159534.129
 10
-602357.6157
 20
-1159550.4094
  0
LWPOLYLINE
  5
20175
100
AcDbEntity
  8
směr proudění podzemních vod
100
AcDbPolyline
 70
0
 90
2
 10
-602596.4023
 20
-1159240.6472
 10
-602551.4777
 20
-1159214.6928
  0
LWPOLYLINE
  5
20176
100
AcDbEntity
  8
směr proudění podzemních vod
100
AcDbPolyline
 70
0
 90
3
 10
-602576.5087
 20
-1159224.4644
 10
-602551.4777
 20
-1159214.6928
 10
-602572.0052
 20
-1159230.9733
  0
LWPOLYLINE
  5
20177
100
AcDbEntity
  8
směr proudění podzemních vod
100
AcDbPolyline
 70
0
 90
2
 10
-602740.9413
 20
-1158868.7134
 10
-602692.0316
 20
-1158851.402
  0
LWPOLYLINE
  5
20178
100
AcDbEntity
  8
směr proudění podzemních vod
100
AcDbPolyline
 70
0
 90
3
 10
-602718.4264
 20
-1158856.4368
 10
-602692.0316
 20
-1158851.402
 10
-602715.1876
 20
-1158863.6588
  0
LWPOLYLINE
  5
20179
100
AcDbEntity
  8
směr proudění podzemních vod
100
AcDbPolyline
 70
0
 90
2
 10
-603247.7505
 20
-1158239.3741
 10
-603217.5124
 20
-1158197.2137
  0
LWPOLYLINE
  5
2017A
100
AcDbEntity
  8
směr proudění podzemních vod
100
AcDbPolyline
 70
0
 90
3
 10
-603236.2928
 20
-1158216.4316
 10
-603217.5124
 20
-1158197.2137
 10
-603229.5074
 20
-1158220.5064
  0
LWPOLYLINE
  5
2017B
100
AcDbEntity
  8
směr proudění podzemních vod
100
AcDbPolyline
 70
0
 90
3
 10
-602976.8161
 20
-1158535.4145
 10
-602950.7697
 20
-1158528.8101
 10
-602973.1512
 20
-1158542.4299
  0
LWPOLYLINE
  5
2017C
100
AcDbEntity
  8
směr proudění podzemních vod
100
AcDbPolyline
 70
0
 90
2
 10
-602998.5565
 20
-1158549.0157
 10
-602950.7697
 20
-1158528.8101
  0
LWPOLYLINE
  5
2017D
100
AcDbEntity
  8
směr proudění podzemních vod
100
AcDbPolyline
 70
0
 90
2
 10
-605039.9567
 20
-1153890.1402
 10
-605066.1148
 20
-1153934.8063
  0
LWPOLYLINE
  5
2017E
100
AcDbEntity
  8
směr proudění podzemních vod
100
AcDbPolyline
 70
0
 90
3
 10
-605052.4188
 20
-1153905.4402
 10
-605066.1148
 20
-1153934.8063
 10
-605047.4833
 20
-1153908.0313
  0
LWPOLYLINE
  5
2017F
100
AcDbEntity
  8
směr proudění podzemních vod
100
AcDbPolyline
 70
0
 90
2
 10
-604577.2161
 20
-1154261.2126
 10
-604604.9646
 20
-1154304.9085
  0
LWPOLYLINE
  5
20180
100
AcDbEntity
  8
směr proudění podzemních vod
100
AcDbPolyline
 70
0
 90
3
 10
-604590.2207
 20
-1154276.0542
 10
-604604.9646
 20
-1154304.9085
 10
-604585.3817
 20
-1154278.8213
  0
LWPOLYLINE
  5
20181
100
AcDbEntity
  8
směr proudění podzemních vod
100
AcDbPolyline
 70
0
 90
2
 10
-604056.555
 20
-1155125.2669
 10
-604098.6743
 20
-1155155.3546
  0
LWPOLYLINE
  5
20182
100
AcDbEntity
  8
směr proudění podzemních vod
100
AcDbPolyline
 70
0
 90
3
 10
-604074.1791
 20
-1155134.143
 10
-604098.6743
 20
-1155155.3546
 10
-604070.7323
 20
-1155138.5239
  0
LWPOLYLINE
  5
20183
100
AcDbEntity
  8
směr proudění podzemních vod
100
AcDbPolyline
 70
0
 90
2
 10
-603606.961
 20
-1155637.3469
 10
-603625.9354
 20
-1155685.5058
  0
LWPOLYLINE
  5
20184
100
AcDbEntity
  8
směr proudění podzemních vod
100
AcDbPolyline
 70
0
 90
3
 10
-603616.9207
 20
-1155654.3821
 10
-603625.9354
 20
-1155685.5058
 10
-603611.6453
 20
-1155656.1831
  0
LWPOLYLINE
  5
20185
100
AcDbEntity
  8
směr proudění podzemních vod
100
AcDbPolyline
 70
0
 90
2
 10
-603053.7429
 20
-1160624.2624
 10
-603004.9954
 20
-1160642.254
  0
LWPOLYLINE
  5
20186
100
AcDbEntity
  8
směr proudění podzemních vod
100
AcDbPolyline
 70
0
 90
3
 10
-603031.5781
 20
-1160629.7629
 10
-603004.9954
 20
-1160642.254
 10
-603033.1055
 20
-1160634.7082
  0
LWPOLYLINE
  5
20187
100
AcDbEntity
  8
směr proudění podzemních vod
100
AcDbPolyline
 70
0
 90
2
 10
-603411.0881
 20
-1160528.3694
 10
-603362.7748
 20
-1160547.4964
  0
LWPOLYLINE
  5
20188
100
AcDbEntity
  8
směr proudění podzemních vod
100
AcDbPolyline
 70
0
 90
3
 10
-603389.058
 20
-1160534.3869
 10
-603362.7748
 20
-1160547.4964
 10
-603390.7007
 20
-1160539.295
  0
LWPOLYLINE
  5
20189
100
AcDbEntity
  8
směr proudění podzemních vod
100
AcDbPolyline
 70
0
 90
2
 10
-603796.167
 20
-1160502.0049
 10
-603744.2187
 20
-1160503.1842
  0
LWPOLYLINE
  5
2018A
100
AcDbEntity
  8
směr proudění podzemních vod
100
AcDbPolyline
 70
0
 90
3
 10
-603773.4175
 20
-1160500.0064
 10
-603744.2187
 20
-1160503.1842
 10
-603773.2555
 20
-1160505.1797
  0
LWPOLYLINE
  5
2018B
100
AcDbEntity
  8
směr proudění podzemních vod
100
AcDbPolyline
 70
0
 90
2
 10
-603555.8255
 20
-1159721.3321
 10
-603597.2957
 20
-1159690.0233
  0
LWPOLYLINE
  5
2018C
100
AcDbEntity
  8
směr proudění podzemních vod
100
AcDbPolyline
 70
0
 90
3
 10
-603575.4558
 20
-1159709.6622
 10
-603597.2957
 20
-1159690.0233
 10
-603572.5647
 20
-1159705.3691
  0
LWPOLYLINE
  5
2018D
100
AcDbEntity
  8
směr proudění podzemních vod
100
AcDbPolyline
 70
0
 90
2
 10
-603260.3402
 20
-1159854.412
 10
-603213.8642
 20
-1159877.65
  0
LWPOLYLINE
  5
2018E
100
AcDbEntity
  8
směr proudění podzemních vod
100
AcDbPolyline
 70
0
 90
3
 10
-603238.9137
 20
-1159862.3142
 10
-603213.8642
 20
-1159877.65
 10
-603240.9752
 20
-1159867.0617
  0
LWPOLYLINE
  5
2018F
100
AcDbEntity
  8
směr proudění podzemních vod
100
AcDbPolyline
 70
0
 90
2
 10
-604052.0465
 20
-1160496.0584
 10
-604103.9948
 20
-1160494.879
  0
LWPOLYLINE
  5
20190
100
AcDbEntity
  8
směr proudění podzemních vod
100
AcDbPolyline
 70
0
 90
3
 10
-604074.7961
 20
-1160498.0568
 10
-604103.9948
 20
-1160494.879
 10
-604074.9581
 20
-1160492.8836
  0
LWPOLYLINE
  5
20191
100
AcDbEntity
  8
směr proudění podzemních vod
100
AcDbPolyline
 70
0
 90
2
 10
-602961.9263
 20
-1160020.9812
 10
-602923.1674
 20
-1160055.59
  0
LWPOLYLINE
  5
20192
100
AcDbEntity
  8
směr proudění podzemních vod
100
AcDbPolyline
 70
0
 90
3
 10
-602943.3207
 20
-1160034.2239
 10
-602923.1674
 20
-1160055.59
 10
-602946.5546
 20
-1160038.265
  0
LWPOLYLINE
  5
20193
100
AcDbEntity
  8
směr proudění podzemních vod
100
AcDbPolyline
 70
0
 90
2
 10
-602711.7998
 20
-1160191.1041
 10
-602670.1554
 20
-1160222.1808
  0
LWPOLYLINE
  5
20194
100
AcDbEntity
  8
směr proudění podzemních vod
100
AcDbPolyline
 70
0
 90
3
 10
-602692.1047
 20
-1160202.6643
 10
-602670.1554
 20
-1160222.1808
 10
-602694.9717
 20
-1160206.9734
  0
LWPOLYLINE
  5
20195
100
AcDbEntity
  8
směr proudění podzemních vod
100
AcDbPolyline
 70
0
 90
2
 10
-602391.5729
 20
-1160319.9458
 10
-602342.3498
 20
-1160336.5924
  0
LWPOLYLINE
  5
20196
100
AcDbEntity
  8
směr proudění podzemních vod
100
AcDbPolyline
 70
0
 90
3
 10
-602369.2654
 20
-1160324.8357
 10
-602342.3498
 20
-1160336.5924
 10
-602370.6565
 20
-1160329.8211
  0
LWPOLYLINE
  5
20197
100
AcDbEntity
  8
směr proudění podzemních vod
100
AcDbPolyline
 70
0
 90
2
 10
-596942.5299
 20
-1162520.1642
 10
-596902.8628
 20
-1162553.7434
  0
LWPOLYLINE
  5
20198
100
AcDbEntity
  8
směr proudění podzemních vod
100
AcDbPolyline
 70
0
 90
3
 10
-596921.0884
 20
-1162534.545
 10
-596902.8628
 20
-1162553.7434
 10
-596924.9325
 20
-1162539.1876
  0
LWPOLYLINE
  5
20199
100
AcDbEntity
  8
směr proudění podzemních vod
100
AcDbPolyline
 70
0
 90
2
 10
-596736.9987
 20
-1163022.5101
 10
-596688.7038
 20
-1163041.7101
  0
LWPOLYLINE
  5
2019A
100
AcDbEntity
  8
směr proudění podzemních vod
100
AcDbPolyline
 70
0
 90
3
 10
-596712.094
 20
-1163029.3147
 10
-596688.7038
 20
-1163041.7101
 10
-596714.2597
 20
-1163034.9396
  0
LWPOLYLINE
  5
2019B
100
AcDbEntity
  8
směr proudění podzemních vod
100
AcDbPolyline
 70
0
 90
2
 10
-597365.4672
 20
-1162385.0703
 10
-597358.3754
 20
-1162436.5556
  0
LWPOLYLINE
  5
2019C
100
AcDbEntity
  8
směr proudění podzemních vod
100
AcDbPolyline
 70
0
 90
3
 10
-597359.1156
 20
-1162410.0944
 10
-597358.3754
 20
-1162436.5556
 10
-597365.0774
 20
-1162410.9818
  0
LWPOLYLINE
  5
2019D
100
AcDbEntity
  8
směr proudění podzemních vod
100
AcDbPolyline
 70
0
 90
2
 10
-597296.8146
 20
-1162740.2356
 10
-597292.282
 20
-1162792.0091
  0
LWPOLYLINE
  5
2019E
100
AcDbEntity
  8
směr proudění podzemních vod
100
AcDbPolyline
 70
0
 90
3
 10
-597291.7106
 20
-1162765.5436
 10
-597292.282
 20
-1162792.0091
 10
-597297.709
 20
-1162766.1346
  0
LWPOLYLINE
  5
2019F
100
AcDbEntity
  8
směr proudění podzemních vod
100
AcDbPolyline
 70
0
 90
2
 10
-597365.5037
 20
-1163115.3102
 10
-597400.189
 20
-1163154.0137
  0
LWPOLYLINE
  5
201A0
100
AcDbEntity
  8
směr proudění podzemních vod
100
AcDbPolyline
 70
0
 90
3
 10
-597380.4839
 20
-1163136.3373
 10
-597400.189
 20
-1163154.0137
 10
-597385.0161
 20
-1163132.3637
  0
LWPOLYLINE
  5
201A1
100
AcDbEntity
  8
směr proudění podzemních vod
100
AcDbPolyline
 70
0
 90
2
 10
-597619.2407
 20
-1162670.3286
 10
-597632.7712
 20
-1162720.5079
  0
LWPOLYLINE
  5
201A2
100
AcDbEntity
  8
směr proudění podzemních vod
100
AcDbPolyline
 70
0
 90
3
 10
-597623.1421
 20
-1162695.8497
 10
-597632.7712
 20
-1162720.5079
 10
-597628.9784
 20
-1162694.3439
  0
LWPOLYLINE
  5
201A3
100
AcDbEntity
  8
směr proudění podzemních vod
100
AcDbPolyline
 70
0
 90
2
 10
-596842.0851
 20
-1163282.57
 10
-596790.224
 20
-1163279.1841
  0
LWPOLYLINE
  5
201A4
100
AcDbEntity
  8
směr proudění podzemních vod
100
AcDbPolyline
 70
0
 90
3
 10
-596816.6703
 20
-1163278.0271
 10
-596790.224
 20
-1163279.1841
 10
-596816.2122
 20
-1163284.0372
  0
LWPOLYLINE
  5
201A5
100
AcDbEntity
  8
směr proudění podzemních vod
100
AcDbPolyline
 70
0
 90
2
 10
-597078.6625
 20
-1163284.5884
 10
-597130.6076
 20
-1163282.9304
  0
LWPOLYLINE
  5
201A6
100
AcDbEntity
  8
směr proudění podzemních vod
100
AcDbPolyline
 70
0
 90
3
 10
-597104.398
 20
-1163286.6458
 10
-597130.6076
 20
-1163282.9304
 10
-597104.2713
 20
-1163280.6197
  0
LWPOLYLINE
  5
201A7
100
AcDbEntity
  8
směr proudění podzemních vod
100
AcDbPolyline
 70
0
 90
2
 10
-597531.7491
 20
-1163208.018
 10
-597581.9565
 20
-1163221.444
  0
LWPOLYLINE
  5
201A8
100
AcDbEntity
  8
směr proudění podzemních vod
100
AcDbPolyline
 70
0
 90
3
 10
-597555.7916
 20
-1163217.4258
 10
-597581.9565
 20
-1163221.444
 10
-597557.412
 20
-1163211.6202
  0
LWPOLYLINE
  5
201A9
100
AcDbEntity
  8
směr proudění podzemních vod
100
AcDbPolyline
 70
0
 90
2
 10
-596998.47
 20
-1163060.36
 10
-597001.2999
 20
-1163008.4656
  0
LWPOLYLINE
  5
201AA
100
AcDbEntity
  8
směr proudění podzemních vod
100
AcDbPolyline
 70
0
 90
3
 10
-597002.7402
 20
-1163034.898
 10
-597001.2999
 20
-1163008.4656
 10
-596996.7256
 20
-1163034.5043
  0
LWPOLYLINE
  5
201AB
100
AcDbEntity
  8
směr proudění podzemních vod
100
AcDbPolyline
 70
0
 90
2
 10
-597512.1018
 20
-1161947.2125
 10
-597499.9222
 20
-1161997.7368
  0
LWPOLYLINE
  5
201AC
100
AcDbEntity
  8
směr proudění podzemních vod
100
AcDbPolyline
 70
0
 90
3
 10
-597503.2918
 20
-1161971.4805
 10
-597499.9222
 20
-1161997.7368
 10
-597509.1357
 20
-1161972.9567
  0
LWPOLYLINE
  5
201AD
100
AcDbEntity
  8
směr proudění podzemních vod
100
AcDbPolyline
 70
0
 90
2
 10
-597251.3448
 20
-1163299.2055
 10
-597301.9348
 20
-1163311.1089
  0
LWPOLYLINE
  5
201AE
100
AcDbEntity
  8
směr proudění podzemních vod
100
AcDbPolyline
 70
0
 90
3
 10
-597275.6605
 20
-1163307.8828
 10
-597301.9348
 20
-1163311.1089
 10
-597277.1048
 20
-1163302.0309
  0
LWPOLYLINE
  5
201AF
100
AcDbEntity
  8
směr proudění podzemních vod
100
AcDbPolyline
 70
0
 90
3
 10
-597520.0569
 20
-1163353.6347
 10
-597546.3312
 20
-1163356.8609
 10
-597521.5012
 20
-1163347.7829
  0
LWPOLYLINE
  5
201B0
100
AcDbEntity
  8
směr proudění podzemních vod
100
AcDbPolyline
 70
0
 90
2
 10
-597495.7412
 20
-1163344.9575
 10
-597546.3312
 20
-1163356.8609
  0
LWPOLYLINE
  5
201B1
100
AcDbEntity
  8
směr proudění podzemních vod
100
AcDbPolyline
 70
0
 90
3
 10
-596728.3875
 20
-1163277.6629
 10
-596702.1116
 20
-1163280.8761
 10
-596728.3989
 20
-1163283.6903
  0
LWPOLYLINE
  5
201B2
100
AcDbEntity
  8
směr proudění podzemních vod
100
AcDbPolyline
 70
0
 90
2
 10
-596756.1059
 20
-1163280.2124
 10
-596704.1386
 20
-1163280.8761
  0
LWPOLYLINE
  5
201B3
100
AcDbEntity
  8
směr proudění podzemních vod
100
AcDbPolyline
 70
0
 90
3
 10
-601722.0997
 20
-1158128.2563
 10
-601744.6448
 20
-1158142.1295
 10
-601725.8494
 20
-1158123.5372
  0
LWPOLYLINE
  5
201B4
100
AcDbEntity
  8
směr proudění podzemních vod
100
AcDbPolyline
 70
0
 90
2
 10
-601703.605
 20
-1158110.2425
 10
-601744.6448
 20
-1158142.1295
  0
LWPOLYLINE
  5
201B5
100
AcDbEntity
  8
směr proudění podzemních vod
100
AcDbPolyline
 70
0
 90
2
 10
-601427.3125
 20
-1158100.7934
 10
-601441.1832
 20
-1158150.8798
  0
LWPOLYLINE
  5
201B6
100
AcDbEntity
  8
směr proudění podzemních vod
100
AcDbPolyline
 70
0
 90
3
 10
-601431.387
 20
-1158126.2874
 10
-601441.1832
 20
-1158150.8798
 10
-601437.213
 20
-1158124.7421
  0
LWPOLYLINE
  5
201B7
100
AcDbEntity
  8
směr proudění podzemních vod
100
AcDbPolyline
 70
0
 90
2
 10
-601555.5165
 20
-1158446.9213
 10
-601569.3872
 20
-1158497.0077
  0
LWPOLYLINE
  5
201B8
100
AcDbEntity
  8
směr proudění podzemních vod
100
AcDbPolyline
 70
0
 90
3
 10
-601559.591
 20
-1158472.4154
 10
-601569.3872
 20
-1158497.0077
 10
-601565.417
 20
-1158470.87
  0
LWPOLYLINE
  5
201B9
100
AcDbEntity
  8
směr proudění podzemních vod
100
AcDbPolyline
 70
0
 90
2
 10
-601813.0388
 20
-1157767.5333
 10
-601854.0183
 20
-1157799.4978
  0
LWPOLYLINE
  5
201BA
100
AcDbEntity
  8
směr proudění podzemních vod
100
AcDbPolyline
 70
0
 90
3
 10
-601831.4994
 20
-1157785.582
 10
-601854.0183
 20
-1157799.4978
 10
-601835.258
 20
-1157780.87
  0
LWPOLYLINE
  5
201BB
100
AcDbEntity
  8
směr proudění podzemních vod
100
AcDbPolyline
 70
0
 90
2
 10
-602088.2972
 20
-1157583.2869
 10
-602086.7383
 20
-1157635.235
  0
LWPOLYLINE
  5
201BC
100
AcDbEntity
  8
směr proudění podzemních vod
100
AcDbPolyline
 70
0
 90
3
 10
-602084.6515
 20
-1157608.8458
 10
-602086.7383
 20
-1157635.235
 10
-602090.6739
 20
-1157609.0921
  0
LWPOLYLINE
  5
201BD
100
AcDbEntity
  8
směr proudění podzemních vod
100
AcDbPolyline
 70
0
 90
2
 10
-602455.7403
 20
-1157595.4442
 10
-602496.9294
 20
-1157627.138
  0
LWPOLYLINE
  5
201BE
100
AcDbEntity
  8
směr proudění podzemních vod
100
AcDbPolyline
 70
0
 90
3
 10
-602474.3194
 20
-1157613.3709
 10
-602496.9294
 20
-1157627.138
 10
-602478.0468
 20
-1157608.6342
  0
LWPOLYLINE
  5
201BF
100
AcDbEntity
  8
směr proudění podzemních vod
100
AcDbPolyline
 70
0
 90
2
 10
-602809.7662
 20
-1157489.9506
 10
-602834.7177
 20
-1157535.5408
  0
LWPOLYLINE
  5
201C0
100
AcDbEntity
  8
směr proudění podzemních vod
100
AcDbPolyline
 70
0
 90
3
 10
-602819.5599
 20
-1157513.8385
 10
-602834.7177
 20
-1157535.5408
 10
-602824.8784
 20
-1157511.0025
  0
LWPOLYLINE
  5
201C1
100
AcDbEntity
  8
směr proudění podzemních vod
100
AcDbPolyline
 70
0
 90
2
 10
-603019.1603
 20
-1157058.9119
 10
-603060.3745
 20
-1157090.5731
  0
LWPOLYLINE
  5
201C2
100
AcDbEntity
  8
směr proudění podzemních vod
100
AcDbPolyline
 70
0
 90
3
 10
-603037.7536
 20
-1157076.8239
 10
-603060.3745
 20
-1157090.5731
 10
-603041.4773
 20
-1157072.0843
  0
LWPOLYLINE
  5
201C3
100
AcDbEntity
  8
směr proudění podzemních vod
100
AcDbPolyline
 70
0
 90
2
 10
-602657.1753
 20
-1156923.6196
 10
-602708.7651
 20
-1156929.9067
  0
LWPOLYLINE
  5
201C4
100
AcDbEntity
  8
směr proudění podzemních vod
100
AcDbPolyline
 70
0
 90
3
 10
-602682.2955
 20
-1156929.5796
 10
-602708.7651
 20
-1156929.9067
 10
-602683.0897
 20
-1156923.6047
  0
LWPOLYLINE
  5
201C5
100
AcDbEntity
  8
směr proudění podzemních vod
100
AcDbPolyline
 70
0
 90
2
 10
-602486.5104
 20
-1157117.0206
 10
-602524.1737
 20
-1157081.2083
  0
LWPOLYLINE
  5
201C6
100
AcDbEntity
  8
směr proudění podzemních vod
100
AcDbPolyline
 70
0
 90
3
 10
-602507.0864
 20
-1157101.4264
 10
-602524.1737
 20
-1157081.2083
 10
-602502.9808
 20
-1157097.0134
  0
LWPOLYLINE
  5
201C7
100
AcDbEntity
  8
směr proudění podzemních vod
100
AcDbPolyline
 70
0
 90
2
 10
-602280.0835
 20
-1156965.9943
 10
-602322.8894
 20
-1156936.5206
  0
LWPOLYLINE
  5
201C8
100
AcDbEntity
  8
směr proudění podzemních vod
100
AcDbPolyline
 70
0
 90
3
 10
-602302.8473
 20
-1156953.814
 10
-602322.8894
 20
-1156936.5206
 10
-602299.4833
 20
-1156948.8126
  0
LWPOLYLINE
  5
201C9
100
AcDbEntity
  8
směr proudění podzemních vod
100
AcDbPolyline
 70
0
 90
2
 10
-602845.8046
 20
-1156775.7766
 10
-602887.1186
 20
-1156807.3073
  0
LWPOLYLINE
  5
201CA
100
AcDbEntity
  8
směr proudění podzemních vod
100
AcDbPolyline
 70
0
 90
3
 10
-602864.4543
 20
-1156793.6297
 10
-602887.1186
 20
-1156807.3073
 10
-602868.1631
 20
-1156788.8783
  0
LWPOLYLINE
  5
201CB
100
AcDbEntity
  8
směr proudění podzemních vod
100
AcDbPolyline
 70
0
 90
2
 10
-602586.6598
 20
-1156581.4181
 10
-602627.9739
 20
-1156612.9488
  0
LWPOLYLINE
  5
201CC
100
AcDbEntity
  8
směr proudění podzemních vod
100
AcDbPolyline
 70
0
 90
3
 10
-602605.3096
 20
-1156599.2712
 10
-602627.9739
 20
-1156612.9488
 10
-602609.0183
 20
-1156594.5198
  0
LWPOLYLINE
  5
201CD
100
AcDbEntity
  8
směr proudění podzemních vod
100
AcDbPolyline
 70
0
 90
2
 10
-602217.2692
 20
-1156605.0827
 10
-602268.7072
 20
-1156612.51
  0
LWPOLYLINE
  5
201CE
100
AcDbEntity
  8
směr proudění podzemních vod
100
AcDbPolyline
 70
0
 90
3
 10
-602242.2514
 20
-1156611.5972
 10
-602268.7072
 20
-1156612.51
 10
-602243.1776
 20
-1156605.6414
  0
LWPOLYLINE
  5
201CF
100
AcDbEntity
  8
směr proudění podzemních vod
100
AcDbPolyline
 70
0
 90
2
 10
-601990.3648
 20
-1156529.7895
 10
-602041.8029
 20
-1156537.2168
  0
LWPOLYLINE
  5
201D0
100
AcDbEntity
  8
směr proudění podzemních vod
100
AcDbPolyline
 70
0
 90
3
 10
-602015.347
 20
-1156536.304
 10
-602041.8029
 20
-1156537.2168
 10
-602016.2732
 20
-1156530.3481
  0
LWPOLYLINE
  5
201D1
100
AcDbEntity
  8
směr proudění podzemních vod
100
AcDbPolyline
 70
0
 90
2
 10
-602406.5272
 20
-1156377.093
 10
-602438.8338
 20
-1156417.8033
  0
LWPOLYLINE
  5
201D2
100
AcDbEntity
  8
směr proudění podzemních vod
100
AcDbPolyline
 70
0
 90
3
 10
-602420.222
 20
-1156398.9791
 10
-602438.8338
 20
-1156417.8033
 10
-602424.984
 20
-1156395.2839
  0
LWPOLYLINE
  5
201D3
100
AcDbEntity
  8
směr proudění podzemních vod
100
AcDbPolyline
 70
0
 90
2
 10
-602318.7448
 20
-1156188.6115
 10
-602334.679
 20
-1156238.0801
  0
LWPOLYLINE
  5
201D4
100
AcDbEntity
  8
směr proudění podzemních vod
100
AcDbPolyline
 70
0
 90
3
 10
-602323.8722
 20
-1156213.9149
 10
-602334.679
 20
-1156238.0801
 10
-602329.6291
 20
-1156212.1294
  0
LWPOLYLINE
  5
201D5
100
AcDbEntity
  8
směr proudění podzemních vod
100
AcDbPolyline
 70
0
 90
2
 10
-602557.8674
 20
-1156174.8887
 10
-602513.6155
 20
-1156202.1431
  0
LWPOLYLINE
  5
201D6
100
AcDbEntity
  8
směr proudění podzemních vod
100
AcDbPolyline
 70
0
 90
3
 10
-602534.5127
 20
-1156185.8933
 10
-602513.6155
 20
-1156202.1431
 10
-602537.6175
 20
-1156191.0596
  0
LWPOLYLINE
  5
201D7
100
AcDbEntity
  8
směr proudění podzemních vod
100
AcDbPolyline
 70
0
 90
2
 10
-602110.5919
 20
-1156052.7597
 10
-602159.8547
 20
-1156069.3191
  0
LWPOLYLINE
  5
201D8
100
AcDbEntity
  8
směr proudění podzemních vod
100
AcDbPolyline
 70
0
 90
3
 10
-602133.9946
 20
-1156063.662
 10
-602159.8547
 20
-1156069.3191
 10
-602135.9771
 20
-1156057.9699
  0
LWPOLYLINE
  5
201D9
100
AcDbEntity
  8
směr proudění podzemních vod
100
AcDbPolyline
 70
0
 90
2
 10
-602561.141
 20
-1155985.9244
 10
-602509.2309
 20
-1155983.3972
  0
LWPOLYLINE
  5
201DA
100
AcDbEntity
  8
směr proudění podzemních vod
100
AcDbPolyline
 70
0
 90
3
 10
-602535.6545
 20
-1155981.8028
 10
-602509.2309
 20
-1155983.3972
 10
-602535.2959
 20
-1155987.8196
  0
LWPOLYLINE
  5
201DB
100
AcDbEntity
  8
směr proudění podzemních vod
100
AcDbPolyline
 70
0
 90
2
 10
-602382.6488
 20
-1155816.8441
 10
-602368.9656
 20
-1155866.982
  0
LWPOLYLINE
  5
201DC
100
AcDbEntity
  8
směr proudění podzemních vod
100
AcDbPolyline
 70
0
 90
3
 10
-602373.1179
 20
-1155840.838
 10
-602368.9656
 20
-1155866.982
 10
-602378.9151
 20
-1155842.4881
  0
LWPOLYLINE
  5
201DD
100
AcDbEntity
  8
směr proudění podzemních vod
100
AcDbPolyline
 70
0
 90
2
 10
-602420.6661
 20
-1155622.0889
 10
-602411.6859
 20
-1155673.2787
  0
LWPOLYLINE
  5
201DE
100
AcDbEntity
  8
směr proudění podzemních vod
100
AcDbPolyline
 70
0
 90
3
 10
-602413.3987
 20
-1155646.8625
 10
-602411.6859
 20
-1155673.2787
 10
-602419.3238
 20
-1155647.9685
  0
LWPOLYLINE
  5
201DF
100
AcDbEntity
  8
směr proudění podzemních vod
100
AcDbPolyline
 70
0
 90
2
 10
-602651.2091
 20
-1155725.7855
 10
-602599.2476
 20
-1155724.7613
  0
LWPOLYLINE
  5
201E0
100
AcDbEntity
  8
směr proudění podzemních vod
100
AcDbPolyline
 70
0
 90
3
 10
-602625.614
 20
-1155722.403
 10
-602599.2476
 20
-1155724.7613
 10
-602625.4297
 20
-1155728.4277
  0
LWPOLYLINE
  5
201E1
100
AcDbEntity
  8
směr proudění podzemních vod
100
AcDbPolyline
 70
0
 90
2
 10
-602653.567
 20
-1155540.4624
 10
-602601.6056
 20
-1155539.4382
  0
LWPOLYLINE
  5
201E2
100
AcDbEntity
  8
směr proudění podzemních vod
100
AcDbPolyline
 70
0
 90
3
 10
-602627.972
 20
-1155537.0799
 10
-602601.6056
 20
-1155539.4382
 10
-602627.7876
 20
-1155543.1046
  0
LWPOLYLINE
  5
201E3
100
AcDbEntity
  8
směr proudění podzemních vod
100
AcDbPolyline
 70
0
 90
2
 10
-602260.0453
 20
-1155591.1525
 10
-602302.4187
 20
-1155621.2445
  0
LWPOLYLINE
  5
201E4
100
AcDbEntity
  8
směr proudění podzemních vod
100
AcDbPolyline
 70
0
 90
3
 10
-602279.2977
 20
-1155608.354
 10
-602302.4187
 20
-1155621.2445
 10
-602282.8409
 20
-1155603.4779
  0
LWPOLYLINE
  5
201E5
100
AcDbEntity
  8
směr proudění podzemních vod
100
AcDbPolyline
 70
0
 90
2
 10
-602350.9419
 20
-1155347.8807
 10
-602377.7737
 20
-1155392.3902
  0
LWPOLYLINE
  5
201E6
100
AcDbEntity
  8
směr proudění podzemních vod
100
AcDbPolyline
 70
0
 90
3
 10
-602361.7237
 20
-1155371.3392
 10
-602377.7737
 20
-1155392.3902
 10
-602366.9193
 20
-1155368.2837
  0
LWPOLYLINE
  5
201E7
100
AcDbEntity
  8
směr proudění podzemních vod
100
AcDbPolyline
 70
0
 90
2
 10
-601660.3053
 20
-1156534.9198
 10
-601611.0662
 20
-1156551.5497
  0
LWPOLYLINE
  5
201E8
100
AcDbEntity
  8
směr proudění podzemních vod
100
AcDbPolyline
 70
0
 90
3
 10
-601635.0767
 20
-1156540.4034
 10
-601611.0662
 20
-1156551.5497
 10
-601636.9432
 20
-1156546.1346
  0
LWPOLYLINE
  5
201E9
100
AcDbEntity
  8
směr proudění podzemních vod
100
AcDbPolyline
 70
0
 90
2
 10
-601412.9502
 20
-1156643.0127
 10
-601365.8733
 20
-1156665.0311
  0
LWPOLYLINE
  5
201EA
100
AcDbEntity
  8
směr proudění podzemních vod
100
AcDbPolyline
 70
0
 90
3
 10
-601388.4907
 20
-1156651.2761
 10
-601365.8733
 20
-1156665.0311
 10
-601390.9848
 20
-1156656.7633
  0
LWPOLYLINE
  5
201EB
100
AcDbEntity
  8
směr proudění podzemních vod
100
AcDbPolyline
 70
0
 90
2
 10
-601125.5721
 20
-1156464.5329
 10
-601121.0107
 20
-1156516.3038
  0
LWPOLYLINE
  5
201EC
100
AcDbEntity
  8
směr proudění podzemních vod
100
AcDbPolyline
 70
0
 90
3
 10
-601120.454
 20
-1156489.8381
 10
-601121.0107
 20
-1156516.3038
 10
-601126.4521
 20
-1156490.4324
  0
LWPOLYLINE
  5
201ED
100
AcDbEntity
  8
směr proudění podzemních vod
100
AcDbPolyline
 70
0
 90
2
 10
-601381.6334
 20
-1156342.0196
 10
-601333.1334
 20
-1156360.6956
  0
LWPOLYLINE
  5
201EE
100
AcDbEntity
  8
směr proudění podzemních vod
100
AcDbPolyline
 70
0
 90
3
 10
-601356.6565
 20
-1156348.5542
 10
-601333.1334
 20
-1156360.6956
 10
-601358.7611
 20
-1156354.2022
  0
LWPOLYLINE
  5
201EF
100
AcDbEntity
  8
směr proudění podzemních vod
100
AcDbPolyline
 70
0
 90
2
 10
-601701.1527
 20
-1156256.123
 10
-601649.7065
 20
-1156263.4933
  0
LWPOLYLINE
  5
201F0
100
AcDbEntity
  8
směr proudění podzemních vod
100
AcDbPolyline
 70
0
 90
3
 10
-601675.3472
 20
-1156256.9132
 10
-601649.7065
 20
-1156263.4933
 10
-601676.1371
 20
-1156262.8887
  0
LWPOLYLINE
  5
201F1
100
AcDbEntity
  8
směr proudění podzemních vod
100
AcDbPolyline
 70
0
 90
2
 10
-601158.3121
 20
-1156033.6694
 10
-601152.7263
 20
-1156085.3399
  0
LWPOLYLINE
  5
201F2
100
AcDbEntity
  8
směr proudění podzemních vod
100
AcDbPolyline
 70
0
 90
3
 10
-601152.6938
 20
-1156058.8683
 10
-601152.7263
 20
-1156085.3399
 10
-601158.679
 20
-1156059.5812
  0
LWPOLYLINE
  5
201F3
100
AcDbEntity
  8
směr proudění podzemních vod
100
AcDbPolyline
 70
0
 90
2
 10
-601403.0635
 20
-1155872.1769
 10
-601352.5116
 20
-1155884.2409
  0
LWPOLYLINE
  5
201F4
100
AcDbEntity
  8
směr proudění podzemních vod
100
AcDbPolyline
 70
0
 90
3
 10
-601377.4397
 20
-1155875.3337
 10
-601352.5116
 20
-1155884.2409
 10
-601378.775
 20
-1155881.2114
  0
LWPOLYLINE
  5
201F5
100
AcDbEntity
  8
směr proudění podzemních vod
100
AcDbPolyline
 70
0
 90
2
 10
-600967.6312
 20
-1155829.4491
 10
-601009.2272
 20
-1155860.607
  0
LWPOLYLINE
  5
201F6
100
AcDbEntity
  8
směr proudění podzemních vod
100
AcDbPolyline
 70
0
 90
3
 10
-600986.4408
 20
-1155847.1337
 10
-601009.2272
 20
-1155860.607
 10
-600990.1067
 20
-1155842.3492
  0
LWPOLYLINE
  5
201F7
100
AcDbEntity
  8
směr proudění podzemních vod
100
AcDbPolyline
 70
0
 90
2
 10
-601213.3207
 20
-1155674.851
 10
-601210.4691
 20
-1155726.7442
  0
LWPOLYLINE
  5
201F8
100
AcDbEntity
  8
směr proudění podzemních vod
100
AcDbPolyline
 70
0
 90
3
 10
-601209.0399
 20
-1155700.3112
 10
-601210.4691
 20
-1155726.7442
 10
-601215.0543
 20
-1155700.7073
  0
LWPOLYLINE
  5
201F9
100
AcDbEntity
  8
směr proudění podzemních vod
100
AcDbPolyline
 70
0
 90
2
 10
-601036.9556
 20
-1155426.6242
 10
-601067.8779
 20
-1155468.3956
  0
LWPOLYLINE
  5
201FA
100
AcDbEntity
  8
směr proudění podzemních vod
100
AcDbPolyline
 70
0
 90
3
 10
-601049.9083
 20
-1155448.9575
 10
-601067.8779
 20
-1155468.3956
 10
-601054.7916
 20
-1155445.4242
  0
LWPOLYLINE
  5
201FB
100
AcDbEntity
  8
směr proudění podzemních vod
100
AcDbPolyline
 70
0
 90
2
 10
-601540.9003
 20
-1155493.2894
 10
-601493.8039
 20
-1155515.2659
  0
LWPOLYLINE
  5
201FC
100
AcDbEntity
  8
směr proudění podzemních vod
100
AcDbPolyline
 70
0
 90
3
 10
-601516.4335
 20
-1155501.531
 10
-601493.8039
 20
-1155515.2659
 10
-601518.9227
 20
-1155507.0205
  0
LWPOLYLINE
  5
201FD
100
AcDbEntity
  8
směr proudění podzemních vod
100
AcDbPolyline
 70
0
 90
2
 10
-601736.046
 20
-1155854.7119
 10
-601684.1996
 20
-1155858.3169
  0
LWPOLYLINE
  5
201FE
100
AcDbEntity
  8
směr proudění podzemních vod
100
AcDbPolyline
 70
0
 90
3
 10
-601710.2514
 20
-1155853.6211
 10
-601684.1996
 20
-1155858.3169
 10
-601710.6041
 20
-1155859.6383
  0
LWPOLYLINE
  5
201FF
100
AcDbEntity
  8
směr proudění podzemních vod
100
AcDbPolyline
 70
0
 90
2
 10
-601899.1059
 20
-1155452.5981
 10
-601847.2011
 20
-1155449.9649
  0
LWPOLYLINE
  5
20200
100
AcDbEntity
  8
směr proudění podzemních vod
100
AcDbPolyline
 70
0
 90
3
 10
-601873.6279
 20
-1155448.4245
 10
-601847.2011
 20
-1155449.9649
 10
-601873.257
 20
-1155454.4405
  0
LWPOLYLINE
  5
20201
100
AcDbEntity
  8
směr proudění podzemních vod
100
AcDbPolyline
 70
0
 90
2
 10
-602481.3355
 20
-1155086.1559
 10
-602501.4663
 20
-1155134.0704
  0
LWPOLYLINE
  5
20202
100
AcDbEntity
  8
směr proudění podzemních vod
100
AcDbPolyline
 70
0
 90
3
 10
-602488.6207
 20
-1155110.9244
 10
-602501.4663
 20
-1155134.0704
 10
-602494.2027
 20
-1155108.6503
  0
LWPOLYLINE
  5
20203
100
AcDbEntity
  8
směr proudění podzemních vod
100
AcDbPolyline
 70
0
 90
2
 10
-601990.4947
 20
-1155001.0717
 10
-602042.1704
 20
-1155006.6082
  0
LWPOLYLINE
  5
20204
100
AcDbEntity
  8
směr proudění podzemních vod
100
AcDbPolyline
 70
0
 90
3
 10
-602015.6989
 20
-1155006.6659
 10
-602042.1704
 20
-1155006.6082
 10
-602016.4061
 20
-1155000.6801
  0
LWPOLYLINE
  5
20205
100
AcDbEntity
  8
směr proudění podzemních vod
100
AcDbPolyline
 70
0
 90
2
 10
-601712.2377
 20
-1155025.2572
 10
-601666.8915
 20
-1155050.6494
  0
LWPOLYLINE
  5
20206
100
AcDbEntity
  8
směr proudění podzemních vod
100
AcDbPolyline
 70
0
 90
3
 10
-601688.4458
 20
-1155035.2819
 10
-601666.8915
 20
-1155050.6494
 10
-601691.3333
 20
-1155040.5728
  0
LWPOLYLINE
  5
20207
100
AcDbEntity
  8
směr proudění podzemních vod
100
AcDbPolyline
 70
0
 90
2
 10
-601776.8683
 20
-1154580.3836
 10
-601743.6287
 20
-1154620.3358
  0
LWPOLYLINE
  5
20208
100
AcDbEntity
  8
směr proudění podzemních vod
100
AcDbPolyline
 70
0
 90
3
 10
-601758.247
 20
-1154598.2665
 10
-601743.6287
 20
-1154620.3358
 10
-601762.8383
 20
-1154602.1716
  0
LWPOLYLINE
  5
20209
100
AcDbEntity
  8
směr proudění podzemních vod
100
AcDbPolyline
 70
0
 90
2
 10
-602117.1771
 20
-1154467.0967
 10
-602066.7841
 20
-1154454.3849
  0
LWPOLYLINE
  5
2020A
100
AcDbEntity
  8
směr proudění podzemních vod
100
AcDbPolyline
 70
0
 90
3
 10
-602093.0034
 20
-1154458.0313
 10
-602066.7841
 20
-1154454.3849
 10
-602091.4656
 20
-1154463.8593
  0
LWPOLYLINE
  5
2020B
100
AcDbEntity
  8
směr proudění podzemních vod
100
AcDbPolyline
 70
0
 90
2
 10
-601942.5654
 20
-1154249.22
 10
-601905.521
 20
-1154285.672
  0
LWPOLYLINE
  5
2020C
100
AcDbEntity
  8
směr proudění podzemních vod
100
AcDbPolyline
 70
0
 90
3
 10
-601922.2595
 20
-1154265.1643
 10
-601905.521
 20
-1154285.672
 10
-601926.4401
 20
-1154269.5063
  0
LWPOLYLINE
  5
2020D
100
AcDbEntity
  8
směr proudění podzemních vod
100
AcDbPolyline
 70
0
 90
2
 10
-602075.2189
 20
-1154015.7651
 10
-602046.2308
 20
-1154058.9013
  0
LWPOLYLINE
  5
2020E
100
AcDbEntity
  8
směr proudění podzemních vod
100
AcDbPolyline
 70
0
 90
3
 10
-602058.5201
 20
-1154035.4552
 10
-602046.2308
 20
-1154058.9013
 10
-602063.486
 20
-1154038.8713
  0
LWPOLYLINE
  5
2020F
100
AcDbEntity
  8
směr proudění podzemních vod
100
AcDbPolyline
 70
0
 90
2
 10
-602351.317
 20
-1154567.1714
 10
-602303.7069
 20
-1154546.3311
  0
LWPOLYLINE
  5
20210
100
AcDbEntity
  8
směr proudění podzemních vod
100
AcDbPolyline
 70
0
 90
3
 10
-602328.9672
 20
-1154554.2472
 10
-602303.7069
 20
-1154546.3311
 10
-602326.4903
 20
-1154559.7422
  0
LWPOLYLINE
  5
20211
100
AcDbEntity
  8
směr proudění podzemních vod
100
AcDbPolyline
 70
0
 90
2
 10
-602338.8679
 20
-1154213.7781
 10
-602287.0883
 20
-1154218.2404
  0
LWPOLYLINE
  5
20212
100
AcDbEntity
  8
směr proudění podzemních vod
100
AcDbPolyline
 70
0
 90
3
 10
-602313.0588
 20
-1154213.1142
 10
-602287.0883
 20
-1154218.2404
 10
-602313.511
 20
-1154219.1247
  0
LWPOLYLINE
  5
20213
100
AcDbEntity
  8
směr proudění podzemních vod
100
AcDbPolyline
 70
0
 90
2
 10
-601149.3399
 20
-1156823.4922
 10
-601153.2667
 20
-1156875.3152
  0
LWPOLYLINE
  5
20214
100
AcDbEntity
  8
směr proudění podzemních vod
100
AcDbPolyline
 70
0
 90
3
 10
-601148.4092
 20
-1156849.2931
 10
-601153.2667
 20
-1156875.3152
 10
-601154.424
 20
-1156848.9031
  0
LWPOLYLINE
  5
20215
100
AcDbEntity
  8
směr proudění podzemních vod
100
AcDbPolyline
 70
0
 90
2
 10
-602318.6615
 20
-1156031.9781
 10
-602327.5838
 20
-1156083.178
  0
LWPOLYLINE
  5
20216
100
AcDbEntity
  8
směr proudění podzemních vod
100
AcDbPolyline
 70
0
 90
3
 10
-602320.2315
 20
-1156057.7479
 10
-602327.5838
 20
-1156083.178
 10
-602326.1804
 20
-1156056.7778
  0
LWPOLYLINE
  5
20217
100
AcDbEntity
  8
směr proudění podzemních vod
100
AcDbPolyline
 70
0
 90
2
 10
-598628.8433
 20
-1157652.4777
 10
-598576.9183
 20
-1157654.6776
  0
LWPOLYLINE
  5
20218
100
AcDbEntity
  8
směr proudění podzemních vod
100
AcDbPolyline
 70
0
 90
3
 10
-598603.0877
 20
-1157650.6889
 10
-598576.9183
 20
-1157654.6776
 10
-598603.2773
 20
-1157656.7134
  0
LWPOLYLINE
  5
20219
100
AcDbEntity
  8
směr proudění podzemních vod
100
AcDbPolyline
 70
0
 90
2
 10
-598492.9254
 20
-1158105.6803
 10
-598441.0004
 20
-1158107.8802
  0
LWPOLYLINE
  5
2021A
100
AcDbEntity
  8
směr proudění podzemních vod
100
AcDbPolyline
 70
0
 90
3
 10
-598467.1698
 20
-1158103.8915
 10
-598441.0004
 20
-1158107.8802
 10
-598467.3594
 20
-1158109.916
  0
LWPOLYLINE
  5
2021B
100
AcDbEntity
  8
směr proudění podzemních vod
100
AcDbPolyline
 70
0
 90
2
 10
-598351.894
 20
-1157629.2255
 10
-598348.3649
 20
-1157681.0771
  0
LWPOLYLINE
  5
2021C
100
AcDbEntity
  8
směr proudění podzemních vod
100
AcDbPolyline
 70
0
 90
3
 10
-598347.281
 20
-1157654.6276
 10
-598348.3649
 20
-1157681.0771
 10
-598353.2898
 20
-1157655.1023
  0
LWPOLYLINE
  5
2021D
100
AcDbEntity
  8
směr proudění podzemních vod
100
AcDbPolyline
 70
0
 90
2
 10
-598295.1709
 20
-1157862.812
 10
-598291.6418
 20
-1157914.6636
  0
LWPOLYLINE
  5
2021E
100
AcDbEntity
  8
směr proudění podzemních vod
100
AcDbPolyline
 70
0
 90
3
 10
-598290.5579
 20
-1157888.2142
 10
-598291.6418
 20
-1157914.6636
 10
-598296.5667
 20
-1157888.6889
  0
LWPOLYLINE
  5
2021F
100
AcDbEntity
  8
směr proudění podzemních vod
100
AcDbPolyline
 70
0
 90
2
 10
-598044.5663
 20
-1157838.8913
 10
-598093.8527
 20
-1157855.3804
  0
LWPOLYLINE
  5
20220
100
AcDbEntity
  8
směr proudění podzemních vod
100
AcDbPolyline
 70
0
 90
3
 10
-598067.9846
 20
-1157849.7602
 10
-598093.8527
 20
-1157855.3804
 10
-598069.959
 20
-1157844.0653
  0
LWPOLYLINE
  5
20221
100
AcDbEntity
  8
směr proudění podzemních vod
100
AcDbPolyline
 70
0
 90
2
 10
-598708.1856
 20
-1157337.6346
 10
-598656.2607
 20
-1157339.8346
  0
LWPOLYLINE
  5
20222
100
AcDbEntity
  8
směr proudění podzemních vod
100
AcDbPolyline
 70
0
 90
3
 10
-598682.43
 20
-1157335.8458
 10
-598656.2607
 20
-1157339.8346
 10
-598682.6197
 20
-1157341.8703
  0
LWPOLYLINE
  5
20223
100
AcDbEntity
  8
směr proudění podzemních vod
100
AcDbPolyline
 70
0
 90
2
 10
-598355.2789
 20
-1157263.0593
 10
-598349.6345
 20
-1157314.7234
  0
LWPOLYLINE
  5
20224
100
AcDbEntity
  8
směr proudění podzemních vod
100
AcDbPolyline
 70
0
 90
3
 10
-598349.632
 20
-1157288.2518
 10
-598349.6345
 20
-1157314.7234
 10
-598355.6164
 20
-1157288.9715
  0
LWPOLYLINE
  5
20225
100
AcDbEntity
  8
směr proudění podzemních vod
100
AcDbPolyline
 70
0
 90
2
 10
-598123.8095
 20
-1157586.7843
 10
-598175.565
 20
-1157591.5176
  0
LWPOLYLINE
  5
20226
100
AcDbEntity
  8
směr proudění podzemních vod
100
AcDbPolyline
 70
0
 90
3
 10
-598149.0976
 20
-1157591.9864
 10
-598175.565
 20
-1157591.5176
 10
-598149.7118
 20
-1157585.9903
  0
LWPOLYLINE
  5
20227
100
AcDbEntity
  8
směr proudění podzemních vod
100
AcDbPolyline
 70
0
 90
2
 10
-596236.2604
 20
-1155542.8771
 10
-596208.7737
 20
-1155586.5902
  0
LWPOLYLINE
  5
20228
100
AcDbEntity
  8
směr proudění podzemních vod
100
AcDbPolyline
 70
0
 90
3
 10
-596222.3648
 20
-1155559.0274
 10
-596208.7737
 20
-1155586.5902
 10
-596227.8172
 20
-1155562.0243
  0
LWPOLYLINE
  5
20229
100
AcDbEntity
  8
směr proudění podzemních vod
100
AcDbPolyline
 70
0
 90
3
 10
-596010.7378
 20
-1156005.7683
 10
-595990.7996
 20
-1156029.1541
 10
-596015.2882
 20
-1156010.0114
  0
LWPOLYLINE
  5
2022A
100
AcDbEntity
  8
směr proudění podzemních vod
100
AcDbPolyline
 70
0
 90
2
 10
-596028.1711
 20
-1155993.521
 10
-595990.7996
 20
-1156029.1541
  0
LWPOLYLINE
  5
2022B
100
AcDbEntity
  8
směr proudění podzemních vod
100
AcDbPolyline
 70
0
 90
3
 10
-596206.2563
 20
-1156087.9167
 10
-596231.8658
 20
-1156104.9042
 10
-596209.9226
 20
-1156082.8899
  0
LWPOLYLINE
  5
2022C
100
AcDbEntity
  8
směr proudění podzemních vod
100
AcDbPolyline
 70
0
 90
2
 10
-596192.0053
 20
-1156072.0791
 10
-596231.8658
 20
-1156104.9042
  0
LWPOLYLINE
  5
2022D
100
AcDbEntity
  8
směr proudění podzemních vod
100
AcDbPolyline
 70
0
 90
3
 10
-596102.6218
 20
-1156298.8104
 10
-596116.0824
 20
-1156326.4372
 10
-596108.3306
 20
-1156296.3366
  0
LWPOLYLINE
  5
2022E
100
AcDbEntity
  8
směr proudění podzemních vod
100
AcDbPolyline
 70
0
 90
2
 10
-596098.3685
 20
-1156277.934
 10
-596116.0824
 20
-1156326.4372
  0
LWPOLYLINE
  5
2022F
100
AcDbEntity
  8
směr proudění podzemních vod
100
AcDbPolyline
 70
0
 90
2
 10
-596467.2299
 20
-1156196.4513
 10
-596518.1182
 20
-1156205.2104
  0
LWPOLYLINE
  5
20230
100
AcDbEntity
  8
směr proudění podzemních vod
100
AcDbPolyline
 70
0
 90
3
 10
-596487.4562
 20
-1156203.1457
 10
-596518.1182
 20
-1156205.2104
 10
-596488.1497
 20
-1156196.9627
  0
LWPOLYLINE
  5
20231
100
AcDbEntity
  8
směr proudění podzemních vod
100
AcDbPolyline
 70
0
 90
2
 10
-596533.0797
 20
-1156571.0346
 10
-596537.3686
 20
-1156622.4928
  0
LWPOLYLINE
  5
20232
100
AcDbEntity
  8
směr proudění podzemních vod
100
AcDbPolyline
 70
0
 90
3
 10
-596531.6742
 20
-1156592.2935
 10
-596537.3686
 20
-1156622.4928
 10
-596537.8334
 20
-1156591.4135
  0
LWPOLYLINE
  5
20233
100
AcDbEntity
  8
směr proudění podzemních vod
100
AcDbPolyline
 70
0
 90
2
 10
-596820.7244
 20
-1156462.4651
 10
-596864.9248
 20
-1156489.1611
  0
LWPOLYLINE
  5
20234
100
AcDbEntity
  8
směr proudění podzemních vod
100
AcDbPolyline
 70
0
 90
3
 10
-596837.122
 20
-1156476.068
 10
-596864.9248
 20
-1156489.1611
 10
-596840.0203
 20
-1156470.5626
  0
LWPOLYLINE
  5
20235
100
AcDbEntity
  8
směr proudění podzemních vod
100
AcDbPolyline
 70
0
 90
2
 10
-596087.79
 20
-1156840.505
 10
-596062.0638
 20
-1156885.2768
  0
LWPOLYLINE
  5
20236
100
AcDbEntity
  8
směr proudění podzemních vod
100
AcDbPolyline
 70
0
 90
3
 10
-596074.5478
 20
-1156857.1952
 10
-596062.0638
 20
-1156885.2768
 10
-596080.1151
 20
-1156859.9729
  0
LWPOLYLINE
  5
20237
100
AcDbEntity
  8
směr proudění podzemních vod
100
AcDbPolyline
 70
0
 90
2
 10
-596298.0007
 20
-1156959.2615
 10
-596307.8688
 20
-1157009.9465
  0
LWPOLYLINE
  5
20238
100
AcDbEntity
  8
směr proudění podzemních vod
100
AcDbPolyline
 70
0
 90
3
 10
-596298.919
 20
-1156980.5471
 10
-596307.8688
 20
-1157009.9465
 10
-596304.9458
 20
-1156979.0015
  0
LWPOLYLINE
  5
20239
100
AcDbEntity
  8
směr proudění podzemních vod
100
AcDbPolyline
 70
0
 90
2
 10
-596349.2523
 20
-1157331.4664
 10
-596383.0626
 20
-1157370.4947
  0
LWPOLYLINE
  5
2023A
100
AcDbEntity
  8
směr proudění podzemních vod
100
AcDbPolyline
 70
0
 90
3
 10
-596360.6543
 20
-1157349.464
 10
-596383.0626
 20
-1157370.4947
 10
-596365.1095
 20
-1157345.121
  0
LWPOLYLINE
  5
2023B
100
AcDbEntity
  8
směr proudění podzemních vod
100
AcDbPolyline
 70
0
 90
2
 10
-596466.7082
 20
-1157601.1254
 10
-596492.2108
 20
-1157646.0249
  0
LWPOLYLINE
  5
2023C
100
AcDbEntity
  8
směr proudění podzemních vod
100
AcDbPolyline
 70
0
 90
3
 10
-596474.3605
 20
-1157621.0091
 10
-596492.2108
 20
-1157646.0249
 10
-596479.5807
 20
-1157617.6239
  0
LWPOLYLINE
  5
2023D
100
AcDbEntity
  8
směr proudění podzemních vod
100
AcDbPolyline
 70
0
 90
2
 10
-596669.0761
 20
-1157953.4372
 10
-596694.5788
 20
-1157998.3367
  0
LWPOLYLINE
  5
2023E
100
AcDbEntity
  8
směr proudění podzemních vod
100
AcDbPolyline
 70
0
 90
3
 10
-596676.7284
 20
-1157973.3209
 10
-596694.5788
 20
-1157998.3367
 10
-596681.9486
 20
-1157969.9357
  0
LWPOLYLINE
  5
2023F
100
AcDbEntity
  8
směr proudění podzemních vod
100
AcDbPolyline
 70
0
 90
2
 10
-596098.8031
 20
-1157170.2689
 10
-596088.6832
 20
-1157220.9042
  0
LWPOLYLINE
  5
20240
100
AcDbEntity
  8
směr proudění podzemních vod
100
AcDbPolyline
 70
0
 90
3
 10
-596091.569
 20
-1157190.3085
 10
-596088.6832
 20
-1157220.9042
 10
-596097.7312
 20
-1157191.1675
  0
LWPOLYLINE
  5
20241
100
AcDbEntity
  8
směr proudění podzemních vod
100
AcDbPolyline
 70
0
 90
2
 10
-595984.8894
 20
-1157615.1814
 10
-595939.2745
 20
-1157639.3812
  0
LWPOLYLINE
  5
20242
100
AcDbEntity
  8
směr proudění podzemních vod
100
AcDbPolyline
 70
0
 90
3
 10
-595964.7937
 20
-1157622.2583
 10
-595939.2745
 20
-1157639.3812
 10
-595968.0272
 20
-1157627.5737
  0
LWPOLYLINE
  5
20243
100
AcDbEntity
  8
směr proudění podzemních vod
100
AcDbPolyline
 70
0
 90
2
 10
-596757.9378
 20
-1156977.1292
 10
-596777.38
 20
-1157024.9659
  0
LWPOLYLINE
  5
20244
100
AcDbEntity
  8
směr proudění podzemních vod
100
AcDbPolyline
 70
0
 90
3
 10
-596762.9372
 20
-1156997.8397
 10
-596777.38
 20
-1157024.9659
 10
-596768.5536
 20
-1156995.1626
  0
LWPOLYLINE
  5
20245
100
AcDbEntity
  8
směr proudění podzemních vod
100
AcDbPolyline
 70
0
 90
2
 10
-596894.1127
 20
-1157235.1923
 10
-596902.5711
 20
-1157286.1315
  0
LWPOLYLINE
  5
20246
100
AcDbEntity
  8
směr proudění podzemních vod
100
AcDbPolyline
 70
0
 90
3
 10
-596894.4403
 20
-1157256.4951
 10
-596902.5711
 20
-1157286.1315
 10
-596900.5075
 20
-1157255.1173
  0
LWPOLYLINE
  5
20247
100
AcDbEntity
  8
směr proudění podzemních vod
100
AcDbPolyline
 70
0
 90
2
 10
-596971.6177
 20
-1157478.8838
 10
-596984.5041
 20
-1157528.8866
  0
LWPOLYLINE
  5
20248
100
AcDbEntity
  8
směr proudění podzemních vod
100
AcDbPolyline
 70
0
 90
3
 10
-596973.8094
 20
-1157500.0761
 10
-596984.5041
 20
-1157528.8866
 10
-596979.7327
 20
-1157498.1723
  0
LWPOLYLINE
  5
20249
100
AcDbEntity
  8
směr proudění podzemních vod
100
AcDbPolyline
 70
0
 90
2
 10
-597060.5906
 20
-1157732.4441
 10
-597079.4758
 20
-1157780.5034
  0
LWPOLYLINE
  5
2024A
100
AcDbEntity
  8
směr proudění podzemních vod
100
AcDbPolyline
 70
0
 90
3
 10
-597065.349
 20
-1157753.2112
 10
-597079.4758
 20
-1157780.5034
 10
-597070.9961
 20
-1157750.5996
  0
LWPOLYLINE
  5
2024B
100
AcDbEntity
  8
směr proudění podzemních vod
100
AcDbPolyline
 70
0
 90
2
 10
-597094.1877
 20
-1156760.5838
 10
-597107.0741
 20
-1156810.5866
  0
LWPOLYLINE
  5
2024C
100
AcDbEntity
  8
směr proudění podzemních vod
100
AcDbPolyline
 70
0
 90
3
 10
-597096.3794
 20
-1156781.7761
 10
-597107.0741
 20
-1156810.5866
 10
-597102.3027
 20
-1156779.8723
  0
LWPOLYLINE
  5
2024D
100
AcDbEntity
  8
směr proudění podzemních vod
100
AcDbPolyline
 70
0
 90
2
 10
-596245.2159
 20
-1156560.8474
 10
-596227.2391
 20
-1156609.2538
  0
LWPOLYLINE
  5
2024E
100
AcDbEntity
  8
směr proudění podzemních vod
100
AcDbPolyline
 70
0
 90
3
 10
-596234.9127
 20
-1156579.4958
 10
-596227.2391
 20
-1156609.2538
 10
-596240.8624
 20
-1156581.3156
  0
LWPOLYLINE
  5
2024F
100
AcDbEntity
  8
směr proudění podzemních vod
100
AcDbPolyline
 70
0
 90
2
 10
-595913.5263
 20
-1156198.6404
 10
-595862.4339
 20
-1156206.1183
  0
LWPOLYLINE
  5
20250
100
AcDbEntity
  8
směr proudění podzemních vod
100
AcDbPolyline
 70
0
 90
3
 10
-595892.2211
 20
-1156198.5585
 10
-595862.4339
 20
-1156206.1183
 10
-595893.4821
 20
-1156204.6511
  0
LWPOLYLINE
  5
20251
100
AcDbEntity
  8
směr proudění podzemních vod
100
AcDbPolyline
 70
0
 90
2
 10
-597244.8473
 20
-1157056.9796
 10
-597269.4094
 20
-1157102.4004
  0
LWPOLYLINE
  5
20252
100
AcDbEntity
  8
směr proudění podzemních vod
100
AcDbPolyline
 70
0
 90
3
 10
-597252.0839
 20
-1157077.0183
 10
-597269.4094
 20
-1157102.4004
 10
-597257.3734
 20
-1157073.7426
  0
LWPOLYLINE
  5
20253
100
AcDbEntity
  8
směr proudění podzemních vod
100
AcDbPolyline
 70
0
 90
2
 10
-597474.4763
 20
-1157357.3598
 10
-597464.2325
 20
-1157407.9702
  0
LWPOLYLINE
  5
20254
100
AcDbEntity
  8
směr proudění podzemních vod
100
AcDbPolyline
 70
0
 90
3
 10
-597467.1932
 20
-1157377.3817
 10
-597464.2325
 20
-1157407.9702
 10
-597473.3532
 20
-1157378.2557
  0
LWPOLYLINE
  5
20255
100
AcDbEntity
  8
směr proudění podzemních vod
100
AcDbPolyline
 70
0
 90
2
 10
-593110.0071
 20
-1160746.9302
 10
-593155.3047
 20
-1160771.6735
  0
LWPOLYLINE
  5
20256
100
AcDbEntity
  8
směr proudění podzemních vod
100
AcDbPolyline
 70
0
 90
3
 10
-593135.7376
 20
-1160758.0064
 10
-593155.3047
 20
-1160771.6735
 10
-593133.0964
 20
-1160762.4316
  0
LWPOLYLINE
  5
20257
100
AcDbEntity
  8
směr proudění podzemních vod
100
AcDbPolyline
 70
0
 90
2
 10
-593497.6212
 20
-1160953.2583
 10
-593542.9188
 20
-1160978.0017
  0
LWPOLYLINE
  5
20258
100
AcDbEntity
  8
směr proudění podzemních vod
100
AcDbPolyline
 70
0
 90
3
 10
-593523.3516
 20
-1160964.3346
 10
-593542.9188
 20
-1160978.0017
 10
-593520.7105
 20
-1160968.7598
  0
LWPOLYLINE
  5
20259
100
AcDbEntity
  8
směr proudění podzemních vod
100
AcDbPolyline
 70
0
 90
2
 10
-593432.5765
 20
-1161240.8984
 10
-593477.8741
 20
-1161265.6417
  0
LWPOLYLINE
  5
2025A
100
AcDbEntity
  8
směr proudění podzemních vod
100
AcDbPolyline
 70
0
 90
3
 10
-593458.3069
 20
-1161251.9746
 10
-593477.8741
 20
-1161265.6417
 10
-593455.6657
 20
-1161256.3998
  0
LWPOLYLINE
  5
2025B
100
AcDbEntity
  8
směr proudění podzemních vod
100
AcDbPolyline
 70
0
 90
2
 10
-592964.3346
 20
-1161112.6129
 10
-593009.6322
 20
-1161137.3562
  0
LWPOLYLINE
  5
2025C
100
AcDbEntity
  8
směr proudění podzemních vod
100
AcDbPolyline
 70
0
 90
3
 10
-592990.0651
 20
-1161123.6891
 10
-593009.6322
 20
-1161137.3562
 10
-592987.4239
 20
-1161128.1143
  0
LWPOLYLINE
  5
2025D
100
AcDbEntity
  8
směr proudění podzemních vod
100
AcDbPolyline
 70
0
 90
2
 10
-593370.3885
 20
-1161535.7176
 10
-593421.753
 20
-1161540.7954
  0
LWPOLYLINE
  5
2025E
100
AcDbEntity
  8
směr proudění podzemních vod
100
AcDbPolyline
 70
0
 90
3
 10
-593398.4013
 20
-1161535.86
 10
-593421.753
 20
-1161540.7954
 10
-593397.6991
 20
-1161540.9654
  0
LWPOLYLINE
  5
2025F
100
AcDbEntity
  8
směr proudění podzemních vod
100
AcDbPolyline
 70
0
 90
2
 10
-592789.538
 20
-1161677.8764
 10
-592819.172
 20
-1161635.6161
  0
LWPOLYLINE
  5
20260
100
AcDbEntity
  8
směr proudění podzemních vod
100
AcDbPolyline
 70
0
 90
3
 10
-592803.4108
 20
-1161653.5395
 10
-592819.172
 20
-1161635.6161
 10
-592807.5143
 20
-1161656.6571
  0
LWPOLYLINE
  5
20261
100
AcDbEntity
  8
směr proudění podzemních vod
100
AcDbPolyline
 70
0
 90
2
 10
-592963.0355
 20
-1161368.4344
 10
-593011.336
 20
-1161350.2364
  0
LWPOLYLINE
  5
20262
100
AcDbEntity
  8
směr proudění podzemních vod
100
AcDbPolyline
 70
0
 90
3
 10
-592988.2137
 20
-1161356.1545
 10
-593011.336
 20
-1161350.2364
 10
-592989.8455
 20
-1161361.0429
  0
LWPOLYLINE
  5
20263
100
AcDbEntity
  8
směr proudění podzemních vod
100
AcDbPolyline
 70
0
 90
2
 10
-593688.2752
 20
-1161642.2045
 10
-593733.8303
 20
-1161666.4704
  0
LWPOLYLINE
  5
20264
100
AcDbEntity
  8
směr proudění podzemních vod
100
AcDbPolyline
 70
0
 90
3
 10
-593714.1206
 20
-1161653.0097
 10
-593733.8303
 20
-1161666.4704
 10
-593711.5261
 20
-1161657.4624
  0
LWPOLYLINE
  5
20265
100
AcDbEntity
  8
směr proudění podzemních vod
100
AcDbPolyline
 70
0
 90
2
 10
-592508.2867
 20
-1161304.0194
 10
-592557.099
 20
-1161320.796
  0
LWPOLYLINE
  5
20266
100
AcDbEntity
  8
směr proudění podzemních vod
100
AcDbPolyline
 70
0
 90
3
 10
-592535.5129
 20
-1161310.6127
 10
-592557.099
 20
-1161320.796
 10
-592533.6532
 20
-1161315.4189
  0
LWPOLYLINE
  5
20267
100
AcDbEntity
  8
směr proudění podzemních vod
100
AcDbPolyline
 70
0
 90
2
 10
-592201.2447
 20
-1160772.1194
 10
-592246.4952
 20
-1160796.9488
  0
LWPOLYLINE
  5
20268
100
AcDbEntity
  8
směr proudění podzemních vod
100
AcDbPolyline
 70
0
 90
3
 10
-592226.9541
 20
-1160783.2445
 10
-592246.4952
 20
-1160796.9488
 10
-592224.3045
 20
-1160787.6647
  0
LWPOLYLINE
  5
20269
100
AcDbEntity
  8
směr proudění podzemních vod
100
AcDbPolyline
 70
0
 90
3
 10
-592479.656
 20
-1161567.8492
 10
-592503.5232
 20
-1161567.7158
 10
-592480.0534
 20
-1161572.9873
  0
LWPOLYLINE
  5
2026A
100
AcDbEntity
  8
směr proudění podzemních vod
100
AcDbPolyline
 70
0
 90
2
 10
-592452.2512
 20
-1161573.6558
 10
-592503.5232
 20
-1161567.7158
  0
LWPOLYLINE
  5
2026B
100
AcDbEntity
  8
směr proudění podzemních vod
100
AcDbPolyline
 70
0
 90
2
 10
-591840.416
 20
-1161573.0517
 10
-591892.0042
 20
-1161574.7148
  0
LWPOLYLINE
  5
2026C
100
AcDbEntity
  8
směr proudění podzemních vod
100
AcDbPolyline
 70
0
 90
3
 10
-591868.3767
 20
-1161571.3376
 10
-591892.0042
 20
-1161574.7148
 10
-591868.0143
 20
-1161576.4783
  0
LWPOLYLINE
  5
2026D
100
AcDbEntity
  8
směr proudění podzemních vod
100
AcDbPolyline
 70
0
 90
2
 10
-592004.9227
 20
-1161110.4714
 10
-592050.7211
 20
-1161134.275
  0
LWPOLYLINE
  5
2026E
100
AcDbEntity
  8
směr proudění podzemních vod
100
AcDbPolyline
 70
0
 90
3
 10
-592030.8761
 20
-1161121.0145
 10
-592050.7211
 20
-1161134.275
 10
-592028.3268
 20
-1161125.4932
  0
LWPOLYLINE
  5
2026F
100
AcDbEntity
  8
směr proudění podzemních vod
100
AcDbPolyline
 70
0
 90
2
 10
-592588.866
 20
-1160954.0407
 10
-592637.6783
 20
-1160970.8173
  0
LWPOLYLINE
  5
20270
100
AcDbEntity
  8
směr proudění podzemních vod
100
AcDbPolyline
 70
0
 90
3
 10
-592616.0922
 20
-1160960.634
 10
-592637.6783
 20
-1160970.8173
 10
-592614.2325
 20
-1160965.4402
  0
LWPOLYLINE
  5
20271
100
AcDbEntity
  8
směr proudění podzemních vod
100
AcDbPolyline
 70
0
 90
2
 10
-592807.3456
 20
-1161885.2477
 10
-592786.4952
 20
-1161838.0315
  0
LWPOLYLINE
  5
20272
100
AcDbEntity
  8
směr proudění podzemních vod
100
AcDbPolyline
 70
0
 90
3
 10
-592793.6874
 20
-1161860.7897
 10
-592786.4952
 20
-1161838.0315
 10
-592798.4776
 20
-1161858.8892
  0
LWPOLYLINE
  5
20273
100
AcDbEntity
  8
směr proudění podzemních vod
100
AcDbPolyline
 70
0
 90
2
 10
-592470.0608
 20
-1161969.9755
 10
-592490.7866
 20
-1161922.7046
  0
LWPOLYLINE
  5
20274
100
AcDbEntity
  8
směr proudění podzemních vod
100
AcDbPolyline
 70
0
 90
3
 10
-592478.8662
 20
-1161943.3822
 10
-592490.7866
 20
-1161922.7046
 10
-592483.5035
 20
-1161945.6301
  0
LWPOLYLINE
  5
20275
100
AcDbEntity
  8
směr proudění podzemních vod
100
AcDbPolyline
 70
0
 90
2
 10
-591963.0043
 20
-1162360.1039
 10
-591990.4034
 20
-1162403.8463
  0
LWPOLYLINE
  5
20276
100
AcDbEntity
  8
směr proudění podzemních vod
100
AcDbPolyline
 70
0
 90
3
 10
-591980.0253
 20
-1162382.3531
 10
-591990.4034
 20
-1162403.8463
 10
-591975.5567
 20
-1162384.9202
  0
LWPOLYLINE
  5
20277
100
AcDbEntity
  8
směr proudění podzemních vod
100
AcDbPolyline
 70
0
 90
2
 10
-591606.1588
 20
-1161819.896
 10
-591623.9064
 20
-1161868.3638
  0
LWPOLYLINE
  5
20278
100
AcDbEntity
  8
směr proudění podzemních vod
100
AcDbPolyline
 70
0
 90
3
 10
-591618.2037
 20
-1161845.1875
 10
-591623.9064
 20
-1161868.3638
 10
-591613.3004
 20
-1161846.7736
  0
LWPOLYLINE
  5
20279
100
AcDbEntity
  8
směr proudění podzemních vod
100
AcDbPolyline
 70
0
 90
2
 10
-591322.7396
 20
-1161450.2577
 10
-591370.4442
 20
-1161469.965
  0
LWPOLYLINE
  5
2027A
100
AcDbEntity
  8
směr proudění podzemních vod
100
AcDbPolyline
 70
0
 90
3
 10
-591349.5157
 20
-1161458.4907
 10
-591370.4442
 20
-1161469.965
 10
-591347.3678
 20
-1161463.1752
  0
LWPOLYLINE
  5
2027B
100
AcDbEntity
  8
směr proudění podzemních vod
100
AcDbPolyline
 70
0
 90
2
 10
-591708.8283
 20
-1160879.2665
 10
-591750.2958
 20
-1160910
  0
LWPOLYLINE
  5
2027C
100
AcDbEntity
  8
směr proudění podzemních vod
100
AcDbPolyline
 70
0
 90
3
 10
-591732.7925
 20
-1160893.7736
 10
-591750.2958
 20
-1160910
 10
-591729.5683
 20
-1160897.7938
  0
LWPOLYLINE
  5
2027D
100
AcDbEntity
  8
směr proudění podzemních vod
100
AcDbPolyline
 70
0
 90
2
 10
-591847.2571
 20
-1160619.3796
 10
-591892.5076
 20
-1160644.2089
  0
LWPOLYLINE
  5
2027E
100
AcDbEntity
  8
směr proudění podzemních vod
100
AcDbPolyline
 70
0
 90
3
 10
-591872.9664
 20
-1160630.5047
 10
-591892.5076
 20
-1160644.2089
 10
-591870.3169
 20
-1160634.9248
  0
LWPOLYLINE
  5
2027F
100
AcDbEntity
  8
směr proudění podzemních vod
100
AcDbPolyline
 70
0
 90
3
 10
-592750.8813
 20
-1160559.5649
 10
-592770.4484
 20
-1160573.232
 10
-592748.2401
 20
-1160563.9901
  0
LWPOLYLINE
  5
20280
100
AcDbEntity
  8
směr proudění podzemních vod
100
AcDbPolyline
 70
0
 90
2
 10
-592378.7801
 20
-1160378.5105
 10
-592424.0777
 20
-1160403.2538
  0
LWPOLYLINE
  5
20281
100
AcDbEntity
  8
směr proudění podzemních vod
100
AcDbPolyline
 70
0
 90
3
 10
-592404.5106
 20
-1160389.5867
 10
-592424.0777
 20
-1160403.2538
 10
-592401.8694
 20
-1160394.0119
  0
LWPOLYLINE
  5
20282
100
AcDbEntity
  8
směr proudění podzemních vod
100
AcDbPolyline
 70
0
 90
2
 10
-592029.2023
 20
-1160118.7324
 10
-592074.4999
 20
-1160143.4757
  0
LWPOLYLINE
  5
20283
100
AcDbEntity
  8
směr proudění podzemních vod
100
AcDbPolyline
 70
0
 90
3
 10
-592054.9327
 20
-1160129.8087
 10
-592074.4999
 20
-1160143.4757
 10
-592052.2916
 20
-1160134.2339
  0
LWPOLYLINE
  5
20284
100
AcDbEntity
  8
směr proudění podzemních vod
100
AcDbPolyline
 70
0
 90
2
 10
-593623.1489
 20
-1160307.9535
 10
-593668.4465
 20
-1160332.6968
  0
LWPOLYLINE
  5
20285
100
AcDbEntity
  8
směr proudění podzemních vod
100
AcDbPolyline
 70
0
 90
3
 10
-593648.8793
 20
-1160319.0297
 10
-593668.4465
 20
-1160332.6968
 10
-593646.2382
 20
-1160323.4549
  0
LWPOLYLINE
  5
20286
100
AcDbEntity
  8
směr proudění podzemních vod
100
AcDbPolyline
 70
0
 90
2
 10
-593084.3501
 20
-1160047.3737
 10
-593129.6476
 20
-1160072.117
  0
LWPOLYLINE
  5
20287
100
AcDbEntity
  8
směr proudění podzemních vod
100
AcDbPolyline
 70
0
 90
3
 10
-593110.0805
 20
-1160058.4499
 10
-593129.6476
 20
-1160072.117
 10
-593107.4393
 20
-1160062.8751
  0
LWPOLYLINE
  5
20288
100
AcDbEntity
  8
směr proudění podzemních vod
100
AcDbPolyline
 70
0
 90
2
 10
-592904.7504
 20
-1159474.0981
 10
-592950.048
 20
-1159498.8414
  0
LWPOLYLINE
  5
20289
100
AcDbEntity
  8
směr proudění podzemních vod
100
AcDbPolyline
 70
0
 90
3
 10
-592930.4809
 20
-1159485.1743
 10
-592950.048
 20
-1159498.8414
 10
-592927.8397
 20
-1159489.5995
  0
LWPOLYLINE
  5
2028A
100
AcDbEntity
  8
směr proudění podzemních vod
100
AcDbPolyline
 70
0
 90
2
 10
-592666.6206
 20
-1159806.0367
 10
-592711.9182
 20
-1159830.78
  0
LWPOLYLINE
  5
2028B
100
AcDbEntity
  8
směr proudění podzemních vod
100
AcDbPolyline
 70
0
 90
3
 10
-592692.351
 20
-1159817.1129
 10
-592711.9182
 20
-1159830.78
 10
-592689.7099
 20
-1159821.5381
  0
LWPOLYLINE
  5
2028C
100
AcDbEntity
  8
směr proudění podzemních vod
100
AcDbPolyline
 70
0
 90
2
 10
-592420.4729
 20
-1159179.0416
 10
-592465.7705
 20
-1159203.7849
  0
LWPOLYLINE
  5
2028D
100
AcDbEntity
  8
směr proudění podzemních vod
100
AcDbPolyline
 70
0
 90
3
 10
-592446.2033
 20
-1159190.1178
 10
-592465.7705
 20
-1159203.7849
 10
-592443.5622
 20
-1159194.543
  0
LWPOLYLINE
  5
2028E
100
AcDbEntity
  8
směr proudění podzemních vod
100
AcDbPolyline
 70
0
 90
2
 10
-592219.626
 20
-1159559.0872
 10
-592264.9236
 20
-1159583.8305
  0
LWPOLYLINE
  5
2028F
100
AcDbEntity
  8
směr proudění podzemních vod
100
AcDbPolyline
 70
0
 90
3
 10
-592245.3564
 20
-1159570.1634
 10
-592264.9236
 20
-1159583.8305
 10
-592242.7153
 20
-1159574.5886
  0
LWPOLYLINE
  5
20290
100
AcDbEntity
  8
směr proudění podzemních vod
100
AcDbPolyline
 70
0
 90
2
 10
-595273.8453
 20
-1159176.3038
 10
-595314.891
 20
-1159208.1509
  0
LWPOLYLINE
  5
20291
100
AcDbEntity
  8
směr proudění podzemních vod
100
AcDbPolyline
 70
0
 90
3
 10
-595289.773
 20
-1159192.0597
 10
-595314.891
 20
-1159208.1509
 10
-595293.4673
 20
-1159187.8608
  0
LWPOLYLINE
  5
20292
100
AcDbEntity
  8
směr proudění podzemních vod
100
AcDbPolyline
 70
0
 90
2
 10
-594849.5491
 20
-1158977.4775
 10
-594899.1148
 20
-1158993.0411
  0
LWPOLYLINE
  5
20293
100
AcDbEntity
  8
směr proudění podzemních vod
100
AcDbPolyline
 70
0
 90
3
 10
-594869.966
 20
-1158986.7021
 10
-594899.1148
 20
-1158993.0411
 10
-594871.9671
 20
-1158981.4796
  0
LWPOLYLINE
  5
20294
100
AcDbEntity
  8
směr proudění podzemních vod
100
AcDbPolyline
 70
0
 90
2
 10
-594287.4498
 20
-1159183.0862
 10
-594338.1475
 20
-1159194.4319
  0
LWPOLYLINE
  5
20295
100
AcDbEntity
  8
směr proudění podzemních vod
100
AcDbPolyline
 70
0
 90
3
 10
-594308.5693
 20
-1159190.5634
 10
-594338.1475
 20
-1159194.4319
 10
-594310.1247
 20
-1159185.1914
  0
LWPOLYLINE
  5
20296
100
AcDbEntity
  8
směr proudění podzemních vod
100
AcDbPolyline
 70
0
 90
2
 10
-594883.6103
 20
-1158038.3605
 10
-594925.4407
 20
-1158007.5513
  0
LWPOLYLINE
  5
20297
100
AcDbEntity
  8
směr proudění podzemních vod
100
AcDbPolyline
 70
0
 90
3
 10
-594903.1116
 20
-1158027.3313
 10
-594925.4407
 20
-1158007.5513
 10
-594900.0788
 20
-1158022.6323
  0
LWPOLYLINE
  5
20298
100
AcDbEntity
  8
směr proudění podzemních vod
100
AcDbPolyline
 70
0
 90
2
 10
-593846.5392
 20
-1158282.4517
 10
-593898.1624
 20
-1158276.6174
  0
LWPOLYLINE
  5
20299
100
AcDbEntity
  8
směr proudění podzemních vod
100
AcDbPolyline
 70
0
 90
3
 10
-593868.9427
 20
-1158282.6213
 10
-593898.1624
 20
-1158276.6174
 10
-593868.6583
 20
-1158277.0358
  0
LWPOLYLINE
  5
2029A
100
AcDbEntity
  8
směr proudění podzemních vod
100
AcDbPolyline
 70
0
 90
2
 10
-593697.2658
 20
-1159040.3591
 10
-593746.6367
 20
-1159056.5303
  0
LWPOLYLINE
  5
2029B
100
AcDbEntity
  8
směr proudění podzemních vod
100
AcDbPolyline
 70
0
 90
3
 10
-593717.5679
 20
-1159049.8338
 10
-593746.6367
 20
-1159056.5303
 10
-593719.633
 20
-1159044.6363
  0
LWPOLYLINE
  5
2029C
100
AcDbEntity
  8
směr proudění podzemních vod
100
AcDbPolyline
 70
0
 90
2
 10
-595323.7698
 20
-1157739.8994
 10
-595369.3252
 20
-1157714.9255
  0
LWPOLYLINE
  5
2029D
100
AcDbEntity
  8
směr proudění podzemních vod
100
AcDbPolyline
 70
0
 90
3
 10
-595344.5644
 20
-1157731.561
 10
-595369.3252
 20
-1157714.9255
 10
-595342.1833
 20
-1157726.5005
  0
LWPOLYLINE
  5
2029E
100
AcDbEntity
  8
směr proudění podzemních vod
100
AcDbPolyline
 70
0
 90
2
 10
-594456.8997
 20
-1157649.9407
 10
-594457.9677
 20
-1157597.9999
  0
LWPOLYLINE
  5
2029F
100
AcDbEntity
  8
směr proudění podzemních vod
100
AcDbPolyline
 70
0
 90
3
 10
-594460.0408
 20
-1157627.7579
 10
-594457.9677
 20
-1157597.9999
 10
-594454.467
 20
-1157627.2985
  0
LWPOLYLINE
  5
202A0
100
AcDbEntity
  8
směr proudění podzemních vod
100
AcDbPolyline
 70
0
 90
2
 10
-594295.9485
 20
-1158022.34
 10
-594320.4371
 20
-1157976.5219
  0
LWPOLYLINE
  5
202A1
100
AcDbEntity
  8
směr proudění podzemních vod
100
AcDbPolyline
 70
0
 90
3
 10
-594308.8005
 20
-1158003.9887
 10
-594320.4371
 20
-1157976.5219
 10
-594304.04
 20
-1158001.0535
  0
LWPOLYLINE
  5
202A2
100
AcDbEntity
  8
směr proudění podzemních vod
100
AcDbPolyline
 70
0
 90
3
 10
-594374.063
 20
-1158841.4284
 10
-594402.7451
 20
-1158849.6244
 10
-594376.3951
 20
-1158836.3451
  0
LWPOLYLINE
  5
202A3
100
AcDbEntity
  8
směr proudění podzemních vod
100
AcDbPolyline
 70
0
 90
2
 10
-594354.28
 20
-1158830.913
 10
-594402.7451
 20
-1158849.6244
  0
LWPOLYLINE
  5
202A4
100
AcDbEntity
  8
směr proudění podzemních vod
100
AcDbPolyline
 70
0
 90
3
 10
-593826.2041
 20
-1158587.343
 10
-593851.5273
 20
-1158603.1092
 10
-593829.8439
 20
-1158583.0968
  0
LWPOLYLINE
  5
202A5
100
AcDbEntity
  8
směr proudění podzemních vod
100
AcDbPolyline
 70
0
 90
2
 10
-593810.0746
 20
-1158571.7936
 10
-593851.5273
 20
-1158603.1092
  0
LWPOLYLINE
  5
202A6
100
AcDbEntity
  8
směr proudění podzemních vod
100
AcDbPolyline
 70
0
 90
2
 10
-594377.4194
 20
-1158335.1857
 10
-594427.0389
 20
-1158350.5772
  0
LWPOLYLINE
  5
202A7
100
AcDbEntity
  8
směr proudění podzemních vod
100
AcDbPolyline
 70
0
 90
3
 10
-594397.8682
 20
-1158344.3393
 10
-594427.0389
 20
-1158350.5772
 10
-594399.8512
 20
-1158339.11
  0
LWPOLYLINE
  5
202A8
100
AcDbEntity
  8
směr proudění podzemních vod
100
AcDbPolyline
 70
0
 90
2
 10
-594946.5203
 20
-1158473.6842
 10
-594996.1397
 20
-1158489.0758
  0
LWPOLYLINE
  5
202A9
100
AcDbEntity
  8
směr proudění podzemních vod
100
AcDbPolyline
 70
0
 90
3
 10
-594966.9691
 20
-1158482.8379
 10
-594996.1397
 20
-1158489.0758
 10
-594968.9521
 20
-1158477.6085
  0
LWPOLYLINE
  5
202AA
100
AcDbEntity
  8
směr proudění podzemních vod
100
AcDbPolyline
 70
0
 90
2
 10
-595350.9903
 20
-1158563.2242
 10
-595400.6097
 20
-1158578.6158
  0
LWPOLYLINE
  5
202AB
100
AcDbEntity
  8
směr proudění podzemních vod
100
AcDbPolyline
 70
0
 90
3
 10
-595371.4391
 20
-1158572.3779
 10
-595400.6097
 20
-1158578.6158
 10
-595373.4221
 20
-1158567.1485
  0
LWPOLYLINE
  5
202AC
100
AcDbEntity
  8
směr proudění podzemních vod
100
AcDbPolyline
 70
0
 90
2
 10
-593032.18
 20
-1158804.1138
 10
-593081.5509
 20
-1158820.285
  0
LWPOLYLINE
  5
202AD
100
AcDbEntity
  8
směr proudění podzemních vod
100
AcDbPolyline
 70
0
 90
3
 10
-593052.4821
 20
-1158813.5885
 10
-593081.5509
 20
-1158820.285
 10
-593054.5472
 20
-1158808.391
  0
LWPOLYLINE
  5
202AE
100
AcDbEntity
  8
směr proudění podzemních vod
100
AcDbPolyline
 70
0
 90
3
 10
-595309.3783
 20
-1158152.5427
 10
-595338.6868
 20
-1158146.9887
 10
-595309.1798
 20
-1158146.9535
  0
LWPOLYLINE
  5
202AF
100
AcDbEntity
  8
směr proudění podzemních vod
100
AcDbPolyline
 70
0
 90
2
 10
-595286.9801
 20
-1158152.0288
 10
-595338.6868
 20
-1158146.9887
  0
LWPOLYLINE
  5
202B0
100
AcDbEntity
  8
směr proudění podzemních vod
100
AcDbPolyline
 70
0
 90
2
 10
-594955.4489
 20
-1157634.6028
 10
-594956.5168
 20
-1157582.662
  0
LWPOLYLINE
  5
202B1
100
AcDbEntity
  8
směr proudění podzemních vod
100
AcDbPolyline
 70
0
 90
3
 10
-594958.59
 20
-1157612.42
 10
-594956.5168
 20
-1157582.662
 10
-594953.0162
 20
-1157611.9606
  0
LWPOLYLINE
  5
202B2
100
AcDbEntity
  8
směr proudění podzemních vod
100
AcDbPolyline
 70
0
 90
3
 10
-600052.5298
 20
-1156259.46
 10
-600026.059
 20
-1156259.6754
 10
-600051.8582
 20
-1156265.45
  0
LWPOLYLINE
  5
202B3
100
AcDbEntity
  8
směr proudění podzemních vod
100
AcDbPolyline
 70
0
 90
2
 10
-600077.7669
 20
-1156264.9041
 10
-600026.059
 20
-1156259.6754
  0
LWPOLYLINE
  5
202B4
100
AcDbEntity
  8
směr proudění podzemních vod
100
AcDbPolyline
 70
0
 90
2
 10
-599872.0141
 20
-1156231.125
 10
-599821.0617
 20
-1156220.883
  0
LWPOLYLINE
  5
202B5
100
AcDbEntity
  8
směr proudění podzemních vod
100
AcDbPolyline
 70
0
 90
3
 10
-599847.4275
 20
-1156223.2478
 10
-599821.0617
 20
-1156220.883
 10
-599846.1755
 20
-1156229.1438
  0
LWPOLYLINE
  5
202B6
100
AcDbEntity
  8
směr proudění podzemních vod
100
AcDbPolyline
 70
0
 90
2
 10
-599518.4296
 20
-1156140.3157
 10
-599467.2577
 20
-1156131.234
  0
LWPOLYLINE
  5
202B7
100
AcDbEntity
  8
směr proudění podzemních vod
100
AcDbPolyline
 70
0
 90
3
 10
-599493.6704
 20
-1156132.9992
 10
-599467.2577
 20
-1156131.234
 10
-599492.5527
 20
-1156138.9221
  0
LWPOLYLINE
  5
202B8
100
AcDbEntity
  8
směr proudění podzemních vod
100
AcDbPolyline
 70
0
 90
2
 10
-599284.5262
 20
-1156090.5337
 10
-599237.6281
 20
-1156112.9302
  0
LWPOLYLINE
  5
202B9
100
AcDbEntity
  8
směr proudění podzemních vod
100
AcDbPolyline
 70
0
 90
3
 10
-599260.1341
 20
-1156098.9936
 10
-599237.6281
 20
-1156112.9302
 10
-599262.6722
 20
-1156104.4606
  0
LWPOLYLINE
  5
202BA
100
AcDbEntity
  8
směr proudění podzemních vod
100
AcDbPolyline
 70
0
 90
2
 10
-600524.3666
 20
-1155842.4061
 10
-600472.5409
 20
-1155838.5157
  0
LWPOLYLINE
  5
202BB
100
AcDbEntity
  8
směr proudění podzemních vod
100
AcDbPolyline
 70
0
 90
3
 10
-600498.9972
 20
-1155837.6162
 10
-600472.5409
 20
-1155838.5157
 10
-600498.4807
 20
-1155843.6215
  0
LWPOLYLINE
  5
202BC
100
AcDbEntity
  8
směr proudění podzemních vod
100
AcDbPolyline
 70
0
 90
2
 10
-600251.2222
 20
-1155785.5642
 10
-600200.2643
 20
-1155775.3502
  0
LWPOLYLINE
  5
202BD
100
AcDbEntity
  8
směr proudění podzemních vod
100
AcDbPolyline
 70
0
 90
3
 10
-600226.6313
 20
-1155777.7006
 10
-600200.2643
 20
-1155775.3502
 10
-600225.3825
 20
-1155783.5972
  0
LWPOLYLINE
  5
202BE
100
AcDbEntity
  8
směr proudění podzemních vod
100
AcDbPolyline
 70
0
 90
2
 10
-600075.1134
 20
-1155755.6255
 10
-600023.9478
 20
-1155746.5086
  0
LWPOLYLINE
  5
202BF
100
AcDbEntity
  8
směr proudění podzemních vod
100
AcDbPolyline
 70
0
 90
3
 10
-600050.3593
 20
-1155748.2919
 10
-600023.9478
 20
-1155746.5086
 10
-600049.2375
 20
-1155754.2141
  0
LWPOLYLINE
  5
202C0
100
AcDbEntity
  8
směr proudění podzemních vod
100
AcDbPolyline
 70
0
 90
2
 10
-599785.306
 20
-1155736.0779
 10
-599747.295
 20
-1155771.5209
  0
LWPOLYLINE
  5
202C1
100
AcDbEntity
  8
směr proudění podzemních vod
100
AcDbPolyline
 70
0
 90
3
 10
-599764.5788
 20
-1155751.4705
 10
-599747.295
 20
-1155771.5209
 10
-599768.6412
 20
-1155755.9233
  0
LWPOLYLINE
  5
202C2
100
AcDbEntity
  8
směr proudění podzemních vod
100
AcDbPolyline
 70
0
 90
2
 10
-599484.8578
 20
-1155903.7748
 10
-599438.804
 20
-1155927.8599
  0
LWPOLYLINE
  5
202C3
100
AcDbEntity
  8
směr proudění podzemních vod
100
AcDbPolyline
 70
0
 90
3
 10
-599460.789
 20
-1155913.1151
 10
-599438.804
 20
-1155927.8599
 10
-599463.524
 20
-1155918.4863
  0
LWPOLYLINE
  5
202C4
100
AcDbEntity
  8
směr proudění podzemních vod
100
AcDbPolyline
 70
0
 90
2
 10
-599560.424
 20
-1155646.6766
 10
-599566.7334
 20
-1155698.2637
  0
LWPOLYLINE
  5
202C5
100
AcDbEntity
  8
směr proudění podzemních vod
100
AcDbPolyline
 70
0
 90
3
 10
-599560.6826
 20
-1155672.4929
 10
-599566.7334
 20
-1155698.2637
 10
-599566.6731
 20
-1155671.8263
  0
LWPOLYLINE
  5
202C6
100
AcDbEntity
  8
směr proudění podzemních vod
100
AcDbPolyline
 70
0
 90
2
 10
-599754.3355
 20
-1155531.0234
 10
-599760.6449
 20
-1155582.6105
  0
LWPOLYLINE
  5
202C7
100
AcDbEntity
  8
směr proudění podzemních vod
100
AcDbPolyline
 70
0
 90
3
 10
-599754.5941
 20
-1155556.8397
 10
-599760.6449
 20
-1155582.6105
 10
-599760.5846
 20
-1155556.1731
  0
LWPOLYLINE
  5
202C8
100
AcDbEntity
  8
směr proudění podzemních vod
100
AcDbPolyline
 70
0
 90
2
 10
-599948.3329
 20
-1155353.4018
 10
-599961.1044
 20
-1155403.7796
  0
LWPOLYLINE
  5
202C9
100
AcDbEntity
  8
směr proudění podzemních vod
100
AcDbPolyline
 70
0
 90
3
 10
-599951.8486
 20
-1155378.9789
 10
-599961.1044
 20
-1155403.7796
 10
-599957.707
 20
-1155377.5613
  0
LWPOLYLINE
  5
202CA
100
AcDbEntity
  8
směr proudění podzemních vod
100
AcDbPolyline
 70
0
 90
2
 10
-600093.3837
 20
-1155137.9252
 10
-600115.5349
 20
-1155184.9398
  0
LWPOLYLINE
  5
202CB
100
AcDbEntity
  8
směr proudění podzemních vod
100
AcDbPolyline
 70
0
 90
3
 10
-600101.7161
 20
-1155162.3613
 10
-600115.5349
 20
-1155184.9398
 10
-600107.1963
 20
-1155159.8517
  0
LWPOLYLINE
  5
202CC
100
AcDbEntity
  8
směr proudění podzemních vod
100
AcDbPolyline
 70
0
 90
2
 10
-600276.1346
 20
-1155014.1094
 10
-600315.1645
 20
-1155048.4272
  0
LWPOLYLINE
  5
202CD
100
AcDbEntity
  8
směr proudění podzemních vod
100
AcDbPolyline
 70
0
 90
3
 10
-600293.5025
 20
-1155033.212
 10
-600315.1645
 20
-1155048.4272
 10
-600297.5315
 20
-1155028.729
  0
LWPOLYLINE
  5
202CE
100
AcDbEntity
  8
směr proudění podzemních vod
100
AcDbPolyline
 70
0
 90
2
 10
-600493.6662
 20
-1154879.4934
 10
-600499.292
 20
-1154931.1595
  0
LWPOLYLINE
  5
202CF
100
AcDbEntity
  8
směr proudění podzemních vod
100
AcDbPolyline
 70
0
 90
3
 10
-600493.5829
 20
-1154905.3108
 10
-600499.292
 20
-1154931.1595
 10
-600499.5817
 20
-1154904.7236
  0
LWPOLYLINE
  5
202D0
100
AcDbEntity
  8
směr proudění podzemních vod
100
AcDbPolyline
 70
0
 90
2
 10
-600639.4452
 20
-1154935.58
 10
-600596.1641
 20
-1154964.3513
  0
LWPOLYLINE
  5
202D1
100
AcDbEntity
  8
směr proudění podzemních vod
100
AcDbPolyline
 70
0
 90
3
 10
-600616.4857
 20
-1154947.3872
 10
-600596.1641
 20
-1154964.3513
 10
-600619.7677
 20
-1154952.4428
  0
LWPOLYLINE
  5
202D2
100
AcDbEntity
  8
směr proudění podzemních vod
100
AcDbPolyline
 70
0
 90
2
 10
-600696.831
 20
-1155064.218
 10
-600645.0864
 20
-1155069.0694
  0
LWPOLYLINE
  5
202D3
100
AcDbEntity
  8
směr proudění podzemních vod
100
AcDbPolyline
 70
0
 90
3
 10
-600671.0176
 20
-1155063.7481
 10
-600645.0864
 20
-1155069.0694
 10
-600671.515
 20
-1155069.755
  0
LWPOLYLINE
  5
202D4
100
AcDbEntity
  8
směr proudění podzemních vod
100
AcDbPolyline
 70
0
 90
2
 10
-600497.2062
 20
-1155030.993
 10
-600462.7583
 20
-1155069.908
  0
LWPOLYLINE
  5
202D5
100
AcDbEntity
  8
směr proudění podzemních vod
100
AcDbPolyline
 70
0
 90
3
 10
-600478.0458
 20
-1155048.2969
 10
-600462.7583
 20
-1155069.908
 10
-600482.5153
 20
-1155052.3409
  0
LWPOLYLINE
  5
202D6
100
AcDbEntity
  8
směr proudění podzemních vod
100
AcDbPolyline
 70
0
 90
2
 10
-600733.3967
 20
-1155239.8503
 10
-600686.5371
 20
-1155217.3733
  0
LWPOLYLINE
  5
202D7
100
AcDbEntity
  8
směr proudění podzemních vod
100
AcDbPolyline
 70
0
 90
3
 10
-600711.508
 20
-1155226.1597
 10
-600686.5371
 20
-1155217.3733
 10
-600708.8422
 20
-1155231.5656
  0
LWPOLYLINE
  5
202D8
100
AcDbEntity
  8
směr proudění podzemních vod
100
AcDbPolyline
 70
0
 90
2
 10
-600657.9142
 20
-1155347.8283
 10
-600615.8312
 20
-1155317.3314
  0
LWPOLYLINE
  5
202D9
100
AcDbEntity
  8
směr proudění podzemních vod
100
AcDbPolyline
 70
0
 90
3
 10
-600638.8276
 20
-1155330.443
 10
-600615.8312
 20
-1155317.3314
 10
-600635.2378
 20
-1155335.2849
  0
LWPOLYLINE
  5
202DA
100
AcDbEntity
  8
směr proudění podzemních vod
100
AcDbPolyline
 70
0
 90
2
 10
-600316.3955
 20
-1155220.1113
 10
-600281.5468
 20
-1155258.6679
  0
LWPOLYLINE
  5
202DB
100
AcDbEntity
  8
směr proudění podzemních vod
100
AcDbPolyline
 70
0
 90
3
 10
-600297.0571
 20
-1155237.2161
 10
-600281.5468
 20
-1155258.6679
 10
-600301.4845
 20
-1155241.3061
  0
LWPOLYLINE
  5
202DC
100
AcDbEntity
  8
směr proudění podzemních vod
100
AcDbPolyline
 70
0
 90
2
 10
-600951.4674
 20
-1155340.3208
 10
-600979.7428
 20
-1155383.9274
  0
LWPOLYLINE
  5
202DD
100
AcDbEntity
  8
směr proudění podzemních vod
100
AcDbPolyline
 70
0
 90
3
 10
-600963.0118
 20
-1155363.4135
 10
-600979.7428
 20
-1155383.9274
 10
-600968.1045
 20
-1155360.1895
  0
LWPOLYLINE
  5
202DE
100
AcDbEntity
  8
směr proudění podzemních vod
100
AcDbPolyline
 70
0
 90
2
 10
-600832.0661
 20
-1155519.477
 10
-600860.3415
 20
-1155563.0836
  0
LWPOLYLINE
  5
202DF
100
AcDbEntity
  8
směr proudění podzemních vod
100
AcDbPolyline
 70
0
 90
3
 10
-600843.6105
 20
-1155542.5698
 10
-600860.3415
 20
-1155563.0836
 10
-600848.7032
 20
-1155539.3457
  0
LWPOLYLINE
  5
202E0
100
AcDbEntity
  8
směr proudění podzemních vod
100
AcDbPolyline
 70
0
 90
2
 10
-599975.1483
 20
-1155556.8046
 10
-599937.7925
 20
-1155592.9375
  0
LWPOLYLINE
  5
202E1
100
AcDbEntity
  8
směr proudění podzemních vod
100
AcDbPolyline
 70
0
 90
3
 10
-599954.7064
 20
-1155572.5741
 10
-599937.7925
 20
-1155592.9375
 10
-599958.8496
 20
-1155576.9518
  0
LWPOLYLINE
  5
202E2
100
AcDbEntity
  8
směr proudění podzemních vod
100
AcDbPolyline
 70
0
 90
2
 10
-599001.9804
 20
-1160393.6337
 10
-598995.9132
 20
-1160342.6492
  0
LWPOLYLINE
  5
202E3
100
AcDbEntity
  8
směr proudění podzemních vod
100
AcDbPolyline
 70
0
 90
3
 10
-599002.5422
 20
-1160370.5048
 10
-598995.9132
 20
-1160342.6492
 10
-598995.978
 20
-1160370.4612
  0
LWPOLYLINE
  5
202E4
100
AcDbEntity
  8
směr proudění podzemních vod
100
AcDbPolyline
 70
0
 90
3
 10
-598698.6471
 20
-1160577.6876
 10
-598677.5243
 20
-1160558.3561
 10
-598693.1902
 20
-1160581.3363
  0
LWPOLYLINE
  5
202E5
100
AcDbEntity
  8
směr proudění podzemních vod
100
AcDbPolyline
 70
0
 90
2
 10
-598711.1657
 20
-1160597.1439
 10
-598677.5243
 20
-1160558.3561
  0
LWPOLYLINE
  5
202E6
100
AcDbEntity
  8
směr proudění podzemních vod
100
AcDbPolyline
 70
0
 90
3
 10
-598470.0264
 20
-1160780.5385
 10
-598441.9324
 20
-1160775.0062
 10
-598467.2618
 20
-1160786.4923
  0
LWPOLYLINE
  5
202E7
100
AcDbEntity
  8
směr proudění podzemních vod
100
AcDbPolyline
 70
0
 90
2
 10
-598490.8352
 20
-1160790.6507
 10
-598441.9324
 20
-1160775.0062
  0
LWPOLYLINE
  5
202E8
100
AcDbEntity
  8
směr proudění podzemních vod
100
AcDbPolyline
 70
0
 90
3
 10
-598414.8387
 20
-1160380.0227
 10
-598387.4845
 20
-1160371.5596
 10
-598411.4619
 20
-1160385.6518
  0
LWPOLYLINE
  5
202E9
100
AcDbEntity
  8
směr proudění podzemních vod
100
AcDbPolyline
 70
0
 90
2
 10
-598434.4656
 20
-1160392.272
 10
-598387.4845
 20
-1160371.5596
  0
LWPOLYLINE
  5
202EA
100
AcDbEntity
  8
směr proudění podzemních vod
100
AcDbPolyline
 70
0
 90
3
 10
-598138.0662
 20
-1160241.744
 10
-598109.6881
 20
-1160237.9279
 10
-598135.6682
 20
-1160247.8547
  0
LWPOLYLINE
  5
202EB
100
AcDbEntity
  8
směr proudění podzemních vod
100
AcDbPolyline
 70
0
 90
2
 10
-598159.4507
 20
-1160250.5739
 10
-598109.6881
 20
-1160237.9279
  0
LWPOLYLINE
  5
202EC
100
AcDbEntity
  8
směr proudění podzemních vod
100
AcDbPolyline
 70
0
 90
3
 10
-597882.3031
 20
-1160577.4762
 10
-597853.7532
 20
-1160575.2888
 10
-597880.2584
 20
-1160583.7139
  0
LWPOLYLINE
  5
202ED
100
AcDbEntity
  8
směr proudění podzemních vod
100
AcDbPolyline
 70
0
 90
2
 10
-597904.1574
 20
-1160585.069
 10
-597853.7532
 20
-1160575.2888
  0
LWPOLYLINE
  5
202EE
100
AcDbEntity
  8
směr proudění podzemních vod
100
AcDbPolyline
 70
0
 90
3
 10
-598207.7027
 20
-1160653.2917
 10
-598179.7791
 20
-1160646.9554
 10
-598204.7683
 20
-1160659.1637
  0
LWPOLYLINE
  5
202EF
100
AcDbEntity
  8
směr proudění podzemních vod
100
AcDbPolyline
 70
0
 90
2
 10
-598228.2127
 20
-1160663.997
 10
-598179.7791
 20
-1160646.9554
  0
LWPOLYLINE
  5
202F0
100
AcDbEntity
  8
směr proudění podzemních vod
100
AcDbPolyline
 70
0
 90
2
 10
-598334.4323
 20
-1161203.0699
 10
-598313.2273
 20
-1161250.3353
  0
LWPOLYLINE
  5
202F1
100
AcDbEntity
  8
směr proudění podzemních vod
100
AcDbPolyline
 70
0
 90
3
 10
-598322.8053
 20
-1161220.4172
 10
-598313.2273
 20
-1161250.3353
 10
-598328.9003
 20
-1161222.9151
  0
LWPOLYLINE
  5
202F2
100
AcDbEntity
  8
směr proudění podzemních vod
100
AcDbPolyline
 70
0
 90
2
 10
-598498.9394
 20
-1160951.4375
 10
-598459.5522
 20
-1160985.0876
  0
LWPOLYLINE
  5
202F3
100
AcDbEntity
  8
směr proudění podzemních vod
100
AcDbPolyline
 70
0
 90
3
 10
-598481.0087
 20
-1160962.1431
 10
-598459.5522
 20
-1160985.0876
 10
-598485.4492
 20
-1160967.0083
  0
LWPOLYLINE
  5
202F4
100
AcDbEntity
  8
směr proudění podzemních vod
100
AcDbPolyline
 70
0
 90
2
 10
-598204.2732
 20
-1160940.6037
 10
-598154.7665
 20
-1160955.8601
  0
LWPOLYLINE
  5
202F5
100
AcDbEntity
  8
směr proudění podzemních vod
100
AcDbPolyline
 70
0
 90
3
 10
-598183.5665
 20
-1160943.3145
 10
-598154.7665
 20
-1160955.8601
 10
-598185.7116
 20
-1160949.5424
  0
LWPOLYLINE
  5
202F6
100
AcDbEntity
  8
směr proudění podzemních vod
100
AcDbPolyline
 70
0
 90
2
 10
-597875.6506
 20
-1161044.9503
 10
-597828.0641
 20
-1161065.4247
  0
LWPOLYLINE
  5
202F7
100
AcDbEntity
  8
směr proudění podzemních vod
100
AcDbPolyline
 70
0
 90
3
 10
-597855.3536
 20
-1161049.8647
 10
-597828.0641
 20
-1161065.4247
 10
-597858.1539
 20
-1161055.8268
  0
LWPOLYLINE
  5
202F8
100
AcDbEntity
  8
směr proudění podzemních vod
100
AcDbPolyline
 70
0
 90
2
 10
-601506.3293
 20
-1161599.1023
 10
-601455.8518
 20
-1161587.0943
  0
LWPOLYLINE
  5
202F9
100
AcDbEntity
  8
směr proudění podzemních vod
100
AcDbPolyline
 70
0
 90
3
 10
-601487.1376
 20
-1161591.2902
 10
-601455.8518
 20
-1161587.0943
 10
-601485.1992
 20
-1161597.2626
  0
LWPOLYLINE
  5
202FA
100
AcDbEntity
  8
směr proudění podzemních vod
100
AcDbPolyline
 70
0
 90
2
 10
-601826.437
 20
-1162048.295
 10
-601776.6451
 20
-1162062.887
  0
LWPOLYLINE
  5
202FB
100
AcDbEntity
  8
směr proudění podzemních vod
100
AcDbPolyline
 70
0
 90
3
 10
-601805.8967
 20
-1162051.0232
 10
-601776.6451
 20
-1162062.887
 10
-601807.1736
 20
-1162057.1711
  0
LWPOLYLINE
  5
202FC
100
AcDbEntity
  8
směr proudění podzemních vod
100
AcDbPolyline
 70
0
 90
2
 10
-601867.463
 20
-1161390.0334
 10
-601832.5829
 20
-1161351.6206
  0
LWPOLYLINE
  5
202FD
100
AcDbEntity
  8
směr proudění podzemních vod
100
AcDbPolyline
 70
0
 90
3
 10
-601856.0347
 20
-1161372.7492
 10
-601832.5829
 20
-1161351.6206
 10
-601851.0626
 20
-1161376.5839
  0
LWPOLYLINE
  5
202FE
100
AcDbEntity
  8
směr proudění podzemních vod
100
AcDbPolyline
 70
0
 90
2
 10
-602162.6425
 20
-1161707.4584
 10
-602121.7422
 20
-1161675.5313
  0
LWPOLYLINE
  5
202FF
100
AcDbEntity
  8
směr proudění podzemních vod
100
AcDbPolyline
 70
0
 90
3
 10
-602148.4433
 20
-1161692.3675
 10
-602121.7422
 20
-1161675.5313
 10
-602144.195
 20
-1161696.9913
  0
LWPOLYLINE
  5
20300
100
AcDbEntity
  8
směr proudění podzemních vod
100
AcDbPolyline
 70
0
 90
2
 10
-602618.5879
 20
-1161477.2256
 10
-602588.171
 20
-1161435.1902
  0
LWPOLYLINE
  5
20301
100
AcDbEntity
  8
směr proudění podzemních vod
100
AcDbPolyline
 70
0
 90
3
 10
-602609.1416
 20
-1161458.7833
 10
-602588.171
 20
-1161435.1902
 10
-602603.7758
 20
-1161462.0445
  0
LWPOLYLINE
  5
20302
100
AcDbEntity
  8
směr proudění podzemních vod
100
AcDbPolyline
 70
0
 90
2
 10
-602583.0753
 20
-1162243.6312
 10
-602603.2657
 20
-1162291.4278
  0
LWPOLYLINE
  5
20303
100
AcDbEntity
  8
směr proudění podzemních vod
100
AcDbPolyline
 70
0
 90
3
 10
-602588.1346
 20
-1162263.7248
 10
-602603.2657
 20
-1162291.4278
 10
-602594.0961
 20
-1162261.7532
  0
LWPOLYLINE
  5
20304
100
AcDbEntity
  8
směr proudění podzemních vod
100
AcDbPolyline
 70
0
 90
2
 10
-602075.0417
 20
-1162454.1695
 10
-602092.9396
 20
-1162502.8709
  0
LWPOLYLINE
  5
20305
100
AcDbEntity
  8
směr proudění podzemních vod
100
AcDbPolyline
 70
0
 90
3
 10
-602079.1411
 20
-1162474.4807
 10
-602092.9396
 20
-1162502.8709
 10
-602085.1895
 20
-1162472.7944
  0
LWPOLYLINE
  5
20306
100
AcDbEntity
  8
směr proudění podzemních vod
100
AcDbPolyline
 70
0
 90
2
 10
-595638.4005
 20
-1157563.1306
 10
-595595.5275
 20
-1157590.9186
  0
LWPOLYLINE
  5
20307
100
AcDbEntity
  8
směr proudění podzemních vod
100
AcDbPolyline
 70
0
 90
3
 10
-595617.361
 20
-1157572.9557
 10
-595595.5275
 20
-1157590.9186
 10
-595620.5368
 20
-1157578.811
  0
LWPOLYLINE
  5
20308
100
AcDbEntity
  8
směr proudění podzemních vod
100
AcDbPolyline
 70
0
 90
2
 10
-595836.5365
 20
-1157424.576
 10
-595793.6635
 20
-1157452.364
  0
LWPOLYLINE
  5
20309
100
AcDbEntity
  8
směr proudění podzemních vod
100
AcDbPolyline
 70
0
 90
3
 10
-595815.497
 20
-1157434.401
 10
-595793.6635
 20
-1157452.364
 10
-595818.6727
 20
-1157440.2564
  0
LWPOLYLINE
  5
2030A
100
AcDbEntity
  8
směr proudění podzemních vod
100
AcDbPolyline
 70
0
 90
2
 10
-595064.4099
 20
-1157280.1595
 10
-595046.7666
 20
-1157328.1072
  0
LWPOLYLINE
  5
2030B
100
AcDbEntity
  8
směr proudění podzemních vod
100
AcDbPolyline
 70
0
 90
3
 10
-595053.4657
 20
-1157300.6392
 10
-595046.7666
 20
-1157328.1072
 10
-595059.5185
 20
-1157303.4203
  0
LWPOLYLINE
  5
2030C
100
AcDbEntity
  8
směr proudění podzemních vod
100
AcDbPolyline
 70
0
 90
2
 10
-595474.6828
 20
-1156808.5634
 10
-595436.0626
 20
-1156842.011
  0
LWPOLYLINE
  5
2030D
100
AcDbEntity
  8
směr proudění podzemních vod
100
AcDbPolyline
 70
0
 90
3
 10
-595455.2034
 20
-1156821.2025
 10
-595436.0626
 20
-1156842.011
 10
-595459.1581
 20
-1156826.5626
  0
LWPOLYLINE
  5
2030E
100
AcDbEntity
  8
směr proudění podzemních vod
100
AcDbPolyline
 70
0
 90
2
 10
-594470.4817
 20
-1157206.1662
 10
-594476.8464
 20
-1157256.8589
  0
LWPOLYLINE
  5
2030F
100
AcDbEntity
  8
směr proudění podzemních vod
100
AcDbPolyline
 70
0
 90
3
 10
-594470.1732
 20
-1157229.3846
 10
-594476.8464
 20
-1157256.8589
 10
-594476.827
 20
-1157229.073
  0
LWPOLYLINE
  5
20310
100
AcDbEntity
  8
směr proudění podzemních vod
100
AcDbPolyline
 70
0
 90
2
 10
-594246.3292
 20
-1156568.0268
 10
-594263.3539
 20
-1156616.1976
  0
LWPOLYLINE
  5
20311
100
AcDbEntity
  8
směr proudění podzemních vod
100
AcDbPolyline
 70
0
 90
3
 10
-594250.9773
 20
-1156590.7774
 10
-594263.3539
 20
-1156616.1976
 10
-594257.4117
 20
-1156589.0545
  0
LWPOLYLINE
  5
20312
100
AcDbEntity
  8
směr proudění podzemních vod
100
AcDbPolyline
 70
0
 90
2
 10
-593930.0117
 20
-1157483.4062
 10
-593964.7777
 20
-1157520.844
  0
LWPOLYLINE
  5
20313
100
AcDbEntity
  8
směr proudění podzemních vod
100
AcDbPolyline
 70
0
 90
3
 10
-593943.3182
 20
-1157502.4358
 10
-593964.7777
 20
-1157520.844
 10
-593948.5381
 20
-1157498.2978
  0
LWPOLYLINE
  5
20314
100
AcDbEntity
  8
směr proudění podzemních vod
100
AcDbPolyline
 70
0
 90
2
 10
-593502.4951
 20
-1157060.5451
 10
-593533.2919
 20
-1157101.3105
  0
LWPOLYLINE
  5
20315
100
AcDbEntity
  8
směr proudění podzemních vod
100
AcDbPolyline
 70
0
 90
3
 10
-593513.8065
 20
-1157080.8242
 10
-593533.2919
 20
-1157101.3105
 10
-593519.4185
 20
-1157077.2359
  0
LWPOLYLINE
  5
20316
100
AcDbEntity
  8
směr proudění podzemních vod
100
AcDbPolyline
 70
0
 90
3
 10
-599983.0772
 20
-1161680.7306
 10
-599973.6272
 20
-1161710.808
 10
-599989.7837
 20
-1161683.5757
  0
LWPOLYLINE
  5
20317
100
AcDbEntity
  8
směr proudění podzemních vod
100
AcDbPolyline
 70
0
 90
2
 10
-599994.7627
 20
-1161663.6596
 10
-599973.6272
 20
-1161710.808
  0
LWPOLYLINE
  5
20318
100
AcDbEntity
  8
směr proudění podzemních vod
100
AcDbPolyline
 70
0
 90
3
 10
-600461.118
 20
-1161737.7214
 10
-600475.932
 20
-1161765.5512
 10
-600467.8494
 20
-1161734.9358
  0
LWPOLYLINE
  5
20319
100
AcDbEntity
  8
směr proudění podzemních vod
100
AcDbPolyline
 70
0
 90
2
 10
-600457.1436
 20
-1161717.4193
 10
-600475.932
 20
-1161765.5512
  0
LWPOLYLINE
  5
2031A
100
AcDbEntity
  8
směr proudění podzemních vod
100
AcDbPolyline
 70
0
 90
3
 10
-600732.3749
 20
-1161505.1812
 10
-600759.0621
 20
-1161521.9665
 10
-600736.8314
 20
-1161499.4183
  0
LWPOLYLINE
  5
2031B
100
AcDbEntity
  8
směr proudění podzemních vod
100
AcDbPolyline
 70
0
 90
2
 10
-600718.8352
 20
-1161489.5401
 10
-600759.0621
 20
-1161521.9665
  0
LWPOLYLINE
  5
2031C
100
AcDbEntity
  8
směr proudění podzemních vod
100
AcDbPolyline
 70
0
 90
3
 10
-600922.4526
 20
-1161184.0483
 10
-600950.6881
 20
-1161198.0736
 10
-600926.3089
 20
-1161177.8676
  0
LWPOLYLINE
  5
2031D
100
AcDbEntity
  8
směr proudění podzemních vod
100
AcDbPolyline
 70
0
 90
2
 10
-600907.413
 20
-1161169.8434
 10
-600950.6881
 20
-1161198.0736
  0
LWPOLYLINE
  5
2031E
100
AcDbEntity
  8
směr proudění podzemních vod
100
AcDbPolyline
 70
0
 90
2
 10
-600941.0755
 20
-1160619.0272
 10
-600991.5024
 20
-1160630.288
  0
LWPOLYLINE
  5
2031F
100
AcDbEntity
  8
směr proudění podzemních vod
100
AcDbPolyline
 70
0
 90
3
 10
-600960.1415
 20
-1160627.0556
 10
-600991.5024
 20
-1160630.288
 10
-600961.5853
 20
-1160619.9151
  0
LWPOLYLINE
  5
20320
100
AcDbEntity
  8
směr proudění podzemních vod
100
AcDbPolyline
 70
0
 90
2
 10
-600923.1829
 20
-1160283.9841
 10
-600974.5441
 20
-1160289.6143
  0
LWPOLYLINE
  5
20321
100
AcDbEntity
  8
směr proudění podzemních vod
100
AcDbPolyline
 70
0
 90
3
 10
-600943.0181
 20
-1160289.8606
 10
-600974.5441
 20
-1160289.6143
 10
-600943.6655
 20
-1160282.6044
  0
LWPOLYLINE
  5
20322
100
AcDbEntity
  8
směr proudění podzemních vod
100
AcDbPolyline
 70
0
 90
2
 10
-600660.2727
 20
-1160533.5918
 10
-600703.8551
 20
-1160561.3452
  0
LWPOLYLINE
  5
20323
100
AcDbEntity
  8
směr proudění podzemních vod
100
AcDbPolyline
 70
0
 90
3
 10
-600675.4673
 20
-1160547.6307
 10
-600703.8551
 20
-1160561.3452
 10
-600679.2555
 20
-1160541.4081
  0
LWPOLYLINE
  5
20324
100
AcDbEntity
  8
směr proudění podzemních vod
100
AcDbPolyline
 70
0
 90
2
 10
-600625.8043
 20
-1161002.6793
 10
-600662.8585
 20
-1161038.6885
  0
LWPOLYLINE
  5
20325
100
AcDbEntity
  8
směr proudění podzemních vod
100
AcDbPolyline
 70
0
 90
3
 10
-600637.8388
 20
-1161019.5061
 10
-600662.8585
 20
-1161038.6885
 10
-600642.8094
 20
-1161014.1802
  0
LWPOLYLINE
  5
20326
100
AcDbEntity
  8
směr proudění podzemních vod
100
AcDbPolyline
 70
0
 90
2
 10
-600495.8101
 20
-1161219.3628
 10
-600532.1025
 20
-1161256.1397
  0
LWPOLYLINE
  5
20327
100
AcDbEntity
  8
směr proudění podzemních vod
100
AcDbPolyline
 70
0
 90
3
 10
-600507.4898
 20
-1161236.4377
 10
-600532.1025
 20
-1161256.1397
 10
-600512.5708
 20
-1161231.2171
  0
LWPOLYLINE
  5
20328
100
AcDbEntity
  8
směr proudění podzemních vod
100
AcDbPolyline
 70
0
 90
2
 10
-601271.3114
 20
-1160673.4033
 10
-601219.8526
 20
-1160668.7486
  0
LWPOLYLINE
  5
20329
100
AcDbEntity
  8
směr proudění podzemních vod
100
AcDbPolyline
 70
0
 90
2
 10
-601873.3698
 20
-1160699.2985
 10
-601821.9226
 20
-1160704.0801
  0
LWPOLYLINE
  5
2032A
100
AcDbEntity
  8
směr proudění podzemních vod
100
AcDbPolyline
 70
0
 90
3
 10
-601852.7592
 20
-1160697.5181
 10
-601821.9226
 20
-1160704.0801
 10
-601853.5797
 20
-1160704.7568
  0
LWPOLYLINE
  5
2032B
100
AcDbEntity
  8
směr proudění podzemních vod
100
AcDbPolyline
 70
0
 90
2
 10
-601423.7297
 20
-1161274.2038
 10
-601378.094
 20
-1161249.9744
  0
LWPOLYLINE
  5
2032C
100
AcDbEntity
  8
směr proudění podzemních vod
100
AcDbPolyline
 70
0
 90
3
 10
-601407.4751
 20
-1161261.4071
 10
-601378.094
 20
-1161249.9744
 10
-601404.1895
 20
-1161267.9091
  0
LWPOLYLINE
  5
2032D
100
AcDbEntity
  8
směr proudění podzemních vod
100
AcDbPolyline
 70
0
 90
3
 10
-600302.7928
 20
-1161331.4735
 10
-600317.6068
 20
-1161359.3033
 10
-600309.5242
 20
-1161328.688
  0
LWPOLYLINE
  5
2032E
100
AcDbEntity
  8
směr proudění podzemních vod
100
AcDbPolyline
 70
0
 90
2
 10
-600298.8184
 20
-1161311.1715
 10
-600317.6068
 20
-1161359.3033
  0
LWPOLYLINE
  5
2032F
100
AcDbEntity
  8
směr proudění podzemních vod
100
AcDbPolyline
 70
0
 90
3
 10
-600059.072
 20
-1161354.0516
 10
-600066.3663
 20
-1161384.7232
 10
-600066.2891
 20
-1161353.059
  0
LWPOLYLINE
  5
20330
100
AcDbEntity
  8
směr proudění podzemních vod
100
AcDbPolyline
 70
0
 90
2
 10
-600060.3612
 20
-1161333.4044
 10
-600066.3663
 20
-1161384.7232
  0
LWPOLYLINE
  5
20331
100
AcDbEntity
  8
směr proudění podzemních vod
100
AcDbPolyline
 70
0
 90
2
 10
-600400.6149
 20
-1160747.3991
 10
-600437.6692
 20
-1160783.4083
  0
LWPOLYLINE
  5
20332
100
AcDbEntity
  8
směr proudění podzemních vod
100
AcDbPolyline
 70
0
 90
3
 10
-600412.6494
 20
-1160764.2259
 10
-600437.6692
 20
-1160783.4083
 10
-600417.62
 20
-1160758.9
  0
LWPOLYLINE
  5
20333
100
AcDbEntity
  8
směr proudění podzemních vod
100
AcDbPolyline
 70
0
 90
3
 10
-600225.7864
 20
-1160891.4655
 10
-600245.7595
 20
-1160915.8587
 10
-600231.8427
 20
-1160887.4167
  0
LWPOLYLINE
  5
20334
100
AcDbEntity
  8
směr proudění podzemních vod
100
AcDbPolyline
 70
0
 90
2
 10
-600217.9163
 20
-1160872.3335
 10
-600245.7595
 20
-1160915.8587
  0
LWPOLYLINE
  5
20335
100
AcDbEntity
  8
směr proudění podzemních vod
100
AcDbPolyline
 70
0
 90
3
 10
-601251.3683
 20
-1160667.9042
 10
-601219.8526
 20
-1160668.7486
 10
-601250.8586
 20
-1160675.1714
  0
LWPOLYLINE
  5
20336
100
AcDbEntity
  8
směr proudění podzemních vod
100
AcDbPolyline
 70
0
 90
2
 10
-602436.549
 20
-1160699.2397
 10
-602384.9126
 20
-1160701.0718
  0
LWPOLYLINE
  5
20337
100
AcDbEntity
  8
směr proudění podzemních vod
100
AcDbPolyline
 70
0
 90
3
 10
-602416.0739
 20
-1160696.2837
 10
-602384.9126
 20
-1160701.0718
 10
-602416.4791
 20
-1160703.5574
  0
LWPOLYLINE
  5
20338
100
AcDbEntity
  8
směr proudění podzemních vod
100
AcDbPolyline
 70
0
 90
3
 10
-602247.7727
 20
-1161084.6295
 10
-602216.6872
 20
-1161079.3719
 10
-602245.8692
 20
-1161091.6615
  0
LWPOLYLINE
  5
20339
100
AcDbEntity
  8
směr proudění podzemních vod
100
AcDbPolyline
 70
0
 90
2
 10
-602266.2784
 20
-1161093.8765
 10
-602216.6872
 20
-1161079.3719
  0
LWPOLYLINE
  5
2033A
100
AcDbEntity
  8
směr proudění podzemních vod
100
AcDbPolyline
 70
0
 90
3
 10
-601850.0442
 20
-1161001.8404
 10
-601818.8829
 20
-1161006.6285
 10
-601850.4495
 20
-1161009.1142
  0
LWPOLYLINE
  5
2033B
100
AcDbEntity
  8
směr proudění podzemních vod
100
AcDbPolyline
 70
0
 90
2
 10
-601870.5194
 20
-1161004.7964
 10
-601818.8829
 20
-1161006.6285
  0
LWPOLYLINE
  5
2033C
100
AcDbEntity
  8
směr proudění podzemních vod
100
AcDbPolyline
 70
0
 90
3
 10
-600831.193
 20
-1162018.0712
 10
-600815.2773
 20
-1161990.8564
 10
-600824.5784
 20
-1162021.1238
  0
LWPOLYLINE
  5
2033D
100
AcDbEntity
  8
směr proudění podzemních vod
100
AcDbPolyline
 70
0
 90
2
 10
-600835.9766
 20
-1162038.198
 10
-600815.2773
 20
-1161990.8564
  0
LWPOLYLINE
  5
2033E
100
AcDbEntity
  8
směr proudění podzemních vod
100
AcDbPolyline
 70
0
 90
3
 10
-600427.624
 20
-1162093.0983
 10
-600425.1928
 20
-1162061.6651
 10
-600420.3404
 20
-1162092.9554
  0
LWPOLYLINE
  5
2033F
100
AcDbEntity
  8
směr proudění podzemních vod
100
AcDbPolyline
 70
0
 90
2
 10
-600423.1366
 20
-1162113.2931
 10
-600425.1928
 20
-1162061.6651
  0
LWPOLYLINE
  5
20340
100
AcDbEntity
  8
směr proudění podzemních vod
100
AcDbPolyline
 70
0
 90
2
 10
-600640.3378
 20
-1160167.6784
 10
-600684.8787
 20
-1160193.8659
  0
LWPOLYLINE
  5
20341
100
AcDbEntity
  8
směr proudění podzemních vod
100
AcDbPolyline
 70
0
 90
3
 10
-600656.0216
 20
-1160181.1687
 10
-600684.8787
 20
-1160193.8659
 10
-600659.5863
 20
-1160174.8154
  0
LWPOLYLINE
  5
20342
100
AcDbEntity
  8
směr proudění podzemních vod
100
AcDbPolyline
 70
0
 90
2
 10
-600365.266
 20
-1160350.0124
 10
-600401.4493
 20
-1160386.8967
  0
LWPOLYLINE
  5
20343
100
AcDbEntity
  8
směr proudění podzemních vod
100
AcDbPolyline
 70
0
 90
3
 10
-600376.8951
 20
-1160367.1219
 10
-600401.4493
 20
-1160386.8967
 10
-600381.9915
 20
-1160361.9163
  0
LWPOLYLINE
  5
20344
100
AcDbEntity
  8
směr proudění podzemních vod
100
AcDbPolyline
 70
0
 90
3
 10
-601827.9379
 20
-1160378.56
 10
-601796.7766
 20
-1160383.3481
 10
-601828.3432
 20
-1160385.8338
  0
LWPOLYLINE
  5
20345
100
AcDbEntity
  8
směr proudění podzemních vod
100
AcDbPolyline
 70
0
 90
2
 10
-601848.4131
 20
-1160381.516
 10
-601796.7766
 20
-1160383.3481
  0
LWPOLYLINE
  5
20346
100
AcDbEntity
  8
směr proudění podzemních vod
100
AcDbPolyline
 70
0
 90
3
 10
-601247.5731
 20
-1160321.878
 10
-601216.4118
 20
-1160326.6661
 10
-601247.9783
 20
-1160329.1517
  0
LWPOLYLINE
  5
20347
100
AcDbEntity
  8
směr proudění podzemních vod
100
AcDbPolyline
 70
0
 90
2
 10
-601268.0482
 20
-1160324.8339
 10
-601216.4118
 20
-1160326.6661
  0
LWPOLYLINE
  5
20348
100
AcDbEntity
  8
směr proudění podzemních vod
100
AcDbPolyline
 70
0
 90
3
 10
-601456.05
 20
-1161022.5401
 10
-601426.5007
 20
-1161033.5305
 10
-601457.9178
 20
-1161029.5816
  0
LWPOLYLINE
  5
20349
100
AcDbEntity
  8
směr proudění podzemních vod
100
AcDbPolyline
 70
0
 90
2
 10
-601476.6999
 20
-1161021.2946
 10
-601426.5007
 20
-1161033.5305
  0
LWPOLYLINE
  5
2034A
100
AcDbEntity
  8
směr proudění podzemních vod
100
AcDbPolyline
 70
0
 90
2
 10
-600165.6296
 20
-1160505.0115
 10
-600202.6839
 20
-1160541.0207
  0
LWPOLYLINE
  5
2034B
100
AcDbEntity
  8
směr proudění podzemních vod
100
AcDbPolyline
 70
0
 90
3
 10
-600177.6642
 20
-1160521.8383
 10
-600202.6839
 20
-1160541.0207
 10
-600182.6347
 20
-1160516.5124
  0
LWPOLYLINE
  5
2034C
100
AcDbEntity
  8
směr proudění podzemních vod
100
AcDbPolyline
 70
0
 90
3
 10
-599750.3782
 20
-1161344.7117
 10
-599751.5615
 20
-1161376.2165
 10
-599757.6504
 20
-1161345.1432
  0
LWPOLYLINE
  5
2034D
100
AcDbEntity
  8
směr proudění podzemních vod
100
AcDbPolyline
 70
0
 90
2
 10
-599755.6625
 20
-1161324.7106
 10
-599751.5615
 20
-1161376.2165
  0
LWPOLYLINE
  5
2034E
100
AcDbEntity
  8
směr proudění podzemních vod
100
AcDbPolyline
 70
0
 90
2
 10
-597947.2379
 20
-1158066.7444
 10
-597981.5032
 20
-1158105.8204
  0
LWPOLYLINE
  5
2034F
100
AcDbEntity
  8
směr proudění podzemních vod
100
AcDbPolyline
 70
0
 90
3
 10
-597961.9902
 20
-1158087.9321
 10
-597981.5032
 20
-1158105.8204
 10
-597966.5651
 20
-1158084.0077
  0
LWPOLYLINE
  5
20350
100
AcDbEntity
  8
směr proudění podzemních vod
100
AcDbPolyline
 70
0
 90
2
 10
-597975.8778
 20
-1158365.7481
 10
-598015.921
 20
-1158332.6183
  0
LWPOLYLINE
  5
20351
100
AcDbEntity
  8
směr proudění podzemních vod
100
AcDbPolyline
 70
0
 90
3
 10
-597997.4802
 20
-1158351.6099
 10
-598015.921
 20
-1158332.6183
 10
-597993.6886
 20
-1158346.9243
  0
LWPOLYLINE
  5
20352
100
AcDbEntity
  8
směr proudění podzemních vod
100
AcDbPolyline
 70
0
 90
2
 10
-598134.4511
 20
-1158520.155
 10
-598129.1782
 20
-1158571.8583
  0
LWPOLYLINE
  5
20353
100
AcDbEntity
  8
směr proudění podzemních vod
100
AcDbPolyline
 70
0
 90
3
 10
-598128.9855
 20
-1158545.3874
 10
-598129.1782
 20
-1158571.8583
 10
-598134.9748
 20
-1158546.0641
  0
LWPOLYLINE
  5
20354
100
AcDbEntity
  8
směr proudění podzemních vod
100
AcDbPolyline
 70
0
 90
2
 10
-598004.1523
 20
-1158491.8569
 10
-598046.5604
 20
-1158521.9
  0
LWPOLYLINE
  5
20355
100
AcDbEntity
  8
směr proudění podzemních vod
100
AcDbPolyline
 70
0
 90
3
 10
-598023.4245
 20
-1158509.0362
 10
-598046.5604
 20
-1158521.9
 10
-598026.9621
 20
-1158504.156
  0
LWPOLYLINE
  5
20356
100
AcDbEntity
  8
směr proudění podzemních vod
100
AcDbPolyline
 70
0
 90
2
 10
-597776.5859
 20
-1158563.2287
 10
-597822.1678
 20
-1158538.2622
  0
LWPOLYLINE
  5
20357
100
AcDbEntity
  8
směr proudění podzemních vod
100
AcDbPolyline
 70
0
 90
3
 10
-597800.4705
 20
-1158553.4272
 10
-597822.1678
 20
-1158538.2622
 10
-597797.6327
 20
-1158548.1095
  0
LWPOLYLINE
  5
20358
100
AcDbEntity
  8
směr proudění podzemních vod
100
AcDbPolyline
 70
0
 90
2
 10
-597914.6458
 20
-1158655.4943
 10
-597942.6787
 20
-1158699.2572
  0
LWPOLYLINE
  5
20359
100
AcDbEntity
  8
směr proudění podzemních vod
100
AcDbPolyline
 70
0
 90
3
 10
-597926.0618
 20
-1158678.6508
 10
-597942.6787
 20
-1158699.2572
 10
-597931.1724
 20
-1158675.455
  0
LWPOLYLINE
  5
2035A
100
AcDbEntity
  8
směr proudění podzemních vod
100
AcDbPolyline
 70
0
 90
2
 10
-597836.1662
 20
-1158896.9339
 10
-597885.4385
 20
-1158913.465
  0
LWPOLYLINE
  5
2035B
100
AcDbEntity
  8
směr proudění podzemních vod
100
AcDbPolyline
 70
0
 90
3
 10
-597859.5751
 20
-1158907.8228
 10
-597885.4385
 20
-1158913.465
 10
-597861.5544
 20
-1158902.1295
  0
LWPOLYLINE
  5
2035C
100
AcDbEntity
  8
směr proudění podzemních vod
100
AcDbPolyline
 70
0
 90
2
 10
-598091.0031
 20
-1158792.3667
 10
-598079.8281
 20
-1158843.1225
  0
LWPOLYLINE
  5
2035D
100
AcDbEntity
  8
směr proudění podzemních vod
100
AcDbPolyline
 70
0
 90
3
 10
-598082.6762
 20
-1158816.8046
 10
-598079.8281
 20
-1158843.1225
 10
-598088.5483
 20
-1158818.1646
  0
LWPOLYLINE
  5
2035E
100
AcDbEntity
  8
směr proudění podzemních vod
100
AcDbPolyline
 70
0
 90
2
 10
-598059.6991
 20
-1159035.5398
 10
-598049.2039
 20
-1159086.4406
  0
LWPOLYLINE
  5
2035F
100
AcDbEntity
  8
směr proudění podzemních vod
100
AcDbPolyline
 70
0
 90
3
 10
-598051.6998
 20
-1159060.0869
 10
-598049.2039
 20
-1159086.4406
 10
-598057.5895
 20
-1159061.3682
  0
LWPOLYLINE
  5
20360
100
AcDbEntity
  8
směr proudění podzemních vod
100
AcDbPolyline
 70
0
 90
2
 10
-598380.2738
 20
-1158936.3692
 10
-598328.3298
 20
-1158938.0609
  0
LWPOLYLINE
  5
20361
100
AcDbEntity
  8
směr proudění podzemních vod
100
AcDbPolyline
 70
0
 90
3
 10
-598354.537
 20
-1158934.3284
 10
-598328.3298
 20
-1158938.0609
 10
-598354.6676
 20
-1158940.3545
  0
LWPOLYLINE
  5
20362
100
AcDbEntity
  8
směr proudění podzemních vod
100
AcDbPolyline
 70
0
 90
2
 10
-598427.1215
 20
-1158461.2626
 10
-598375.1775
 20
-1158462.9543
  0
LWPOLYLINE
  5
20363
100
AcDbEntity
  8
směr proudění podzemních vod
100
AcDbPolyline
 70
0
 90
3
 10
-598401.3847
 20
-1158459.2218
 10
-598375.1775
 20
-1158462.9543
 10
-598401.5154
 20
-1158465.2479
  0
LWPOLYLINE
  5
20364
100
AcDbEntity
  8
směr proudění podzemních vod
100
AcDbPolyline
 70
0
 90
2
 10
-598944.3239
 20
-1165707.251
 10
-598893.1413
 20
-1165716.257
  0
LWPOLYLINE
  5
20365
100
AcDbEntity
  8
směr proudění podzemních vod
100
AcDbPolyline
 70
0
 90
3
 10
-598918.3484
 20
-1165706.9261
 10
-598893.1413
 20
-1165716.257
 10
-598920.2344
 20
-1165716.0006
  0
LWPOLYLINE
  5
20366
100
AcDbEntity
  8
směr proudění podzemních vod
100
AcDbPolyline
 70
0
 90
2
 10
-598724.3902
 20
-1165740.8025
 10
-598674.1855
 20
-1165754.2284
  0
LWPOLYLINE
  5
20367
100
AcDbEntity
  8
směr proudění podzemních vod
100
AcDbPolyline
 70
0
 90
3
 10
-598698.4849
 20
-1165742.7393
 10
-598674.1855
 20
-1165754.2284
 10
-598701.1535
 20
-1165751.6152
  0
LWPOLYLINE
  5
20368
100
AcDbEntity
  8
směr proudění podzemních vod
100
AcDbPolyline
 70
0
 90
2
 10
-598536.6625
 20
-1165784.1347
 10
-598488.7322
 20
-1165804.2208
  0
LWPOLYLINE
  5
20369
100
AcDbEntity
  8
směr proudění podzemních vod
100
AcDbPolyline
 70
0
 90
3
 10
-598511.2565
 20
-1165789.5539
 10
-598488.7322
 20
-1165804.2208
 10
-598515.0998
 20
-1165797.9879
  0
LWPOLYLINE
  5
2036A
100
AcDbEntity
  8
směr proudění podzemních vod
100
AcDbPolyline
 70
0
 90
2
 10
-598378.2095
 20
-1165853.3819
 10
-598339.7744
 20
-1165888.3606
  0
LWPOLYLINE
  5
2036B
100
AcDbEntity
  8
směr proudění podzemních vod
100
AcDbPolyline
 70
0
 90
3
 10
-598356.0857
 20
-1165866.997
 10
-598339.7744
 20
-1165888.3606
 10
-598362.5318
 20
-1165873.6567
  0
LWPOLYLINE
  5
2036C
100
AcDbEntity
  8
směr proudění podzemních vod
100
AcDbPolyline
 70
0
 90
2
 10
-598261.1121
 20
-1165958.6872
 10
-598225.7791
 20
-1165996.7969
  0
LWPOLYLINE
  5
2036D
100
AcDbEntity
  8
směr proudění podzemních vod
100
AcDbPolyline
 70
0
 90
3
 10
-598240.2215
 20
-1165974.128
 10
-598225.7791
 20
-1165996.7969
 10
-598247.2087
 20
-1165980.2175
  0
LWPOLYLINE
  5
2036E
100
AcDbEntity
  8
směr proudění podzemních vod
100
AcDbPolyline
 70
0
 90
2
 10
-597916.8366
 20
-1166018.2656
 10
-597891.957
 20
-1166063.892
  0
LWPOLYLINE
  5
2036F
100
AcDbEntity
  8
směr proudění podzemních vod
100
AcDbPolyline
 70
0
 90
3
 10
-597900.3832
 20
-1166038.3682
 10
-597891.957
 20
-1166063.892
 10
-597908.653
 20
-1166042.5531
  0
LWPOLYLINE
  5
20370
100
AcDbEntity
  8
směr proudění podzemních vod
100
AcDbPolyline
 70
0
 90
2
 10
-597709.1175
 20
-1166137.1903
 10
-597697.727
 20
-1166187.8956
  0
LWPOLYLINE
  5
20371
100
AcDbEntity
  8
směr proudění podzemních vod
100
AcDbPolyline
 70
0
 90
3
 10
-597698.7461
 20
-1166161.6043
 10
-597697.6546
 20
-1166188.4608
 10
-597707.8473
 20
-1166163.3568
  0
LWPOLYLINE
  5
20372
100
AcDbEntity
  8
směr proudění podzemních vod
100
AcDbPolyline
 70
0
 90
2
 10
-597630.3062
 20
-1166310.2205
 10
-597611.0594
 20
-1166358.4939
  0
LWPOLYLINE
  5
20373
100
AcDbEntity
  8
směr proudění podzemních vod
100
AcDbPolyline
 70
0
 90
3
 10
-597616.3739
 20
-1166332.1459
 10
-597611.0594
 20
-1166358.4939
 10
-597625.0847
 20
-1166335.3122
  0
LWPOLYLINE
  5
20374
100
AcDbEntity
  8
směr proudění podzemních vod
100
AcDbPolyline
 70
0
 90
2
 10
-597484.4559
 20
-1166529.5537
 10
-597442.3786
 20
-1166560.054
  0
LWPOLYLINE
  5
20375
100
AcDbEntity
  8
směr proudění podzemních vod
100
AcDbPolyline
 70
0
 90
3
 10
-597460.9586
 20
-1166540.6312
 10
-597442.3786
 20
-1166560.054
 10
-597466.6263
 20
-1166547.9647
  0
LWPOLYLINE
  5
20376
100
AcDbEntity
  8
směr proudění podzemních vod
100
AcDbPolyline
 70
0
 90
2
 10
-599474.2688
 20
-1166088.6139
 10
-599423.8519
 20
-1166101.2196
  0
LWPOLYLINE
  5
20377
100
AcDbEntity
  8
směr proudění podzemních vod
100
AcDbPolyline
 70
0
 90
3
 10
-599448.3354
 20
-1166090.1282
 10
-599423.8519
 20
-1166101.2196
 10
-599450.8589
 20
-1166099.0464
  0
LWPOLYLINE
  5
20378
100
AcDbEntity
  8
směr proudění podzemních vod
100
AcDbPolyline
 70
0
 90
2
 10
-599035.7872
 20
-1166189.5878
 10
-598985.4976
 20
-1166202.6922
  0
LWPOLYLINE
  5
20379
100
AcDbEntity
  8
směr proudění podzemních vod
100
AcDbPolyline
 70
0
 90
3
 10
-599009.8701
 20
-1166191.3588
 10
-598985.4976
 20
-1166202.6922
 10
-599012.4818
 20
-1166200.2516
  0
LWPOLYLINE
  5
2037A
100
AcDbEntity
  8
směr proudění podzemních vod
100
AcDbPolyline
 70
0
 90
2
 10
-598833.9188
 20
-1166247.4125
 10
-598785.9885
 20
-1166267.4985
  0
LWPOLYLINE
  5
2037B
100
AcDbEntity
  8
směr proudění podzemních vod
100
AcDbPolyline
 70
0
 90
3
 10
-598808.5128
 20
-1166252.8316
 10
-598785.9885
 20
-1166267.4985
 10
-598812.3561
 20
-1166261.2656
  0
LWPOLYLINE
  5
2037C
100
AcDbEntity
  8
směr proudění podzemních vod
100
AcDbPolyline
 70
0
 90
2
 10
-598654.9113
 20
-1166299.623
 10
-598606.981
 20
-1166319.7091
  0
LWPOLYLINE
  5
2037D
100
AcDbEntity
  8
směr proudění podzemních vod
100
AcDbPolyline
 70
0
 90
3
 10
-598629.5053
 20
-1166305.0422
 10
-598606.981
 20
-1166319.7091
 10
-598633.3486
 20
-1166313.4761
  0
LWPOLYLINE
  5
2037E
100
AcDbEntity
  8
směr proudění podzemních vod
100
AcDbPolyline
 70
0
 90
2
 10
-598505.7384
 20
-1166344.3749
 10
-598457.808
 20
-1166364.4609
  0
LWPOLYLINE
  5
2037F
100
AcDbEntity
  8
směr proudění podzemních vod
100
AcDbPolyline
 70
0
 90
3
 10
-598480.3324
 20
-1166349.794
 10
-598457.808
 20
-1166364.4609
 10
-598484.1757
 20
-1166358.228
  0
LWPOLYLINE
  5
20380
100
AcDbEntity
  8
směr proudění podzemních vod
100
AcDbPolyline
 70
0
 90
2
 10
-598337.9188
 20
-1166404.044
 10
-598289.9885
 20
-1166424.1301
  0
LWPOLYLINE
  5
20381
100
AcDbEntity
  8
směr proudění podzemních vod
100
AcDbPolyline
 70
0
 90
3
 10
-598312.5128
 20
-1166409.4632
 10
-598289.9885
 20
-1166424.1301
 10
-598316.3561
 20
-1166417.8972
  0
LWPOLYLINE
  5
20382
100
AcDbEntity
  8
směr proudění podzemních vod
100
AcDbPolyline
 70
0
 90
2
 10
-598186.1663
 20
-1166468.5694
 10
-598138.236
 20
-1166488.6555
  0
LWPOLYLINE
  5
20383
100
AcDbEntity
  8
směr proudění podzemních vod
100
AcDbPolyline
 70
0
 90
3
 10
-598160.7603
 20
-1166473.9886
 10
-598138.236
 20
-1166488.6555
 10
-598164.6036
 20
-1166482.4226
  0
LWPOLYLINE
  5
20384
100
AcDbEntity
  8
směr proudění podzemních vod
100
AcDbPolyline
 70
0
 90
2
 10
-598038.5673
 20
-1166539.9802
 10
-597994.5943
 20
-1166567.6775
  0
LWPOLYLINE
  5
20385
100
AcDbEntity
  8
směr proudění podzemních vod
100
AcDbPolyline
 70
0
 90
3
 10
-598014.3989
 20
-1166549.505
 10
-597994.5943
 20
-1166567.6775
 10
-598019.5773
 20
-1166557.1919
  0
LWPOLYLINE
  5
20386
100
AcDbEntity
  8
směr proudění podzemních vod
100
AcDbPolyline
 70
0
 90
2
 10
-597895.4727
 20
-1166623.3841
 10
-597849.7401
 20
-1166648.068
  0
LWPOLYLINE
  5
20387
100
AcDbEntity
  8
směr proudění podzemních vod
100
AcDbPolyline
 70
0
 90
3
 10
-597870.7196
 20
-1166631.2655
 10
-597849.7401
 20
-1166648.068
 10
-597875.3705
 20
-1166639.2825
  0
LWPOLYLINE
  5
20388
100
AcDbEntity
  8
směr proudění podzemních vod
100
AcDbPolyline
 70
0
 90
2
 10
-597714.1882
 20
-1166715.6874
 10
-597666.2578
 20
-1166735.7735
  0
LWPOLYLINE
  5
20389
100
AcDbEntity
  8
směr proudění podzemních vod
100
AcDbPolyline
 70
0
 90
3
 10
-597688.7822
 20
-1166721.1065
 10
-597666.2578
 20
-1166735.7735
 10
-597692.6255
 20
-1166729.5405
  0
LWPOLYLINE
  5
2038A
100
AcDbEntity
  8
směr proudění podzemních vod
100
AcDbPolyline
 70
0
 90
2
 10
-597540.7182
 20
-1166778.5774
 10
-597491.3666
 20
-1166794.8619
  0
LWPOLYLINE
  5
2038B
100
AcDbEntity
  8
směr proudění podzemních vod
100
AcDbPolyline
 70
0
 90
3
 10
-597514.9667
 20
-1166781.9974
 10
-597491.3666
 20
-1166794.8619
 10
-597518.1402
 20
-1166790.7056
  0
LWPOLYLINE
  5
2038C
100
AcDbEntity
  8
směr proudění podzemních vod
100
AcDbPolyline
 70
0
 90
2
 10
-599635.3352
 20
-1166458.4381
 10
-599587.4049
 20
-1166478.5242
  0
LWPOLYLINE
  5
2038D
100
AcDbEntity
  8
směr proudění podzemních vod
100
AcDbPolyline
 70
0
 90
3
 10
-599609.9292
 20
-1166463.8573
 10
-599587.4049
 20
-1166478.5242
 10
-599613.7725
 20
-1166472.2913
  0
LWPOLYLINE
  5
2038E
100
AcDbEntity
  8
směr proudění podzemních vod
100
AcDbPolyline
 70
0
 90
2
 10
-599190.4386
 20
-1166645.1347
 10
-599142.5083
 20
-1166665.2208
  0
LWPOLYLINE
  5
2038F
100
AcDbEntity
  8
směr proudění podzemních vod
100
AcDbPolyline
 70
0
 90
3
 10
-599165.0326
 20
-1166650.5539
 10
-599142.5083
 20
-1166665.2208
 10
-599168.8759
 20
-1166658.9879
  0
LWPOLYLINE
  5
20390
100
AcDbEntity
  8
směr proudění podzemních vod
100
AcDbPolyline
 70
0
 90
2
 10
-599827.8576
 20
-1166410.2294
 10
-599779.9273
 20
-1166430.3155
  0
LWPOLYLINE
  5
20391
100
AcDbEntity
  8
směr proudění podzemních vod
100
AcDbPolyline
 70
0
 90
3
 10
-599802.4516
 20
-1166415.6485
 10
-599779.9273
 20
-1166430.3155
 10
-599806.2949
 20
-1166424.0825
  0
LWPOLYLINE
  5
20392
100
AcDbEntity
  8
směr proudění podzemních vod
100
AcDbPolyline
 70
0
 90
2
 10
-599671.637
 20
-1166040.961
 10
-599621.0307
 20
-1166052.7832
  0
LWPOLYLINE
  5
20393
100
AcDbEntity
  8
směr proudění podzemních vod
100
AcDbPolyline
 70
0
 90
3
 10
-599645.6833
 20
-1166042.0728
 10
-599621.0307
 20
-1166052.7832
 10
-599648.0681
 20
-1166051.0291
  0
LWPOLYLINE
  5
20394
100
AcDbEntity
  8
směr proudění podzemních vod
100
AcDbPolyline
 70
0
 90
2
 10
-598961.6155
 20
-1166721.583
 10
-598911.5352
 20
-1166735.4658
  0
LWPOLYLINE
  5
20395
100
AcDbEntity
  8
směr proudění podzemních vod
100
AcDbPolyline
 70
0
 90
3
 10
-598935.7289
 20
-1166723.7558
 10
-598911.5352
 20
-1166735.4658
 10
-598938.4783
 20
-1166732.607
  0
LWPOLYLINE
  5
20396
100
AcDbEntity
  8
směr proudění podzemních vod
100
AcDbPolyline
 70
0
 90
2
 10
-598774.1397
 20
-1166772.1635
 10
-598724.2475
 20
-1166786.7076
  0
LWPOLYLINE
  5
20397
100
AcDbEntity
  8
směr proudění podzemních vod
100
AcDbPolyline
 70
0
 90
3
 10
-598748.2842
 20
-1166774.6786
 10
-598724.2475
 20
-1166786.7076
 10
-598751.1504
 20
-1166783.4927
  0
LWPOLYLINE
  5
20398
100
AcDbEntity
  8
směr proudění podzemních vod
100
AcDbPolyline
 70
0
 90
2
 10
-598611.6745
 20
-1166827.4096
 10
-598563.7441
 20
-1166847.4957
  0
LWPOLYLINE
  5
20399
100
AcDbEntity
  8
směr proudění podzemních vod
100
AcDbPolyline
 70
0
 90
3
 10
-598586.2684
 20
-1166832.8288
 10
-598563.7441
 20
-1166847.4957
 10
-598590.1118
 20
-1166841.2628
  0
LWPOLYLINE
  5
2039A
100
AcDbEntity
  8
směr proudění podzemních vod
100
AcDbPolyline
 70
0
 90
2
 10
-598475.3546
 20
-1166879.057
 10
-598427.4243
 20
-1166899.1431
  0
LWPOLYLINE
  5
2039B
100
AcDbEntity
  8
směr proudění podzemních vod
100
AcDbPolyline
 70
0
 90
3
 10
-598449.9486
 20
-1166884.4762
 10
-598427.4243
 20
-1166899.1431
 10
-598453.7919
 20
-1166892.9102
  0
LWPOLYLINE
  5
2039C
100
AcDbEntity
  8
směr proudění podzemních vod
100
AcDbPolyline
 70
0
 90
2
 10
-598354.2109
 20
-1166926.279
 10
-598306.2806
 20
-1166946.3651
  0
LWPOLYLINE
  5
2039D
100
AcDbEntity
  8
směr proudění podzemních vod
100
AcDbPolyline
 70
0
 90
3
 10
-598328.8049
 20
-1166931.6981
 10
-598306.2806
 20
-1166946.3651
 10
-598332.6482
 20
-1166940.1321
  0
LWPOLYLINE
  5
2039E
100
AcDbEntity
  8
směr proudění podzemních vod
100
AcDbPolyline
 70
0
 90
2
 10
-598202.6338
 20
-1166984.629
 10
-598154.7035
 20
-1167004.7151
  0
LWPOLYLINE
  5
2039F
100
AcDbEntity
  8
směr proudění podzemních vod
100
AcDbPolyline
 70
0
 90
3
 10
-598177.2278
 20
-1166990.0482
 10
-598154.7035
 20
-1167004.7151
 10
-598181.0711
 20
-1166998.4822
  0
LWPOLYLINE
  5
203A0
100
AcDbEntity
  8
směr proudění podzemních vod
100
AcDbPolyline
 70
0
 90
2
 10
-598034.6049
 20
-1167043.9577
 10
-597986.6746
 20
-1167064.0437
  0
LWPOLYLINE
  5
203A1
100
AcDbEntity
  8
směr proudění podzemních vod
100
AcDbPolyline
 70
0
 90
3
 10
-598009.1989
 20
-1167049.3768
 10
-597986.6746
 20
-1167064.0437
 10
-598013.0422
 20
-1167057.8108
  0
LWPOLYLINE
  5
203A2
100
AcDbEntity
  8
směr proudění podzemních vod
100
AcDbPolyline
 70
0
 90
2
 10
-597857.3115
 20
-1167107.8067
 10
-597808.0588
 20
-1167124.388
  0
LWPOLYLINE
  5
203A3
100
AcDbEntity
  8
směr proudění podzemních vod
100
AcDbPolyline
 70
0
 90
3
 10
-597831.5811
 20
-1167111.3817
 10
-597808.0588
 20
-1167124.388
 10
-597834.8069
 20
-1167120.0707
  0
LWPOLYLINE
  5
203A4
100
AcDbEntity
  8
směr proudění podzemních vod
100
AcDbPolyline
 70
0
 90
2
 10
-597685.1975
 20
-1167164.6983
 10
-597634.7703
 20
-1167177.2627
  0
LWPOLYLINE
  5
203A5
100
AcDbEntity
  8
směr proudění podzemních vod
100
AcDbPolyline
 70
0
 90
3
 10
-597659.2629
 20
-1167166.1913
 10
-597634.7703
 20
-1167177.2627
 10
-597661.7791
 20
-1167175.1116
  0
LWPOLYLINE
  5
203A6
100
AcDbEntity
  8
směr proudění podzemních vod
100
AcDbPolyline
 70
0
 90
2
 10
-597510.1562
 20
-1167198.0169
 10
-597459.0952
 20
-1167207.6886
  0
LWPOLYLINE
  5
203A7
100
AcDbEntity
  8
směr proudění podzemních vod
100
AcDbPolyline
 70
0
 90
3
 10
-597484.1787
 20
-1167198.0303
 10
-597459.0952
 20
-1167207.6886
 10
-597486.1827
 20
-1167207.0794
  0
LWPOLYLINE
  5
203A8
100
AcDbEntity
  8
směr proudění podzemních vod
100
AcDbPolyline
 70
0
 90
2
 10
-599258.4121
 20
-1166139.4569
 10
-599208.4027
 20
-1166153.5931
  0
LWPOLYLINE
  5
203A9
100
AcDbEntity
  8
směr proudění podzemních vod
100
AcDbPolyline
 70
0
 90
3
 10
-599232.5369
 20
-1166141.7607
 10
-599208.4027
 20
-1166153.5931
 10
-599235.331
 20
-1166150.598
  0
LWPOLYLINE
  5
203AA
100
AcDbEntity
  8
směr proudění podzemních vod
100
AcDbPolyline
 70
0
 90
2
 10
-599442.6057
 20
-1166531.1009
 10
-599394.6754
 20
-1166551.187
  0
LWPOLYLINE
  5
203AB
100
AcDbEntity
  8
směr proudění podzemních vod
100
AcDbPolyline
 70
0
 90
3
 10
-599417.1997
 20
-1166536.5201
 10
-599394.6754
 20
-1166551.187
 10
-599421.043
 20
-1166544.954
  0
LWPOLYLINE
  5
203AC
100
AcDbEntity
  8
směr proudění podzemních vod
100
AcDbPolyline
 70
0
 90
2
 10
-597068.5967
 20
-1166564.1944
 10
-597120.5587
 20
-1166563.3458
  0
LWPOLYLINE
  5
203AD
100
AcDbEntity
  8
směr proudění podzemních vod
100
AcDbPolyline
 70
0
 90
3
 10
-597094.1982
 20
-1166568.5984
 10
-597120.5587
 20
-1166563.3458
 10
-597093.7621
 20
-1166559.3403
  0
LWPOLYLINE
  5
203AE
100
AcDbEntity
  8
směr proudění podzemních vod
100
AcDbPolyline
 70
0
 90
2
 10
-597996.4937
 20
-1165868.45
 10
-597974.888
 20
-1165915.7148
  0
LWPOLYLINE
  5
203AF
100
AcDbEntity
  8
směr proudění podzemních vod
100
AcDbPolyline
 70
0
 90
3
 10
-597981.4963
 20
-1165889.6611
 10
-597974.888
 20
-1165915.7148
 10
-597990.0403
 20
-1165893.2534
  0
LWPOLYLINE
  5
203B0
100
AcDbEntity
  8
směr proudění podzemních vod
100
AcDbPolyline
 70
0
 90
2
 10
-598075.9137
 20
-1166095.35
 10
-598046.2631
 20
-1166138.0303
  0
LWPOLYLINE
  5
203B1
100
AcDbEntity
  8
směr proudění podzemních vod
100
AcDbPolyline
 70
0
 90
3
 10
-598057.3902
 20
-1166113.563
 10
-598046.2631
 20
-1166138.0303
 10
-598065.161
 20
-1166118.6145
  0
LWPOLYLINE
  5
203B2
100
AcDbEntity
  8
směr proudění podzemních vod
100
AcDbPolyline
 70
0
 90
2
 10
-597981.4705
 20
-1166227.5599
 10
-597962.2582
 20
-1166275.8471
  0
LWPOLYLINE
  5
203B3
100
AcDbEntity
  8
směr proudění podzemních vod
100
AcDbPolyline
 70
0
 90
3
 10
-597967.5539
 20
-1166249.4953
 10
-597962.2582
 20
-1166275.8471
 10
-597976.267
 20
-1166252.6553
  0
LWPOLYLINE
  5
203B4
100
AcDbEntity
  8
směr proudění podzemních vod
100
AcDbPolyline
 70
0
 90
2
 10
-597851.9716
 20
-1166170.8832
 10
-597829.0493
 20
-1166217.5237
  0
LWPOLYLINE
  5
203B5
100
AcDbEntity
  8
směr proudění podzemních vod
100
AcDbPolyline
 70
0
 90
3
 10
-597836.3855
 20
-1166191.6656
 10
-597829.0493
 20
-1166217.5237
 10
-597844.8253
 20
-1166195.496
  0
LWPOLYLINE
  5
203B6
100
AcDbEntity
  8
směr proudění podzemních vod
100
AcDbPolyline
 70
0
 90
2
 10
-597772.8676
 20
-1165975.3672
 10
-597758.4653
 20
-1166025.3005
  0
LWPOLYLINE
  5
203B7
100
AcDbEntity
  8
směr proudění podzemních vod
100
AcDbPolyline
 70
0
 90
3
 10
-597761.1609
 20
-1165998.5574
 10
-597758.4653
 20
-1166025.3005
 10
-597770.141
 20
-1166000.851
  0
LWPOLYLINE
  5
203B8
100
AcDbEntity
  8
směr proudění podzemních vod
100
AcDbPolyline
 70
0
 90
2
 10
-597885.7182
 20
-1166410.4778
 10
-597856.0677
 20
-1166453.1581
  0
LWPOLYLINE
  5
203B9
100
AcDbEntity
  8
směr proudění podzemních vod
100
AcDbPolyline
 70
0
 90
3
 10
-597867.1947
 20
-1166428.6908
 10
-597856.0677
 20
-1166453.1581
 10
-597874.9655
 20
-1166433.7423
  0
LWPOLYLINE
  5
203BA
100
AcDbEntity
  8
směr proudění podzemních vod
100
AcDbPolyline
 70
0
 90
2
 10
-597771.9739
 20
-1166341.4853
 10
-597742.3233
 20
-1166384.1656
  0
LWPOLYLINE
  5
203BB
100
AcDbEntity
  8
směr proudění podzemních vod
100
AcDbPolyline
 70
0
 90
3
 10
-597753.4504
 20
-1166359.6983
 10
-597742.3233
 20
-1166384.1656
 10
-597761.2211
 20
-1166364.7498
  0
LWPOLYLINE
  5
203BC
100
AcDbEntity
  8
směr proudění podzemních vod
100
AcDbPolyline
 70
0
 90
3
 10
-597759.8712
 20
-1166535.8797
 10
-597740.6607
 20
-1166554.6792
 10
-597765.2939
 20
-1166543.3962
  0
LWPOLYLINE
  5
203BD
100
AcDbEntity
  8
směr proudění podzemních vod
100
AcDbPolyline
 70
0
 90
2
 10
-597783.721
 20
-1166525.5832
 10
-597740.6607
 20
-1166554.6792
  0
LWPOLYLINE
  5
203BE
100
AcDbEntity
  8
směr proudění podzemních vod
100
AcDbPolyline
 70
0
 90
3
 10
-597648.3067
 20
-1166488.243
 10
-597635.5432
 20
-1166511.8979
 10
-597655.7164
 20
-1166493.8108
  0
LWPOLYLINE
  5
203BF
100
AcDbEntity
  8
směr proudění podzemních vod
100
AcDbPolyline
 70
0
 90
2
 10
-597668.0247
 20
-1166471.3305
 10
-597635.5432
 20
-1166511.8979
  0
LWPOLYLINE
  5
203C0
100
AcDbEntity
  8
směr proudění podzemních vod
100
AcDbPolyline
 70
0
 90
3
 10
-597549.4306
 20
-1166445.8755
 10
-597543.2809
 20
-1166472.0412
 10
-597558.0363
 20
-1166449.3172
  0
LWPOLYLINE
  5
203C1
100
AcDbEntity
  8
směr proudění podzemních vod
100
AcDbPolyline
 70
0
 90
2
 10
-597564.0531
 20
-1166424.4042
 10
-597543.2809
 20
-1166472.0412
  0
LWPOLYLINE
  5
203C2
100
AcDbEntity
  8
směr proudění podzemních vod
100
AcDbPolyline
 70
0
 90
3
 10
-597559.635
 20
-1166588.5988
 10
-597539.1821
 20
-1166606.0385
 10
-597564.5302
 20
-1166596.469
  0
LWPOLYLINE
  5
203C3
100
AcDbEntity
  8
směr proudění podzemních vod
100
AcDbPolyline
 70
0
 90
2
 10
-597584.134
 20
-1166579.9599
 10
-597539.1821
 20
-1166606.0385
  0
LWPOLYLINE
  5
203C4
100
AcDbEntity
  8
směr proudění podzemních vod
100
AcDbPolyline
 70
0
 90
3
 10
-597393.5306
 20
-1166506.1508
 10
-597382.8569
 20
-1166530.8193
 10
-597401.3933
 20
-1166511.0581
  0
LWPOLYLINE
  5
203C5
100
AcDbEntity
  8
směr proudění podzemních vod
100
AcDbPolyline
 70
0
 90
2
 10
-597411.7149
 20
-1166487.5991
 10
-597382.8569
 20
-1166530.8193
  0
LWPOLYLINE
  5
203C6
100
AcDbEntity
  8
směr proudění podzemních vod
100
AcDbPolyline
 70
0
 90
2
 10
-597113.2396
 20
-1166676.3041
 10
-597165.2015
 20
-1166675.4555
  0
LWPOLYLINE
  5
203C7
100
AcDbEntity
  8
směr proudění podzemních vod
100
AcDbPolyline
 70
0
 90
3
 10
-597138.8411
 20
-1166680.7081
 10
-597165.2015
 20
-1166675.4555
 10
-597138.4049
 20
-1166671.4499
  0
LWPOLYLINE
  5
203C8
100
AcDbEntity
  8
směr proudění podzemních vod
100
AcDbPolyline
 70
0
 90
2
 10
-597147.8448
 20
-1166828.9763
 10
-597199.8068
 20
-1166828.1278
  0
LWPOLYLINE
  5
203C9
100
AcDbEntity
  8
směr proudění podzemních vod
100
AcDbPolyline
 70
0
 90
3
 10
-597173.4463
 20
-1166833.3803
 10
-597199.8068
 20
-1166828.1278
 10
-597173.0102
 20
-1166824.1222
  0
LWPOLYLINE
  5
203CA
100
AcDbEntity
  8
směr proudění podzemních vod
100
AcDbPolyline
 70
0
 90
2
 10
-597246.6719
 20
-1167240.6004
 10
-597298.6339
 20
-1167239.7518
  0
LWPOLYLINE
  5
203CB
100
AcDbEntity
  8
směr proudění podzemních vod
100
AcDbPolyline
 70
0
 90
3
 10
-597272.2734
 20
-1167245.0044
 10
-597298.6339
 20
-1167239.7518
 10
-597271.8373
 20
-1167235.7462
  0
LWPOLYLINE
  5
203CC
100
AcDbEntity
  8
směr proudění podzemních vod
100
AcDbPolyline
 70
0
 90
2
 10
-598555.7069
 20
-1153981.6667
 10
-598523.2214
 20
-1153970.2012
  0
LWPOLYLINE
  5
203CD
100
AcDbEntity
  8
směr proudění podzemních vod
100
AcDbPolyline
 70
0
 90
2
 10
-598476.8923
 20
-1154284.0161
 10
-598442.8992
 20
-1154270.2999
  0
LWPOLYLINE
  5
203CE
100
AcDbEntity
  8
směr proudění podzemních vod
100
AcDbPolyline
 70
0
 90
2
 10
-598249.9604
 20
-1154205.8808
 10
-598217.3262
 20
-1154192.8442
  0
LWPOLYLINE
  5
203CF
100
AcDbEntity
  8
směr proudění podzemních vod
100
AcDbPolyline
 70
0
 90
2
 10
-598357.3114
 20
-1153923.9146
 10
-598323.3183
 20
-1153910.1985
  0
LWPOLYLINE
  5
203D0
100
AcDbEntity
  8
směr proudění podzemních vod
100
AcDbPolyline
 70
0
 90
2
 10
-598451.7531
 20
-1154496.6798
 10
-598419.7984
 20
-1154486.3608
  0
LWPOLYLINE
  5
203D1
100
AcDbEntity
  8
směr proudění podzemních vod
100
AcDbPolyline
 70
0
 90
2
 10
-598314.1647
 20
-1154376.7645
 10
-598286.2653
 20
-1154357.4855
  0
LWPOLYLINE
  5
203D2
100
AcDbEntity
  8
směr proudění podzemních vod
100
AcDbPolyline
 70
0
 90
2
 10
-598032.8804
 20
-1154346.5242
 10
-597984.9588
 20
-1154355.909
  0
LWPOLYLINE
  5
203D3
100
AcDbEntity
  8
směr proudění podzemních vod
100
AcDbPolyline
 70
0
 90
2
 10
-598193.5884
 20
-1154747.5193
 10
-598165.689
 20
-1154728.2403
  0
LWPOLYLINE
  5
203D4
100
AcDbEntity
  8
směr proudění podzemních vod
100
AcDbPolyline
 70
0
 90
2
 10
-598550.2714
 20
-1154665.8595
 10
-598531.226
 20
-1154687.4741
  0
LWPOLYLINE
  5
203D5
100
AcDbEntity
  8
směr proudění podzemních vod
100
AcDbPolyline
 70
0
 90
2
 10
-598687.3
 20
-1154966.93
 10
-598663.9703
 20
-1154942.4705
  0
LWPOLYLINE
  5
203D6
100
AcDbEntity
  8
směr proudění podzemních vod
100
AcDbPolyline
 70
0
 90
2
 10
-598699.0681
 20
-1155256.29
 10
-598710.5973
 20
-1155220.1525
  0
LWPOLYLINE
  5
203D7
100
AcDbEntity
  8
směr proudění podzemních vod
100
AcDbPolyline
 70
0
 90
2
 10
-598499.3349
 20
-1155424.2383
 10
-598471.4355
 20
-1155404.9593
  0
LWPOLYLINE
  5
203D8
100
AcDbEntity
  8
směr proudění podzemních vod
100
AcDbPolyline
 70
0
 90
2
 10
-598673.2707
 20
-1155477.2344
 10
-598639.2777
 20
-1155470.3126
  0
LWPOLYLINE
  5
203D9
100
AcDbEntity
  8
směr proudění podzemních vod
100
AcDbPolyline
 70
0
 90
2
 10
-598939.8501
 20
-1154268.9411
 10
-598911.9237
 20
-1154283.5129
  0
LWPOLYLINE
  5
203DA
100
AcDbEntity
  8
směr proudění podzemních vod
100
AcDbPolyline
 70
0
 90
2
 10
-598916.5297
 20
-1154508.9995
 10
-598882.89
 20
-1154520.495
  0
LWPOLYLINE
  5
203DB
100
AcDbEntity
  8
směr proudění podzemních vod
100
AcDbPolyline
 70
0
 90
2
 10
-598745.2939
 20
-1154688.3497
 10
-598709.48
 20
-1154676.635
  0
LWPOLYLINE
  5
203DC
100
AcDbEntity
  8
směr proudění podzemních vod
100
AcDbPolyline
 70
0
 90
2
 10
-598976.7627
 20
-1154835.1695
 10
-598953.056
 20
-1154857.245
  0
LWPOLYLINE
  5
203DD
100
AcDbEntity
  8
směr proudění podzemních vod
100
AcDbPolyline
 70
0
 90
2
 10
-599034.5149
 20
-1155119.6642
 10
-599004.213
 20
-1155124.428
  0
LWPOLYLINE
  5
203DE
100
AcDbEntity
  8
směr proudění podzemních vod
100
AcDbPolyline
 70
0
 90
2
 10
-599043.6947
 20
-1155285.4195
 10
-599005.495
 20
-1155294.035
  0
LWPOLYLINE
  5
203DF
100
AcDbEntity
  8
směr proudění podzemních vod
100
AcDbPolyline
 70
0
 90
2
 10
-599052.6497
 20
-1155497.0695
 10
-599016.2
 20
-1155509.405
  0
LWPOLYLINE
  5
203E0
100
AcDbEntity
  8
směr proudění podzemních vod
100
AcDbPolyline
 70
0
 90
2
 10
-599112.9497
 20
-1155782.9695
 10
-599076.86
 20
-1155790.26
  0
LWPOLYLINE
  5
203E1
100
AcDbEntity
  8
směr proudění podzemních vod
100
AcDbPolyline
 70
0
 90
2
 10
-599124.5293
 20
-1156019.8587
 10
-599092.14
 20
-1156017.79
  0
LWPOLYLINE
  5
203E2
100
AcDbEntity
  8
směr proudění podzemních vod
100
AcDbPolyline
 70
0
 90
2
 10
-599024.6648
 20
-1156154.2239
 10
-598989.867
 20
-1156152.4671
  0
LWPOLYLINE
  5
203E3
100
AcDbEntity
  8
směr proudění podzemních vod
100
AcDbPolyline
 70
0
 90
2
 10
-598667.8246
 20
-1154349.3057
 10
-598633.8315
 20
-1154335.5896
  0
LWPOLYLINE
  5
203E4
100
AcDbEntity
  8
směr proudění podzemních vod
100
AcDbPolyline
 70
0
 90
2
 10
-598707.2319
 20
-1154559.2516
 10
-598673.2389
 20
-1154545.5355
  0
LWPOLYLINE
  5
203E5
100
AcDbEntity
  8
směr proudění podzemních vod
100
AcDbPolyline
 70
0
 90
2
 10
-598973.1644
 20
-1156021.0631
 10
-598933.1624
 20
-1156035.1894
  0
LWPOLYLINE
  5
203E6
100
AcDbEntity
  8
směr proudění podzemních vod
100
AcDbPolyline
 70
0
 90
2
 10
-598915.2271
 20
-1156159.2226
 10
-598882.4234
 20
-1156168.8369
  0
LWPOLYLINE
  5
203E7
100
AcDbEntity
  8
směr proudění podzemních vod
100
AcDbPolyline
 70
0
 90
2
 10
-599213.8726
 20
-1155491.7664
 10
-599177.374
 20
-1155489.0145
  0
LWPOLYLINE
  5
203E8
100
AcDbEntity
  8
směr proudění podzemních vod
100
AcDbPolyline
 70
0
 90
2
 10
-599485.3
 20
-1155582.4
 10
-599468.1798
 20
-1155555.1785
  0
LWPOLYLINE
  5
203E9
100
AcDbEntity
  8
směr proudění podzemních vod
100
AcDbPolyline
 70
0
 90
2
 10
-599248.743
 20
-1155269.9425
 10
-599212.06
 20
-1155270.71
  0
LWPOLYLINE
  5
203EA
100
AcDbEntity
  8
směr proudění podzemních vod
100
AcDbPolyline
 70
0
 90
2
 10
-599615.6282
 20
-1155346.6551
 10
-599609.5027
 20
-1155311.2607
  0
LWPOLYLINE
  5
203EB
100
AcDbEntity
  8
směr proudění podzemních vod
100
AcDbPolyline
 70
0
 90
2
 10
-599723.05
 20
-1155196.16
 10
-599709.3799
 20
-1155157.708
  0
LWPOLYLINE
  5
203EC
100
AcDbEntity
  8
směr proudění podzemních vod
100
AcDbPolyline
 70
0
 90
2
 10
-599236.5131
 20
-1155106.1982
 10
-599196.62
 20
-1155108.25
  0
LWPOLYLINE
  5
203ED
100
AcDbEntity
  8
směr proudění podzemních vod
100
AcDbPolyline
 70
0
 90
2
 10
-599142.7509
 20
-1154801.1311
 10
-599102.15
 20
-1154805.49
  0
LWPOLYLINE
  5
203EE
100
AcDbEntity
  8
směr proudění podzemních vod
100
AcDbPolyline
 70
0
 90
2
 10
-599349.9791
 20
-1154801.8106
 10
-599312.27
 20
-1154803.155
  0
LWPOLYLINE
  5
203EF
100
AcDbEntity
  8
směr proudění podzemních vod
100
AcDbPolyline
 70
0
 90
2
 10
-599094.5109
 20
-1154480.437
 10
-599057.58
 20
-1154486.1
  0
LWPOLYLINE
  5
203F0
100
AcDbEntity
  8
směr proudění podzemních vod
100
AcDbPolyline
 70
0
 90
2
 10
-598810.24
 20
-1154183.4467
 10
-598798.5177
 20
-1154214.2675
  0
LWPOLYLINE
  5
203F1
100
AcDbEntity
  8
směr proudění podzemních vod
100
AcDbPolyline
 70
0
 90
2
 10
-598832.2483
 20
-1154362.215
 10
-598816.53
 20
-1154397.66
  0
LWPOLYLINE
  5
203F2
100
AcDbEntity
  8
směr proudění podzemních vod
100
AcDbPolyline
 70
0
 90
2
 10
-598840.4015
 20
-1153962.0268
 10
-598797.795
 20
-1153966.82
  0
LWPOLYLINE
  5
203F3
100
AcDbEntity
  8
směr proudění podzemních vod
100
AcDbPolyline
 70
0
 90
3
 10
-598820.9612
 20
-1153962.5245
 10
-598797.795
 20
-1153966.82
 10
-598821.0595
 20
-1153966.2282
  0
LWPOLYLINE
  5
203F4
100
AcDbEntity
  8
směr proudění podzemních vod
100
AcDbPolyline
 70
0
 90
3
 10
-598912.2598
 20
-1154129.0077
 10
-598890.499
 20
-1154138.0405
 10
-598913.1285
 20
-1154132.6094
  0
LWPOLYLINE
  5
203F5
100
AcDbEntity
  8
směr proudění podzemních vod
100
AcDbPolyline
 70
0
 90
2
 10
-598931.1688
 20
-1154124.4662
 10
-598890.499
 20
-1154138.0405
  0
LWPOLYLINE
  5
203F6
100
AcDbEntity
  8
směr proudění podzemních vod
100
AcDbPolyline
 70
0
 90
3
 10
-598802.9867
 20
-1154196.2374
 10
-598798.5376
 20
-1154214.0339
 10
-598807.4358
 20
-1154197.8391
  0
LWPOLYLINE
  5
203F7
100
AcDbEntity
  8
směr proudění podzemních vod
100
AcDbPolyline
 70
0
 90
3
 10
-598926.5836
 20
-1154273.0294
 10
-598911.9237
 20
-1154283.5129
 10
-598928.6302
 20
-1154276.9446
  0
LWPOLYLINE
  5
203F8
100
AcDbEntity
  8
směr proudění podzemních vod
100
AcDbPolyline
 70
0
 90
3
 10
-598822.5629
 20
-1154377.1391
 10
-598816.53
 20
-1154397.66
 10
-598827.69
 20
-1154380.01
  0
LWPOLYLINE
  5
203F9
100
AcDbEntity
  8
směr proudění podzemních vod
100
AcDbPolyline
 70
0
 90
3
 10
-599078.299
 20
-1154481.0708
 10
-599057.58
 20
-1154486.1
 10
-599078.78
 20
-1154484.62
  0
LWPOLYLINE
  5
203FA
100
AcDbEntity
  8
směr proudění podzemních vod
100
AcDbPolyline
 70
0
 90
3
 10
-598903.1812
 20
-1154511.3249
 10
-598882.89
 20
-1154520.495
 10
-598904.4269
 20
-1154515.3291
  0
LWPOLYLINE
  5
203FB
100
AcDbEntity
  8
směr proudění podzemních vod
100
AcDbPolyline
 70
0
 90
3
 10
-598537.9075
 20
-1153973.5139
 10
-598555.7069
 20
-1153981.6667
 10
-598536.4837
 20
-1153976.5393
  0
LWPOLYLINE
  5
203FC
100
AcDbEntity
  8
směr proudění podzemních vod
100
AcDbPolyline
 70
0
 90
3
 10
-598339.4762
 20
-1153914.7853
 10
-598357.3114
 20
-1153923.9146
 10
-598338.008
 20
-1153917.9442
  0
LWPOLYLINE
  5
203FD
100
AcDbEntity
  8
směr proudění podzemních vod
100
AcDbPolyline
 70
0
 90
3
 10
-598650.337
 20
-1154340.2113
 10
-598667.8246
 20
-1154349.3057
 10
-598648.4239
 20
-1154343.4146
  0
LWPOLYLINE
  5
203FE
100
AcDbEntity
  8
směr proudění podzemních vod
100
AcDbPolyline
 70
0
 90
3
 10
-598458.5794
 20
-1154274.1417
 10
-598476.8923
 20
-1154284.0161
 10
-598456.4884
 20
-1154277.9234
  0
LWPOLYLINE
  5
203FF
100
AcDbEntity
  8
směr proudění podzemních vod
100
AcDbPolyline
 70
0
 90
3
 10
-598234.0318
 20
-1154197.8836
 10
-598249.9604
 20
-1154205.8808
 10
-598232.8305
 20
-1154200.3306
  0
LWPOLYLINE
  5
20400
100
AcDbEntity
  8
směr proudění podzemních vod
100
AcDbPolyline
 70
0
 90
3
 10
-598689.4004
 20
-1154549.8543
 10
-598707.2319
 20
-1154559.2516
 10
-598687.2648
 20
-1154553.3247
  0
LWPOLYLINE
  5
20401
100
AcDbEntity
  8
směr proudění podzemních vod
100
AcDbPolyline
 70
0
 90
3
 10
-598433.2639
 20
-1154488.6788
 10
-598451.7531
 20
-1154496.6798
 10
-598431.7957
 20
-1154491.9711
  0
LWPOLYLINE
  5
20402
100
AcDbEntity
  8
směr proudění podzemních vod
100
AcDbPolyline
 70
0
 90
3
 10
-598300.5908
 20
-1154365.3044
 10
-598314.1647
 20
-1154376.7645
 10
-598298.1438
 20
-1154368.0183
  0
LWPOLYLINE
  5
20403
100
AcDbEntity
  8
směr proudění podzemních vod
100
AcDbPolyline
 70
0
 90
3
 10
-597999.9185
 20
-1154349.7324
 10
-598032.8804
 20
-1154346.5242
 10
-598001.7871
 20
-1154356.0502
  0
LWPOLYLINE
  5
20404
100
AcDbEntity
  8
směr proudění podzemních vod
100
AcDbPolyline
 70
0
 90
3
 10
-598178.2397
 20
-1154734.2264
 10
-598193.5884
 20
-1154747.5193
 10
-598175.1253
 20
-1154737.4742
  0
LWPOLYLINE
  5
20405
100
AcDbEntity
  8
směr proudění podzemních vod
100
AcDbPolyline
 70
0
 90
3
 10
-598728.0633
 20
-1154680.0359
 10
-598745.2939
 20
-1154688.3497
 10
-598725.9278
 20
-1154684.4851
  0
LWPOLYLINE
  5
20406
100
AcDbEntity
  8
směr proudění podzemních vod
100
AcDbPolyline
 70
0
 90
3
 10
-599334.3465
 20
-1154800.8299
 10
-599312.27
 20
-1154803.155
 10
-599334.2575
 20
-1154803.8998
  0
LWPOLYLINE
  5
20407
100
AcDbEntity
  8
směr proudění podzemních vod
100
AcDbPolyline
 70
0
 90
3
 10
-599122.6123
 20
-1154801.7197
 10
-599102.15
 20
-1154805.49
 10
-599123.0127
 20
-1154804.7451
  0
LWPOLYLINE
  5
20408
100
AcDbEntity
  8
směr proudění podzemních vod
100
AcDbPolyline
 70
0
 90
3
 10
-598965.7359
 20
-1154843.1856
 10
-598953.056
 20
-1154857.245
 10
-598967.916
 20
-1154845.1432
  0
LWPOLYLINE
  5
20409
100
AcDbEntity
  8
směr proudění podzemních vod
100
AcDbPolyline
 70
0
 90
3
 10
-599218.8915
 20
-1155105.7288
 10
-599195.8676
 20
-1155108.2732
 10
-599219.025
 20
-1155108.4873
  0
LWPOLYLINE
  5
2040A
100
AcDbEntity
  8
směr proudění podzemních vod
100
AcDbPolyline
 70
0
 90
3
 10
-599019.8819
 20
-1155120.6779
 10
-599004.213
 20
-1155124.428
 10
-599020.3268
 20
-1155122.9915
  0
LWPOLYLINE
  5
2040B
100
AcDbEntity
  8
směr proudění podzemních vod
100
AcDbPolyline
 70
0
 90
3
 10
-599235.7537
 20
-1155268.3891
 10
-599212.06
 20
-1155270.71
 10
-599235.9317
 20
-1155272.1264
  0
LWPOLYLINE
  5
2040C
100
AcDbEntity
  8
směr proudění podzemních vod
100
AcDbPolyline
 70
0
 90
3
 10
-599027.8013
 20
-1155287.2089
 10
-599005.495
 20
-1155294.035
 10
-599028.6467
 20
-1155290.5903
  0
LWPOLYLINE
  5
2040D
100
AcDbEntity
  8
směr proudění podzemních vod
100
AcDbPolyline
 70
0
 90
3
 10
-599201.8069
 20
-1155489.1105
 10
-599177.374
 20
-1155489.0145
 10
-599201.8514
 20
-1155492.6253
  0
LWPOLYLINE
  5
2040E
100
AcDbEntity
  8
směr proudění podzemních vod
100
AcDbPolyline
 70
0
 90
3
 10
-599037.421
 20
-1155499.343
 10
-599016.2
 20
-1155509.405
 10
-599038.8855
 20
-1155504.4825
  0
LWPOLYLINE
  5
2040F
100
AcDbEntity
  8
směr proudění podzemních vod
100
AcDbPolyline
 70
0
 90
3
 10
-599097.6082
 20
-1155784.4439
 10
-599076.86
 20
-1155790.26
 10
-599098.2756
 20
-1155787.7362
  0
LWPOLYLINE
  5
20410
100
AcDbEntity
  8
směr proudění podzemních vod
100
AcDbPolyline
 70
0
 90
3
 10
-598675.8305
 20
-1154951.7889
 10
-598687.3
 20
-1154966.93
 10
-598672.2267
 20
-1154954.3694
  0
LWPOLYLINE
  5
20411
100
AcDbEntity
  8
směr proudění podzemních vod
100
AcDbPolyline
 70
0
 90
3
 10
-598540.3545
 20
-1154680.2139
 10
-598550.2714
 20
-1154665.8595
 10
-598536.9731
 20
-1154677.6334
  0
LWPOLYLINE
  5
20412
100
AcDbEntity
  8
směr proudění podzemních vod
100
AcDbPolyline
 70
0
 90
3
 10
-598703.7266
 20
-1155232.885
 10
-598699.0681
 20
-1155256.29
 10
-598708.5317
 20
-1155234.8426
  0
LWPOLYLINE
  5
20413
100
AcDbEntity
  8
směr proudění podzemních vod
100
AcDbPolyline
 70
0
 90
3
 10
-598652.2946
 20
-1155470.1127
 10
-598673.2707
 20
-1155477.2344
 10
-598651.4048
 20
-1155475.1847
  0
LWPOLYLINE
  5
20414
100
AcDbEntity
  8
směr proudění podzemních vod
100
AcDbPolyline
 70
0
 90
3
 10
-598484.7403
 20
-1155411.5621
 10
-598499.3349
 20
-1155424.2383
 10
-598481.9374
 20
-1155414.6765
  0
LWPOLYLINE
  5
20415
100
AcDbEntity
  8
směr proudění podzemních vod
100
AcDbPolyline
 70
0
 90
3
 10
-599113.9365
 20
-1156016.911
 10
-599092.14
 20
-1156017.79
 10
-599114.0255
 20
-1156021.3601
  0
LWPOLYLINE
  5
20416
100
AcDbEntity
  8
směr proudění podzemních vod
100
AcDbPolyline
 70
0
 90
3
 10
-598956.2593
 20
-1156024.0296
 10
-598933.1624
 20
-1156035.1894
 10
-598958.1279
 20
-1156028.8346
  0
LWPOLYLINE
  5
20417
100
AcDbEntity
  8
směr proudění podzemních vod
100
AcDbPolyline
 70
0
 90
3
 10
-599010.2718
 20
-1156151.8976
 10
-598989.867
 20
-1156152.4671
 10
-599010.2273
 20
-1156154.7896
  0
LWPOLYLINE
  5
20418
100
AcDbEntity
  8
směr proudění podzemních vod
100
AcDbPolyline
 70
0
 90
3
 10
-598901.535
 20
-1156160.9739
 10
-598882.4093
 20
-1156168.8377
 10
-598902.5138
 20
-1156164.8891
  0
LWPOLYLINE
  5
20419
100
AcDbEntity
  8
směr proudění podzemních vod
100
AcDbPolyline
 70
0
 90
2
 10
-593279.8136
 20
-1161968.1221
 10
-593314.1889
 20
-1162006.7351
  0
LWPOLYLINE
  5
2041A
100
AcDbEntity
  8
směr proudění podzemních vod
100
AcDbPolyline
 70
0
 90
3
 10
-593296.3395
 20
-1161981.8385
 10
-593314.1889
 20
-1162006.7351
 10
-593291.1546
 20
-1161985.6062
  0
LWPOLYLINE
  5
2041B
100
AcDbEntity
  8
směr proudění podzemních vod
100
AcDbPolyline
 70
0
 90
2
 10
-592733.6382
 20
-1162375.3928
 10
-592750.5181
 20
-1162424.2569
  0
LWPOLYLINE
  5
2041C
100
AcDbEntity
  8
směr proudění podzemních vod
100
AcDbPolyline
 70
0
 90
3
 10
-592743.6173
 20
-1162394.4103
 10
-592750.5181
 20
-1162424.2569
 10
-592737.3821
 20
-1162395.894
  0
LWPOLYLINE
  5
2041D
100
AcDbEntity
  8
směr proudění podzemních vod
100
AcDbPolyline
 70
0
 90
2
 10
-593038.9725
 20
-1162973.6523
 10
-593065.3706
 20
-1163018.1019
  0
LWPOLYLINE
  5
2041E
100
AcDbEntity
  8
směr proudění podzemních vod
100
AcDbPolyline
 70
0
 90
3
 10
-593052.5858
 20
-1162990.2633
 10
-593065.3706
 20
-1163018.1019
 10
-593046.7786
 20
-1162992.9753
  0
LWPOLYLINE
  5
2041F
100
AcDbEntity
  8
směr proudění podzemních vod
100
AcDbPolyline
 70
0
 90
2
 10
-593610.9668
 20
-1163384.187
 10
-593655.2375
 20
-1163410.8839
  0
LWPOLYLINE
  5
20420
100
AcDbEntity
  8
směr proudění podzemních vod
100
AcDbPolyline
 70
0
 90
3
 10
-593630.8142
 20
-1163392.3923
 10
-593655.2375
 20
-1163410.8839
 10
-593626.9781
 20
-1163397.5268
  0
LWPOLYLINE
  5
20421
100
AcDbEntity
  8
směr proudění podzemních vod
100
AcDbPolyline
 70
0
 90
2
 10
-592466.9524
 20
-1163490.9085
 10
-592501.3276
 20
-1163529.5215
  0
LWPOLYLINE
  5
20422
100
AcDbEntity
  8
směr proudění podzemních vod
100
AcDbPolyline
 70
0
 90
3
 10
-592483.4782
 20
-1163504.6249
 10
-592501.3276
 20
-1163529.5215
 10
-592478.2933
 20
-1163508.3927
  0
LWPOLYLINE
  5
20423
100
AcDbEntity
  8
směr proudění podzemních vod
100
AcDbPolyline
 70
0
 90
2
 10
-593202.0375
 20
-1163998.7569
 10
-593239.6113
 20
-1164034.2651
  0
LWPOLYLINE
  5
20424
100
AcDbEntity
  8
směr proudění podzemních vod
100
AcDbPolyline
 70
0
 90
3
 10
-593219.6835
 20
-1164010.9988
 10
-593239.6113
 20
-1164034.2651
 10
-593214.8425
 20
-1164015.1991
  0
LWPOLYLINE
  5
20425
100
AcDbEntity
  8
směr proudění podzemních vod
100
AcDbPolyline
 70
0
 90
2
 10
-591892.5744
 20
-1163912.0717
 10
-591929.2124
 20
-1163948.5447
  0
LWPOLYLINE
  5
20426
100
AcDbEntity
  8
směr proudění podzemních vod
100
AcDbPolyline
 70
0
 90
3
 10
-591909.8962
 20
-1163924.7681
 10
-591929.2124
 20
-1163948.5447
 10
-591904.9476
 20
-1163928.8412
  0
LWPOLYLINE
  5
20427
100
AcDbEntity
  8
směr proudění podzemních vod
100
AcDbPolyline
 70
0
 90
2
 10
-592748.3575
 20
-1164642.3833
 10
-592785.9988
 20
-1164677.8199
  0
LWPOLYLINE
  5
20428
100
AcDbEntity
  8
směr proudění podzemních vod
100
AcDbPolyline
 70
0
 90
3
 10
-592766.0268
 20
-1164654.5915
 10
-592785.9988
 20
-1164677.8199
 10
-592761.1937
 20
-1164658.8011
  0
LWPOLYLINE
  5
20429
100
AcDbEntity
  8
směr proudění podzemních vod
100
AcDbPolyline
 70
0
 90
2
 10
-593907.0686
 20
-1162005.911
 10
-593958.0926
 20
-1162014.3711
  0
LWPOLYLINE
  5
2042A
100
AcDbEntity
  8
směr proudění podzemních vod
100
AcDbPolyline
 70
0
 90
3
 10
-593929.2079
 20
-1162005.7393
 10
-593958.0926
 20
-1162014.3711
 10
-593927.3849
 20
-1162012.9432
  0
LWPOLYLINE
  5
2042B
100
AcDbEntity
  8
směr proudění podzemních vod
100
AcDbPolyline
 70
0
 90
2
 10
-592998.9897
 20
-1162145.0686
 10
-592994.5205
 20
-1162196.5724
  0
LWPOLYLINE
  5
2042C
100
AcDbEntity
  8
směr proudění podzemních vod
100
AcDbPolyline
 70
0
 90
3
 10
-593000.3647
 20
-1162166.5011
 10
-592994.5205
 20
-1162196.5724
 10
-592994.0655
 20
-1162165.3186
  0
LWPOLYLINE
  5
2042D
100
AcDbEntity
  8
směr proudění podzemních vod
100
AcDbPolyline
 70
0
 90
2
 10
-592937.0413
 20
-1162029.0046
 10
-592896.891
 20
-1162061.5711
  0
LWPOLYLINE
  5
2042E
100
AcDbEntity
  8
směr proudění podzemních vod
100
AcDbPolyline
 70
0
 90
3
 10
-592922.5807
 20
-1162044.8834
 10
-592896.891
 20
-1162061.5711
 10
-592919.055
 20
-1162039.531
  0
LWPOLYLINE
  5
2042F
100
AcDbEntity
  8
směr proudění podzemních vod
100
AcDbPolyline
 70
0
 90
2
 10
-593623.09
 20
-1162447.7
 10
-593657.4653
 20
-1162486.313
  0
LWPOLYLINE
  5
20430
100
AcDbEntity
  8
směr proudění podzemních vod
100
AcDbPolyline
 70
0
 90
3
 10
-593639.6159
 20
-1162461.4164
 10
-593657.4653
 20
-1162486.313
 10
-593634.431
 20
-1162465.1842
  0
LWPOLYLINE
  5
20431
100
AcDbEntity
  8
směr proudění podzemních vod
100
AcDbPolyline
 70
0
 90
3
 10
-601451.07
 20
-1162403.4526
 10
-601459.6061
 20
-1162433.9531
 10
-601444.3867
 20
-1162406.3504
  0
LWPOLYLINE
  5
20432
100
AcDbEntity
  8
směr proudění podzemních vod
100
AcDbPolyline
 70
0
 90
2
 10
-601439.7425
 20
-1162386.0525
 10
-601459.6061
 20
-1162433.9531
  0
LWPOLYLINE
  5
20433
100
AcDbEntity
  8
směr proudění podzemních vod
100
AcDbPolyline
 70
0
 90
2
 10
-601590.1167
 20
-1162823.4691
 10
-601609.9803
 20
-1162871.3697
  0
LWPOLYLINE
  5
20434
100
AcDbEntity
  8
směr proudění podzemních vod
100
AcDbPolyline
 70
0
 90
3
 10
-601601.4442
 20
-1162840.8692
 10
-601609.9803
 20
-1162871.3697
 10
-601594.7609
 20
-1162843.767
  0
LWPOLYLINE
  5
20435
100
AcDbEntity
  8
směr proudění podzemních vod
100
AcDbPolyline
 70
0
 90
2
 10
-601743.7679
 20
-1163301.4383
 10
-601763.6315
 20
-1163349.3389
  0
LWPOLYLINE
  5
20436
100
AcDbEntity
  8
směr proudění podzemních vod
100
AcDbPolyline
 70
0
 90
3
 10
-601755.0954
 20
-1163318.8384
 10
-601763.6315
 20
-1163349.3389
 10
-601748.4121
 20
-1163321.7362
  0
LWPOLYLINE
  5
20437
100
AcDbEntity
  8
směr proudění podzemních vod
100
AcDbPolyline
 70
0
 90
2
 10
-601879.1961
 20
-1163813.6662
 10
-601888.1349
 20
-1163864.7458
  0
LWPOLYLINE
  5
20438
100
AcDbEntity
  8
směr proudění podzemních vod
100
AcDbPolyline
 70
0
 90
3
 10
-601886.4561
 20
-1163833.1179
 10
-601888.1349
 20
-1163864.7458
 10
-601879.3017
 20
-1163834.4883
  0
LWPOLYLINE
  5
20439
100
AcDbEntity
  8
směr proudění podzemních vod
100
AcDbPolyline
 70
0
 90
2
 10
-602017.1739
 20
-1164488.2552
 10
-602030.1385
 20
-1164538.4642
  0
LWPOLYLINE
  5
2043A
100
AcDbEntity
  8
směr proudění podzemních vod
100
AcDbPolyline
 70
0
 90
3
 10
-602025.9548
 20
-1164507.0693
 10
-602030.1385
 20
-1164538.4642
 10
-602018.9318
 20
-1164509.0032
  0
LWPOLYLINE
  5
2043B
100
AcDbEntity
  8
směr proudění podzemních vod
100
AcDbPolyline
 70
0
 90
2
 10
-602254.6887
 20
-1162805.1077
 10
-602274.5522
 20
-1162853.0083
  0
LWPOLYLINE
  5
2043C
100
AcDbEntity
  8
směr proudění podzemních vod
100
AcDbPolyline
 70
0
 90
3
 10
-602266.0161
 20
-1162822.5078
 10
-602274.5522
 20
-1162853.0083
 10
-602259.3329
 20
-1162825.4056
  0
LWPOLYLINE
  5
2043D
100
AcDbEntity
  8
směr proudění podzemních vod
100
AcDbPolyline
 70
0
 90
2
 10
-602616.1245
 20
-1163425.7803
 10
-602646.8842
 20
-1163467.528
  0
LWPOLYLINE
  5
2043E
100
AcDbEntity
  8
směr proudění podzemních vod
100
AcDbPolyline
 70
0
 90
3
 10
-602631.2903
 20
-1163439.9603
 10
-602646.8842
 20
-1163467.528
 10
-602625.4958
 20
-1163444.3747
  0
LWPOLYLINE
  5
2043F
100
AcDbEntity
  8
směr proudění podzemních vod
100
AcDbPolyline
 70
0
 90
2
 10
-597279.2393
 20
-1152300.953
 10
-597272.6937
 20
-1152250.2833
  0
LWPOLYLINE
  5
20440
100
AcDbEntity
  8
směr proudění podzemních vod
100
AcDbPolyline
 70
0
 90
3
 10
-597279.4649
 20
-1152277.7335
 10
-597272.6937
 20
-1152250.2833
 10
-597272.8123
 20
-1152278.0689
  0
LWPOLYLINE
  5
20441
100
AcDbEntity
  8
směr proudění podzemních vod
100
AcDbPolyline
 70
0
 90
3
 10
-597388.4994
 20
-1152494.5639
 10
-597413.8129
 20
-1152507.1573
 10
-597392.5471
 20
-1152489.2737
  0
LWPOLYLINE
  5
20442
100
AcDbEntity
  8
směr proudění podzemních vod
100
AcDbPolyline
 70
0
 90
2
 10
-597370.9384
 20
-1152479.3717
 10
-597413.8129
 20
-1152507.1573
  0
LWPOLYLINE
  5
20443
100
AcDbEntity
  8
směr proudění podzemních vod
100
AcDbPolyline
 70
0
 90
3
 10
-597004.1605
 20
-1152297.5651
 10
-597006.2439
 20
-1152269.3688
 10
-596997.7323
 20
-1152295.819
  0
LWPOLYLINE
  5
20444
100
AcDbEntity
  8
směr proudění podzemních vod
100
AcDbPolyline
 70
0
 90
2
 10
-596996.739
 20
-1152319.5677
 10
-597006.2439
 20
-1152269.3688
  0
LWPOLYLINE
  5
20445
100
AcDbEntity
  8
směr proudění podzemních vod
100
AcDbPolyline
 70
0
 90
3
 10
-597082.727
 20
-1152887.2589
 10
-597108.1433
 20
-1152899.6437
 10
-597086.7311
 20
-1152881.9356
  0
LWPOLYLINE
  5
20446
100
AcDbEntity
  8
směr proudění podzemních vod
100
AcDbPolyline
 70
0
 90
2
 10
-597065.0417
 20
-1152872.2115
 10
-597108.1433
 20
-1152899.6437
  0
LWPOLYLINE
  5
20447
100
AcDbEntity
  8
směr proudění podzemních vod
100
AcDbPolyline
 70
0
 90
2
 10
-597395.9307
 20
-1153070.8579
 10
-597445.4669
 20
-1153083.365
  0
LWPOLYLINE
  5
20448
100
AcDbEntity
  8
směr proudění podzemních vod
100
AcDbPolyline
 70
0
 90
3
 10
-597417.447
 20
-1153079.5894
 10
-597445.4669
 20
-1153083.365
 10
-597419.5766
 20
-1153073.2779
  0
LWPOLYLINE
  5
20449
100
AcDbEntity
  8
směr proudění podzemních vod
100
AcDbPolyline
 70
0
 90
2
 10
-596495.1713
 20
-1152442.9378
 10
-596453.7826
 20
-1152412.9839
  0
LWPOLYLINE
  5
2044A
100
AcDbEntity
  8
směr proudění podzemních vod
100
AcDbPolyline
 70
0
 90
3
 10
-596478.4149
 20
-1152426.8625
 10
-596453.7826
 20
-1152412.9839
 10
-596474.1005
 20
-1152431.9375
  0
LWPOLYLINE
  5
2044B
100
AcDbEntity
  8
směr proudění podzemních vod
100
AcDbPolyline
 70
0
 90
2
 10
-596619.8521
 20
-1152855.4936
 10
-596607.1842
 20
-1152904.9889
  0
LWPOLYLINE
  5
2044C
100
AcDbEntity
  8
směr proudění podzemních vod
100
AcDbPolyline
 70
0
 90
3
 10
-596611.0508
 20
-1152876.9814
 10
-596607.1842
 20
-1152904.9889
 10
-596617.3554
 20
-1152879.1315
  0
LWPOLYLINE
  5
2044D
100
AcDbEntity
  8
směr proudění podzemních vod
100
AcDbPolyline
 70
0
 90
2
 10
-595975.9458
 20
-1152745.7265
 10
-595936.8364
 20
-1152712.8523
  0
LWPOLYLINE
  5
2044E
100
AcDbEntity
  8
směr proudění podzemních vod
100
AcDbPolyline
 70
0
 90
3
 10
-595960.3983
 20
-1152728.4793
 10
-595936.8364
 20
-1152712.8523
 10
-595955.7274
 20
-1152733.2283
  0
LWPOLYLINE
  5
2044F
100
AcDbEntity
  8
směr proudění podzemních vod
100
AcDbPolyline
 70
0
 90
3
 10
-596240.2243
 20
-1153005.5749
 10
-596268.4563
 20
-1153004.052
 10
-596241.1379
 20
-1152998.9767
  0
LWPOLYLINE
  5
20450
100
AcDbEntity
  8
směr proudění podzemních vod
100
AcDbPolyline
 70
0
 90
2
 10
-596217.4559
 20
-1153001.0147
 10
-596268.4563
 20
-1153004.052
  0
LWPOLYLINE
  5
20451
100
AcDbEntity
  8
směr proudění podzemních vod
100
AcDbPolyline
 70
0
 90
3
 10
-596531.2626
 20
-1153708.4173
 10
-596553.3125
 20
-1153690.7208
 10
-596528.1581
 20
-1153702.5239
  0
LWPOLYLINE
  5
20452
100
AcDbEntity
  8
směr proudění podzemních vod
100
AcDbPolyline
 70
0
 90
2
 10
-596510.1053
 20
-1153717.9862
 10
-596553.3125
 20
-1153690.7208
  0
LWPOLYLINE
  5
20453
100
AcDbEntity
  8
směr proudění podzemních vod
100
AcDbPolyline
 70
0
 90
3
 10
-597370.3074
 20
-1153517.381
 10
-597376.4678
 20
-1153489.7872
 10
-597364.2013
 20
-1153514.7189
  0
LWPOLYLINE
  5
20454
100
AcDbEntity
  8
směr proudění podzemních vod
100
AcDbPolyline
 70
0
 90
2
 10
-597359.766
 20
-1153538.0709
 10
-597376.4678
 20
-1153489.7872
  0
LWPOLYLINE
  5
20455
100
AcDbEntity
  8
směr proudění podzemních vod
100
AcDbPolyline
 70
0
 90
3
 10
-597193.2545
 20
-1153947.6674
 10
-597200.4463
 20
-1153975.0105
 10
-597199.9012
 20
-1153947.2299
  0
LWPOLYLINE
  5
20456
100
AcDbEntity
  8
směr proudění podzemních vod
100
AcDbPolyline
 70
0
 90
2
 10
-597193.1236
 20
-1153924.4472
 10
-597200.4463
 20
-1153975.0105
  0
LWPOLYLINE
  5
20457
100
AcDbEntity
  8
směr proudění podzemních vod
100
AcDbPolyline
 70
0
 90
3
 10
-596877.4648
 20
-1154076.9904
 10
-596902.1624
 20
-1154090.7525
 10
-596881.7552
 20
-1154071.8951
  0
LWPOLYLINE
  5
20458
100
AcDbEntity
  8
směr proudění podzemních vod
100
AcDbPolyline
 70
0
 90
2
 10
-596860.6326
 20
-1154060.9945
 10
-596902.1624
 20
-1154090.7525
  0
LWPOLYLINE
  5
20459
100
AcDbEntity
  8
směr proudění podzemních vod
100
AcDbPolyline
 70
0
 90
3
 10
-595770.4701
 20
-1153289.7177
 10
-595746.0792
 20
-1153275.4191
 10
-595766.0693
 20
-1153294.7181
  0
LWPOLYLINE
  5
2045A
100
AcDbEntity
  8
směr proudění podzemních vod
100
AcDbPolyline
 70
0
 90
2
 10
-595786.9485
 20
-1153306.0778
 10
-595746.0792
 20
-1153275.4191
  0
LWPOLYLINE
  5
2045B
100
AcDbEntity
  8
směr proudění podzemních vod
100
AcDbPolyline
 70
0
 90
3
 10
-595366.6353
 20
-1153152.9272
 10
-595338.5174
 20
-1153155.8853
 10
-595366.0588
 20
-1153159.5633
  0
LWPOLYLINE
  5
2045C
100
AcDbEntity
  8
směr proudění podzemních vod
100
AcDbPolyline
 70
0
 90
2
 10
-595389.6062
 20
-1153156.3224
 10
-595338.5174
 20
-1153155.8853
  0
LWPOLYLINE
  5
2045D
100
AcDbEntity
  8
směr proudění podzemních vod
100
AcDbPolyline
 70
0
 90
3
 10
-595742.3721
 20
-1153841.9388
 10
-595763.0596
 20
-1153861.2105
 10
-595747.7571
 20
-1153838.018
  0
LWPOLYLINE
  5
2045E
100
AcDbEntity
  8
směr proudění podzemních vod
100
AcDbPolyline
 70
0
 90
2
 10
-595729.8562
 20
-1153822.3801
 10
-595763.0596
 20
-1153861.2105
  0
LWPOLYLINE
  5
2045F
100
AcDbEntity
  8
směr proudění podzemních vod
100
AcDbPolyline
 70
0
 90
3
 10
-596276.2417
 20
-1154208.0205
 10
-596264.7229
 20
-1154233.8407
 10
-596281.6973
 20
-1154211.8424
  0
LWPOLYLINE
  5
20460
100
AcDbEntity
  8
směr proudění podzemních vod
100
AcDbPolyline
 70
0
 90
2
 10
-596290.6828
 20
-1154189.8368
 10
-596264.7229
 20
-1154233.8407
  0
LWPOLYLINE
  5
20461
100
AcDbEntity
  8
směr proudění podzemních vod
100
AcDbPolyline
 70
0
 90
3
 10
-595000.7657
 20
-1153986.3779
 10
-594976.4371
 20
-1154000.7824
 10
-595003.0065
 20
-1153992.6508
  0
LWPOLYLINE
  5
20462
100
AcDbEntity
  8
směr proudění podzemních vod
100
AcDbPolyline
 70
0
 90
2
 10
-595023.0624
 20
-1153979.8936
 10
-594976.4371
 20
-1154000.7824
  0
LWPOLYLINE
  5
20463
100
AcDbEntity
  8
směr proudění podzemních vod
100
AcDbPolyline
 70
0
 90
3
 10
-595131.9369
 20
-1154758.174
 10
-595112.8785
 20
-1154779.0581
 10
-595135.9127
 20
-1154763.5184
  0
LWPOLYLINE
  5
20464
100
AcDbEntity
  8
směr proudění podzemních vod
100
AcDbPolyline
 70
0
 90
2
 10
-595151.3661
 20
-1154745.458
 10
-595112.8785
 20
-1154779.0581
  0
LWPOLYLINE
  5
20465
100
AcDbEntity
  8
směr proudění podzemních vod
100
AcDbPolyline
 70
0
 90
3
 10
-595008.5804
 20
-1153517.494
 10
-594981.9585
 20
-1153507.9734
 10
-595005.1847
 20
-1153523.2246
  0
LWPOLYLINE
  5
20466
100
AcDbEntity
  8
směr proudění podzemních vod
100
AcDbPolyline
 70
0
 90
2
 10
-595027.8102
 20
-1153530.5095
 10
-594981.9585
 20
-1153507.9734
  0
LWPOLYLINE
  5
20467
100
AcDbEntity
  8
směr proudění podzemních vod
100
AcDbPolyline
 70
0
 90
2
 10
-596219.0408
 20
-1154822.0973
 10
-596172.3244
 20
-1154842.7817
  0
LWPOLYLINE
  5
20468
100
AcDbEntity
  8
směr proudění podzemních vod
100
AcDbPolyline
 70
0
 90
3
 10
-596196.7158
 20
-1154828.4839
 10
-596172.3244
 20
-1154842.7817
 10
-596198.9291
 20
-1154834.7666
  0
LWPOLYLINE
  5
20469
100
AcDbEntity
  8
směr proudění podzemních vod
100
AcDbPolyline
 70
0
 90
2
 10
-595724.515
 20
-1154940.8852
 10
-595685.4359
 20
-1154973.7955
  0
LWPOLYLINE
  5
2046A
100
AcDbEntity
  8
směr proudění podzemních vod
100
AcDbPolyline
 70
0
 90
3
 10
-595704.8626
 20
-1154953.2536
 10
-595685.4359
 20
-1154973.7955
 10
-595708.7428
 20
-1154958.6679
  0
LWPOLYLINE
  5
2046B
100
AcDbEntity
  8
směr proudění podzemních vod
100
AcDbPolyline
 70
0
 90
2
 10
-596331.7371
 20
-1155661.9865
 10
-596328.6665
 20
-1155712.9849
  0
LWPOLYLINE
  5
2046C
100
AcDbEntity
  8
směr proudění podzemních vod
100
AcDbPolyline
 70
0
 90
3
 10
-596327.162
 20
-1155684.7518
 10
-596328.6665
 20
-1155712.9849
 10
-596333.7596
 20
-1155685.6697
  0
LWPOLYLINE
  5
2046D
100
AcDbEntity
  8
směr proudění podzemních vod
100
AcDbPolyline
 70
0
 90
2
 10
-595807.6277
 20
-1155657.2068
 10
-595760.1314
 20
-1155676.0314
  0
LWPOLYLINE
  5
2046E
100
AcDbEntity
  8
směr proudění podzemních vod
100
AcDbPolyline
 70
0
 90
3
 10
-595785.0681
 20
-1155662.7074
 10
-595760.1314
 20
-1155676.0314
 10
-595787.0318
 20
-1155669.0725
  0
LWPOLYLINE
  5
2046F
100
AcDbEntity
  8
směr proudění podzemních vod
100
AcDbPolyline
 70
0
 90
2
 10
-595346.6191
 20
-1155876.6955
 10
-595304.1149
 20
-1155905.0445
  0
LWPOLYLINE
  5
20470
100
AcDbEntity
  8
směr proudění podzemních vod
100
AcDbPolyline
 70
0
 90
3
 10
-595325.7105
 20
-1155886.7962
 10
-595304.1149
 20
-1155905.0445
 10
-595328.9629
 20
-1155892.6093
  0
LWPOLYLINE
  5
20471
100
AcDbEntity
  8
směr proudění podzemních vod
100
AcDbPolyline
 70
0
 90
2
 10
-597206.1252
 20
-1155163.832
 10
-597244.9644
 20
-1155197.0251
  0
LWPOLYLINE
  5
20472
100
AcDbEntity
  8
směr proudění podzemních vod
100
AcDbPolyline
 70
0
 90
3
 10
-597221.5311
 20
-1155181.2058
 10
-597244.9644
 20
-1155197.0251
 10
-597226.2407
 20
-1155176.4952
  0
LWPOLYLINE
  5
20473
100
AcDbEntity
  8
směr proudění podzemních vod
100
AcDbPolyline
 70
0
 90
2
 10
-596731.3532
 20
-1155295.5692
 10
-596752.0102
 20
-1155342.2977
  0
LWPOLYLINE
  5
20474
100
AcDbEntity
  8
směr proudění podzemních vod
100
AcDbPolyline
 70
0
 90
3
 10
-596737.7267
 20
-1155317.8979
 10
-596752.0102
 20
-1155342.2977
 10
-596744.0107
 20
-1155315.6883
  0
LWPOLYLINE
  5
20475
100
AcDbEntity
  8
směr proudění podzemních vod
100
AcDbPolyline
 70
0
 90
2
 10
-596853.304
 20
-1153406.1677
 10
-596888.0483
 20
-1153368.7097
  0
LWPOLYLINE
  5
20476
100
AcDbEntity
  8
směr proudění podzemních vod
100
AcDbPolyline
 70
0
 90
3
 10
-596871.2897
 20
-1153391.4807
 10
-596888.0483
 20
-1153368.7097
 10
-596866.7743
 20
-1153386.5835
  0
LWPOLYLINE
  5
20477
100
AcDbEntity
  8
směr proudění podzemních vod
100
AcDbPolyline
 70
0
 90
2
 10
-599473.4078
 20
-1161515.2063
 10
-599465.569
 20
-1161566.4139
  0
LWPOLYLINE
  5
20478
100
AcDbEntity
  8
směr proudění podzemních vod
100
AcDbPolyline
 70
0
 90
3
 10
-599466.8255
 20
-1161535.0252
 10
-599465.569
 20
-1161566.4139
 10
-599473.3658
 20
-1161535.8081
  0
LWPOLYLINE
  5
20479
100
AcDbEntity
  8
směr proudění podzemních vod
100
AcDbPolyline
 70
0
 90
2
 10
-599091.5279
 20
-1161276.6495
 10
-599108.6987
 20
-1161325.5252
  0
LWPOLYLINE
  5
2047A
100
AcDbEntity
  8
směr proudění podzemních vod
100
AcDbPolyline
 70
0
 90
3
 10
-599095.0422
 20
-1161297.2351
 10
-599108.6987
 20
-1161325.5252
 10
-599101.1819
 20
-1161294.8493
  0
LWPOLYLINE
  5
2047B
100
AcDbEntity
  8
směr proudění podzemních vod
100
AcDbPolyline
 70
0
 90
2
 10
-598951.074
 20
-1160972.666
 10
-598977.5494
 20
-1161017.1938
  0
LWPOLYLINE
  5
2047C
100
AcDbEntity
  8
směr proudění podzemních vod
100
AcDbPolyline
 70
0
 90
3
 10
-598958.5803
 20
-1160992.1537
 10
-598977.5494
 20
-1161017.1938
 10
-598964.1288
 20
-1160988.6036
  0
LWPOLYLINE
  5
2047D
100
AcDbEntity
  8
směr proudění podzemních vod
100
AcDbPolyline
 70
0
 90
2
 10
-598807.8259
 20
-1161666.4524
 10
-598836.9864
 20
-1161709.2698
  0
LWPOLYLINE
  5
2047E
100
AcDbEntity
  8
směr proudění podzemních vod
100
AcDbPolyline
 70
0
 90
3
 10
-598816.515
 20
-1161685.4422
 10
-598836.9864
 20
-1161709.2698
 10
-598821.8349
 20
-1161681.558
  0
LWPOLYLINE
  5
2047F
100
AcDbEntity
  8
směr proudění podzemních vod
100
AcDbPolyline
 70
0
 90
2
 10
-598684.5509
 20
-1161382.6627
 10
-598700.8625
 20
-1161431.8318
  0
LWPOLYLINE
  5
20480
100
AcDbEntity
  8
směr proudění podzemních vod
100
AcDbPolyline
 70
0
 90
3
 10
-598687.7039
 20
-1161403.3067
 10
-598700.8625
 20
-1161431.8318
 10
-598693.8845
 20
-1161401.0289
  0
LWPOLYLINE
  5
20481
100
AcDbEntity
  8
směr proudění podzemních vod
100
AcDbPolyline
 70
0
 90
2
 10
-598658.1278
 20
-1161020.5954
 10
-598660.7765
 20
-1161072.3318
  0
LWPOLYLINE
  5
20482
100
AcDbEntity
  8
směr proudění podzemních vod
100
AcDbPolyline
 70
0
 90
3
 10
-598655.6774
 20
-1161041.3346
 10
-598660.7765
 20
-1161072.3318
 10
-598662.2412
 20
-1161040.7824
  0
LWPOLYLINE
  5
20483
100
AcDbEntity
  8
směr proudění podzemních vod
100
AcDbPolyline
 70
0
 90
2
 10
-598229.5174
 20
-1161490.1191
 10
-598231.8883
 20
-1161541.869
  0
LWPOLYLINE
  5
20484
100
AcDbEntity
  8
směr proudění podzemních vod
100
AcDbPolyline
 70
0
 90
3
 10
-598226.9557
 20
-1161510.8448
 10
-598231.8883
 20
-1161541.869
 10
-598233.5224
 20
-1161510.3279
  0
LWPOLYLINE
  5
20485
100
AcDbEntity
  8
směr proudění podzemních vod
100
AcDbPolyline
 70
0
 90
3
 10
-599711.5129
 20
-1161633.1071
 10
-599706.6262
 20
-1161664.1385
 10
-599717.9184
 20
-1161634.6428
  0
LWPOLYLINE
  5
20486
100
AcDbEntity
  8
směr proudění podzemních vod
100
AcDbPolyline
 70
0
 90
2
 10
-599720.3483
 20
-1161614.1848
 10
-599706.6262
 20
-1161664.1385
  0
LWPOLYLINE
  5
20487
100
AcDbEntity
  8
směr proudění podzemních vod
100
AcDbPolyline
 70
0
 90
3
 10
-599763.5493
 20
-1161027.9993
 10
-599767.7382
 20
-1161059.1326
 10
-599770.1264
 20
-1161027.6397
  0
LWPOLYLINE
  5
20488
100
AcDbEntity
  8
směr proudění podzemních vod
100
AcDbPolyline
 70
0
 90
2
 10
-599766.6062
 20
-1161007.3408
 10
-599767.7382
 20
-1161059.1326
  0
LWPOLYLINE
  5
20489
100
AcDbEntity
  8
směr proudění podzemních vod
100
AcDbPolyline
 70
0
 90
3
 10
-599761.3995
 20
-1160658.3632
 10
-599765.1182
 20
-1160689.5562
 10
-599767.9813
 20
-1160658.1029
  0
LWPOLYLINE
  5
2048A
100
AcDbEntity
  8
směr proudění podzemních vod
100
AcDbPolyline
 70
0
 90
2
 10
-599764.7677
 20
-1160637.7532
 10
-599765.1182
 20
-1160689.5562
  0
LWPOLYLINE
  5
2048B
100
AcDbEntity
  8
směr proudění podzemních vod
100
AcDbPolyline
 70
0
 90
3
 10
-599267.3789
 20
-1160520.242
 10
-599245.4976
 20
-1160542.7818
 10
-599271.7277
 20
-1160525.1893
  0
LWPOLYLINE
  5
2048C
100
AcDbEntity
  8
směr proudění podzemních vod
100
AcDbPolyline
 70
0
 90
2
 10
-599285.5063
 20
-1160509.8732
 10
-599245.4976
 20
-1160542.7818
  0
LWPOLYLINE
  5
2048D
100
AcDbEntity
  8
směr proudění podzemních vod
100
AcDbPolyline
 70
0
 90
2
 10
-599920.8398
 20
-1160627.6548
 10
-599941.4704
 20
-1160675.1738
  0
LWPOLYLINE
  5
2048E
100
AcDbEntity
  8
směr proudění podzemních vod
100
AcDbPolyline
 70
0
 90
3
 10
-599925.8209
 20
-1160647.9355
 10
-599941.4704
 20
-1160675.1738
 10
-599931.7738
 20
-1160645.1157
  0
LWPOLYLINE
  5
2048F
100
AcDbEntity
  8
směr proudění podzemních vod
100
AcDbPolyline
 70
0
 90
2
 10
-599991.4492
 20
-1160991.0043
 10
-599999.8966
 20
-1161042.1151
  0
LWPOLYLINE
  5
20490
100
AcDbEntity
  8
směr proudění podzemních vod
100
AcDbPolyline
 70
0
 90
3
 10
-599991.3455
 20
-1161011.8875
 10
-599999.8966
 20
-1161042.1151
 10
-599997.8057
 20
-1161010.601
  0
LWPOLYLINE
  5
20491
100
AcDbEntity
  8
směr proudění podzemních vod
100
AcDbPolyline
 70
0
 90
2
 10
-599541.9197
 20
-1160592.4417
 10
-599506.6696
 20
-1160630.4037
  0
LWPOLYLINE
  5
20492
100
AcDbEntity
  8
směr proudění podzemních vod
100
AcDbPolyline
 70
0
 90
3
 10
-599525.3411
 20
-1160605.1409
 10
-599506.6696
 20
-1160630.4037
 10
-599530.3123
 20
-1160609.4624
  0
LWPOLYLINE
  5
20493
100
AcDbEntity
  8
směr proudění podzemních vod
100
AcDbPolyline
 70
0
 90
2
 10
-599472.9729
 20
-1160955.3025
 10
-599470.0899
 20
-1161007.0264
  0
LWPOLYLINE
  5
20494
100
AcDbEntity
  8
směr proudění podzemních vod
100
AcDbPolyline
 70
0
 90
3
 10
-599468.3251
 20
-1160975.6622
 10
-599470.0899
 20
-1161007.0264
 10
-599474.9104
 20
-1160975.813
  0
LWPOLYLINE
  5
20495
100
AcDbEntity
  8
směr proudění podzemních vod
100
AcDbPolyline
 70
0
 90
2
 10
-599468.4697
 20
-1161294.8935
 10
-599468.8203
 20
-1161346.6965
  0
LWPOLYLINE
  5
20496
100
AcDbEntity
  8
směr proudění podzemních vod
100
AcDbPolyline
 70
0
 90
3
 10
-599465.1015
 20
-1161315.5035
 10
-599468.8203
 20
-1161346.6965
 10
-599471.6834
 20
-1161315.2431
  0
LWPOLYLINE
  5
20497
100
AcDbEntity
  8
směr proudění podzemních vod
100
AcDbPolyline
 70
0
 90
2
 10
-599170.6688
 20
-1161477.983
 10
-599175.5482
 20
-1161529.5568
  0
LWPOLYLINE
  5
20498
100
AcDbEntity
  8
směr proudění podzemních vod
100
AcDbPolyline
 70
0
 90
3
 10
-599169.1159
 20
-1161498.8086
 10
-599175.5482
 20
-1161529.5568
 10
-599175.6497
 20
-1161497.9736
  0
LWPOLYLINE
  5
20499
100
AcDbEntity
  8
směr proudění podzemních vod
100
AcDbPolyline
 70
0
 90
3
 10
-599220.0595
 20
-1160919.2597
 10
-599225.6222
 20
-1160950.1771
 10
-599226.6143
 20
-1160918.6093
  0
LWPOLYLINE
  5
2049A
100
AcDbEntity
  8
směr proudění podzemních vod
100
AcDbPolyline
 70
0
 90
2
 10
-599222.199
 20
-1160898.4861
 10
-599225.6222
 20
-1160950.1771
  0
LWPOLYLINE
  5
2049B
100
AcDbEntity
  8
směr proudění podzemních vod
100
AcDbPolyline
 70
0
 90
2
 10
-600335.5721
 20
-1160013.0579
 10
-600379.1155
 20
-1160040.3818
  0
LWPOLYLINE
  5
2049C
100
AcDbEntity
  8
směr proudění podzemních vod
100
AcDbPolyline
 70
0
 90
3
 10
-600348.1508
 20
-1160025.4339
 10
-600379.1155
 20
-1160040.3818
 10
-600352.2965
 20
-1160018.5526
  0
LWPOLYLINE
  5
2049D
100
AcDbEntity
  8
směr proudění podzemních vod
100
AcDbPolyline
 70
0
 90
2
 10
-600500.6728
 20
-1159778.3706
 10
-600546.8091
 20
-1159801.0438
  0
LWPOLYLINE
  5
2049E
100
AcDbEntity
  8
směr proudění podzemních vod
100
AcDbPolyline
 70
0
 90
3
 10
-600514.4642
 20
-1159789.3791
 10
-600546.8091
 20
-1159801.0438
 10
-600517.8758
 20
-1159782.1059
  0
LWPOLYLINE
  5
2049F
100
AcDbEntity
  8
směr proudění podzemních vod
100
AcDbPolyline
 70
0
 90
2
 10
-600879.2692
 20
-1159902.6482
 10
-600930.363
 20
-1159908.3097
  0
LWPOLYLINE
  5
204A0
100
AcDbEntity
  8
směr proudění podzemních vod
100
AcDbPolyline
 70
0
 90
3
 10
-600895.979
 20
-1159908.3201
 10
-600930.363
 20
-1159908.3097
 10
-600896.7185
 20
-1159900.3206
  0
LWPOLYLINE
  5
204A1
100
AcDbEntity
  8
směr proudění podzemních vod
100
AcDbPolyline
 70
0
 90
2
 10
-600186.4197
 20
-1160202.2706
 10
-600224.0142
 20
-1160237.3317
  0
LWPOLYLINE
  5
204A2
100
AcDbEntity
  8
směr proudění podzemních vod
100
AcDbPolyline
 70
0
 90
3
 10
-600196.4327
 20
-1160216.8009
 10
-600224.0142
 20
-1160237.3317
 10
-600201.8042
 20
-1160210.8271
  0
LWPOLYLINE
  5
204A3
100
AcDbEntity
  8
směr proudění podzemních vod
100
AcDbPolyline
 70
0
 90
2
 10
-600021.8403
 20
-1160394.258
 10
-600045.9083
 20
-1160439.6823
  0
LWPOLYLINE
  5
204A4
100
AcDbEntity
  8
směr proudění podzemních vod
100
AcDbPolyline
 70
0
 90
3
 10
-600026.5533
 20
-1160411.2632
 10
-600045.9083
 20
-1160439.6823
 10
-600033.5825
 20
-1160407.3735
  0
LWPOLYLINE
  5
204A5
100
AcDbEntity
  8
směr proudění podzemních vod
100
AcDbPolyline
 70
0
 90
2
 10
-600235.0983
 20
-1159603.908
 10
-600191.2534
 20
-1159577.0704
  0
LWPOLYLINE
  5
204A6
100
AcDbEntity
  8
směr proudění podzemních vod
100
AcDbPolyline
 70
0
 90
3
 10
-600222.3826
 20
-1159591.6728
 10
-600191.2534
 20
-1159577.0704
 10
-600218.3138
 20
-1159598.5998
  0
LWPOLYLINE
  5
204A7
100
AcDbEntity
  8
směr proudění podzemních vod
100
AcDbPolyline
 70
0
 90
2
 10
-600072.6183
 20
-1159863.468
 10
-600026.1793
 20
-1159841.4214
  0
LWPOLYLINE
  5
204A8
100
AcDbEntity
  8
směr proudění podzemních vod
100
AcDbPolyline
 70
0
 90
3
 10
-600058.6791
 20
-1159852.6472
 10
-600026.1793
 20
-1159841.4214
 10
-600055.3663
 20
-1159859.966
  0
LWPOLYLINE
  5
204A9
100
AcDbEntity
  8
směr proudění podzemních vod
100
AcDbPolyline
 70
0
 90
3
 10
-599944.4091
 20
-1160058.9972
 10
-599911.9093
 20
-1160047.7714
 10
-599941.0963
 20
-1160066.316
  0
LWPOLYLINE
  5
204AA
100
AcDbEntity
  8
směr proudění podzemních vod
100
AcDbPolyline
 70
0
 90
2
 10
-599958.3483
 20
-1160069.818
 10
-599911.9093
 20
-1160047.7714
  0
LWPOLYLINE
  5
204AB
100
AcDbEntity
  8
směr proudění podzemních vod
100
AcDbPolyline
 70
0
 90
3
 10
-599786.0205
 20
-1160230.8346
 10
-599752.1407
 20
-1160224.9683
 10
-599783.9247
 20
-1160238.59
  0
LWPOLYLINE
  5
204AC
100
AcDbEntity
  8
směr proudění podzemních vod
100
AcDbPolyline
 70
0
 90
2
 10
-599801.5151
 20
-1160239.2789
 10
-599752.1407
 20
-1160224.9683
  0
LWPOLYLINE
  5
204AD
100
AcDbEntity
  8
směr proudění podzemních vod
100
AcDbPolyline
 70
0
 90
2
 10
-599611.5518
 20
-1162142.1736
 10
-599603.5866
 20
-1162091.597
  0
LWPOLYLINE
  5
204AE
100
AcDbEntity
  8
směr proudění podzemních vod
100
AcDbPolyline
 70
0
 90
3
 10
-599610.6865
 20
-1162114.4008
 10
-599603.5866
 20
-1162091.597
 10
-599603.8637
 20
-1162115.6348
  0
LWPOLYLINE
  5
204AF
100
AcDbEntity
  8
směr proudění podzemních vod
100
AcDbPolyline
 70
0
 90
2
 10
-599610.559
 20
-1161998.0605
 10
-599615.5504
 20
-1161947.1045
  0
LWPOLYLINE
  5
204B0
100
AcDbEntity
  8
směr proudění podzemních vod
100
AcDbPolyline
 70
0
 90
3
 10
-599616.696
 20
-1161970.9606
 10
-599615.5504
 20
-1161947.1045
 10
-599609.782
 20
-1161970.4416
  0
LWPOLYLINE
  5
204B1
100
AcDbEntity
  8
směr proudění podzemních vod
100
AcDbPolyline
 70
0
 90
2
 10
-599645.3782
 20
-1161820.1712
 10
-599664.65
 20
-1161772.7367
  0
LWPOLYLINE
  5
204B2
100
AcDbEntity
  8
směr proudění podzemních vod
100
AcDbPolyline
 70
0
 90
3
 10
-599658.9663
 20
-1161795.9341
 10
-599664.65
 20
-1161772.7367
 10
-599652.4851
 20
-1161793.471
  0
LWPOLYLINE
  5
204B3
100
AcDbEntity
  8
směr proudění podzemních vod
100
AcDbPolyline
 70
0
 90
2
 10
-599228.0895
 20
-1162167.4845
 10
-599195.461
 20
-1162128.028
  0
LWPOLYLINE
  5
204B4
100
AcDbEntity
  8
směr proudění podzemních vod
100
AcDbPolyline
 70
0
 90
3
 10
-599213.1912
 20
-1162144.03
 10
-599195.461
 20
-1162128.028
 10
-599207.9498
 20
-1162148.5688
  0
LWPOLYLINE
  5
204B5
100
AcDbEntity
  8
směr proudění podzemních vod
100
AcDbPolyline
 70
0
 90
2
 10
-599092.2915
 20
-1161974.0275
 10
-599059.6629
 20
-1161934.571
  0
LWPOLYLINE
  5
204B6
100
AcDbEntity
  8
směr proudění podzemních vod
100
AcDbPolyline
 70
0
 90
3
 10
-599077.3932
 20
-1161950.573
 10
-599059.6629
 20
-1161934.571
 10
-599072.1518
 20
-1161955.1118
  0
LWPOLYLINE
  5
204B7
100
AcDbEntity
  8
směr proudění podzemních vod
100
AcDbPolyline
 70
0
 90
2
 10
-598933.2299
 20
-1161802.9647
 10
-598900.6013
 20
-1161763.5083
  0
LWPOLYLINE
  5
204B8
100
AcDbEntity
  8
směr proudění podzemních vod
100
AcDbPolyline
 70
0
 90
3
 10
-598918.3316
 20
-1161779.5103
 10
-598900.6013
 20
-1161763.5083
 10
-598913.0902
 20
-1161784.0491
  0
LWPOLYLINE
  5
204B9
100
AcDbEntity
  8
směr proudění podzemních vod
100
AcDbPolyline
 70
0
 90
2
 10
-599406.6185
 20
-1162369.2652
 10
-599373.99
 20
-1162329.8087
  0
LWPOLYLINE
  5
204BA
100
AcDbEntity
  8
směr proudění podzemních vod
100
AcDbPolyline
 70
0
 90
3
 10
-599391.7202
 20
-1162345.8107
 10
-599373.99
 20
-1162329.8087
 10
-599386.4788
 20
-1162350.3495
  0
LWPOLYLINE
  5
204BB
100
AcDbEntity
  8
směr proudění podzemních vod
100
AcDbPolyline
 70
0
 90
2
 10
-599215.3661
 20
-1163125.4252
 10
-599164.7472
 20
-1163117.7339
  0
LWPOLYLINE
  5
204BC
100
AcDbEntity
  8
směr proudění podzemních vod
100
AcDbPolyline
 70
0
 90
3
 10
-599188.6304
 20
-1163117.8572
 10
-599164.7472
 20
-1163117.7339
 10
-599187.7449
 20
-1163124.7339
  0
LWPOLYLINE
  5
204BD
100
AcDbEntity
  8
směr proudění podzemních vod
100
AcDbPolyline
 70
0
 90
2
 10
-598990.4546
 20
-1162522.2209
 10
-598942.6024
 20
-1162504.0111
  0
LWPOLYLINE
  5
204BE
100
AcDbEntity
  8
směr proudění podzemních vod
100
AcDbPolyline
 70
0
 90
3
 10
-598965.9207
 20
-1162509.1764
 10
-598942.6024
 20
-1162504.0111
 10
-598963.6026
 20
-1162515.7109
  0
LWPOLYLINE
  5
204BF
100
AcDbEntity
  8
směr proudění podzemních vod
100
AcDbPolyline
 70
0
 90
2
 10
-598704.0042
 20
-1162383.7496
 10
-598663.9081
 20
-1162351.9105
  0
LWPOLYLINE
  5
204C0
100
AcDbEntity
  8
směr proudění podzemních vod
100
AcDbPolyline
 70
0
 90
3
 10
-598684.5693
 20
-1162363.8913
 10
-598663.9081
 20
-1162351.9105
 10
-598680.3821
 20
-1162369.4176
  0
LWPOLYLINE
  5
204C1
100
AcDbEntity
  8
směr proudění podzemních vod
100
AcDbPolyline
 70
0
 90
2
 10
-598544.1875
 20
-1162177.2301
 10
-598526.7767
 20
-1162129.0813
  0
LWPOLYLINE
  5
204C2
100
AcDbEntity
  8
směr proudění podzemních vod
100
AcDbPolyline
 70
0
 90
3
 10
-598538.0718
 20
-1162150.1253
 10
-598526.7767
 20
-1162129.0813
 10
-598531.6068
 20
-1162152.6306
  0
LWPOLYLINE
  5
204C3
100
AcDbEntity
  8
směr proudění podzemních vod
100
AcDbPolyline
 70
0
 90
2
 10
-599590.0861
 20
-1163189.8452
 10
-599539.4672
 20
-1163182.1539
  0
LWPOLYLINE
  5
204C4
100
AcDbEntity
  8
směr proudění podzemních vod
100
AcDbPolyline
 70
0
 90
3
 10
-599563.3504
 20
-1163182.2772
 10
-599539.4672
 20
-1163182.1539
 10
-599562.4649
 20
-1163189.1539
  0
LWPOLYLINE
  5
204C5
100
AcDbEntity
  8
směr proudění podzemních vod
100
AcDbPolyline
 70
0
 90
2
 10
-599551.2761
 20
-1162679.9552
 10
-599500.6572
 20
-1162672.2639
  0
LWPOLYLINE
  5
204C6
100
AcDbEntity
  8
směr proudění podzemních vod
100
AcDbPolyline
 70
0
 90
3
 10
-599524.5404
 20
-1162672.3872
 10
-599500.6572
 20
-1162672.2639
 10
-599523.6549
 20
-1162679.2639
  0
LWPOLYLINE
  5
204C7
100
AcDbEntity
  8
směr proudění podzemních vod
100
AcDbPolyline
 70
0
 90
2
 10
-598856.8493
 20
-1163064.5907
 10
-598808.2949
 20
-1163048.3455
  0
LWPOLYLINE
  5
204C8
100
AcDbEntity
  8
směr proudění podzemních vod
100
AcDbPolyline
 70
0
 90
3
 10
-598831.8043
 20
-1163052.5565
 10
-598808.2949
 20
-1163048.3455
 10
-598829.7544
 20
-1163059.18
  0
LWPOLYLINE
  5
204C9
100
AcDbEntity
  8
směr proudění podzemních vod
100
AcDbPolyline
 70
0
 90
2
 10
-598159.0829
 20
-1162737.1836
 10
-598118.9352
 20
-1162705.4094
  0
LWPOLYLINE
  5
204CA
100
AcDbEntity
  8
směr proudění podzemních vod
100
AcDbPolyline
 70
0
 90
3
 10
-598139.6158
 20
-1162717.3567
 10
-598118.9352
 20
-1162705.4094
 10
-598135.4376
 20
-1162722.8899
  0
LWPOLYLINE
  5
204CB
100
AcDbEntity
  8
směr proudění podzemních vod
100
AcDbPolyline
 70
0
 90
2
 10
-599582.6719
 20
-1163723.0055
 10
-599545.3651
 20
-1163758.0716
  0
LWPOLYLINE
  5
204CC
100
AcDbEntity
  8
směr proudění podzemních vod
100
AcDbPolyline
 70
0
 90
3
 10
-599560.2099
 20
-1163739.3619
 10
-599545.3651
 20
-1163758.0716
 10
-599565.0721
 20
-1163744.3047
  0
LWPOLYLINE
  5
204CD
100
AcDbEntity
  8
směr proudění podzemních vod
100
AcDbPolyline
 70
0
 90
2
 10
-598819.2124
 20
-1163442.7617
 10
-598768.1654
 20
-1163446.7158
  0
LWPOLYLINE
  5
204CE
100
AcDbEntity
  8
směr proudění podzemních vod
100
AcDbPolyline
 70
0
 90
3
 10
-598791.4579
 20
-1163441.4353
 10
-598768.1654
 20
-1163446.7158
 10
-598792.1503
 20
-1163448.3342
  0
LWPOLYLINE
  5
204CF
100
AcDbEntity
  8
směr proudění podzemních vod
100
AcDbPolyline
 70
0
 90
3
 10
-599158.2054
 20
-1163431.2582
 10
-599134.7405
 20
-1163435.7102
 10
-599158.653
 20
-1163438.1772
  0
LWPOLYLINE
  5
204D0
100
AcDbEntity
  8
směr proudění podzemních vod
100
AcDbPolyline
 70
0
 90
2
 10
-599185.8955
 20
-1163433.5669
 10
-599134.7405
 20
-1163435.7102
  0
LWPOLYLINE
  5
204D1
100
AcDbEntity
  8
směr proudění podzemních vod
100
AcDbPolyline
 70
0
 90
3
 10
-599542.7698
 20
-1163424.2735
 10
-599519.1763
 20
-1163427.9842
 10
-599542.9992
 20
-1163431.2032
  0
LWPOLYLINE
  5
204D2
100
AcDbEntity
  8
směr proudění podzemních vod
100
AcDbPolyline
 70
0
 90
2
 10
-599570.3735
 20
-1163427.4533
 10
-599519.1763
 20
-1163427.9842
  0
LWPOLYLINE
  5
204D3
100
AcDbEntity
  8
směr proudění podzemních vod
100
AcDbPolyline
 70
0
 90
2
 10
-599352.4495
 20
-1163882.7158
 10
-599321.4643
 20
-1163923.4754
  0
LWPOLYLINE
  5
204D4
100
AcDbEntity
  8
směr proudění podzemních vod
100
AcDbPolyline
 70
0
 90
3
 10
-599333.0061
 20
-1163902.5658
 10
-599321.4643
 20
-1163923.4754
 10
-599338.6197
 20
-1163906.6353
  0
LWPOLYLINE
  5
204D5
100
AcDbEntity
  8
směr proudění podzemních vod
100
AcDbPolyline
 70
0
 90
2
 10
-599653.6872
 20
-1162289.7085
 10
-599643.6504
 20
-1162239.502
  0
LWPOLYLINE
  5
204D6
100
AcDbEntity
  8
směr proudění podzemních vod
100
AcDbPolyline
 70
0
 90
3
 10
-599651.6813
 20
-1162261.9948
 10
-599643.6504
 20
-1162239.502
 10
-599644.915
 20
-1162263.5081
  0
LWPOLYLINE
  5
204D7
100
AcDbEntity
  8
směr proudění podzemních vod
100
AcDbPolyline
 70
0
 90
2
 10
-599732.5638
 20
-1162532.0736
 10
-599710.2696
 20
-1162485.9823
  0
LWPOLYLINE
  5
204D8
100
AcDbEntity
  8
směr proudění podzemních vod
100
AcDbPolyline
 70
0
 90
3
 10
-599723.6792
 20
-1162505.7461
 10
-599710.2696
 20
-1162485.9823
 10
-599717.5078
 20
-1162508.9062
  0
LWPOLYLINE
  5
204D9
100
AcDbEntity
  8
směr proudění podzemních vod
100
AcDbPolyline
 70
0
 90
2
 10
-599886.8698
 20
-1162779.6177
 10
-599841.9923
 20
-1162754.9713
  0
LWPOLYLINE
  5
204DA
100
AcDbEntity
  8
směr proudění podzemních vod
100
AcDbPolyline
 70
0
 90
3
 10
-599864.3734
 20
-1162763.3087
 10
-599841.9923
 20
-1162754.9713
 10
-599861.1747
 20
-1162769.4602
  0
LWPOLYLINE
  5
204DB
100
AcDbEntity
  8
směr proudění podzemních vod
100
AcDbPolyline
 70
0
 90
2
 10
-599271.8734
 20
-1162598.3027
 10
-599222.9693
 20
-1162583.1428
  0
LWPOLYLINE
  5
204DC
100
AcDbEntity
  8
směr proudění podzemních vod
100
AcDbPolyline
 70
0
 90
3
 10
-599246.5666
 20
-1162586.8293
 10
-599222.9693
 20
-1162583.1428
 10
-599244.6647
 20
-1162593.4968
  0
LWPOLYLINE
  5
204DD
100
AcDbEntity
  8
směr proudění podzemních vod
100
AcDbPolyline
 70
0
 90
2
 10
-598706.4572
 20
-1163206.6685
 10
-598752.5679
 20
-1163230.5759
  0
LWPOLYLINE
  5
204DE
100
AcDbEntity
  8
směr proudění podzemních vod
100
AcDbPolyline
 70
0
 90
3
 10
-598731.4158
 20
-1163214.7992
 10
-598706.4572
 20
-1163206.6685
 10
-598727.1742
 20
-1163222.2197
  0
LWPOLYLINE
  5
204DF
100
AcDbEntity
  8
směr proudění podzemních vod
100
AcDbPolyline
 70
0
 90
2
 10
-599189.4086
 20
-1163528.7451
 10
-599142.5869
 20
-1163549.4614
  0
LWPOLYLINE
  5
204E0
100
AcDbEntity
  8
směr proudění podzemních vod
100
AcDbPolyline
 70
0
 90
3
 10
-599162.7946
 20
-1163536.7305
 10
-599142.5869
 20
-1163549.4614
 10
-599165.7433
 20
-1163543.0057
  0
LWPOLYLINE
  5
204E1
100
AcDbEntity
  8
směr proudění podzemních vod
100
AcDbPolyline
 70
0
 90
2
 10
-598836.517
 20
-1163644.302
 10
-598786.8406
 20
-1163656.6991
  0
LWPOLYLINE
  5
204E2
100
AcDbEntity
  8
směr proudění podzemních vod
100
AcDbPolyline
 70
0
 90
3
 10
-598808.929
 20
-1163647.6146
 10
-598786.8406
 20
-1163656.6991
 10
-598810.7602
 20
-1163654.3019
  0
LWPOLYLINE
  5
204E3
100
AcDbEntity
  8
směr proudění podzemních vod
100
AcDbPolyline
 70
0
 90
3
 10
-598829.3815
 20
-1163263.3065
 10
-598804.4228
 20
-1163255.1758
 10
-598825.1399
 20
-1163270.7269
  0
LWPOLYLINE
  5
204E4
100
AcDbEntity
  8
směr proudění podzemních vod
100
AcDbPolyline
 70
0
 90
2
 10
-598804.4228
 20
-1163255.1758
 10
-598850.5335
 20
-1163279.0832
  0
LWPOLYLINE
  5
204E5
100
AcDbEntity
  8
směr proudění podzemních vod
100
AcDbPolyline
 70
0
 90
2
 10
-599188.7217
 20
-1163361.1879
 10
-599139.2596
 20
-1163347.9615
  0
LWPOLYLINE
  5
204E6
100
AcDbEntity
  8
směr proudění podzemních vod
100
AcDbPolyline
 70
0
 90
3
 10
-599162.9836
 20
-1163350.7178
 10
-599139.2596
 20
-1163347.9615
 10
-599161.3451
 20
-1163357.4549
  0
LWPOLYLINE
  5
204E7
100
AcDbEntity
  8
směr proudění podzemních vod
100
AcDbPolyline
 70
0
 90
2
 10
-598541.0765
 20
-1162926.6779
 10
-598492.5221
 20
-1162910.4326
  0
LWPOLYLINE
  5
204E8
100
AcDbEntity
  8
směr proudění podzemních vod
100
AcDbPolyline
 70
0
 90
3
 10
-598516.0315
 20
-1162914.6437
 10
-598492.5221
 20
-1162910.4326
 10
-598513.9816
 20
-1162921.2672
  0
LWPOLYLINE
  5
204E9
100
AcDbEntity
  8
směr proudění podzemních vod
100
AcDbPolyline
 70
0
 90
2
 10
-598374.5015
 20
-1162857.0068
 10
-598332.3633
 20
-1162827.924
  0
LWPOLYLINE
  5
204EA
100
AcDbEntity
  8
směr proudění podzemních vod
100
AcDbPolyline
 70
0
 90
3
 10
-598353.7803
 20
-1162838.4944
 10
-598332.3633
 20
-1162827.924
 10
-598349.9726
 20
-1162844.2887
  0
LWPOLYLINE
  5
204EB
100
AcDbEntity
  8
směr proudění podzemních vod
100
AcDbPolyline
 70
0
 90
3
 10
-598934.5256
 20
-1163074.4323
 10
-598911.0162
 20
-1163070.2213
 10
-598932.4756
 20
-1163081.0558
  0
LWPOLYLINE
  5
204EC
100
AcDbEntity
  8
směr proudění podzemních vod
100
AcDbPolyline
 70
0
 90
2
 10
-598959.5706
 20
-1163086.4665
 10
-598911.0162
 20
-1163070.2213
  0
LWPOLYLINE
  5
204ED
100
AcDbEntity
  8
směr proudění podzemních vod
100
AcDbPolyline
 70
0
 90
2
 10
-598645.3958
 20
-1163445.9564
 10
-598697.146
 20
-1163441.5205
  0
LWPOLYLINE
  5
204EE
100
AcDbEntity
  8
směr proudění podzemních vod
100
AcDbPolyline
 70
0
 90
3
 10
-598670.8365
 20
-1163439.49
 10
-598645.3958
 20
-1163445.9564
 10
-598671.2171
 20
-1163448.0287
  0
LWPOLYLINE
  5
204EF
100
AcDbEntity
  8
směr proudění podzemních vod
100
AcDbPolyline
 70
0
 90
3
 10
-598618.2068
 20
-1163166.7211
 10
-598593.7859
 20
-1163157.095
 10
-598613.524
 20
-1163173.8713
  0
LWPOLYLINE
  5
204F0
100
AcDbEntity
  8
směr proudění podzemních vod
100
AcDbPolyline
 70
0
 90
2
 10
-598593.7859
 20
-1163157.095
 10
-598638.3654
 20
-1163183.7489
  0
LWPOLYLINE
  5
204F1
100
AcDbEntity
  8
směr proudění podzemních vod
100
AcDbPolyline
 70
0
 90
3
 10
-598741.2244
 20
-1163011.591
 10
-598716.6102
 20
-1163002.4705
 10
-598736.69
 20
-1163018.8362
  0
LWPOLYLINE
  5
204F2
100
AcDbEntity
  8
směr proudění podzemních vod
100
AcDbPolyline
 70
0
 90
2
 10
-598716.6102
 20
-1163002.4705
 10
-598761.7299
 20
-1163028.1994
  0
LWPOLYLINE
  5
204F3
100
AcDbEntity
  8
směr proudění podzemních vod
100
AcDbPolyline
 70
0
 90
2
 10
-596713.4227
 20
-1160943.3035
 10
-596732.4639
 20
-1160991.6612
  0
LWPOLYLINE
  5
204F4
100
AcDbEntity
  8
směr proudění podzemních vod
100
AcDbPolyline
 70
0
 90
3
 10
-596720.1454
 20
-1160968.2304
 10
-596732.4639
 20
-1160991.6612
 10
-596725.7774
 20
-1160966.0832
  0
LWPOLYLINE
  5
204F5
100
AcDbEntity
  8
směr proudění podzemních vod
100
AcDbPolyline
 70
0
 90
2
 10
-596798.5217
 20
-1161288.2878
 10
-596806.6562
 20
-1161339.6188
  0
LWPOLYLINE
  5
204F6
100
AcDbEntity
  8
směr proudění podzemních vod
100
AcDbPolyline
 70
0
 90
3
 10
-596799.6955
 20
-1161314.0787
 10
-596806.6562
 20
-1161339.6188
 10
-596805.6586
 20
-1161313.2001
  0
LWPOLYLINE
  5
204F7
100
AcDbEntity
  8
směr proudění podzemních vod
100
AcDbPolyline
 70
0
 90
2
 10
-596815.9925
 20
-1161798.8582
 10
-596819.8198
 20
-1161850.6886
  0
LWPOLYLINE
  5
204F8
100
AcDbEntity
  8
směr proudění podzemních vod
100
AcDbPolyline
 70
0
 90
3
 10
-596815.0124
 20
-1161824.6572
 10
-596819.8198
 20
-1161850.6886
 10
-596821.0279
 20
-1161824.2787
  0
LWPOLYLINE
  5
204F9
100
AcDbEntity
  8
směr proudění podzemních vod
100
AcDbPolyline
 70
0
 90
2
 10
-596791.1303
 20
-1162070.5367
 10
-596789.5482
 20
-1162122.4841
  0
LWPOLYLINE
  5
204FA
100
AcDbEntity
  8
směr proudění podzemních vod
100
AcDbPolyline
 70
0
 90
3
 10
-596787.4732
 20
-1162096.0939
 10
-596789.5482
 20
-1162122.4841
 10
-596793.4955
 20
-1162096.3429
  0
LWPOLYLINE
  5
204FB
100
AcDbEntity
  8
směr proudění podzemních vod
100
AcDbPolyline
 70
0
 90
2
 10
-596941.4885
 20
-1161044.5246
 10
-596899.1415
 20
-1161074.6539
  0
LWPOLYLINE
  5
204FC
100
AcDbEntity
  8
směr proudění podzemních vod
100
AcDbPolyline
 70
0
 90
3
 10
-596918.9149
 20
-1161057.0539
 10
-596899.1415
 20
-1161074.6539
 10
-596922.3556
 20
-1161062.0029
  0
LWPOLYLINE
  5
204FD
100
AcDbEntity
  8
směr proudění podzemních vod
100
AcDbPolyline
 70
0
 90
2
 10
-597438.2015
 20
-1161156.4052
 10
-597416.0078
 20
-1161203.3997
  0
LWPOLYLINE
  5
204FE
100
AcDbEntity
  8
směr proudění podzemních vod
100
AcDbPolyline
 70
0
 90
3
 10
-597424.6433
 20
-1161178.3762
 10
-597416.0078
 20
-1161203.3997
 10
-597430.0652
 20
-1161181.0093
  0
LWPOLYLINE
  5
204FF
100
AcDbEntity
  8
směr proudění podzemních vod
100
AcDbPolyline
 70
0
 90
2
 10
-597330.6757
 20
-1161498.4154
 10
-597322.1965
 20
-1161549.6906
  0
LWPOLYLINE
  5
20500
100
AcDbEntity
  8
směr proudění podzemních vod
100
AcDbPolyline
 70
0
 90
3
 10
-597323.6509
 20
-1161523.2589
 10
-597322.1965
 20
-1161549.6906
 10
-597329.5865
 20
-1161524.307
  0
LWPOLYLINE
  5
20501
100
AcDbEntity
  8
směr proudění podzemních vod
100
AcDbPolyline
 70
0
 90
2
 10
-597264.612
 20
-1161723.6054
 10
-597239.5551
 20
-1161769.1377
  0
LWPOLYLINE
  5
20502
100
AcDbEntity
  8
směr proudění podzemních vod
100
AcDbPolyline
 70
0
 90
3
 10
-597249.7212
 20
-1161744.696
 10
-597239.5551
 20
-1161769.1377
 10
-597254.97
 20
-1161747.6593
  0
LWPOLYLINE
  5
20503
100
AcDbEntity
  8
směr proudění podzemních vod
100
AcDbPolyline
 70
0
 90
2
 10
-597063.5574
 20
-1162016.7689
 10
-597031.3111
 20
-1162057.5268
  0
LWPOLYLINE
  5
20504
100
AcDbEntity
  8
směr proudění podzemních vod
100
AcDbPolyline
 70
0
 90
3
 10
-597045.3818
 20
-1162035.1045
 10
-597031.3111
 20
-1162057.5268
 10
-597050.0678
 20
-1162038.8955
  0
LWPOLYLINE
  5
20505
100
AcDbEntity
  8
směr proudění podzemních vod
100
AcDbPolyline
 70
0
 90
2
 10
-596948.8661
 20
-1162161.8459
 10
-596916.0406
 20
-1162202.1389
  0
LWPOLYLINE
  5
20506
100
AcDbEntity
  8
směr proudění podzemních vod
100
AcDbPolyline
 70
0
 90
3
 10
-596930.4303
 20
-1162179.92
 10
-596916.0406
 20
-1162202.1389
 10
-596935.0617
 20
-1162183.7776
  0
LWPOLYLINE
  5
20507
100
AcDbEntity
  8
směr proudění podzemních vod
100
AcDbPolyline
 70
0
 90
2
 10
-596814.2228
 20
-1162347.9602
 10
-596779.759
 20
-1162386.8612
  0
LWPOLYLINE
  5
20508
100
AcDbEntity
  8
směr proudění podzemních vod
100
AcDbPolyline
 70
0
 90
3
 10
-596795.0553
 20
-1162365.2563
 10
-596779.759
 20
-1162386.8612
 10
-596799.5231
 20
-1162369.3021
  0
LWPOLYLINE
  5
20509
100
AcDbEntity
  8
směr proudění podzemních vod
100
AcDbPolyline
 70
0
 90
2
 10
-597885.7396
 20
-1161428.2567
 10
-597841.0271
 20
-1161454.7488
  0
LWPOLYLINE
  5
2050A
100
AcDbEntity
  8
směr proudění podzemních vod
100
AcDbPolyline
 70
0
 90
3
 10
-597862.1996
 20
-1161438.8595
 10
-597841.0271
 20
-1161454.7488
 10
-597865.2155
 20
-1161444.0782
  0
LWPOLYLINE
  5
2050B
100
AcDbEntity
  8
směr proudění podzemních vod
100
AcDbPolyline
 70
0
 90
2
 10
-597594.6123
 20
-1161753.2877
 10
-597570.7635
 20
-1161799.4643
  0
LWPOLYLINE
  5
2050C
100
AcDbEntity
  8
směr proudění podzemních vod
100
AcDbPolyline
 70
0
 90
3
 10
-597580.2823
 20
-1161774.7633
 10
-597570.7635
 20
-1161799.4643
 10
-597585.6073
 20
-1161777.5873
  0
LWPOLYLINE
  5
2050D
100
AcDbEntity
  8
směr proudění podzemních vod
100
AcDbPolyline
 70
0
 90
2
 10
-598054.6195
 20
-1161860.776
 10
-598043.0054
 20
-1161911.4332
  0
LWPOLYLINE
  5
2050E
100
AcDbEntity
  8
směr proudění podzemních vod
100
AcDbPolyline
 70
0
 90
3
 10
-598046.0813
 20
-1161885.1409
 10
-598043.0054
 20
-1161911.4332
 10
-598051.9414
 20
-1161886.5517
  0
LWPOLYLINE
  5
2050F
100
AcDbEntity
  8
směr proudění podzemních vod
100
AcDbPolyline
 70
0
 90
2
 10
-597998.4559
 20
-1162116.4236
 10
-597987.465
 20
-1162167.2196
  0
LWPOLYLINE
  5
20510
100
AcDbEntity
  8
směr proudění podzemních vod
100
AcDbPolyline
 70
0
 90
3
 10
-597989.9152
 20
-1162142.0403
 10
-597987.1625
 20
-1162168.3684
 10
-597995.7921
 20
-1162143.379
  0
LWPOLYLINE
  5
20511
100
AcDbEntity
  8
směr proudění podzemních vod
100
AcDbPolyline
 70
0
 90
2
 10
-597900.0571
 20
-1162460.4058
 10
-597933.6373
 20
-1162500.072
  0
LWPOLYLINE
  5
20512
100
AcDbEntity
  8
směr proudění podzemních vod
100
AcDbPolyline
 70
0
 90
3
 10
-597914.4385
 20
-1162481.847
 10
-597933.6373
 20
-1162500.072
 10
-597919.0809
 20
-1162478.0027
  0
LWPOLYLINE
  5
20513
100
AcDbEntity
  8
směr proudění podzemních vod
100
AcDbPolyline
 70
0
 90
2
 10
-597789.9433
 20
-1161521.6122
 10
-597763.0009
 20
-1161566.0548
  0
LWPOLYLINE
  5
20514
100
AcDbEntity
  8
směr proudění podzemních vod
100
AcDbPolyline
 70
0
 90
3
 10
-597774.1821
 20
-1161542.0604
 10
-597763.0009
 20
-1161566.0548
 10
-597779.3021
 20
-1161545.241
  0
LWPOLYLINE
  5
20515
100
AcDbEntity
  8
směr proudění podzemních vod
100
AcDbPolyline
 70
0
 90
2
 10
-596766.2228
 20
-1162337.3808
 10
-596765.7852
 20
-1162389.3505
  0
LWPOLYLINE
  5
20516
100
AcDbEntity
  8
směr proudění podzemních vod
100
AcDbPolyline
 70
0
 90
3
 10
-596763.1294
 20
-1162363.0124
 10
-596765.7852
 20
-1162389.3505
 10
-596769.1558
 20
-1162363.1288
  0
LWPOLYLINE
  5
20517
100
AcDbEntity
  8
směr proudění podzemních vod
100
AcDbPolyline
 70
0
 90
3
 10
-598093.5523
 20
-1161669.8654
 10
-598089.0671
 20
-1161695.9543
 10
-598099.328
 20
-1161671.5893
  0
LWPOLYLINE
  5
20518
100
AcDbEntity
  8
směr proudění podzemních vod
100
AcDbPolyline
 70
0
 90
2
 10
-598103.3882
 20
-1161645.9949
 10
-598089.0671
 20
-1161695.9543
  0
LWPOLYLINE
  5
20519
100
AcDbEntity
  8
směr proudění podzemních vod
100
AcDbPolyline
 70
0
 90
2
 10
-593978.1395
 20
-1164821.8969
 10
-594028.7138
 20
-1164833.8672
  0
LWPOLYLINE
  5
2051A
100
AcDbEntity
  8
směr proudění podzemních vod
100
AcDbPolyline
 70
0
 90
3
 10
-594002.1548
 20
-1164823.7673
 10
-594028.7138
 20
-1164833.8672
 10
-593999.9104
 20
-1164830.4257
  0
LWPOLYLINE
  5
2051B
100
AcDbEntity
  8
směr proudění podzemních vod
100
AcDbPolyline
 70
0
 90
2
 10
-594558.8047
 20
-1165540.5896
 10
-594609.379
 20
-1165552.5599
  0
LWPOLYLINE
  5
2051C
100
AcDbEntity
  8
směr proudění podzemních vod
100
AcDbPolyline
 70
0
 90
3
 10
-594582.82
 20
-1165542.46
 10
-594609.379
 20
-1165552.5599
 10
-594580.5756
 20
-1165549.1185
  0
LWPOLYLINE
  5
2051D
100
AcDbEntity
  8
směr proudění podzemních vod
100
AcDbPolyline
 70
0
 90
2
 10
-593679.6697
 20
-1165367.0396
 10
-593730.244
 20
-1165379.0099
  0
LWPOLYLINE
  5
2051E
100
AcDbEntity
  8
směr proudění podzemních vod
100
AcDbPolyline
 70
0
 90
3
 10
-593703.685
 20
-1165368.91
 10
-593730.244
 20
-1165379.0099
 10
-593701.4406
 20
-1165375.5685
  0
LWPOLYLINE
  5
2051F
100
AcDbEntity
  8
směr proudění podzemních vod
100
AcDbPolyline
 70
0
 90
2
 10
-592705.6247
 20
-1165203.2296
 10
-592756.199
 20
-1165215.1999
  0
LWPOLYLINE
  5
20520
100
AcDbEntity
  8
směr proudění podzemních vod
100
AcDbPolyline
 70
0
 90
3
 10
-592729.64
 20
-1165205.1
 10
-592756.199
 20
-1165215.1999
 10
-592727.3956
 20
-1165211.7585
  0
LWPOLYLINE
  5
20521
100
AcDbEntity
  8
směr proudění podzemních vod
100
AcDbPolyline
 70
0
 90
2
 10
-592367.347
 20
-1165829.8514
 10
-592417.9213
 20
-1165841.8217
  0
LWPOLYLINE
  5
20522
100
AcDbEntity
  8
směr proudění podzemních vod
100
AcDbPolyline
 70
0
 90
3
 10
-592391.3623
 20
-1165831.7218
 10
-592417.9213
 20
-1165841.8217
 10
-592389.1179
 20
-1165838.3802
  0
LWPOLYLINE
  5
20523
100
AcDbEntity
  8
směr proudění podzemních vod
100
AcDbPolyline
 70
0
 90
2
 10
-593192.8159
 20
-1166049.671
 10
-593243.3903
 20
-1166061.6413
  0
LWPOLYLINE
  5
20524
100
AcDbEntity
  8
směr proudění podzemních vod
100
AcDbPolyline
 70
0
 90
3
 10
-593216.8313
 20
-1166051.5414
 10
-593243.3903
 20
-1166061.6413
 10
-593214.5868
 20
-1166058.1998
  0
LWPOLYLINE
  5
20525
100
AcDbEntity
  8
směr proudění podzemních vod
100
AcDbPolyline
 70
0
 90
2
 10
-593914.8224
 20
-1166224.9461
 10
-593965.3967
 20
-1166236.9163
  0
LWPOLYLINE
  5
20526
100
AcDbEntity
  8
směr proudění podzemních vod
100
AcDbPolyline
 70
0
 90
3
 10
-593938.8377
 20
-1166226.8164
 10
-593965.3967
 20
-1166236.9163
 10
-593936.5933
 20
-1166233.4749
  0
LWPOLYLINE
  5
20527
100
AcDbEntity
  8
směr proudění podzemních vod
100
AcDbPolyline
 70
0
 90
2
 10
-594681.3867
 20
-1166410.0006
 10
-594732.9721
 20
-1166416.3249
  0
LWPOLYLINE
  5
20528
100
AcDbEntity
  8
směr proudění podzemních vod
100
AcDbPolyline
 70
0
 90
3
 10
-594705.4618
 20
-1166409.2132
 10
-594732.9721
 20
-1166416.3249
 10
-594703.9648
 20
-1166416.0785
  0
LWPOLYLINE
  5
20529
100
AcDbEntity
  8
směr proudění podzemních vod
100
AcDbPolyline
 70
0
 90
2
 10
-592860.0428
 20
-1166937.8639
 10
-592910.6172
 20
-1166949.8342
  0
LWPOLYLINE
  5
2052A
100
AcDbEntity
  8
směr proudění podzemních vod
100
AcDbPolyline
 70
0
 90
3
 10
-592884.0582
 20
-1166939.7343
 10
-592910.6172
 20
-1166949.8342
 10
-592881.8137
 20
-1166946.3927
  0
LWPOLYLINE
  5
2052B
100
AcDbEntity
  8
směr proudění podzemních vod
100
AcDbPolyline
 70
0
 90
2
 10
-593653.4593
 20
-1167131.7377
 10
-593704.0337
 20
-1167143.708
  0
LWPOLYLINE
  5
2052C
100
AcDbEntity
  8
směr proudění podzemních vod
100
AcDbPolyline
 70
0
 90
3
 10
-593677.4747
 20
-1167133.6081
 10
-593704.0337
 20
-1167143.708
 10
-593675.2302
 20
-1167140.2665
  0
LWPOLYLINE
  5
2052D
100
AcDbEntity
  8
směr proudění podzemních vod
100
AcDbPolyline
 70
0
 90
2
 10
-594459.8747
 20
-1167377.0396
 10
-594510.449
 20
-1167389.0099
  0
LWPOLYLINE
  5
2052E
100
AcDbEntity
  8
směr proudění podzemních vod
100
AcDbPolyline
 70
0
 90
3
 10
-594483.89
 20
-1167378.91
 10
-594510.449
 20
-1167389.0099
 10
-594481.6456
 20
-1167385.5685
  0
LWPOLYLINE
  5
2052F
100
AcDbEntity
  8
směr proudění podzemních vod
100
AcDbPolyline
 70
0
 90
2
 10
-592986.7497
 20
-1168264.9346
 10
-593037.324
 20
-1168276.9049
  0
LWPOLYLINE
  5
20530
100
AcDbEntity
  8
směr proudění podzemních vod
100
AcDbPolyline
 70
0
 90
3
 10
-593010.765
 20
-1168266.805
 10
-593037.324
 20
-1168276.9049
 10
-593008.5206
 20
-1168273.4635
  0
LWPOLYLINE
  5
20531
100
AcDbEntity
  8
směr proudění podzemních vod
100
AcDbPolyline
 70
0
 90
2
 10
-593708.7806
 20
-1168470.9621
 10
-593759.355
 20
-1168482.9324
  0
LWPOLYLINE
  5
20532
100
AcDbEntity
  8
směr proudění podzemních vod
100
AcDbPolyline
 70
0
 90
3
 10
-593732.796
 20
-1168472.8324
 10
-593759.355
 20
-1168482.9324
 10
-593730.5515
 20
-1168479.4909
  0
LWPOLYLINE
  5
20533
100
AcDbEntity
  8
směr proudění podzemních vod
100
AcDbPolyline
 70
0
 90
2
 10
-599819.4468
 20
-1159420.8533
 10
-599832.9856
 20
-1159370.9972
  0
LWPOLYLINE
  5
20534
100
AcDbEntity
  8
směr proudění podzemních vod
100
AcDbPolyline
 70
0
 90
3
 10
-599827.7037
 20
-1159402.6628
 10
-599832.9856
 20
-1159370.9972
 10
-599821.1859
 20
-1159400.6292
  0
LWPOLYLINE
  5
20535
100
AcDbEntity
  8
směr proudění podzemních vod
100
AcDbPolyline
 70
0
 90
2
 10
-599682.94
 20
-1159692.45
 10
-599636.4522
 20
-1159669.9153
  0
LWPOLYLINE
  5
20536
100
AcDbEntity
  8
směr proudění podzemních vod
100
AcDbPolyline
 70
0
 90
3
 10
-599666.5926
 20
-1159680.9682
 10
-599636.4522
 20
-1159669.9153
 10
-599663.3874
 20
-1159686.9968
  0
LWPOLYLINE
  5
20537
100
AcDbEntity
  8
směr proudění podzemních vod
100
AcDbPolyline
 70
0
 90
2
 10
-599573.7061
 20
-1159882.0332
 10
-599538.2517
 20
-1159919.6087
  0
LWPOLYLINE
  5
20538
100
AcDbEntity
  8
směr proudění podzemních vod
100
AcDbPolyline
 70
0
 90
3
 10
-599557.8281
 20
-1159894.3269
 10
-599538.2346
 20
-1159919.7573
 10
-599562.6161
 20
-1159899.1945
  0
LWPOLYLINE
  5
20539
100
AcDbEntity
  8
směr proudění podzemních vod
100
AcDbPolyline
 70
0
 90
2
 10
-599425.3274
 20
-1160049.9105
 10
-599410.8762
 20
-1160099.5098
  0
LWPOLYLINE
  5
2053A
100
AcDbEntity
  8
směr proudění podzemních vod
100
AcDbPolyline
 70
0
 90
3
 10
-599416.7382
 20
-1160067.9465
 10
-599410.8762
 20
-1160099.5098
 10
-599423.2176
 20
-1160070.0993
  0
LWPOLYLINE
  5
2053B
100
AcDbEntity
  8
směr proudění podzemních vod
100
AcDbPolyline
 70
0
 90
2
 10
-599411.5873
 20
-1159553.0591
 10
-599365.0996
 20
-1159530.5244
  0
LWPOLYLINE
  5
2053C
100
AcDbEntity
  8
směr proudění podzemních vod
100
AcDbPolyline
 70
0
 90
3
 10
-599395.2399
 20
-1159541.5773
 10
-599365.0996
 20
-1159530.5244
 10
-599392.0348
 20
-1159547.6059
  0
LWPOLYLINE
  5
2053D
100
AcDbEntity
  8
směr proudění podzemních vod
100
AcDbPolyline
 70
0
 90
2
 10
-596661.244
 20
-1160071.5979
 10
-596661.7097
 20
-1160123.5673
  0
LWPOLYLINE
  5
2053E
100
AcDbEntity
  8
směr proudění podzemních vod
100
AcDbPolyline
 70
0
 90
3
 10
-596658.5966
 20
-1160097.2794
 10
-596661.7097
 20
-1160123.5673
 10
-596664.6241
 20
-1160097.291
  0
LWPOLYLINE
  5
2053F
100
AcDbEntity
  8
směr proudění podzemních vod
100
AcDbPolyline
 70
0
 90
3
 10
-596669.5936
 20
-1160376.8594
 10
-596672.7067
 20
-1160403.1473
 10
-596675.6211
 20
-1160376.871
  0
LWPOLYLINE
  5
20540
100
AcDbEntity
  8
směr proudění podzemních vod
100
AcDbPolyline
 70
0
 90
2
 10
-596672.241
 20
-1160351.1779
 10
-596672.7067
 20
-1160403.1473
  0
LWPOLYLINE
  5
20541
100
AcDbEntity
  8
směr proudění podzemních vod
100
AcDbPolyline
 70
0
 90
3
 10
-596703.0699
 20
-1160774.4003
 10
-596707.952
 20
-1160800.4179
 10
-596709.0844
 20
-1160774.0046
  0
LWPOLYLINE
  5
20542
100
AcDbEntity
  8
směr proudění podzemních vod
100
AcDbPolyline
 70
0
 90
2
 10
-596703.9762
 20
-1160748.5986
 10
-596707.952
 20
-1160800.4179
  0
LWPOLYLINE
  5
20543
100
AcDbEntity
  8
směr proudění podzemních vod
100
AcDbPolyline
 70
0
 90
2
 10
-597128.468
 20
-1159952.3056
 10
-597104.2206
 20
-1159998.2741
  0
LWPOLYLINE
  5
20544
100
AcDbEntity
  8
směr proudění podzemních vod
100
AcDbPolyline
 70
0
 90
3
 10
-597113.9527
 20
-1159973.6564
 10
-597104.2206
 20
-1159998.2741
 10
-597119.2531
 20
-1159976.5263
  0
LWPOLYLINE
  5
20545
100
AcDbEntity
  8
směr proudění podzemních vod
100
AcDbPolyline
 70
0
 90
2
 10
-597038.2882
 20
-1160141.4383
 10
-597014.0409
 20
-1160187.4068
  0
LWPOLYLINE
  5
20546
100
AcDbEntity
  8
směr proudění podzemních vod
100
AcDbPolyline
 70
0
 90
3
 10
-597023.773
 20
-1160162.7891
 10
-597014.0409
 20
-1160187.4068
 10
-597029.0733
 20
-1160165.659
  0
LWPOLYLINE
  5
20547
100
AcDbEntity
  8
směr proudění podzemních vod
100
AcDbPolyline
 70
0
 90
2
 10
-596872.715
 20
-1160393.2195
 10
-596857.9537
 20
-1160443.0506
  0
LWPOLYLINE
  5
20548
100
AcDbEntity
  8
směr proudění podzemních vod
100
AcDbPolyline
 70
0
 90
3
 10
-596862.6689
 20
-1160417.0023
 10
-596857.9537
 20
-1160443.0506
 10
-596868.4292
 20
-1160418.7771
  0
LWPOLYLINE
  5
20549
100
AcDbEntity
  8
směr proudění podzemních vod
100
AcDbPolyline
 70
0
 90
3
 10
-595970.035
 20
-1159583.0124
 10
-595996.1129
 20
-1159587.561
 10
-595971.7729
 20
-1159577.2409
  0
LWPOLYLINE
  5
2054A
100
AcDbEntity
  8
směr proudění podzemních vod
100
AcDbPolyline
 70
0
 90
2
 10
-595946.1885
 20
-1159573.1185
 10
-595996.1129
 20
-1159587.561
  0
LWPOLYLINE
  5
2054B
100
AcDbEntity
  8
směr proudění podzemních vod
100
AcDbPolyline
 70
0
 90
3
 10
-597526.4337
 20
-1160170.4446
 10
-597504.5545
 20
-1160185.3459
 10
-597529.207
 20
-1160175.7961
  0
LWPOLYLINE
  5
2054C
100
AcDbEntity
  8
směr proudění podzemních vod
100
AcDbPolyline
 70
0
 90
2
 10
-597550.4352
 20
-1160160.9328
 10
-597504.5545
 20
-1160185.3459
  0
LWPOLYLINE
  5
2054D
100
AcDbEntity
  8
směr proudění podzemních vod
100
AcDbPolyline
 70
0
 90
3
 10
-597294.9095
 20
-1160305.4561
 10
-597273.0057
 20
-1160320.3211
 10
-597297.6739
 20
-1160310.8122
  0
LWPOLYLINE
  5
2054E
100
AcDbEntity
  8
směr proudění podzemních vod
100
AcDbPolyline
 70
0
 90
2
 10
-597318.9267
 20
-1160295.984
 10
-597273.0057
 20
-1160320.3211
  0
LWPOLYLINE
  5
2054F
100
AcDbEntity
  8
směr proudění podzemních vod
100
AcDbPolyline
 70
0
 90
2
 10
-597031.7951
 20
-1160451.2391
 10
-596986.8264
 20
-1160477.294
  0
LWPOLYLINE
  5
20550
100
AcDbEntity
  8
směr proudění podzemních vod
100
AcDbPolyline
 70
0
 90
3
 10
-597008.1529
 20
-1160461.6119
 10
-596986.8264
 20
-1160477.294
 10
-597011.1177
 20
-1160466.8598
  0
LWPOLYLINE
  5
20551
100
AcDbEntity
  8
směr proudění podzemních vod
100
AcDbPolyline
 70
0
 90
3
 10
-597557.4467
 20
-1160602.8061
 10
-597531.3585
 20
-1160607.2951
 10
-597557.7516
 20
-1160608.8258
  0
LWPOLYLINE
  5
20552
100
AcDbEntity
  8
směr proudění podzemních vod
100
AcDbPolyline
 70
0
 90
2
 10
-597583.2318
 20
-1160604.1015
 10
-597531.3585
 20
-1160607.2951
  0
LWPOLYLINE
  5
20553
100
AcDbEntity
  8
směr proudění podzemních vod
100
AcDbPolyline
 70
0
 90
3
 10
-597264.252
 20
-1160631.4206
 10
-597238.1637
 20
-1160635.9095
 10
-597264.5569
 20
-1160637.4403
  0
LWPOLYLINE
  5
20554
100
AcDbEntity
  8
směr proudění podzemních vod
100
AcDbPolyline
 70
0
 90
2
 10
-597290.037
 20
-1160632.716
 10
-597238.1637
 20
-1160635.9095
  0
LWPOLYLINE
  5
20555
100
AcDbEntity
  8
směr proudění podzemních vod
100
AcDbPolyline
 70
0
 90
3
 10
-597010.454
 20
-1160655.4733
 10
-596984.3657
 20
-1160659.9623
 10
-597010.7589
 20
-1160661.4931
  0
LWPOLYLINE
  5
20556
100
AcDbEntity
  8
směr proudění podzemních vod
100
AcDbPolyline
 70
0
 90
2
 10
-597036.239
 20
-1160656.7687
 10
-596984.3657
 20
-1160659.9623
  0
LWPOLYLINE
  5
20557
100
AcDbEntity
  8
směr proudění podzemních vod
100
AcDbPolyline
 70
0
 90
3
 10
-596826.1587
 20
-1160674.7842
 10
-596801.4708
 20
-1160684.3369
 10
-596827.6464
 20
-1160680.6252
  0
LWPOLYLINE
  5
20558
100
AcDbEntity
  8
směr proudění podzemních vod
100
AcDbPolyline
 70
0
 90
2
 10
-596851.6918
 20
-1160670.9619
 10
-596801.4708
 20
-1160684.3369
  0
LWPOLYLINE
  5
20559
100
AcDbEntity
  8
směr proudění podzemních vod
100
AcDbPolyline
 70
0
 90
2
 10
-596662.1706
 20
-1160574.8007
 10
-596664.9766
 20
-1160626.6964
  0
LWPOLYLINE
  5
2055A
100
AcDbEntity
  8
směr proudění podzemních vod
100
AcDbPolyline
 70
0
 90
3
 10
-596660.6826
 20
-1160600.5753
 10
-596664.9766
 20
-1160626.6964
 10
-596666.7045
 20
-1160600.3154
  0
LWPOLYLINE
  5
2055B
100
AcDbEntity
  8
směr proudění podzemních vod
100
AcDbPolyline
 70
0
 90
2
 10
-596764.7831
 20
-1160600.3276
 10
-596747.5844
 20
-1160649.3709
  0
LWPOLYLINE
  5
2055C
100
AcDbEntity
  8
směr proudění podzemních vod
100
AcDbPolyline
 70
0
 90
2
 10
-597525.6626
 20
-1160743.7355
 10
-597476.9981
 20
-1160761.9784
  0
LWPOLYLINE
  5
2055D
100
AcDbEntity
  8
směr proudění podzemních vod
100
AcDbPolyline
 70
0
 90
3
 10
-597500.6284
 20
-1160750.0471
 10
-597476.9981
 20
-1160761.9784
 10
-597502.6826
 20
-1160755.7138
  0
LWPOLYLINE
  5
2055E
100
AcDbEntity
  8
směr proudění podzemních vod
100
AcDbPolyline
 70
0
 90
2
 10
-597276.1505
 20
-1160790.7943
 10
-597226.774
 20
-1160807.0115
  0
LWPOLYLINE
  5
2055F
100
AcDbEntity
  8
směr proudění podzemních vod
100
AcDbPolyline
 70
0
 90
3
 10
-597250.877
 20
-1160796.0665
 10
-597226.774
 20
-1160807.0115
 10
-597252.6954
 20
-1160801.8132
  0
LWPOLYLINE
  5
20560
100
AcDbEntity
  8
směr proudění podzemních vod
100
AcDbPolyline
 70
0
 90
2
 10
-597043.7355
 20
-1160859.9736
 10
-596999.8405
 20
-1160887.7991
  0
LWPOLYLINE
  5
20561
100
AcDbEntity
  8
směr proudění podzemních vod
100
AcDbPolyline
 70
0
 90
3
 10
-597020.5253
 20
-1160871.2799
 10
-596999.8405
 20
-1160887.7991
 10
-597023.6968
 20
-1160876.4055
  0
LWPOLYLINE
  5
20562
100
AcDbEntity
  8
směr proudění podzemních vod
100
AcDbPolyline
 70
0
 90
2
 10
-596176.5822
 20
-1159590.1544
 10
-596227.6173
 20
-1159599.9758
  0
LWPOLYLINE
  5
20563
100
AcDbEntity
  8
směr proudění podzemních vod
100
AcDbPolyline
 70
0
 90
3
 10
-596201.3444
 20
-1159597.848
 10
-596227.7288
 20
-1159599.9953
 10
-596202.5478
 20
-1159591.9419
  0
LWPOLYLINE
  5
20564
100
AcDbEntity
  8
směr proudění podzemních vod
100
AcDbPolyline
 70
0
 90
2
 10
-596217.2375
 20
-1159937.2826
 10
-596248.7029
 20
-1159978.6464
  0
LWPOLYLINE
  5
20565
100
AcDbEntity
  8
směr proudění podzemních vod
100
AcDbPolyline
 70
0
 90
3
 10
-596230.4809
 20
-1159959.4447
 10
-596248.7029
 20
-1159978.6464
 10
-596235.3175
 20
-1159955.8479
  0
LWPOLYLINE
  5
20566
100
AcDbEntity
  8
směr proudění podzemních vod
100
AcDbPolyline
 70
0
 90
2
 10
-596811.6352
 20
-1159785.3651
 10
-596768.0717
 20
-1159813.7069
  0
LWPOLYLINE
  5
20567
100
AcDbEntity
  8
směr proudění podzemních vod
100
AcDbPolyline
 70
0
 90
3
 10
-596788.5601
 20
-1159796.9447
 10
-596768.0717
 20
-1159813.7069
 10
-596791.7919
 20
-1159802.0325
  0
LWPOLYLINE
  5
20568
100
AcDbEntity
  8
směr proudění podzemních vod
100
AcDbPolyline
 70
0
 90
2
 10
-596276.7182
 20
-1159804.509
 10
-596303.3774
 20
-1159849.1221
  0
LWPOLYLINE
  5
20569
100
AcDbEntity
  8
směr proudění podzemních vod
100
AcDbPolyline
 70
0
 90
3
 10
-596287.409
 20
-1159828.0091
 10
-596303.3774
 20
-1159849.1221
 10
-596292.6164
 20
-1159824.9738
  0
LWPOLYLINE
  5
2056A
100
AcDbEntity
  8
směr proudění podzemních vod
100
AcDbPolyline
 70
0
 90
2
 10
-596453.1786
 20
-1160100.6101
 10
-596468.2662
 20
-1160150.3435
  0
LWPOLYLINE
  5
2056B
100
AcDbEntity
  8
směr proudění podzemních vod
100
AcDbPolyline
 70
0
 90
3
 10
-596457.8734
 20
-1160125.9973
 10
-596468.2662
 20
-1160150.3435
 10
-596463.66
 20
-1160124.3103
  0
LWPOLYLINE
  5
2056C
100
AcDbEntity
  8
směr proudění podzemních vod
100
AcDbPolyline
 70
0
 90
2
 10
-596207.5818
 20
-1160164.4237
 10
-596230.9475
 20
-1160210.8466
  0
LWPOLYLINE
  5
2056D
100
AcDbEntity
  8
směr proudění podzemních vod
100
AcDbPolyline
 70
0
 90
3
 10
-596216.5465
 20
-1160188.6349
 10
-596230.9475
 20
-1160210.8466
 10
-596221.9596
 20
-1160185.9838
  0
LWPOLYLINE
  5
2056E
100
AcDbEntity
  8
směr proudění podzemních vod
100
AcDbPolyline
 70
0
 90
2
 10
-596477.4502
 20
-1160347.9487
 10
-596474.9616
 20
-1160399.8606
  0
LWPOLYLINE
  5
2056F
100
AcDbEntity
  8
směr proudění podzemních vod
100
AcDbPolyline
 70
0
 90
3
 10
-596473.3475
 20
-1160373.4382
 10
-596474.9616
 20
-1160399.8606
 10
-596479.3646
 20
-1160373.7923
  0
LWPOLYLINE
  5
20570
100
AcDbEntity
  8
směr proudění podzemních vod
100
AcDbPolyline
 70
0
 90
2
 10
-596285.1111
 20
-1160367.395
 10
-596313.7241
 20
-1160410.7809
  0
LWPOLYLINE
  5
20571
100
AcDbEntity
  8
směr proudění podzemních vod
100
AcDbPolyline
 70
0
 90
3
 10
-596296.8343
 20
-1160390.3975
 10
-596313.7241
 20
-1160410.7809
 10
-596301.9019
 20
-1160387.134
  0
LWPOLYLINE
  5
20572
100
AcDbEntity
  8
směr proudění podzemních vod
100
AcDbPolyline
 70
0
 90
2
 10
-596445.7108
 20
-1160576.7925
 10
-596465.9821
 20
-1160624.6476
  0
LWPOLYLINE
  5
20573
100
AcDbEntity
  8
směr proudění podzemních vod
100
AcDbPolyline
 70
0
 90
3
 10
-596453.0686
 20
-1160601.5394
 10
-596465.9821
 20
-1160624.6476
 10
-596458.6439
 20
-1160599.2489
  0
LWPOLYLINE
  5
20574
100
AcDbEntity
  8
směr proudění podzemních vod
100
AcDbPolyline
 70
0
 90
2
 10
-596753.5773
 20
-1160623.5866
 10
-596759.2432
 20
-1160625.643
  0
LWPOLYLINE
  5
20575
100
AcDbEntity
  8
směr proudění podzemních vod
100
AcDbPolyline
 70
0
 90
2
 10
-595575.8472
 20
-1159614.3896
 10
-595595.0746
 20
-1159662.5489
  0
LWPOLYLINE
  5
20576
100
AcDbEntity
  8
směr proudění podzemních vod
100
AcDbPolyline
 70
0
 90
3
 10
-595589.6616
 20
-1159640.2842
 10
-595595.0746
 20
-1159662.5489
 10
-595583.403
 20
-1159642.5042
  0
LWPOLYLINE
  5
20577
100
AcDbEntity
  8
směr proudění podzemních vod
100
AcDbPolyline
 70
0
 90
2
 10
-595715.34
 20
-1159969.6917
 10
-595734.7282
 20
-1160017.7866
  0
LWPOLYLINE
  5
20578
100
AcDbEntity
  8
směr proudění podzemních vod
100
AcDbPolyline
 70
0
 90
3
 10
-595729.2408
 20
-1159995.54
 10
-595734.7282
 20
-1160017.7866
 10
-595722.9896
 20
-1159997.781
  0
LWPOLYLINE
  5
20579
100
AcDbEntity
  8
směr proudění podzemních vod
100
AcDbPolyline
 70
0
 90
2
 10
-595863.1665
 20
-1160325.8886
 10
-595895.5588
 20
-1160366.3824
  0
LWPOLYLINE
  5
2057A
100
AcDbEntity
  8
směr proudění podzemních vod
100
AcDbPolyline
 70
0
 90
3
 10
-595883.9095
 20
-1160346.6514
 10
-595895.5588
 20
-1160366.3824
 10
-595878.5661
 20
-1160350.5944
  0
LWPOLYLINE
  5
2057B
100
AcDbEntity
  8
směr proudění podzemních vod
100
AcDbPolyline
 70
0
 90
2
 10
-595973.6338
 20
-1160918.5025
 10
-596025.3912
 20
-1160921.695
  0
LWPOLYLINE
  5
2057C
100
AcDbEntity
  8
směr proudění podzemních vod
100
AcDbPolyline
 70
0
 90
3
 10
-596002.9482
 20
-1160917.0763
 10
-596025.3912
 20
-1160921.695
 10
-596002.2814
 20
-1160923.6834
  0
LWPOLYLINE
  5
2057D
100
AcDbEntity
  8
směr proudění podzemních vod
100
AcDbPolyline
 70
0
 90
2
 10
-596120.2163
 20
-1160543.7398
 10
-596165.3363
 20
-1160569.2975
  0
LWPOLYLINE
  5
2057E
100
AcDbEntity
  8
směr proudění podzemních vod
100
AcDbPolyline
 70
0
 90
3
 10
-596147.1893
 20
-1160555.3081
 10
-596165.3363
 20
-1160569.2975
 10
-596143.6936
 20
-1160560.9543
  0
LWPOLYLINE
  5
2057F
100
AcDbEntity
  8
směr proudění podzemních vod
100
AcDbPolyline
 70
0
 90
2
 10
-596304.1112
 20
-1160920.4418
 10
-596355.9655
 20
-1160920.8245
  0
LWPOLYLINE
  5
20580
100
AcDbEntity
  8
směr proudění podzemních vod
100
AcDbPolyline
 70
0
 90
3
 10
-596333.3052
 20
-1160917.4289
 10
-596355.9655
 20
-1160920.8245
 10
-596332.9974
 20
-1160924.0624
  0
LWPOLYLINE
  5
20581
100
AcDbEntity
  8
směr proudění podzemních vod
100
AcDbPolyline
 70
0
 90
2
 10
-596537.7463
 20
-1160917.5287
 10
-596589.543
 20
-1160915.054
  0
LWPOLYLINE
  5
20582
100
AcDbEntity
  8
směr proudění podzemních vod
100
AcDbPolyline
 70
0
 90
3
 10
-596566.73
 20
-1160912.9119
 10
-596589.543
 20
-1160915.054
 10
-596566.7881
 20
-1160919.5524
  0
LWPOLYLINE
  5
20583
100
AcDbEntity
  8
směr proudění podzemních vod
100
AcDbPolyline
 70
0
 90
2
 10
-595556.2256
 20
-1160882.4763
 10
-595607.6699
 20
-1160888.9957
  0
LWPOLYLINE
  5
20584
100
AcDbEntity
  8
směr proudění podzemních vod
100
AcDbPolyline
 70
0
 90
3
 10
-595585.571
 20
-1160882.941
 10
-595607.6699
 20
-1160888.9957
 10
-595584.48
 20
-1160889.4915
  0
LWPOLYLINE
  5
20585
100
AcDbEntity
  8
směr proudění podzemních vod
100
AcDbPolyline
 70
0
 90
2
 10
-595169.9227
 20
-1160759.3287
 10
-595211.2132
 20
-1160790.6991
  0
LWPOLYLINE
  5
20586
100
AcDbEntity
  8
směr proudění podzemních vod
100
AcDbPolyline
 70
0
 90
3
 10
-595195.1033
 20
-1160774.4053
 10
-595211.2132
 20
-1160790.6991
 10
-595190.8829
 20
-1160779.5324
  0
LWPOLYLINE
  5
20587
100
AcDbEntity
  8
směr proudění podzemních vod
100
AcDbPolyline
 70
0
 90
2
 10
-594730.4525
 20
-1160482.9985
 10
-594763.2294
 20
-1160523.1817
  0
LWPOLYLINE
  5
20588
100
AcDbEntity
  8
směr proudění podzemních vod
100
AcDbPolyline
 70
0
 90
3
 10
-594751.3925
 20
-1160503.5627
 10
-594763.2294
 20
-1160523.1817
 10
-594746.0869
 20
-1160507.5564
  0
LWPOLYLINE
  5
20589
100
AcDbEntity
  8
směr proudění podzemních vod
100
AcDbPolyline
 70
0
 90
2
 10
-596568.8453
 20
-1161222.7858
 10
-596620.6419
 20
-1161220.311
  0
LWPOLYLINE
  5
2058A
100
AcDbEntity
  8
směr proudění podzemních vod
100
AcDbPolyline
 70
0
 90
3
 10
-596597.8289
 20
-1161218.169
 10
-596620.6419
 20
-1161220.311
 10
-596597.8871
 20
-1161224.8095
  0
LWPOLYLINE
  5
2058B
100
AcDbEntity
  8
směr proudění podzemních vod
100
AcDbPolyline
 70
0
 90
2
 10
-596307.659
 20
-1161251.6931
 10
-596358.284
 20
-1161240.4627
  0
LWPOLYLINE
  5
2058C
100
AcDbEntity
  8
směr proudění podzemních vod
100
AcDbPolyline
 70
0
 90
3
 10
-596335.4384
 20
-1161242.2239
 10
-596358.284
 20
-1161240.4627
 10
-596336.6229
 20
-1161248.7581
  0
LWPOLYLINE
  5
2058D
100
AcDbEntity
  8
směr proudění podzemních vod
100
AcDbPolyline
 70
0
 90
2
 10
-595966.6149
 20
-1161296.8288
 10
-596017.8553
 20
-1161288.8642
  0
LWPOLYLINE
  5
2058E
100
AcDbEntity
  8
směr proudění podzemních vod
100
AcDbPolyline
 70
0
 90
3
 10
-595994.9439
 20
-1161289.1583
 10
-596017.8553
 20
-1161288.8642
 10
-595995.7074
 20
-1161295.755
  0
LWPOLYLINE
  5
2058F
100
AcDbEntity
  8
směr proudění podzemních vod
100
AcDbPolyline
 70
0
 90
2
 10
-595534.788
 20
-1161300.1018
 10
-595586.4958
 20
-1161304.0155
  0
LWPOLYLINE
  5
20590
100
AcDbEntity
  8
směr proudění podzemních vod
100
AcDbPolyline
 70
0
 90
3
 10
-595564.1194
 20
-1161299.0843
 10
-595586.4958
 20
-1161304.0155
 10
-595563.3605
 20
-1161305.6815
  0
LWPOLYLINE
  5
20591
100
AcDbEntity
  8
směr proudění podzemních vod
100
AcDbPolyline
 70
0
 90
2
 10
-595059.7668
 20
-1161139.6187
 10
-595110.2949
 20
-1161151.2773
  0
LWPOLYLINE
  5
20592
100
AcDbEntity
  8
směr proudění podzemních vod
100
AcDbPolyline
 70
0
 90
3
 10
-595088.9168
 20
-1161143.0315
 10
-595110.2949
 20
-1161151.2773
 10
-595087.1727
 20
-1161149.4391
  0
LWPOLYLINE
  5
20593
100
AcDbEntity
  8
směr proudění podzemních vod
100
AcDbPolyline
 70
0
 90
2
 10
-594511.8657
 20
-1161055.7719
 10
-594558.6463
 20
-1161033.3981
  0
LWPOLYLINE
  5
20594
100
AcDbEntity
  8
směr proudění podzemních vod
100
AcDbPolyline
 70
0
 90
3
 10
-594536.7888
 20
-1161040.2734
 10
-594558.6463
 20
-1161033.3981
 10
-594539.4183
 20
-1161046.3713
  0
LWPOLYLINE
  5
20595
100
AcDbEntity
  8
směr proudění podzemních vod
100
AcDbPolyline
 70
0
 90
2
 10
-594412.2404
 20
-1161676.1228
 10
-594428.2892
 20
-1161725.4326
  0
LWPOLYLINE
  5
20596
100
AcDbEntity
  8
směr proudění podzemních vod
100
AcDbPolyline
 70
0
 90
3
 10
-594424.3383
 20
-1161702.8625
 10
-594428.2892
 20
-1161725.4326
 10
-594417.9483
 20
-1161704.67
  0
LWPOLYLINE
  5
20597
100
AcDbEntity
  8
směr proudění podzemních vod
100
AcDbPolyline
 70
0
 90
2
 10
-594781.0329
 20
-1161591.4455
 10
-594821.8853
 20
-1161623.3845
  0
LWPOLYLINE
  5
20598
100
AcDbEntity
  8
směr proudění podzemních vod
100
AcDbPolyline
 70
0
 90
3
 10
-594806.0024
 20
-1161606.8692
 10
-594821.8853
 20
-1161623.3845
 10
-594801.7115
 20
-1161611.9374
  0
LWPOLYLINE
  5
20599
100
AcDbEntity
  8
směr proudění podzemních vod
100
AcDbPolyline
 70
0
 90
3
 10
-594908.9917
 20
-1160164.1599
 10
-594931.3452
 20
-1160169.1938
 10
-594908.2025
 20
-1160170.7535
  0
LWPOLYLINE
  5
2059A
100
AcDbEntity
  8
směr proudění podzemních vod
100
AcDbPolyline
 70
0
 90
2
 10
-594879.6559
 20
-1160165.0426
 10
-594931.3452
 20
-1160169.1938
  0
LWPOLYLINE
  5
2059B
100
AcDbEntity
  8
směr proudění podzemních vod
100
AcDbPolyline
 70
0
 90
3
 10
-595371.0988
 20
-1160206.43
 10
-595393.249
 20
-1160212.2944
 10
-595370.0642
 20
-1160212.9896
  0
LWPOLYLINE
  5
2059C
100
AcDbEntity
  8
směr proudění podzemních vod
100
AcDbPolyline
 70
0
 90
2
 10
-595341.7505
 20
-1160206.2177
 10
-595393.249
 20
-1160212.2944
  0
LWPOLYLINE
  5
2059D
100
AcDbEntity
  8
směr proudění podzemních vod
100
AcDbPolyline
 70
0
 90
3
 10
-595285.4739
 20
-1159742.5829
 10
-595306.8671
 20
-1159750.7897
 10
-595283.7416
 20
-1159748.9937
  0
LWPOLYLINE
  5
2059E
100
AcDbEntity
  8
směr proudění podzemních vod
100
AcDbPolyline
 70
0
 90
2
 10
-595256.3178
 20
-1159739.2234
 10
-595306.8671
 20
-1159750.7897
  0
LWPOLYLINE
  5
2059F
100
AcDbEntity
  8
směr proudění podzemních vod
100
AcDbPolyline
 70
0
 90
3
 10
-594446.6502
 20
-1159616.8862
 10
-594466.3387
 20
-1159628.6073
 10
-594443.8542
 20
-1159622.9096
  0
LWPOLYLINE
  5
205A0
100
AcDbEntity
  8
směr proudění podzemních vod
100
AcDbPolyline
 70
0
 90
2
 10
-594418.4883
 20
-1159608.6235
 10
-594466.3387
 20
-1159628.6073
  0
LWPOLYLINE
  5
205A1
100
AcDbEntity
  8
směr proudění podzemních vod
100
AcDbPolyline
 70
0
 90
2
 10
-594847.1855
 20
-1159687.5228
 10
-594898.9894
 20
-1159689.8395
  0
LWPOLYLINE
  5
205A2
100
AcDbEntity
  8
směr proudění podzemních vod
100
AcDbPolyline
 70
0
 90
3
 10
-594876.4715
 20
-1159685.6009
 10
-594898.9894
 20
-1159689.8395
 10
-594875.9165
 20
-1159692.2184
  0
LWPOLYLINE
  5
205A3
100
AcDbEntity
  8
směr proudění podzemních vod
100
AcDbPolyline
 70
0
 90
2
 10
-594371.4022
 20
-1160132.6552
 10
-594419.8231
 20
-1160151.214
  0
LWPOLYLINE
  5
205A4
100
AcDbEntity
  8
směr proudění podzemních vod
100
AcDbPolyline
 70
0
 90
3
 10
-594399.7963
 20
-1160140.0808
 10
-594419.8231
 20
-1160151.214
 10
-594397.1798
 20
-1160146.1843
  0
LWPOLYLINE
  5
205A5
100
AcDbEntity
  8
směr proudění podzemních vod
100
AcDbPolyline
 70
0
 90
2
 10
-594856.5988
 20
-1159379.46
 10
-594907.5509
 20
-1159389.0984
  0
LWPOLYLINE
  5
205A6
100
AcDbEntity
  8
směr proudění podzemních vod
100
AcDbPolyline
 70
0
 90
3
 10
-594885.8615
 20
-1159381.7099
 10
-594907.5509
 20
-1159389.0984
 10
-594884.3738
 20
-1159388.1819
  0
LWPOLYLINE
  5
205A7
100
AcDbEntity
  8
směr proudění podzemních vod
100
AcDbPolyline
 70
0
 90
2
 10
-594007.3741
 20
-1161325.4821
 10
-593976.0491
 20
-1161366.8071
  0
LWPOLYLINE
  5
205A8
100
AcDbEntity
  8
směr proudění podzemních vod
100
AcDbPolyline
 70
0
 90
3
 10
-593992.3252
 20
-1161350.6793
 10
-593976.0491
 20
-1161366.8071
 10
-593987.1934
 20
-1161346.4646
  0
LWPOLYLINE
  5
205A9
100
AcDbEntity
  8
směr proudění podzemních vod
100
AcDbPolyline
 70
0
 90
2
 10
-594099.7806
 20
-1161860.552
 10
-594137.3481
 20
-1161896.2969
  0
LWPOLYLINE
  5
205AA
100
AcDbEntity
  8
směr proudění podzemních vod
100
AcDbPolyline
 70
0
 90
3
 10
-594123.1392
 20
-1161878.3211
 10
-594137.3481
 20
-1161896.2969
 10
-594118.3776
 20
-1161882.95
  0
LWPOLYLINE
  5
205AB
100
AcDbEntity
  8
směr proudění podzemních vod
100
AcDbPolyline
 70
0
 90
2
 10
-593906.6511
 20
-1161536.91
 10
-593919.912
 20
-1161587.0415
  0
LWPOLYLINE
  5
205AC
100
AcDbEntity
  8
směr proudění podzemních vod
100
AcDbPolyline
 70
0
 90
3
 10
-593917.2319
 20
-1161564.2854
 10
-593919.912
 20
-1161587.0415
 10
-593910.7506
 20
-1161565.7321
  0
LWPOLYLINE
  5
205AD
100
AcDbEntity
  8
směr proudění podzemních vod
100
AcDbPolyline
 70
0
 90
2
 10
-594538.0581
 20
-1161338.6682
 10
-594570.7383
 20
-1161378.93
  0
LWPOLYLINE
  5
205AE
100
AcDbEntity
  8
směr proudění podzemních vod
100
AcDbPolyline
 70
0
 90
3
 10
-594558.9486
 20
-1161359.2826
 10
-594570.7383
 20
-1161378.93
 10
-594553.6334
 20
-1161363.2635
  0
LWPOLYLINE
  5
205AF
100
AcDbEntity
  8
směr proudění podzemních vod
100
AcDbPolyline
 70
0
 90
2
 10
-594327.0752
 20
-1161369.9854
 10
-594334.8298
 20
-1161421.258
  0
LWPOLYLINE
  5
205B0
100
AcDbEntity
  8
směr proudění podzemních vod
100
AcDbPolyline
 70
0
 90
3
 10
-594334.6295
 20
-1161398.3455
 10
-594334.8298
 20
-1161421.258
 10
-594328.0297
 20
-1161399.082
  0
LWPOLYLINE
  5
205B1
100
AcDbEntity
  8
směr proudění podzemních vod
100
AcDbPolyline
 70
0
 90
2
 10
-594166.9324
 20
-1161002.3617
 10
-594186.4711
 20
-1160954.3278
  0
LWPOLYLINE
  5
205B2
100
AcDbEntity
  8
směr proudění podzemních vod
100
AcDbPolyline
 70
0
 90
3
 10
-594174.9333
 20
-1160974.1243
 10
-594186.4711
 20
-1160954.3278
 10
-594180.9824
 20
-1160976.8642
  0
LWPOLYLINE
  5
205B3
100
AcDbEntity
  8
směr proudění podzemních vod
100
AcDbPolyline
 70
0
 90
3
 10
-594168.0838
 20
-1159452.0734
 10
-594186.4651
 20
-1159465.7537
 10
-594164.6843
 20
-1159457.778
  0
LWPOLYLINE
  5
205B4
100
AcDbEntity
  8
směr proudění podzemních vod
100
AcDbPolyline
 70
0
 90
2
 10
-594140.9189
 20
-1159440.9635
 10
-594186.4651
 20
-1159465.7537
  0
LWPOLYLINE
  5
205B5
100
AcDbEntity
  8
směr proudění podzemních vod
100
AcDbPolyline
 70
0
 90
3
 10
-594606.7932
 20
-1159276.9954
 10
-594627.6232
 20
-1159286.5415
 10
-594604.658
 20
-1159283.2834
  0
LWPOLYLINE
  5
205B6
100
AcDbEntity
  8
směr proudění podzemních vod
100
AcDbPolyline
 70
0
 90
2
 10
-594577.9086
 20
-1159271.7947
 10
-594627.6232
 20
-1159286.5415
  0
LWPOLYLINE
  5
205B7
100
AcDbEntity
  8
směr proudění podzemních vod
100
AcDbPolyline
 70
0
 90
3
 10
-594010.5782
 20
-1159919.7762
 10
-594029.6746
 20
-1159932.4391
 10
-594007.4931
 20
-1159925.6568
  0
LWPOLYLINE
  5
205B8
100
AcDbEntity
  8
směr proudění podzemních vod
100
AcDbPolyline
 70
0
 90
2
 10
-593982.8505
 20
-1159910.1563
 10
-594029.6746
 20
-1159932.4391
  0
LWPOLYLINE
  5
205B9
100
AcDbEntity
  8
směr proudění podzemních vod
100
AcDbPolyline
 70
0
 90
2
 10
-593600.668
 20
-1159237.9456
 10
-593650.0389
 20
-1159254.1168
  0
LWPOLYLINE
  5
205BA
100
AcDbEntity
  8
směr proudění podzemních vod
100
AcDbPolyline
 70
0
 90
3
 10
-593620.9701
 20
-1159247.4202
 10
-593650.0389
 20
-1159254.1168
 10
-593623.0352
 20
-1159242.2227
  0
LWPOLYLINE
  5
205BB
100
AcDbEntity
  8
směr proudění podzemních vod
100
AcDbPolyline
 70
0
 90
2
 10
-593379.3712
 20
-1159719.1784
 10
-593428.742
 20
-1159735.3496
  0
LWPOLYLINE
  5
205BC
100
AcDbEntity
  8
směr proudění podzemních vod
100
AcDbPolyline
 70
0
 90
3
 10
-593399.6733
 20
-1159728.653
 10
-593428.742
 20
-1159735.3496
 10
-593401.7384
 20
-1159723.4555
  0
LWPOLYLINE
  5
205BD
100
AcDbEntity
  8
směr proudění podzemních vod
100
AcDbPolyline
 70
0
 90
2
 10
-593075.5271
 20
-1159060.5568
 10
-593124.898
 20
-1159076.728
  0
LWPOLYLINE
  5
205BE
100
AcDbEntity
  8
směr proudění podzemních vod
100
AcDbPolyline
 70
0
 90
3
 10
-593095.8292
 20
-1159070.0315
 10
-593124.898
 20
-1159076.728
 10
-593097.8943
 20
-1159064.834
  0
LWPOLYLINE
  5
205BF
100
AcDbEntity
  8
směr proudění podzemních vod
100
AcDbPolyline
 70
0
 90
2
 10
-594597.968
 20
-1160640.672
 10
-594646.3889
 20
-1160659.2308
  0
LWPOLYLINE
  5
205C0
100
AcDbEntity
  8
směr proudění podzemních vod
100
AcDbPolyline
 70
0
 90
3
 10
-594626.3621
 20
-1160648.0976
 10
-594646.3889
 20
-1160659.2308
 10
-594623.7456
 20
-1160654.2011
  0
LWPOLYLINE
  5
205C1
100
AcDbEntity
  8
směr proudění podzemních vod
100
AcDbPolyline
 70
0
 90
2
 10
-594064.0455
 20
-1160472.0649
 10
-594112.4664
 20
-1160490.6236
  0
LWPOLYLINE
  5
205C2
100
AcDbEntity
  8
směr proudění podzemních vod
100
AcDbPolyline
 70
0
 90
3
 10
-594092.4396
 20
-1160479.4905
 10
-594112.4664
 20
-1160490.6236
 10
-594089.8231
 20
-1160485.594
  0
ENDSEC
  0
SECTION
  2
OBJECTS
  0
DICTIONARY
  5
C
330
0
100
AcDbDictionary
281
     1
  3
ACAD_GROUP
350
D
  3
ACAD_LAYOUT
350
1A
  3
ACAD_MLEADERSTYLE
350
43
  3
ACAD_PLOTSETTINGS
350
19
  3
ACAD_PLOTSTYLENAME
350
E
  3
ACAD_TABLESTYLE
350
42
  0
DICTIONARY
  5
D
102
{ACAD_REACTORS
330
C
102
}
330
C
100
AcDbDictionary
281
     1
  0
DICTIONARY
  5
1A
102
{ACAD_REACTORS
330
C
102
}
330
C
100
AcDbDictionary
281
     1
  3
Layout1
350
1E
  3
Model
350
22
  0
DICTIONARY
  5
43
102
{ACAD_REACTORS
330
C
102
}
330
C
100
AcDbDictionary
281
     1
  0
DICTIONARY
  5
19
102
{ACAD_REACTORS
330
C
102
}
330
C
100
AcDbDictionary
281
     1
  0
ACDBDICTIONARYWDFLT
  5
E
102
{ACAD_REACTORS
330
C
102
}
330
C
100
AcDbDictionary
281
     1
  3
Normal
350
F
100
AcDbDictionaryWithDefault
340
F
  0
DICTIONARY
  5
42
102
{ACAD_REACTORS
330
C
102
}
330
C
100
AcDbDictionary
281
     1
  0
LAYOUT
  5
1E
102
{ACAD_REACTORS
330
1A
102
}
330
1A
100
AcDbPlotSettings
  1

  2
none_device
  4

  6

 40
0.0
 41
0.0
 42
0.0
 43
0.0
 44
0.0
 45
0.0
 46
0.0
 47
0.0
 48
0.0
 49
0.0
140
0.0
141
0.0
142
1.0
143
1.0
 70
   688
 72
     0
 73
     0
 74
     5
  7

 75
    16
 76
     0
 77
     2
 78
   300
147
1.0
148
0.0
149
0.0
100
AcDbLayout
  1
Layout1
 70
     1
 71
     1
 10
0.0
 20
0.0
 11
12.0
 21
9.0
 12
0.0
 22
0.0
 32
0.0
 14
1.000000000000000E+20
 24
1.000000000000000E+20
 34
1.000000000000000E+20
 15
-1.000000000000000E+20
 25
-1.000000000000000E+20
 35
-1.000000000000000E+20
146
0.0
 13
0.0
 23
0.0
 33
0.0
 16
1.0
 26
0.0
 36
0.0
 17
0.0
 27
1.0
 37
0.0
 76
     0
330
1B
  0
LAYOUT
  5
22
102
{ACAD_REACTORS
330
1A
102
}
330
1A
100
AcDbPlotSettings
  1

  2
none_device
  4

  6

 40
0.0
 41
0.0
 42
0.0
 43
0.0
 44
0.0
 45
0.0
 46
0.0
 47
0.0
 48
0.0
 49
0.0
140
0.0
141
0.0
142
1.0
143
1.0
 70
  1712
 72
     0
 73
     0
 74
     0
  7

 75
     0
 76
     0
 77
     2
 78
   300
147
1.0
148
0.0
149
0.0
100
AcDbLayout
  1
Model
 70
     1
 71
     0
 10
0.0
 20
0.0
 11
12.0
 21
9.0
 12
0.0
 22
0.0
 32
0.0
 14
30.0
 24
49.75
 34
0.0
 15
130.5
 25
163.1318914119703
 35
0.0
146
0.0
 13
0.0
 23
0.0
 33
0.0
 16
1.0
 26
0.0
 36
0.0
 17
0.0
 27
1.0
 37
0.0
 76
     0
330
1F
331
29
  0
ENDSEC
  0
EOF
