  0
SECTION
  2
HEADER
  9
$ACADVER
  1
AC1018
  9
$ACADMAINTVER
 70
     0
  9
$DWGCODEPAGE
  3
ANSI_1252
  9
$EXTMIN
 10
16.4980707289878
 20
49.1195395446271
 30
0.0
  9
$EXTMAX
 10
16.7090181695437
 20
49.2720738184232
 30
0.0
  9
$LIMMIN
 10
0.0
 20
0.0
  9
$LIMMAX
 10
12.0
 20
9.0
  9
$ORTHOMODE
 70
     0
  9
$REGENMODE
 70
     1
  9
$FILLMODE
 70
     1
  9
$QTEXTMODE
 70
     0
  9
$MIRRTEXT
 70
     1
  9
$LTSCALE
 40
1.0
  9
$ATTMODE
 70
     1
  9
$TEXTSIZE
 40
0.2
  9
$TRACEWID
 40
0.05
  9
$TEXTSTYLE
  7
Standard
  9
$CLAYER
  8
0
  9
$CELTYPE
  6
ByLayer
  9
$CECOLOR
 62
   256
  9
$CELTSCALE
 40
1.0
  9
$DISPSILH
 70
     0
  9
$LUNITS
 70
     2
  9
$LUPREC
 70
     4
  9
$SKETCHINC
 40
0.1
  9
$FILLETRAD
 40
0.5
  9
$AUNITS
 70
     0
  9
$AUPREC
 70
     0
  9
$MENU
  1
.
  9
$ELEVATION
 40
0.0
  9
$PELEVATION
 40
0.0
  9
$THICKNESS
 40
0.0
  9
$LIMCHECK
 70
     0
  9
$CHAMFERA
 40
0.5
  9
$CHAMFERB
 40
0.5
  9
$CHAMFERC
 40
1.0
  9
$CHAMFERD
 40
0.0
  9
$SKPOLY
 70
     0
  9
$ANGBASE
 50
0.0
  9
$ANGDIR
 70
     0
  9
$PDMODE
 70
     0
  9
$PDSIZE
 40
0.0
  9
$PLINEWID
 40
0.0
  9
$SPLFRAME
 70
     0
  9
$SPLINETYPE
 70
     6
  9
$SPLINESEGS
 70
     8
  9
$HANDSEED
  5
000205C4
  9
$SURFTAB1
 70
     6
  9
$SURFTAB2
 70
     6
  9
$SURFTYPE
 70
     6
  9
$SURFU
 70
     6
  9
$SURFV
 70
     6
  9
$UCSBASE
  2

  9
$UCSNAME
  2

  9
$UCSORG
 10
0.0
 20
0.0
 30
0.0
  9
$UCSXDIR
 10
1.0
 20
0.0
 30
0.0
  9
$UCSYDIR
 10
0.0
 20
1.0
 30
0.0
  9
$UCSORTHOREF
  2

  9
$UCSORTHOVIEW
 70
     0
  9
$UCSORGTOP
 10
0.0
 20
0.0
 30
0.0
  9
$UCSORGBOTTOM
 10
0.0
 20
0.0
 30
0.0
  9
$UCSORGLEFT
 10
0.0
 20
0.0
 30
0.0
  9
$UCSORGRIGHT
 10
0.0
 20
0.0
 30
0.0
  9
$UCSORGFRONT
 10
0.0
 20
0.0
 30
0.0
  9
$UCSORGBACK
 10
0.0
 20
0.0
 30
0.0
  9
$PUCSBASE
  2

  9
$PUCSNAME
  2

  9
$PUCSORG
 10
0.0
 20
0.0
 30
0.0
  9
$PUCSXDIR
 10
1.0
 20
0.0
 30
0.0
  9
$PUCSYDIR
 10
0.0
 20
1.0
 30
0.0
  9
$PUCSORTHOREF
  2

  9
$PUCSORTHOVIEW
 70
     0
  9
$PUCSORGTOP
 10
0.0
 20
0.0
 30
0.0
  9
$PUCSORGBOTTOM
 10
0.0
 20
0.0
 30
0.0
  9
$PUCSORGLEFT
 10
0.0
 20
0.0
 30
0.0
  9
$PUCSORGRIGHT
 10
0.0
 20
0.0
 30
0.0
  9
$PUCSORGFRONT
 10
0.0
 20
0.0
 30
0.0
  9
$PUCSORGBACK
 10
0.0
 20
0.0
 30
0.0
  9
$WORLDVIEW
 70
     1
  9
$SHADEDGE
 70
     3
  9
$SHADEDIF
 70
    70
  9
$TILEMODE
 70
     1
  9
$MAXACTVP
 70
    64
  9
$PINSBASE
 10
0.0
 20
0.0
 30
0.0
  9
$PLIMCHECK
 70
     0
  9
$PEXTMIN
 10
1.000000000000000E+20
 20
1.000000000000000E+20
 30
1.000000000000000E+20
  9
$PEXTMAX
 10
-1.000000000000000E+20
 20
-1.000000000000000E+20
 30
-1.000000000000000E+20
  9
$PLIMMIN
 10
0.0
 20
0.0
  9
$PLIMMAX
 10
12.0
 20
9.0
  9
$UNITMODE
 70
     0
  9
$VISRETAIN
 70
     1
  9
$PLINEGEN
 70
     0
  9
$PSLTSCALE
 70
     1
  9
$TREEDEPTH
 70
  3020
  9
$CMLSTYLE
  2
Standard
  9
$CMLJUST
 70
     0
  9
$CMLSCALE
 40
1.0
  9
$PROXYGRAPHICS
 70
     1
  9
$MEASUREMENT
 70
     0
  9
$CELWEIGHT
370
    -1
  9
$ENDCAPS
280
     0
  9
$JOINSTYLE
280
     0
  9
$LWDISPLAY
290
     0
  9
$INSUNITS
 70
     1
  9
$HYPERLINKBASE
  1

  9
$STYLESHEET
  1

  9
$XEDIT
290
     1
  9
$CEPSNTYPE
380
     0
  9
$PSTYLEMODE
290
     1
  9
$EXTNAMES
290
     1
  9
$PSVPSCALE
 40
0.0
  9
$OLESTARTUP
290
     0
  9
$SORTENTS
280
   127
  9
$INDEXCTL
280
     0
  9
$HIDETEXT
280
     1
  9
$XCLIPFRAME
290
     0
  9
$HALOGAP
280
     0
  9
$OBSCOLOR
 70
   257
  9
$OBSLTYPE
280
     0
  9
$INTERSECTIONDISPLAY
280
     0
  9
$INTERSECTIONCOLOR
 70
   257
  9
$DIMASSOC
280
     2
  9
$PROJECTNAME
  1

  0
ENDSEC
  0
SECTION
  2
CLASSES
  0
CLASS
  1
ACDBDICTIONARYWDFLT
  2
AcDbDictionaryWithDefault
  3
ObjectDBX Classes
 90
        0
 91
        4
280
     0
281
     0
  0
ENDSEC
  0
SECTION
  2
TABLES
  0
TABLE
  2
VPORT
  5
8
330
0
100
AcDbSymbolTable
 70
     1
  0
VPORT
  5
29
330
8
100
AcDbSymbolTableRecord
100
AcDbViewportTableRecord
  2
*Active
 70
     0
 10
0.0
 20
0.0
 11
1.0
 21
1.0
 12
80.25
 22
106.4409457059851
 13
0.0
 23
0.0
 14
0.5
 24
0.5
 15
0.5
 25
0.5
 16
0.0
 26
0.0
 36
1.0
 17
0.0
 27
0.0
 37
0.0
 40
113.3818914119703
 41
0.8863849310366128
 42
50.0
 43
0.0
 44
0.0
 50
0.0
 51
0.0
 71
     0
 72
  1000
 73
     1
 74
     3
 75
     0
 76
     0
 77
     0
 78
     0
281
     0
 65
     1
110
0.0
120
0.0
130
0.0
111
1.0
121
0.0
131
0.0
112
0.0
122
1.0
132
0.0
 79
     0
146
0.0
  0
ENDTAB
  0
TABLE
  2
LTYPE
  5
5
330
0
100
AcDbSymbolTable
 70
     1
  0
LTYPE
  5
14
330
5
100
AcDbSymbolTableRecord
100
AcDbLinetypeTableRecord
  2
ByBlock
 70
     0
  3

 72
    65
 73
     0
 40
0.0
  0
LTYPE
  5
15
330
5
100
AcDbSymbolTableRecord
100
AcDbLinetypeTableRecord
  2
ByLayer
 70
     0
  3

 72
    65
 73
     0
 40
0.0
  0
LTYPE
  5
16
330
5
100
AcDbSymbolTableRecord
100
AcDbLinetypeTableRecord
  2
Continuous
 70
     0
  3
Solid line
 72
    65
 73
     0
 40
0.0
  0
ENDTAB
  0
TABLE
  2
LAYER
  5
2
330
0
100
AcDbSymbolTable
 70
     1
  0
LAYER
  5
10
330
2
100
AcDbSymbolTableRecord
100
AcDbLayerTableRecord
  2
0
 70
     0
 62
     7
  6
Continuous
370
    -3
390
F
  0
LAYER
  5
205C3
330
2
100
AcDbSymbolTableRecord
100
AcDbLayerTableRecord
  2
směr proudění podzemních vod
 70
     0
 62
     7
  6
Continuous
370
    -3
390
F
  0
ENDTAB
  0
TABLE
  2
STYLE
  5
3
330
0
100
AcDbSymbolTable
 70
     1
  0
STYLE
  5
11
330
3
100
AcDbSymbolTableRecord
100
AcDbTextStyleTableRecord
  2
Standard
 70
     0
 40
0.0
 41
1.0
 50
0.0
 71
     0
 42
0.2
  3
txt
  4

  0
ENDTAB
  0
TABLE
  2
VIEW
  5
6
330
0
100
AcDbSymbolTable
 70
     0
  0
ENDTAB
  0
TABLE
  2
UCS
  5
7
330
0
100
AcDbSymbolTable
 70
     0
  0
ENDTAB
  0
TABLE
  2
APPID
  5
9
330
0
100
AcDbSymbolTable
 70
     1
  0
APPID
  5
12
330
9
100
AcDbSymbolTableRecord
100
AcDbRegAppTableRecord
  2
ACAD
 70
     0
  0
ENDTAB
  0
TABLE
  2
DIMSTYLE
  5
A
330
0
100
AcDbSymbolTable
 70
     1
100
AcDbDimStyleTable
  0
DIMSTYLE
105
27
330
A
100
AcDbSymbolTableRecord
100
AcDbDimStyleTableRecord
  2
Standard
 70
     0
340
11
  0
ENDTAB
  0
TABLE
  2
BLOCK_RECORD
  5
1
330
0
100
AcDbSymbolTable
 70
     1
  0
BLOCK_RECORD
  5
1F
330
1
100
AcDbSymbolTableRecord
100
AcDbBlockTableRecord
  2
*Model_Space
340
22
  0
BLOCK_RECORD
  5
1B
330
1
100
AcDbSymbolTableRecord
100
AcDbBlockTableRecord
  2
*Paper_Space
340
1E
  0
ENDTAB
  0
ENDSEC
  0
SECTION
  2
BLOCKS
  0
BLOCK
  5
20
330
1F
100
AcDbEntity
  8
0
100
AcDbBlockBegin
  2
*Model_Space
 70
     0
 10
0.0
 20
0.0
 30
0.0
  3
*Model_Space
  1

  0
ENDBLK
  5
21
330
1F
100
AcDbEntity
  8
0
100
AcDbBlockEnd
  0
BLOCK
  5
1C
330
1B
100
AcDbEntity
 67
     1
  8
0
100
AcDbBlockBegin
  2
*Paper_Space
 70
     0
 10
0.0
 20
0.0
 30
0.0
  3
*Paper_Space
  1

  0
ENDBLK
  5
1D
330
1B
100
AcDbEntity
 67
     1
  8
0
100
AcDbBlockEnd
  0
ENDSEC
  0
SECTION
  2
ENTITIES
  0
LWPOLYLINE
  5
20000
100
AcDbEntity
  8
směr proudění podzemních vod
100
AcDbPolyline
 70
0
 90
2
 10
16.5781115389595
 20
49.1771367998601
 10
16.5777274284588
 20
49.1767484025648
  0
LWPOLYLINE
  5
20001
100
AcDbEntity
  8
směr proudění podzemních vod
100
AcDbPolyline
 70
0
 90
3
 10
16.5779742576332
 20
49.1769502110313
 10
16.5777274284588
 20
49.1767484025648
 10
16.5779113814011
 20
49.1769783055989
  0
LWPOLYLINE
  5
20002
100
AcDbEntity
  8
směr proudění podzemních vod
100
AcDbPolyline
 70
0
 90
2
 10
16.5826696850584
 20
49.1788157559057
 10
16.5832044411505
 20
49.1791180211556
  0
LWPOLYLINE
  5
20003
100
AcDbEntity
  8
směr proudění podzemních vod
100
AcDbPolyline
 70
0
 90
3
 10
16.5828812271784
 20
49.1789696478315
 10
16.5832044411505
 20
49.1791180211556
 10
16.5829295782665
 20
49.178931127005
  0
LWPOLYLINE
  5
20004
100
AcDbEntity
  8
směr proudění podzemních vod
100
AcDbPolyline
 70
0
 90
2
 10
16.5710754702938
 20
49.1733327694795
 10
16.5710045660964
 20
49.1728722176315
  0
LWPOLYLINE
  5
20005
100
AcDbEntity
  8
směr proudění podzemních vod
100
AcDbPolyline
 70
0
 90
3
 10
16.5710834296035
 20
49.1731256736345
 10
16.5710045660964
 20
49.1728722176315
 10
16.5710079261142
 20
49.1731318235726
  0
LWPOLYLINE
  5
20006
100
AcDbEntity
  8
směr proudění podzemních vod
100
AcDbPolyline
 70
0
 90
2
 10
16.5834678176827
 20
49.1736400625281
 10
16.5832877518739
 20
49.1731924794173
  0
LWPOLYLINE
  5
20007
100
AcDbEntity
  8
směr proudění podzemních vod
100
AcDbPolyline
 70
0
 90
3
 10
16.5834261986225
 20
49.1734347060268
 10
16.5832877518739
 20
49.1731924794173
 10
16.5833530957172
 20
49.1734485350447
  0
LWPOLYLINE
  5
20008
100
AcDbEntity
  8
směr proudění podzemních vod
100
AcDbPolyline
 70
0
 90
2
 10
16.5822264607749
 20
49.1699133469029
 10
16.5823216375868
 20
49.1694546811088
  0
LWPOLYLINE
  5
20009
100
AcDbEntity
  8
směr proudění podzemních vod
100
AcDbPolyline
 70
0
 90
3
 10
16.5823079965081
 20
49.1697132029399
 10
16.5823216375868
 20
49.1694546811088
 10
16.5822323965132
 20
49.1697076156597
  0
LWPOLYLINE
  5
2000A
100
AcDbEntity
  8
směr proudění podzemních vod
100
AcDbPolyline
 70
0
 90
2
 10
16.5842394798112
 20
49.1662140608539
 10
16.5844782026466
 20
49.1657784425495
  0
LWPOLYLINE
  5
2000B
100
AcDbEntity
  8
směr proudění podzemních vod
100
AcDbPolyline
 70
0
 90
3
 10
16.5843827745985
 20
49.1660294362099
 10
16.5844782026466
 20
49.1657784425495
 10
16.5843106102768
 20
49.1660136495656
  0
LWPOLYLINE
  5
2000C
100
AcDbEntity
  8
směr proudění podzemních vod
100
AcDbPolyline
 70
0
 90
2
 10
16.5907569956467
 20
49.1637592959574
 10
16.5912760619051
 20
49.1634456083612
  0
LWPOLYLINE
  5
2000D
100
AcDbEntity
  8
směr proudění podzemních vod
100
AcDbPolyline
 70
0
 90
3
 10
16.5910143214212
 20
49.1636391318525
 10
16.5912760619051
 20
49.1634456083612
 10
16.5909614980868
 20
49.1636032346658
  0
LWPOLYLINE
  5
2000E
100
AcDbEntity
  8
směr proudění podzemních vod
100
AcDbPolyline
 70
0
 90
2
 10
16.571695209896
 20
49.1690437152924
 10
16.5717901629339
 20
49.1685850299916
  0
LWPOLYLINE
  5
2000F
100
AcDbEntity
  8
směr proudění podzemních vod
100
AcDbPolyline
 70
0
 90
3
 10
16.5717766472748
 20
49.1688435543657
 10
16.5717901629339
 20
49.1685850299916
 10
16.571701044586
 20
49.1688379833287
  0
LWPOLYLINE
  5
20010
100
AcDbEntity
  8
směr proudění podzemních vod
100
AcDbPolyline
 70
0
 90
2
 10
16.5731341314628
 20
49.1639238404915
 10
16.5734007447765
 20
49.1634952378506
  0
LWPOLYLINE
  5
20011
100
AcDbEntity
  8
směr proudění podzemních vod
100
AcDbPolyline
 70
0
 90
3
 10
16.5732892066733
 20
49.1637433576075
 10
16.5734007447765
 20
49.1634952378506
 10
16.5732181304642
 20
49.1637255822606
  0
LWPOLYLINE
  5
20012
100
AcDbEntity
  8
směr proudění podzemních vod
100
AcDbPolyline
 70
0
 90
2
 10
16.5869427409018
 20
49.1614147151072
 10
16.5872295659655
 20
49.1609917661067
  0
LWPOLYLINE
  5
20013
100
AcDbEntity
  8
směr proudění podzemních vod
100
AcDbPolyline
 70
0
 90
3
 10
16.5871063048199
 20
49.1612374867897
 10
16.5872295659655
 20
49.1609917661067
 10
16.5870361097211
 20
49.1612182694092
  0
LWPOLYLINE
  5
20014
100
AcDbEntity
  8
směr proudění podzemních vod
100
AcDbPolyline
 70
0
 90
2
 10
16.5715457120565
 20
49.1771190350767
 10
16.5714463485292
 20
49.1766607501563
  0
LWPOLYLINE
  5
20015
100
AcDbEntity
  8
směr proudění podzemních vod
100
AcDbPolyline
 70
0
 90
3
 10
16.5715408455636
 20
49.1769118981733
 10
16.5714463485292
 20
49.1766607501563
 10
16.5714657783577
 20
49.1769200526948
  0
LWPOLYLINE
  5
20016
100
AcDbEntity
  8
směr proudění podzemních vod
100
AcDbPolyline
 70
0
 90
2
 10
16.5963858448662
 20
49.1614769293864
 10
16.5969466568584
 20
49.1611958599558
  0
LWPOLYLINE
  5
20017
100
AcDbEntity
  8
směr proudění podzemních vod
100
AcDbPolyline
 70
0
 90
3
 10
16.5966589122883
 20
49.1613727858762
 10
16.5969466568584
 20
49.1611958599558
 10
16.5966113466146
 20
49.1613338564775
  0
LWPOLYLINE
  5
20018
100
AcDbEntity
  8
směr proudění podzemních vod
100
AcDbPolyline
 70
0
 90
2
 10
16.5699829001007
 20
49.1807426931519
 10
16.5699767566384
 20
49.1812055665525
  0
LWPOLYLINE
  5
20019
100
AcDbEntity
  8
směr proudění podzemních vod
100
AcDbPolyline
 70
0
 90
3
 10
16.5699405260318
 20
49.1809479833758
 10
16.5699767566384
 20
49.1812055665525
 10
16.5700166145484
 20
49.1809472696795
  0
LWPOLYLINE
  5
2001A
100
AcDbEntity
  8
směr proudění podzemních vod
100
AcDbPolyline
 70
0
 90
2
 10
16.566227063984
 20
49.1787537688576
 10
16.5655210838428
 20
49.178746156301
  0
LWPOLYLINE
  5
2001B
100
AcDbEntity
  8
směr proudění podzemních vod
100
AcDbPolyline
 70
0
 90
3
 10
16.5659142598567
 20
49.1787244015971
 10
16.5655210838428
 20
49.178746156301
 10
16.5659147586601
 20
49.17877428623
  0
LWPOLYLINE
  5
2001C
100
AcDbEntity
  8
směr proudění podzemních vod
100
AcDbPolyline
 70
0
 90
2
 10
16.5435298870933
 20
49.1793281327101
 10
16.5431449345161
 20
49.1789405788238
  0
LWPOLYLINE
  5
2001D
100
AcDbEntity
  8
směr proudění podzemních vod
100
AcDbPolyline
 70
0
 90
3
 10
16.5433344869289
 20
49.1791862452256
 10
16.5431449345161
 20
49.1789405788238
 10
16.543415098928
 20
49.179162216664
  0
LWPOLYLINE
  5
2001E
100
AcDbEntity
  8
směr proudění podzemních vod
100
AcDbPolyline
 70
0
 90
2
 10
16.5367579413937
 20
49.1819278490984
 10
16.5363152692629
 20
49.1815677433769
  0
LWPOLYLINE
  5
2001F
100
AcDbEntity
  8
směr proudění podzemních vod
100
AcDbPolyline
 70
0
 90
3
 10
16.536541685405
 20
49.1817996138523
 10
16.5363152692629
 20
49.1815677433769
 10
16.5366181898108
 20
49.1817703748331
  0
LWPOLYLINE
  5
20020
100
AcDbEntity
  8
směr proudění podzemních vod
100
AcDbPolyline
 70
0
 90
2
 10
16.5173084673321
 20
49.189756769061
 10
16.5169026436074
 20
49.1893784384026
  0
LWPOLYLINE
  5
20021
100
AcDbEntity
  8
směr proudění podzemních vod
100
AcDbPolyline
 70
0
 90
3
 10
16.5171054495674
 20
49.1896195285984
 10
16.5169026436074
 20
49.1893784384026
 10
16.5171847230418
 20
49.1895936346619
  0
LWPOLYLINE
  5
20022
100
AcDbEntity
  8
směr proudění podzemních vod
100
AcDbPolyline
 70
0
 90
2
 10
16.5312135938541
 20
49.184474614829
 10
16.5307709392961
 20
49.1841144879676
  0
LWPOLYLINE
  5
20023
100
AcDbEntity
  8
směr proudění podzemních vod
100
AcDbPolyline
 70
0
 90
3
 10
16.5309973411133
 20
49.1843463692358
 10
16.5307709392961
 20
49.1841144879676
 10
16.5310738527197
 20
49.184317133908
  0
LWPOLYLINE
  5
20024
100
AcDbEntity
  8
směr proudění podzemních vod
100
AcDbPolyline
 70
0
 90
2
 10
16.5249759823026
 20
49.1875479081766
 10
16.5245333456623
 20
49.1871877575441
  0
LWPOLYLINE
  5
20025
100
AcDbEntity
  8
směr proudění podzemních vod
100
AcDbPolyline
 70
0
 90
3
 10
16.5247597323099
 20
49.1874196509467
 10
16.5245333456623
 20
49.1871877575441
 10
16.5248362523392
 20
49.1873904197732
  0
LWPOLYLINE
  5
20026
100
AcDbEntity
  8
směr proudění podzemních vod
100
AcDbPolyline
 70
0
 90
2
 10
16.5098800083429
 20
49.193013995715
 10
16.5094742147058
 20
49.1926356391123
  0
LWPOLYLINE
  5
20027
100
AcDbEntity
  8
směr proudění podzemních vod
100
AcDbPolyline
 70
0
 90
3
 10
16.5096769979763
 20
49.1928767413517
 10
16.5094742147058
 20
49.1926356391123
 10
16.5097562790283
 20
49.1928508533327
  0
LWPOLYLINE
  5
20028
100
AcDbEntity
  8
směr proudění podzemních vod
100
AcDbPolyline
 70
0
 90
2
 10
16.5470304557028
 20
49.1734886705634
 10
16.5467107731323
 20
49.173076415174
  0
LWPOLYLINE
  5
20029
100
AcDbEntity
  8
směr proudění podzemních vod
100
AcDbPolyline
 70
0
 90
3
 10
16.546859269486
 20
49.1733339319693
 10
16.5467107731323
 20
49.173076415174
 10
16.5469433202732
 20
49.1733156752162
  0
LWPOLYLINE
  5
2002A
100
AcDbEntity
  8
směr proudění podzemních vod
100
AcDbPolyline
 70
0
 90
2
 10
16.5398367008068
 20
49.1751063634359
 10
16.5395170675134
 20
49.1746940891142
  0
LWPOLYLINE
  5
2002B
100
AcDbEntity
  8
směr proudění podzemních vod
100
AcDbPolyline
 70
0
 90
3
 10
16.5396655314742
 20
49.1749516142057
 10
16.5395170675134
 20
49.1746940891142
 10
16.5397495861372
 20
49.174933363499
  0
LWPOLYLINE
  5
2002C
100
AcDbEntity
  8
směr proudění podzemních vod
100
AcDbPolyline
 70
0
 90
2
 10
16.5323123701026
 20
49.1776164253683
 10
16.5318453754657
 20
49.177269795929
  0
LWPOLYLINE
  5
2002D
100
AcDbEntity
  8
směr proudění podzemních vod
100
AcDbPolyline
 70
0
 90
3
 10
16.5320875173224
 20
49.1774947252751
 10
16.5318453754657
 20
49.177269795929
 10
16.5321619234039
 20
49.1774632497285
  0
LWPOLYLINE
  5
2002E
100
AcDbEntity
  8
směr proudění podzemních vod
100
AcDbPolyline
 70
0
 90
2
 10
16.5266263678474
 20
49.180455189463
 10
16.5261937868577
 20
49.1800898585203
  0
LWPOLYLINE
  5
2002F
100
AcDbEntity
  8
směr proudění podzemních vod
100
AcDbPolyline
 70
0
 90
3
 10
16.526413716771
 20
49.1803243939124
 10
16.5261937868577
 20
49.1800898585203
 10
16.5264910183737
 20
49.1802960723634
  0
LWPOLYLINE
  5
20030
100
AcDbEntity
  8
směr proudění podzemních vod
100
AcDbPolyline
 70
0
 90
2
 10
16.5198514937331
 20
49.1828535796977
 10
16.5194175677216
 20
49.1824889247066
  0
LWPOLYLINE
  5
20031
100
AcDbEntity
  8
směr proudění podzemních vod
100
AcDbPolyline
 70
0
 90
3
 10
16.5196383581032
 20
49.1827231163782
 10
16.5194175677216
 20
49.1824889247066
 10
16.5197155612339
 20
49.1826946741833
  0
LWPOLYLINE
  5
20032
100
AcDbEntity
  8
směr proudění podzemních vod
100
AcDbPolyline
 70
0
 90
2
 10
16.5127978269953
 20
49.1858216203123
 10
16.5124241211745
 20
49.1854293438982
  0
LWPOLYLINE
  5
20033
100
AcDbEntity
  8
směr proudění podzemních vod
100
AcDbPolyline
 70
0
 90
3
 10
16.5126065479229
 20
49.1856773250264
 10
16.5124241211745
 20
49.1854293438982
 10
16.5126878514818
 20
49.1856543047416
  0
LWPOLYLINE
  5
20034
100
AcDbEntity
  8
směr proudění podzemních vod
100
AcDbPolyline
 70
0
 90
2
 10
16.5052941465008
 20
49.1880863086539
 10
16.5049747170814
 20
49.1876739394754
  0
LWPOLYLINE
  5
20035
100
AcDbEntity
  8
směr proudění podzemních vod
100
AcDbPolyline
 70
0
 90
3
 10
16.5051230403027
 20
49.187931508478
 10
16.5049747170814
 20
49.1876739394754
 10
16.5052071296786
 20
49.1879132830004
  0
LWPOLYLINE
  5
20036
100
AcDbEntity
  8
směr proudění podzemních vod
100
AcDbPolyline
 70
0
 90
2
 10
16.4983901181639
 20
49.1907626943362
 10
16.4980707289878
 20
49.1903503062125
  0
LWPOLYLINE
  5
20037
100
AcDbEntity
  8
směr proudění podzemních vod
100
AcDbPolyline
 70
0
 90
3
 10
16.4982190243102
 20
49.1906078839827
 10
16.4980707289878
 20
49.1903503062125
 10
16.4983031207643
 20
49.1905896635487
  0
LWPOLYLINE
  5
20038
100
AcDbEntity
  8
směr proudění podzemních vod
100
AcDbPolyline
 70
0
 90
2
 10
16.5241365096532
 20
49.1736195077866
 10
16.5235747100019
 20
49.1733398502526
  0
LWPOLYLINE
  5
20039
100
AcDbEntity
  8
směr proudění podzemních vod
100
AcDbPolyline
 70
0
 90
3
 10
16.5238795651794
 20
49.1735291717321
 10
16.5235747100019
 20
49.1733398502526
 10
16.5239430718788
 20
49.1734887187606
  0
LWPOLYLINE
  5
2003A
100
AcDbEntity
  8
směr proudění podzemních vod
100
AcDbPolyline
 70
0
 90
2
 10
16.5342953337029
 20
49.1696394011235
 10
16.5339757817138
 20
49.1692271111521
  0
LWPOLYLINE
  5
2003B
100
AcDbEntity
  8
směr proudění podzemních vod
100
AcDbPolyline
 70
0
 90
3
 10
16.5341242005363
 20
49.1694846435612
 10
16.5339757817138
 20
49.1692271111521
 10
16.5342082479642
 20
49.1694663968765
  0
LWPOLYLINE
  5
2003C
100
AcDbEntity
  8
směr proudění podzemních vod
100
AcDbPolyline
 70
0
 90
2
 10
16.6376499823651
 20
49.167585823642
 10
16.6371889828872
 20
49.1672348694771
  0
LWPOLYLINE
  5
2003D
100
AcDbEntity
  8
směr proudění podzemních vod
100
AcDbPolyline
 70
0
 90
3
 10
16.6374127338954
 20
49.1674682112227
 10
16.6371889828872
 20
49.1672348694771
 10
16.6375073057538
 20
49.1674215245256
  0
LWPOLYLINE
  5
2003E
100
AcDbEntity
  8
směr proudění podzemních vod
100
AcDbPolyline
 70
0
 90
2
 10
16.6395072244727
 20
49.1648937642431
 10
16.6388760596664
 20
49.1646858274443
  0
LWPOLYLINE
  5
2003F
100
AcDbEntity
  8
směr proudění podzemních vod
100
AcDbPolyline
 70
0
 90
3
 10
16.639219302529
 20
49.1648449222731
 10
16.6388760596664
 20
49.1646858274443
 10
16.6392792729088
 20
49.1647779991548
  0
LWPOLYLINE
  5
20040
100
AcDbEntity
  8
směr proudění podzemních vod
100
AcDbPolyline
 70
0
 90
2
 10
16.6408141007932
 20
49.159033605447
 10
16.6401169114084
 20
49.1589596255026
  0
LWPOLYLINE
  5
20041
100
AcDbEntity
  8
směr proudění podzemních vod
100
AcDbPolyline
 70
0
 90
3
 10
16.6405171374993
 20
49.1590437461385
 10
16.6401169114084
 20
49.1589596255026
 10
16.6405436739375
 20
49.1589680988477
  0
LWPOLYLINE
  5
20042
100
AcDbEntity
  8
směr proudění podzemních vod
100
AcDbPolyline
 70
0
 90
2
 10
16.6506247346849
 20
49.160017760676
 10
16.6499214788592
 20
49.1599750146761
  0
LWPOLYLINE
  5
20043
100
AcDbEntity
  8
směr proudění podzemních vod
100
AcDbPolyline
 70
0
 90
3
 10
16.6503295031017
 20
49.1600411083786
 10
16.6499214788592
 20
49.1599750146761
 10
16.6503481429146
 20
49.1599644542617
  0
LWPOLYLINE
  5
20044
100
AcDbEntity
  8
směr proudění podzemních vod
100
AcDbPolyline
 70
0
 90
2
 10
16.6619407580727
 20
49.1611545535475
 10
16.6612382954564
 20
49.1611064117717
  0
LWPOLYLINE
  5
20045
100
AcDbEntity
  8
směr proudění podzemních vod
100
AcDbPolyline
 70
0
 90
3
 10
16.6616451219592
 20
49.1611756335038
 10
16.6612382954564
 20
49.1611064117717
 10
16.6616651295808
 20
49.1610991275648
  0
LWPOLYLINE
  5
20046
100
AcDbEntity
  8
směr proudění podzemních vod
100
AcDbPolyline
 70
0
 90
2
 10
16.6517179104266
 20
49.1541266646878
 10
16.6510117298496
 20
49.1541246304565
  0
LWPOLYLINE
  5
20047
100
AcDbEntity
  8
směr proudění podzemních vod
100
AcDbPolyline
 70
0
 90
3
 10
16.6514269852751
 20
49.1541669438271
 10
16.6510117298496
 20
49.1541246304565
 10
16.6514352758064
 20
49.1540895118335
  0
LWPOLYLINE
  5
20048
100
AcDbEntity
  8
směr proudění podzemních vod
100
AcDbPolyline
 70
0
 90
2
 10
16.6533140763897
 20
49.1464844132136
 10
16.6526092048567
 20
49.1464573578663
  0
LWPOLYLINE
  5
20049
100
AcDbEntity
  8
směr proudění podzemních vod
100
AcDbPolyline
 70
0
 90
3
 10
16.6530203033576
 20
49.1465143245377
 10
16.6526092048567
 20
49.1464573578663
 10
16.6530349592285
 20
49.14643729905
  0
LWPOLYLINE
  5
2004A
100
AcDbEntity
  8
směr proudění podzemních vod
100
AcDbPolyline
 70
0
 90
2
 10
16.5287301637023
 20
49.2200120764737
 10
16.5294124930867
 20
49.2201414788653
  0
LWPOLYLINE
  5
2004B
100
AcDbEntity
  8
směr proudění podzemních vod
100
AcDbPolyline
 70
0
 90
3
 10
16.5289868841124
 20
49.2200961309817
 10
16.5294124930867
 20
49.2201414788653
 10
16.529022357308
 20
49.2200309568805
  0
LWPOLYLINE
  5
2004C
100
AcDbEntity
  8
směr proudění podzemních vod
100
AcDbPolyline
 70
0
 90
2
 10
16.5221270804691
 20
49.2176746283908
 10
16.5228093591541
 20
49.2178040688651
  0
LWPOLYLINE
  5
2004D
100
AcDbEntity
  8
směr proudění podzemních vod
100
AcDbPolyline
 70
0
 90
3
 10
16.5223837763306
 20
49.2177586966201
 10
16.5228093591541
 20
49.2178040688651
 10
16.5224192577548
 20
49.2176935255184
  0
LWPOLYLINE
  5
2004E
100
AcDbEntity
  8
směr proudění podzemních vod
100
AcDbPolyline
 70
0
 90
2
 10
16.5201397794104
 20
49.2217861307961
 10
16.5204667813488
 20
49.22219920573
  0
LWPOLYLINE
  5
2004F
100
AcDbEntity
  8
směr proudění podzemních vod
100
AcDbPolyline
 70
0
 90
3
 10
16.520223678653
 20
49.2219659166385
 10
16.5204667813488
 20
49.22219920573
 10
16.5203202329162
 20
49.2219378492278
  0
LWPOLYLINE
  5
20050
100
AcDbEntity
  8
směr proudění podzemních vod
100
AcDbPolyline
 70
0
 90
2
 10
16.5267625998281
 20
49.2239084768206
 10
16.5274449765375
 20
49.2240378897863
  0
LWPOLYLINE
  5
20051
100
AcDbEntity
  8
směr proudění podzemních vod
100
AcDbPolyline
 70
0
 90
3
 10
16.5270193358784
 20
49.2239925346668
 10
16.5274449765375
 20
49.2240378897863
 10
16.5270548156737
 20
49.2239273622027
  0
LWPOLYLINE
  5
20052
100
AcDbEntity
  8
směr proudění podzemních vod
100
AcDbPolyline
 70
0
 90
2
 10
16.5225650348535
 20
49.2269562830768
 10
16.5228565018777
 20
49.2273806256441
  0
LWPOLYLINE
  5
20053
100
AcDbEntity
  8
směr proudění podzemních vod
100
AcDbPolyline
 70
0
 90
3
 10
16.5226335532733
 20
49.2271388449837
 10
16.5228565018777
 20
49.2273806256441
 10
16.5227323495126
 20
49.2271143366979
  0
LWPOLYLINE
  5
20054
100
AcDbEntity
  8
směr proudění podzemních vod
100
AcDbPolyline
 70
0
 90
2
 10
16.5120336200274
 20
49.2249728429482
 10
16.5120356078043
 20
49.2254381445769
  0
LWPOLYLINE
  5
20055
100
AcDbEntity
  8
směr proudění podzemních vod
100
AcDbPolyline
 70
0
 90
3
 10
16.5119825419605
 20
49.2251578393113
 10
16.5120356078043
 20
49.2254381445769
 10
16.5120880067189
 20
49.2251618411247
  0
LWPOLYLINE
  5
20056
100
AcDbEntity
  8
směr proudění podzemních vod
100
AcDbPolyline
 70
0
 90
2
 10
16.51192479365
 20
49.2204323011357
 10
16.511869216949
 20
49.2208961792241
  0
LWPOLYLINE
  5
20057
100
AcDbEntity
  8
směr proudění podzemních vod
100
AcDbPolyline
 70
0
 90
3
 10
16.511851003579
 20
49.2206139789531
 10
16.511869216949
 20
49.2208961792241
 10
16.5119556185889
 20
49.220623564605
  0
LWPOLYLINE
  5
20058
100
AcDbEntity
  8
směr proudění podzemních vod
100
AcDbPolyline
 70
0
 90
2
 10
16.4995712670746
 20
49.224727908226
 10
16.5002369798614
 20
49.2248903661993
  0
LWPOLYLINE
  5
20059
100
AcDbEntity
  8
směr proudění podzemních vod
100
AcDbPolyline
 70
0
 90
3
 10
16.4998176981887
 20
49.2248243004978
 10
16.5002369798614
 20
49.2248903661993
 10
16.4998605161073
 20
49.224761047203
  0
LWPOLYLINE
  5
2005A
100
AcDbEntity
  8
směr proudění podzemních vod
100
AcDbPolyline
 70
0
 90
2
 10
16.5061587177316
 20
49.227284150504
 10
16.5067629359037
 20
49.2275289145917
  0
LWPOLYLINE
  5
2005B
100
AcDbEntity
  8
směr proudění podzemních vod
100
AcDbPolyline
 70
0
 90
3
 10
16.5063715346109
 20
49.2274103068831
 10
16.5067629359037
 20
49.2275289145917
 10
16.5064324532836
 20
49.2273537762903
  0
LWPOLYLINE
  5
2005C
100
AcDbEntity
  8
směr proudění podzemních vod
100
AcDbPolyline
 70
0
 90
2
 10
16.5045696454804
 20
49.2334317093709
 10
16.5051501196939
 20
49.2337000585533
  0
LWPOLYLINE
  5
2005D
100
AcDbEntity
  8
směr proudění podzemních vod
100
AcDbPolyline
 70
0
 90
3
 10
16.5047703941636
 20
49.2335660994342
 10
16.5051501196939
 20
49.2337000585533
 10
16.5048364529616
 20
49.2335120969841
  0
LWPOLYLINE
  5
2005E
100
AcDbEntity
  8
směr proudění podzemních vod
100
AcDbPolyline
 70
0
 90
2
 10
16.4990764166049
 20
49.2400338376283
 10
16.4996048125606
 20
49.2403449754353
  0
LWPOLYLINE
  5
2005F
100
AcDbEntity
  8
směr proudění podzemních vod
100
AcDbPolyline
 70
0
 90
3
 10
16.499251695556
 20
49.2401827375772
 10
16.4996048125606
 20
49.2403449754353
 10
16.4993269910362
 20
49.2401341899823
  0
LWPOLYLINE
  5
20060
100
AcDbEntity
  8
směr proudění podzemních vod
100
AcDbPolyline
 70
0
 90
2
 10
16.6401797814862
 20
49.1893348577425
 10
16.6396655944857
 20
49.1890143319365
  0
LWPOLYLINE
  5
20061
100
AcDbEntity
  8
směr proudění podzemních vod
100
AcDbPolyline
 70
0
 90
3
 10
16.6399270815096
 20
49.1892243786854
 10
16.6396655944857
 20
49.1890143319365
 10
16.6400032619234
 20
49.1891799690349
  0
LWPOLYLINE
  5
20062
100
AcDbEntity
  8
směr proudění podzemních vod
100
AcDbPolyline
 70
0
 90
2
 10
16.6360065777473
 20
49.1871394759584
 10
16.6356363926607
 20
49.186742685789
  0
LWPOLYLINE
  5
20063
100
AcDbEntity
  8
směr proudění podzemních vod
100
AcDbPolyline
 70
0
 90
3
 10
16.6358060840718
 20
49.186989914792
 10
16.6356363926607
 20
49.186742685789
 10
16.6358971930956
 20
49.1869599319081
  0
LWPOLYLINE
  5
20064
100
AcDbEntity
  8
směr proudění podzemních vod
100
AcDbPolyline
 70
0
 90
2
 10
16.6331886431525
 20
49.1848771355255
 10
16.6329324601155
 20
49.1844434070187
  0
LWPOLYLINE
  5
20065
100
AcDbEntity
  8
směr proudění podzemních vod
100
AcDbPolyline
 70
0
 90
3
 10
16.6330321020179
 20
49.1847065196839
 10
16.6329324601155
 20
49.1844434070187
 10
16.6331299071379
 20
49.1846876768114
  0
LWPOLYLINE
  5
20066
100
AcDbEntity
  8
směr proudění podzemních vod
100
AcDbPolyline
 70
0
 90
2
 10
16.6469946733501
 20
49.1873301017329
 10
16.6463794181411
 20
49.1870984044713
  0
LWPOLYLINE
  5
20067
100
AcDbEntity
  8
směr proudění podzemních vod
100
AcDbPolyline
 70
0
 90
3
 10
16.6467092828155
 20
49.1872619424799
 10
16.6463794181411
 20
49.1870984044713
 10
16.6467672687424
 20
49.1872069814974
  0
LWPOLYLINE
  5
20068
100
AcDbEntity
  8
směr proudění podzemních vod
100
AcDbPolyline
 70
0
 90
2
 10
16.6412672040081
 20
49.1846144194636
 10
16.6408022175681
 20
49.1842631135846
  0
LWPOLYLINE
  5
20069
100
AcDbEntity
  8
směr proudění podzemních vod
100
AcDbPolyline
 70
0
 90
3
 10
16.6410318155501
 20
49.1844885970266
 10
16.6408022175681
 20
49.1842631135846
 10
16.6411141218549
 20
49.1844491698888
  0
LWPOLYLINE
  5
2006A
100
AcDbEntity
  8
směr proudění podzemních vod
100
AcDbPolyline
 70
0
 90
2
 10
16.6356227017217
 20
49.1808708802569
 10
16.6351086320905
 20
49.1805503328644
  0
LWPOLYLINE
  5
2006B
100
AcDbEntity
  8
směr proudění podzemních vod
100
AcDbPolyline
 70
0
 90
3
 10
16.6353700551825
 20
49.1807603901961
 10
16.6351086320905
 20
49.1805503328644
 10
16.6354462266662
 20
49.1807159834943
  0
LWPOLYLINE
  5
2006C
100
AcDbEntity
  8
směr proudění podzemních vod
100
AcDbPolyline
 70
0
 90
2
 10
16.6603300364581
 20
49.1854655436584
 10
16.6598157594093
 20
49.1851451065477
  0
LWPOLYLINE
  5
2006D
100
AcDbEntity
  8
směr proudění podzemních vod
100
AcDbPolyline
 70
0
 90
3
 10
16.6600773114251
 20
49.1853551077675
 10
16.6598157594093
 20
49.1851451065477
 10
16.6601534678456
 20
49.1853106847828
  0
LWPOLYLINE
  5
2006E
100
AcDbEntity
  8
směr proudění podzemních vod
100
AcDbPolyline
 70
0
 90
2
 10
16.6512015808669
 20
49.1806128101354
 10
16.6506874131563
 20
49.1802923321287
  0
LWPOLYLINE
  5
2006F
100
AcDbEntity
  8
směr proudění podzemních vod
100
AcDbPolyline
 70
0
 90
3
 10
16.6509489009084
 20
49.18050235418
 10
16.6506874131563
 20
49.1802923321287
 10
16.6510250580471
 20
49.1804579371876
  0
LWPOLYLINE
  5
20070
100
AcDbEntity
  8
směr proudění podzemních vod
100
AcDbPolyline
 70
0
 90
2
 10
16.6425147161119
 20
49.1766304510496
 10
16.6420006458527
 20
49.1763099341626
  0
LWPOLYLINE
  5
20071
100
AcDbEntity
  8
směr proudění podzemních vod
100
AcDbPolyline
 70
0
 90
3
 10
16.6422620758063
 20
49.176519976013
 10
16.6420006458527
 20
49.1763099341626
 10
16.6423382346035
 20
49.1764755647288
  0
LWPOLYLINE
  5
20072
100
AcDbEntity
  8
směr proudění podzemních vod
100
AcDbPolyline
 70
0
 90
2
 10
16.6351326678724
 20
49.1731427194213
 10
16.6346186814949
 20
49.1728221694954
  0
LWPOLYLINE
  5
20073
100
AcDbEntity
  8
směr proudění podzemních vod
100
AcDbPolyline
 70
0
 90
3
 10
16.6348800617896
 20
49.1730322281701
 10
16.6346186814949
 20
49.1728221694954
 10
16.6349562218358
 20
49.1729878217367
  0
LWPOLYLINE
  5
20074
100
AcDbEntity
  8
směr proudění podzemních vod
100
AcDbPolyline
 70
0
 90
2
 10
16.6666642332622
 20
49.1801729898851
 10
16.6660638264967
 20
49.1799252103219
  0
LWPOLYLINE
  5
20075
100
AcDbEntity
  8
směr proudění podzemních vod
100
AcDbPolyline
 70
0
 90
3
 10
16.6663833114831
 20
49.1800973386363
 10
16.6660638264967
 20
49.1799252103219
 10
16.666444623279
 20
49.1800439550606
  0
LWPOLYLINE
  5
20076
100
AcDbEntity
  8
směr proudění podzemních vod
100
AcDbPolyline
 70
0
 90
2
 10
16.6573984570916
 20
49.1768274500294
 10
16.6567697314575
 20
49.1766120147938
  0
LWPOLYLINE
  5
20077
100
AcDbEntity
  8
směr proudění podzemních vod
100
AcDbPolyline
 70
0
 90
3
 10
16.6571092093769
 20
49.1767668023949
 10
16.6567697314575
 20
49.1766120147938
 10
16.6571637948162
 20
49.1767103690704
  0
LWPOLYLINE
  5
20078
100
AcDbEntity
  8
směr proudění podzemních vod
100
AcDbPolyline
 70
0
 90
2
 10
16.6500884579632
 20
49.1736747403449
 10
16.6495743705759
 20
49.1733542580514
  0
LWPOLYLINE
  5
20079
100
AcDbEntity
  8
směr proudění podzemních vod
100
AcDbPolyline
 70
0
 90
3
 10
16.6498358156821
 20
49.1735642827396
 10
16.6495743705759
 20
49.1733542580514
 10
16.6499119631581
 20
49.1735198664324
  0
LWPOLYLINE
  5
2007A
100
AcDbEntity
  8
směr proudění podzemních vod
100
AcDbPolyline
 70
0
 90
2
 10
16.6428933001083
 20
49.1701826672142
 10
16.6423792942108
 20
49.1698621517223
  0
LWPOLYLINE
  5
2007B
100
AcDbEntity
  8
směr proudění podzemních vod
100
AcDbPolyline
 70
0
 90
3
 10
16.6426406917968
 20
49.1700721929089
 10
16.6423792942108
 20
49.1698621517223
 10
16.6427168403491
 20
49.1700277813286
  0
LWPOLYLINE
  5
2007C
100
AcDbEntity
  8
směr proudění podzemních vod
100
AcDbPolyline
 70
0
 90
2
 10
16.6658195904358
 20
49.1714434370776
 10
16.6652258368763
 20
49.1711889656993
  0
LWPOLYLINE
  5
2007D
100
AcDbEntity
  8
směr proudění podzemních vod
100
AcDbPolyline
 70
0
 90
3
 10
16.6655407306637
 20
49.1713646485091
 10
16.6652258368763
 20
49.1711889656993
 10
16.6656034153691
 20
49.171311960462
  0
LWPOLYLINE
  5
2007E
100
AcDbEntity
  8
směr proudění podzemních vod
100
AcDbPolyline
 70
0
 90
2
 10
16.656962550738
 20
49.1693055307253
 10
16.6563124429623
 20
49.1691195092794
  0
LWPOLYLINE
  5
2007F
100
AcDbEntity
  8
směr proudění podzemních vod
100
AcDbPolyline
 70
0
 90
3
 10
16.6566675766472
 20
49.1692583204496
 10
16.6563124429623
 20
49.1691195092794
 10
16.6567159880389
 20
49.1691995181612
  0
LWPOLYLINE
  5
20080
100
AcDbEntity
  8
směr proudění podzemních vod
100
AcDbPolyline
 70
0
 90
2
 10
16.6478582209786
 20
49.167305949145
 10
16.647202810932
 20
49.1671281481757
  0
LWPOLYLINE
  5
20081
100
AcDbEntity
  8
směr proudění podzemních vod
100
AcDbPolyline
 70
0
 90
3
 10
16.6475619299701
 20
49.1672624624238
 10
16.647202810932
 20
49.1671281481757
 10
16.6476086091838
 20
49.1672030608528
  0
LWPOLYLINE
  5
20082
100
AcDbEntity
  8
směr proudění podzemních vod
100
AcDbPolyline
 70
0
 90
2
 10
16.6664301699429
 20
49.1415104752321
 10
16.6657235743446
 20
49.1414607145689
  0
LWPOLYLINE
  5
20083
100
AcDbEntity
  8
směr proudění podzemních vod
100
AcDbPolyline
 70
0
 90
3
 10
16.6661126973144
 20
49.1415119311217
 10
16.6657235743446
 20
49.1414607145689
 10
16.6661209364117
 20
49.1414663745287
  0
LWPOLYLINE
  5
20084
100
AcDbEntity
  8
směr proudění podzemních vod
100
AcDbPolyline
 70
0
 90
2
 10
16.6579426367001
 20
49.1408493020399
 10
16.6572401792043
 20
49.1407787271403
  0
LWPOLYLINE
  5
20085
100
AcDbEntity
  8
směr proudění podzemních vod
100
AcDbPolyline
 70
0
 90
3
 10
16.6576253903443
 20
49.1408413811194
 10
16.6572401792043
 20
49.1407787271403
 10
16.6576342074772
 20
49.1407975864932
  0
LWPOLYLINE
  5
20086
100
AcDbEntity
  8
směr proudění podzemních vod
100
AcDbPolyline
 70
0
 90
2
 10
16.6500843576834
 20
49.1399322024259
 10
16.6493747381394
 20
49.1399073225647
  0
LWPOLYLINE
  5
20087
100
AcDbEntity
  8
směr proudění podzemních vod
100
AcDbPolyline
 70
0
 90
3
 10
16.649767468635
 20
49.1399448029845
 10
16.6493747381394
 20
49.1399073225647
 10
16.6497696749634
 20
49.1399006514031
  0
LWPOLYLINE
  5
20088
100
AcDbEntity
  8
směr proudění podzemních vod
100
AcDbPolyline
 70
0
 90
2
 10
16.6439277979092
 20
49.1427094865971
 10
16.6436362233065
 20
49.142284288463
  0
LWPOLYLINE
  5
20089
100
AcDbEntity
  8
směr proudění podzemních vod
100
AcDbPolyline
 70
0
 90
3
 10
16.6437654709451
 20
49.1425304771377
 10
16.6436362233065
 20
49.142284288463
 10
16.6438262941016
 20
49.1425115267944
  0
LWPOLYLINE
  5
2008A
100
AcDbEntity
  8
směr proudění podzemních vod
100
AcDbPolyline
 70
0
 90
2
 10
16.6676411092438
 20
49.1347541595514
 10
16.6669346072392
 20
49.134704406203
  0
LWPOLYLINE
  5
2008B
100
AcDbEntity
  8
směr proudění podzemních vod
100
AcDbPolyline
 70
0
 90
3
 10
16.6673236798631
 20
49.1347556187937
 10
16.6669346072392
 20
49.134704406203
 10
16.6673319153592
 20
49.1347100619734
  0
LWPOLYLINE
  5
2008C
100
AcDbEntity
  8
směr proudění podzemních vod
100
AcDbPolyline
 70
0
 90
2
 10
16.6533767990353
 20
49.1320043736774
 10
16.6526703519246
 20
49.1319545330068
  0
LWPOLYLINE
  5
2008D
100
AcDbEntity
  8
směr proudění podzemních vod
100
AcDbPolyline
 70
0
 90
3
 10
16.6530593868638
 20
49.1320057936489
 10
16.6526703519246
 20
49.1319545330068
 10
16.653067634992
 20
49.131960237836
  0
LWPOLYLINE
  5
2008E
100
AcDbEntity
  8
směr proudění podzemních vod
100
AcDbPolyline
 70
0
 90
2
 10
16.6362783024875
 20
49.1307968107717
 10
16.6355718898556
 20
49.1307468653142
  0
LWPOLYLINE
  5
2008F
100
AcDbEntity
  8
směr proudění podzemních vod
100
AcDbPolyline
 70
0
 90
3
 10
16.6359608976045
 20
49.1307981836615
 10
16.6355718898556
 20
49.1307468653142
 10
16.6359691612227
 20
49.1307526290723
  0
LWPOLYLINE
  5
20090
100
AcDbEntity
  8
směr proudění podzemních vod
100
AcDbPolyline
 70
0
 90
2
 10
16.6708541101433
 20
49.1299926467295
 10
16.6701476740267
 20
49.1299429131611
  0
LWPOLYLINE
  5
20091
100
AcDbEntity
  8
směr proudění podzemních vod
100
AcDbPolyline
 70
0
 90
3
 10
16.6705367112972
 20
49.1299941148324
 10
16.6701476740267
 20
49.1299429131611
 10
16.6705449430507
 20
49.1299485577504
  0
LWPOLYLINE
  5
20092
100
AcDbEntity
  8
směr proudění podzemních vod
100
AcDbPolyline
 70
0
 90
2
 10
16.6564937809043
 20
49.1273781241964
 10
16.6557873964782
 20
49.1273283026235
  0
LWPOLYLINE
  5
20093
100
AcDbEntity
  8
směr proudění podzemních vod
100
AcDbPolyline
 70
0
 90
3
 10
16.656176398395
 20
49.1273795527646
 10
16.6557873964782
 20
49.1273283026235
 10
16.65618464289
 20
49.1273339966976
  0
LWPOLYLINE
  5
20094
100
AcDbEntity
  8
směr proudění podzemních vod
100
AcDbPolyline
 70
0
 90
2
 10
16.6376481431364
 20
49.1242193038065
 10
16.6369418227113
 20
49.124169366741
  0
LWPOLYLINE
  5
20095
100
AcDbEntity
  8
směr proudění podzemních vod
100
AcDbPolyline
 70
0
 90
3
 10
16.6373307803442
 20
49.1242206804889
 10
16.6369418227113
 20
49.124169366741
 10
16.6373390416042
 20
49.1241751257589
  0
LWPOLYLINE
  5
20096
100
AcDbEntity
  8
směr proudění podzemních vod
100
AcDbPolyline
 70
0
 90
2
 10
16.6588680227328
 20
49.1195893516544
 10
16.6581617467157
 20
49.1195395446271
  0
LWPOLYLINE
  5
20097
100
AcDbEntity
  8
směr proudění podzemních vod
100
AcDbPolyline
 70
0
 90
3
 10
16.6585506914372
 20
49.1195907868802
 10
16.6581617467157
 20
49.1195395446271
 10
16.6585589324531
 20
49.1195452305926
  0
LWPOLYLINE
  5
20098
100
AcDbEntity
  8
směr proudění podzemních vod
100
AcDbPolyline
 70
0
 90
2
 10
16.6758893027152
 20
49.1212484660073
 10
16.675182985932
 20
49.121198763287
  0
LWPOLYLINE
  5
20099
100
AcDbEntity
  8
směr proudění podzemních vod
100
AcDbPolyline
 70
0
 90
3
 10
16.6755719599043
 20
49.1212499480002
 10
16.675182985932
 20
49.121198763287
 10
16.6755801869426
 20
49.1212043905961
  0
LWPOLYLINE
  5
2009A
100
AcDbEntity
  8
směr proudění podzemních vod
100
AcDbPolyline
 70
0
 90
3
 10
16.6430978466811
 20
49.1406788284803
 10
16.6430864132355
 20
49.1404185539796
 10
16.6431645139353
 20
49.1406726435779
  0
LWPOLYLINE
  5
2009B
100
AcDbEntity
  8
směr proudění podzemních vod
100
AcDbPolyline
 70
0
 90
2
 10
16.6431713930558
 20
49.1408814545946
 10
16.6430864132355
 20
49.1404185539796
  0
LWPOLYLINE
  5
2009C
100
AcDbEntity
  8
směr proudění podzemních vod
100
AcDbPolyline
 70
0
 90
2
 10
16.6012067741556
 20
49.159028630576
 10
16.6008766693062
 20
49.1591624257315
  0
LWPOLYLINE
  5
2009D
100
AcDbEntity
  8
směr proudění podzemních vod
100
AcDbPolyline
 70
0
 90
3
 10
16.6006626453272
 20
49.1593183355972
 10
16.6012067741556
 20
49.159028630576
 10
16.6009426168783
 20
49.1592091902299
  0
LWPOLYLINE
  5
2009E
100
AcDbEntity
  8
směr proudění podzemních vod
100
AcDbPolyline
 70
0
 90
2
 10
16.6029394048778
 20
49.1584243002013
 10
16.6025768214499
 20
49.1585149791676
  0
LWPOLYLINE
  5
2009F
100
AcDbEntity
  8
směr proudění podzemních vod
100
AcDbPolyline
 70
0
 90
3
 10
16.6023219014272
 20
49.1586417001494
 10
16.6029394048778
 20
49.1584243002013
 10
16.6026281779122
 20
49.1585690450988
  0
LWPOLYLINE
  5
200A0
100
AcDbEntity
  8
směr proudění podzemních vod
100
AcDbPolyline
 70
0
 90
2
 10
16.6072518594628
 20
49.156968374451
 10
16.6068956507165
 20
49.1570693226124
  0
LWPOLYLINE
  5
200A1
100
AcDbEntity
  8
směr proudění podzemních vod
100
AcDbPolyline
 70
0
 90
3
 10
16.6066493922251
 20
49.1572032030166
 10
16.6072518594628
 20
49.156968374451
 10
16.6069505452801
 20
49.1571218708281
  0
LWPOLYLINE
  5
200A2
100
AcDbEntity
  8
směr proudění podzemních vod
100
AcDbPolyline
 70
0
 90
2
 10
16.6102080831507
 20
49.1558019283483
 10
16.6098425533258
 20
49.1558873339259
  0
LWPOLYLINE
  5
200A3
100
AcDbEntity
  8
směr proudění podzemních vod
100
AcDbPolyline
 70
0
 90
3
 10
16.6095834413073
 20
49.1560103308309
 10
16.6102080831507
 20
49.1558019283483
 10
16.6098920731056
 20
49.1559421298602
  0
LWPOLYLINE
  5
200A4
100
AcDbEntity
  8
směr proudění podzemních vod
100
AcDbPolyline
 70
0
 90
2
 10
16.6157921389886
 20
49.1533798564376
 10
16.6154553210582
 20
49.1535062071065
  0
LWPOLYLINE
  5
200A5
100
AcDbEntity
  8
směr proudění podzemních vod
100
AcDbPolyline
 70
0
 90
3
 10
16.61523335622
 20
49.1536572494826
 10
16.6157921389886
 20
49.1533798564376
 10
16.6155187975889
 20
49.1535544158817
  0
LWPOLYLINE
  5
200A6
100
AcDbEntity
  8
směr proudění podzemních vod
100
AcDbPolyline
 70
0
 90
2
 10
16.6195847776821
 20
49.1497012537245
 10
16.619291465337
 20
49.1498678470572
  0
LWPOLYLINE
  5
200A7
100
AcDbEntity
  8
směr proudění podzemních vod
100
AcDbPolyline
 70
0
 90
3
 10
16.6191181005693
 20
49.1500441369484
 10
16.6195847776821
 20
49.1497012537245
 10
16.619367920773
 20
49.1499071194824
  0
LWPOLYLINE
  5
200A8
100
AcDbEntity
  8
směr proudění podzemních vod
100
AcDbPolyline
 70
0
 90
2
 10
16.6125794269194
 20
49.1592457034082
 10
16.6122360057297
 20
49.1593642110579
  0
LWPOLYLINE
  5
200A9
100
AcDbEntity
  8
směr proudění podzemních vod
100
AcDbPolyline
 70
0
 90
3
 10
16.6120060577569
 20
49.1595100437971
 10
16.6125794269194
 20
49.1592457034082
 10
16.6122968674401
 20
49.1594138540921
  0
LWPOLYLINE
  5
200AA
100
AcDbEntity
  8
směr proudění podzemních vod
100
AcDbPolyline
 70
0
 90
2
 10
16.6191221595388
 20
49.1566051035616
 10
16.6187818619421
 20
49.1567274051019
  0
LWPOLYLINE
  5
200AB
100
AcDbEntity
  8
směr proudění podzemních vod
100
AcDbPolyline
 70
0
 90
3
 10
16.6185557220361
 20
49.1568757678784
 10
16.6191221595388
 20
49.1566051035616
 10
16.6188439918292
 20
49.1567763645526
  0
LWPOLYLINE
  5
200AC
100
AcDbEntity
  8
směr proudění podzemních vod
100
AcDbPolyline
 70
0
 90
2
 10
16.6236384908235
 20
49.1534543645311
 10
16.6234332873859
 20
49.1536703661255
  0
LWPOLYLINE
  5
200AD
100
AcDbEntity
  8
směr proudění podzemních vod
100
AcDbPolyline
 70
0
 90
3
 10
16.6233470568332
 20
49.1538723844138
 10
16.6236384908235
 20
49.1534543645311
 10
16.6235240251214
 20
49.1536930673901
  0
LWPOLYLINE
  5
200AE
100
AcDbEntity
  8
směr proudění podzemních vod
100
AcDbPolyline
 70
0
 90
2
 10
16.597300791923
 20
49.1556937059119
 10
16.5969629081759
 20
49.1558188440352
  0
LWPOLYLINE
  5
200AF
100
AcDbEntity
  8
směr proudění podzemních vod
100
AcDbPolyline
 70
0
 90
3
 10
16.5967396747309
 20
49.1559690869878
 10
16.597300791923
 20
49.1556937059119
 10
16.5970259834616
 20
49.1558672806677
  0
LWPOLYLINE
  5
200B0
100
AcDbEntity
  8
směr proudění podzemních vod
100
AcDbPolyline
 70
0
 90
2
 10
16.599246707726
 20
49.1547751287907
 10
16.5988910300613
 20
49.15487685883
  0
LWPOLYLINE
  5
200B1
100
AcDbEntity
  8
směr proudění podzemních vod
100
AcDbPolyline
 70
0
 90
3
 10
16.5986454688318
 20
49.155011278966
 10
16.599246707726
 20
49.1547751287907
 10
16.598946192217
 20
49.1549292859178
  0
LWPOLYLINE
  5
200B2
100
AcDbEntity
  8
směr proudění podzemních vod
100
AcDbPolyline
 70
0
 90
2
 10
16.5983178992928
 20
49.1510728837545
 10
16.5979382669609
 20
49.1511254347298
  0
LWPOLYLINE
  5
200B3
100
AcDbEntity
  8
směr proudění podzemních vod
100
AcDbPolyline
 70
0
 90
3
 10
16.5976564174873
 20
49.1512245812032
 10
16.5983178992928
 20
49.1510728837545
 10
16.5979761571192
 20
49.1511840858378
  0
LWPOLYLINE
  5
200B4
100
AcDbEntity
  8
směr proudění podzemních vod
100
AcDbPolyline
 70
0
 90
2
 10
16.612202128699
 20
49.152203957392
 10
16.6118373932695
 20
49.1522907640009
  0
LWPOLYLINE
  5
200B5
100
AcDbEntity
  8
směr proudění podzemních vod
100
AcDbPolyline
 70
0
 90
3
 10
16.6115794026117
 20
49.1524147531932
 10
16.612202128699
 20
49.152203957392
 10
16.6118873979948
 20
49.1523453692629
  0
LWPOLYLINE
  5
200B6
100
AcDbEntity
  8
směr proudění podzemních vod
100
AcDbPolyline
 70
0
 90
2
 10
16.6144115841308
 20
49.1514274710016
 10
16.6140594389957
 20
49.1515343225203
  0
LWPOLYLINE
  5
200B7
100
AcDbEntity
  8
směr proudění podzemních vod
100
AcDbPolyline
 70
0
 90
3
 10
16.6138184738998
 20
49.1516722633178
 10
16.6144115841308
 20
49.1514274710016
 10
16.6141163467153
 20
49.1515859390018
  0
LWPOLYLINE
  5
200B8
100
AcDbEntity
  8
směr proudění podzemních vod
100
AcDbPolyline
 70
0
 90
3
 10
16.6124310366948
 20
49.1548654910066
 10
16.6130063445003
 20
49.1546030199674
 10
16.612722541864
 20
49.1547702486955
  0
LWPOLYLINE
  5
200B9
100
AcDbEntity
  8
směr proudění podzemních vod
100
AcDbPolyline
 70
0
 90
2
 10
16.6130063445003
 20
49.1546030199674
 10
16.6126620639374
 20
49.1547204092704
  0
LWPOLYLINE
  5
200BA
100
AcDbEntity
  8
směr proudění podzemních vod
100
AcDbPolyline
 70
0
 90
3
 10
16.6172838965414
 20
49.1528378163284
 10
16.6178403607384
 20
49.152558431614
 10
16.6175684752855
 20
49.1527339647392
  0
LWPOLYLINE
  5
200BB
100
AcDbEntity
  8
směr proudění podzemních vod
100
AcDbPolyline
 70
0
 90
2
 10
16.6178403607384
 20
49.152558431614
 10
16.6175046006941
 20
49.1526859831193
  0
LWPOLYLINE
  5
200BC
100
AcDbEntity
  8
směr proudění podzemních vod
100
AcDbPolyline
 70
0
 90
3
 10
16.615499979603
 20
49.158190869704
 10
16.6160632326324
 20
49.1579173488023
 10
16.6157870793761
 20
49.1580900117347
  0
LWPOLYLINE
  5
200BD
100
AcDbEntity
  8
směr proudění podzemních vod
100
AcDbPolyline
 70
0
 90
2
 10
16.6160632326324
 20
49.1579173488023
 10
16.6157243746903
 20
49.1580413671046
  0
LWPOLYLINE
  5
200BE
100
AcDbEntity
  8
směr proudění podzemních vod
100
AcDbPolyline
 70
0
 90
3
 10
16.621400725609
 20
49.1593376460139
 10
16.6220196607175
 20
49.159121992574
 10
16.6217074799767
 20
49.1592658567564
  0
LWPOLYLINE
  5
200BF
100
AcDbEntity
  8
směr proudění podzemních vod
100
AcDbPolyline
 70
0
 90
2
 10
16.6220196607175
 20
49.159121992574
 10
16.6216564787485
 20
49.1592116469037
  0
LWPOLYLINE
  5
200C0
100
AcDbEntity
  8
směr proudění podzemních vod
100
AcDbPolyline
 70
0
 90
3
 10
16.6213912052276
 20
49.1555572806638
 10
16.6217243589219
 20
49.1551528885513
 10
16.6215859571889
 20
49.1553860744079
  0
LWPOLYLINE
  5
200C1
100
AcDbEntity
  8
směr proudění podzemních vod
100
AcDbPolyline
 70
0
 90
2
 10
16.6217243589219
 20
49.1551528885513
 10
16.6214977172309
 20
49.1553594675675
  0
LWPOLYLINE
  5
200C2
100
AcDbEntity
  8
směr proudění podzemních vod
100
AcDbPolyline
 70
0
 90
3
 10
16.6020320074671
 20
49.153788922386
 10
16.6026879786283
 20
49.1536271942351
 10
16.6023502453263
 20
49.153743569585
  0
LWPOLYLINE
  5
200C3
100
AcDbEntity
  8
směr proudění podzemních vod
100
AcDbPolyline
 70
0
 90
2
 10
16.6026879786283
 20
49.1536271942351
 10
16.6023102880931
 20
49.1536855118292
  0
LWPOLYLINE
  5
200C4
100
AcDbEntity
  8
směr proudění podzemních vod
100
AcDbPolyline
 70
0
 90
3
 10
16.6045514319356
 20
49.1578515431897
 10
16.6051689157836
 20
49.1576341312696
 10
16.604857700132
 20
49.1577788830997
  0
LWPOLYLINE
  5
200C5
100
AcDbEntity
  8
směr proudění podzemních vod
100
AcDbPolyline
 70
0
 90
2
 10
16.6051689157836
 20
49.1576341312696
 10
16.6048063420559
 20
49.1577248181548
  0
LWPOLYLINE
  5
200C6
100
AcDbEntity
  8
směr proudění podzemních vod
100
AcDbPolyline
 70
0
 90
2
 10
16.6167748968114
 20
49.1507339149702
 10
16.6164164900214
 20
49.1508313884892
  0
LWPOLYLINE
  5
200C7
100
AcDbEntity
  8
směr proudění podzemních vod
100
AcDbPolyline
 70
0
 90
3
 10
16.6161672643916
 20
49.1509628600351
 10
16.6167748968114
 20
49.1507339149702
 10
16.616470184718
 20
49.1508844638537
  0
LWPOLYLINE
  5
200C8
100
AcDbEntity
  8
směr proudění podzemních vod
100
AcDbPolyline
 70
0
 90
3
 10
16.6007718848901
 20
49.1506546138322
 10
16.6014335906156
 20
49.150503351572
 10
16.6010916828548
 20
49.1506143287715
  0
LWPOLYLINE
  5
200C9
100
AcDbEntity
  8
směr proudění podzemních vod
100
AcDbPolyline
 70
0
 90
2
 10
16.6014335906156
 20
49.150503351572
 10
16.6010538832005
 20
49.1505556536781
  0
LWPOLYLINE
  5
200CA
100
AcDbEntity
  8
směr proudění podzemních vod
100
AcDbPolyline
 70
0
 90
2
 10
16.6281013152235
 20
49.1549277604995
 10
16.6280749444466
 20
49.1551816768211
  0
LWPOLYLINE
  5
200CB
100
AcDbEntity
  8
směr proudění podzemních vod
100
AcDbPolyline
 70
0
 90
3
 10
16.6281435746028
 20
49.1553865774702
 10
16.6281013152235
 20
49.1549277604995
 10
16.6281713065413
 20
49.1551737456421
  0
LWPOLYLINE
  5
200CC
100
AcDbEntity
  8
směr proudění podzemních vod
100
AcDbPolyline
 70
0
 90
2
 10
16.6273240543567
 20
49.1569025707838
 10
16.6274162007216
 20
49.1571497953274
  0
LWPOLYLINE
  5
200CD
100
AcDbEntity
  8
směr proudění podzemních vod
100
AcDbPolyline
 70
0
 90
3
 10
16.6275762500049
 20
49.1573314311818
 10
16.6273240543567
 20
49.1569025707838
 10
16.6275043748166
 20
49.1571230907335
  0
LWPOLYLINE
  5
200CE
100
AcDbEntity
  8
směr proudění podzemních vod
100
AcDbPolyline
 70
0
 90
2
 10
16.6274800478818
 20
49.1595533090936
 10
16.627815256738
 20
49.159681535884
  0
LWPOLYLINE
  5
200CF
100
AcDbEntity
  8
směr proudění podzemních vod
100
AcDbPolyline
 70
0
 90
3
 10
16.6281256764771
 20
49.1597321669587
 10
16.6274800478818
 20
49.1595533090936
 10
16.6278472038382
 20
49.1596213812351
  0
LWPOLYLINE
  5
200D0
100
AcDbEntity
  8
směr proudění podzemních vod
100
AcDbPolyline
 70
0
 90
3
 10
16.6294258589995
 20
49.1524639961768
 10
16.6293935673981
 20
49.1520048305449
 10
16.6294582066054
 20
49.1522514447867
  0
LWPOLYLINE
  5
200D1
100
AcDbEntity
  8
směr proudění podzemních vod
100
AcDbPolyline
 70
0
 90
2
 10
16.6293935673981
 20
49.1520048305449
 10
16.6293616884785
 20
49.1522584746854
  0
LWPOLYLINE
  5
200D2
100
AcDbEntity
  8
směr proudění podzemních vod
100
AcDbPolyline
 70
0
 90
3
 10
16.6088167902693
 20
49.1527528093701
 10
16.6095162124733
 20
49.1527243461582
 10
16.6091413085824
 20
49.1527706538009
  0
LWPOLYLINE
  5
200D3
100
AcDbEntity
  8
směr proudění podzemních vod
100
AcDbPolyline
 70
0
 90
2
 10
16.6095162124733
 20
49.1527243461582
 10
16.6091290610234
 20
49.1527074624565
  0
LWPOLYLINE
  5
200D4
100
AcDbEntity
  8
směr proudění podzemních vod
100
AcDbPolyline
 70
0
 90
3
 10
16.6055319857039
 20
49.1530597008081
 10
16.6062288590607
 20
49.1530112992732
 10
16.6058573815615
 20
49.1530682640795
  0
LWPOLYLINE
  5
200D5
100
AcDbEntity
  8
směr proudění podzemních vod
100
AcDbPolyline
 70
0
 90
2
 10
16.6062288590607
 20
49.1530112992732
 10
16.6058409528248
 20
49.1530054828304
  0
LWPOLYLINE
  5
200D6
100
AcDbEntity
  8
směr proudění podzemních vod
100
AcDbPolyline
 70
0
 90
3
 10
16.6244645302576
 20
49.1518418547084
 10
16.6245100220025
 20
49.1513831704545
 10
16.6245325921698
 20
49.1516329641604
  0
LWPOLYLINE
  5
200D7
100
AcDbEntity
  8
směr proudění podzemních vod
100
AcDbPolyline
 70
0
 90
2
 10
16.6245100220025
 20
49.1513831704545
 10
16.6244354824883
 20
49.1516329346758
  0
LWPOLYLINE
  5
200D8
100
AcDbEntity
  8
směr proudění podzemních vod
100
AcDbPolyline
 70
0
 90
3
 10
16.6207192752769
 20
49.1513445115503
 10
16.6210597343631
 20
49.1509427555938
 10
16.620917112417
 20
49.1511748418045
  0
LWPOLYLINE
  5
200D9
100
AcDbEntity
  8
směr proudění podzemních vod
100
AcDbPolyline
 70
0
 90
2
 10
16.6210597343631
 20
49.1509427555938
 10
16.6208293701125
 20
49.1511475455306
  0
LWPOLYLINE
  5
200DA
100
AcDbEntity
  8
směr proudění podzemních vod
100
AcDbPolyline
 70
0
 90
3
 10
16.6246833772034
 20
49.1493804893499
 10
16.6247288647947
 20
49.1489218039519
 10
16.6247514361712
 20
49.1491715986937
  0
LWPOLYLINE
  5
200DB
100
AcDbEntity
  8
směr proudění podzemních vod
100
AcDbPolyline
 70
0
 90
2
 10
16.6247288647947
 20
49.1489218039519
 10
16.6246543299443
 20
49.1491715692988
  0
LWPOLYLINE
  5
200DC
100
AcDbEntity
  8
směr proudění podzemních vod
100
AcDbPolyline
 70
0
 90
3
 10
16.624671009543
 20
49.1476576164049
 10
16.624576400139
 20
49.1472021717583
 10
16.6246743176256
 20
49.1474440199453
  0
LWPOLYLINE
  5
200DD
100
AcDbEntity
  8
směr proudění podzemních vod
100
AcDbPolyline
 70
0
 90
2
 10
16.624576400139
 20
49.1472021717583
 10
16.6245791497442
 20
49.1474566708111
  0
LWPOLYLINE
  5
200DE
100
AcDbEntity
  8
směr proudění podzemních vod
100
AcDbPolyline
 70
0
 90
2
 10
16.6989491987487
 20
49.1356177635131
 10
16.6983000587076
 20
49.1354293868564
  0
LWPOLYLINE
  5
200DF
100
AcDbEntity
  8
směr proudění podzemních vod
100
AcDbPolyline
 70
0
 90
3
 10
16.6986165904517
 20
49.1355584770315
 10
16.6983000587076
 20
49.1354293868564
 10
16.6986665234165
 20
49.135498515869
  0
LWPOLYLINE
  5
200E0
100
AcDbEntity
  8
směr proudění podzemních vod
100
AcDbPolyline
 70
0
 90
2
 10
16.7090181695437
 20
49.1382951852741
 10
16.7083689576041
 20
49.1381068654522
  0
LWPOLYLINE
  5
200E1
100
AcDbEntity
  8
směr proudění podzemních vod
100
AcDbPolyline
 70
0
 90
3
 10
16.7086855326231
 20
49.1382359279483
 10
16.7083689576041
 20
49.1381068654522
 10
16.7087354561241
 20
49.1381759624454
  0
LWPOLYLINE
  5
200E2
100
AcDbEntity
  8
směr proudění podzemních vod
100
AcDbPolyline
 70
0
 90
2
 10
16.7045366525603
 20
49.1287958702393
 10
16.7038576858826
 20
49.1286603106306
  0
LWPOLYLINE
  5
200E3
100
AcDbEntity
  8
směr proudění podzemních vod
100
AcDbPolyline
 70
0
 90
3
 10
16.7041956139338
 20
49.1287633736323
 10
16.7038576858826
 20
49.1286603106306
 10
16.7042341408595
 20
49.1286998945367
  0
LWPOLYLINE
  5
200E4
100
AcDbEntity
  8
směr proudění podzemních vod
100
AcDbPolyline
 70
0
 90
2
 10
16.7000176145467
 20
49.1486466648095
 10
16.6993683071115
 20
49.1484582850121
  0
LWPOLYLINE
  5
200E5
100
AcDbEntity
  8
směr proudění podzemních vod
100
AcDbPolyline
 70
0
 90
3
 10
16.69968491975
 20
49.1485873771168
 10
16.6993683071115
 20
49.1484582850121
 10
16.6997348672731
 20
49.1485274158011
  0
LWPOLYLINE
  5
200E6
100
AcDbEntity
  8
směr proudění podzemních vod
100
AcDbPolyline
 70
0
 90
2
 10
16.6080095842276
 20
49.174230702311
 10
16.6073775509467
 20
49.174015200837
  0
LWPOLYLINE
  5
200E7
100
AcDbEntity
  8
směr proudění podzemních vod
100
AcDbPolyline
 70
0
 90
3
 10
16.6076673967321
 20
49.1741573094467
 10
16.6080095842276
 20
49.174230702311
 10
16.607725699361
 20
49.1740906281392
  0
LWPOLYLINE
  5
200E8
100
AcDbEntity
  8
směr proudění podzemních vod
100
AcDbPolyline
 70
0
 90
2
 10
16.6107442501037
 20
49.1749901037116
 10
16.6100843297933
 20
49.174814153541
  0
LWPOLYLINE
  5
200E9
100
AcDbEntity
  8
směr proudění podzemních vod
100
AcDbPolyline
 70
0
 90
3
 10
16.6103931158497
 20
49.1749379364761
 10
16.6107442501037
 20
49.1749901037116
 10
16.61044168829
 20
49.1748679821369
  0
LWPOLYLINE
  5
200EA
100
AcDbEntity
  8
směr proudění podzemních vod
100
AcDbPolyline
 70
0
 90
2
 10
16.6138974839107
 20
49.175497214956
 10
16.6132091186146
 20
49.1753768898923
  0
LWPOLYLINE
  5
200EB
100
AcDbEntity
  8
směr proudění podzemních vod
100
AcDbPolyline
 70
0
 90
3
 10
16.6135391410853
 20
49.1754743176875
 10
16.6138974839107
 20
49.175497214956
 10
16.6135739547502
 20
49.175400923859
  0
LWPOLYLINE
  5
200EC
100
AcDbEntity
  8
směr proudění podzemních vod
100
AcDbPolyline
 70
0
 90
2
 10
16.6159579943636
 20
49.1715270505478
 10
16.6152473244184
 20
49.1714949713668
  0
LWPOLYLINE
  5
200ED
100
AcDbEntity
  8
směr proudění podzemních vod
100
AcDbPolyline
 70
0
 90
3
 10
16.6155995948733
 20
49.1715493628906
 10
16.6159579943636
 20
49.1715270505478
 10
16.6156124276472
 20
49.1714729630609
  0
LWPOLYLINE
  5
200EE
100
AcDbEntity
  8
směr proudění podzemních vod
100
AcDbPolyline
 70
0
 90
3
 10
16.6165747786818
 20
49.1764144196987
 10
16.6169219012491
 20
49.1764770969333
 10
16.6166281964786
 20
49.1763460002965
  0
LWPOLYLINE
  5
200EF
100
AcDbEntity
  8
směr proudění podzemních vod
100
AcDbPolyline
 70
0
 90
2
 10
16.6169219012491
 20
49.1764770969333
 10
16.6162749709057
 20
49.1762814771171
  0
LWPOLYLINE
  5
200F0
100
AcDbEntity
  8
směr proudění podzemních vod
100
AcDbPolyline
 70
0
 90
2
 10
16.6086972866836
 20
49.1707240448885
 10
16.6079870302552
 20
49.1706883320334
  0
LWPOLYLINE
  5
200F1
100
AcDbEntity
  8
směr proudění podzemních vod
100
AcDbPolyline
 70
0
 90
3
 10
16.608338638023
 20
49.1707445232032
 10
16.6086972866836
 20
49.1707240448885
 10
16.6083523783834
 20
49.1706681913529
  0
LWPOLYLINE
  5
200F2
100
AcDbEntity
  8
směr proudění podzemních vod
100
AcDbPolyline
 70
0
 90
2
 10
16.6107846235982
 20
49.1709370609088
 10
16.6100789971096
 20
49.1708730628914
  0
LWPOLYLINE
  5
200F3
100
AcDbEntity
  8
směr proudění podzemních vod
100
AcDbPolyline
 70
0
 90
3
 10
16.6105264857967
 20
49.1709494723766
 10
16.6108863711329
 20
49.1709433478258
 10
16.6105472877268
 20
49.1708738308878
  0
LWPOLYLINE
  5
200F4
100
AcDbEntity
  8
směr proudění podzemních vod
100
AcDbPolyline
 70
0
 90
2
 10
16.614215398333
 20
49.1713556314515
 10
16.6135226171258
 20
49.1712469053769
  0
LWPOLYLINE
  5
200F5
100
AcDbEntity
  8
směr proudění podzemních vod
100
AcDbPolyline
 70
0
 90
3
 10
16.6138563092595
 20
49.1713387592951
 10
16.614215398333
 20
49.1713556314515
 10
16.6138882418637
 20
49.1712648051035
  0
LWPOLYLINE
  5
200F6
100
AcDbEntity
  8
směr proudění podzemních vod
100
AcDbPolyline
 70
0
 90
2
 10
16.6071393868261
 20
49.1706785912677
 10
16.6064318646091
 20
49.1706243601469
  0
LWPOLYLINE
  5
200F7
100
AcDbEntity
  8
směr proudění podzemních vod
100
AcDbPolyline
 70
0
 90
3
 10
16.6067797791642
 20
49.1706896876221
 10
16.6071393868261
 20
49.1706785912677
 10
16.6067981455621
 20
49.1706137760413
  0
LWPOLYLINE
  5
200F8
100
AcDbEntity
  8
směr proudění podzemních vod
100
AcDbPolyline
 70
0
 90
3
 10
16.6106976755553
 20
49.1735146001599
 10
16.6110470966472
 20
49.173457731676
 10
16.6106931098324
 20
49.1734377968387
  0
LWPOLYLINE
  5
200F9
100
AcDbEntity
  8
směr proudění podzemních vod
100
AcDbPolyline
 70
0
 90
2
 10
16.6110470966472
 20
49.173457731676
 10
16.6103369893695
 20
49.17349501622
  0
LWPOLYLINE
  5
200FA
100
AcDbEntity
  8
směr proudění podzemních vod
100
AcDbPolyline
 70
0
 90
3
 10
16.6137662506414
 20
49.173225016261
 10
16.614111242428
 20
49.1731575202364
 10
16.6137562246655
 20
49.1731484362328
  0
LWPOLYLINE
  5
200FB
100
AcDbEntity
  8
směr proudění podzemních vod
100
AcDbPolyline
 70
0
 90
2
 10
16.614111242428
 20
49.1731575202364
 10
16.613404565864
 20
49.1732164882488
  0
LWPOLYLINE
  5
200FC
100
AcDbEntity
  8
směr proudění podzemních vod
100
AcDbPolyline
 70
0
 90
3
 10
16.6154387263091
 20
49.1732742955975
 10
16.6157982931193
 20
49.1732624002573
 10
16.6154567020272
 20
49.1731983432026
  0
LWPOLYLINE
  5
200FD
100
AcDbEntity
  8
směr proudění podzemních vod
100
AcDbPolyline
 70
0
 90
2
 10
16.6157982931193
 20
49.1732624002573
 10
16.6150904577568
 20
49.1732097410027
  0
LWPOLYLINE
  5
200FE
100
AcDbEntity
  8
směr proudění podzemních vod
100
AcDbPolyline
 70
0
 90
3
 10
16.6182442031309
 20
49.1734380341309
 10
16.6186034400186
 20
49.1734224235799
 10
16.6182603494193
 20
49.1733619059522
  0
LWPOLYLINE
  5
200FF
100
AcDbEntity
  8
směr proudění podzemních vod
100
AcDbPolyline
 70
0
 90
2
 10
16.6186034400186
 20
49.1734224235799
 10
16.6178944236305
 20
49.1733770879646
  0
LWPOLYLINE
  5
20100
100
AcDbEntity
  8
směr proudění podzemních vod
100
AcDbPolyline
 70
0
 90
3
 10
16.6184977038007
 20
49.1718711596931
 10
16.6188573104833
 20
49.1718824024221
 10
16.6185269344982
 20
49.1717967257723
  0
LWPOLYLINE
  5
20101
100
AcDbEntity
  8
směr proudění podzemních vod
100
AcDbPolyline
 70
0
 90
2
 10
16.6188573104833
 20
49.1718824024221
 10
16.6181607584686
 20
49.1717845582774
  0
LWPOLYLINE
  5
20102
100
AcDbEntity
  8
směr proudění podzemních vod
100
AcDbPolyline
 70
0
 90
2
 10
16.6085046672147
 20
49.1733956139148
 10
16.6077946747547
 20
49.1733573986364
  0
LWPOLYLINE
  5
20103
100
AcDbEntity
  8
směr proudění podzemních vod
100
AcDbPolyline
 70
0
 90
3
 10
16.6081458363774
 20
49.1734148282487
 10
16.6085046672147
 20
49.1733956139148
 10
16.6081602041476
 20
49.1733385462796
  0
LWPOLYLINE
  5
20104
100
AcDbEntity
  8
směr proudění podzemních vod
100
AcDbPolyline
 70
0
 90
2
 10
16.6056997087057
 20
49.1685930542101
 10
16.6049875738996
 20
49.1685826745144
  0
LWPOLYLINE
  5
20105
100
AcDbEntity
  8
směr proudění podzemních vod
100
AcDbPolyline
 70
0
 90
3
 10
16.6053432993416
 20
49.1686262681042
 10
16.6056997087057
 20
49.1685930542101
 10
16.6053507012358
 20
49.1685495600618
  0
LWPOLYLINE
  5
20106
100
AcDbEntity
  8
směr proudění podzemních vod
100
AcDbPolyline
 70
0
 90
2
 10
16.6077166222885
 20
49.1686693269165
 10
16.6070052142156
 20
49.1686458019511
  0
LWPOLYLINE
  5
20107
100
AcDbEntity
  8
směr proudění podzemních vod
100
AcDbPolyline
 70
0
 90
3
 10
16.6073589266994
 20
49.1686959469956
 10
16.6077166222885
 20
49.1686693269165
 10
16.6073696196203
 20
49.1686194054426
  0
LWPOLYLINE
  5
20108
100
AcDbEntity
  8
směr proudění podzemních vod
100
AcDbPolyline
 70
0
 90
2
 10
16.6094583474883
 20
49.1687567302169
 10
16.6087462226817
 20
49.1687460011032
  0
LWPOLYLINE
  5
20109
100
AcDbEntity
  8
směr proudění podzemních vod
100
AcDbPolyline
 70
0
 90
3
 10
16.6091018998402
 20
49.1687897693046
 10
16.6094583474883
 20
49.1687567302169
 10
16.6091093891031
 20
49.1687130649109
  0
LWPOLYLINE
  5
2010A
100
AcDbEntity
  8
směr proudění podzemních vod
100
AcDbPolyline
 70
0
 90
2
 10
16.6109813453284
 20
49.1687879337968
 10
16.6102693435617
 20
49.1687741113876
  0
LWPOLYLINE
  5
2010B
100
AcDbEntity
  8
směr proudění podzemních vod
100
AcDbPolyline
 70
0
 90
3
 10
16.6106245712072
 20
49.1688194230833
 10
16.6109813453284
 20
49.1687879337968
 10
16.6106328344519
 20
49.1687427537104
  0
LWPOLYLINE
  5
2010C
100
AcDbEntity
  8
směr proudění podzemních vod
100
AcDbPolyline
 70
0
 90
2
 10
16.6128558213961
 20
49.1687378551183
 10
16.6121474613465
 20
49.168786997463
  0
LWPOLYLINE
  5
2010D
100
AcDbEntity
  8
směr proudění podzemních vod
100
AcDbPolyline
 70
0
 90
3
 10
16.6125087586782
 20
49.1688005459237
 10
16.6128558213961
 20
49.1687378551183
 10
16.6125012094866
 20
49.1687238443524
  0
LWPOLYLINE
  5
2010E
100
AcDbEntity
  8
směr proudění podzemních vod
100
AcDbPolyline
 70
0
 90
2
 10
16.6161440186406
 20
49.1684755391082
 10
16.6154339014845
 20
49.1685121571248
  0
LWPOLYLINE
  5
2010F
100
AcDbEntity
  8
směr proudění podzemních vod
100
AcDbPolyline
 70
0
 90
3
 10
16.6157945074041
 20
49.1685320800465
 10
16.6161440186406
 20
49.1684755391082
 10
16.6157901115631
 20
49.1684552722419
  0
LWPOLYLINE
  5
20110
100
AcDbEntity
  8
směr proudění podzemních vod
100
AcDbPolyline
 70
0
 90
2
 10
16.6206355764212
 20
49.1683372959907
 10
16.619923620927
 20
49.1683226045726
  0
LWPOLYLINE
  5
20111
100
AcDbEntity
  8
směr proudění podzemních vod
100
AcDbPolyline
 70
0
 90
3
 10
16.6202787172061
 20
49.1683683498873
 10
16.6206355764212
 20
49.1683372959907
 10
16.6202871982716
 20
49.1682916899625
  0
LWPOLYLINE
  5
20112
100
AcDbEntity
  8
směr proudění podzemních vod
100
AcDbPolyline
 70
0
 90
2
 10
16.6023512751689
 20
49.1660377264036
 10
16.6017986718084
 20
49.1663324264617
  0
LWPOLYLINE
  5
20113
100
AcDbEntity
  8
směr proudění podzemních vod
100
AcDbPolyline
 70
0
 90
3
 10
16.6021126643851
 20
49.1662144700542
 10
16.6023512751689
 20
49.1660377264036
 10
16.602042496299
 20
49.166152902849
  0
LWPOLYLINE
  5
20114
100
AcDbEntity
  8
směr proudění podzemních vod
100
AcDbPolyline
 70
0
 90
2
 10
16.6039791894911
 20
49.1651288236622
 10
16.6034268738681
 20
49.1654237468524
  0
LWPOLYLINE
  5
20115
100
AcDbEntity
  8
směr proudění podzemních vod
100
AcDbPolyline
 70
0
 90
3
 10
16.6037407499729
 20
49.1653056644454
 10
16.6039791894911
 20
49.1651288236622
 10
16.6036705255433
 20
49.1652441259357
  0
LWPOLYLINE
  5
20116
100
AcDbEntity
  8
směr proudění podzemních vod
100
AcDbPolyline
 70
0
 90
2
 10
16.6058051216225
 20
49.1646715694079
 10
16.6051352469409
 20
49.1648302834922
  0
LWPOLYLINE
  5
20117
100
AcDbEntity
  8
směr proudění podzemních vod
100
AcDbPolyline
 70
0
 90
3
 10
16.6054909848229
 20
49.164786826219
 10
16.6058051216225
 20
49.1646715694079
 10
16.6054557049974
 20
49.1647135293928
  0
LWPOLYLINE
  5
20118
100
AcDbEntity
  8
směr proudění podzemních vod
100
AcDbPolyline
 70
0
 90
2
 10
16.6076898515149
 20
49.1642234078765
 10
16.606991336116
 20
49.1643146911246
  0
LWPOLYLINE
  5
20119
100
AcDbEntity
  8
směr proudění podzemních vod
100
AcDbPolyline
 70
0
 90
3
 10
16.6073529794087
 20
49.1643065854606
 10
16.6076898515149
 20
49.1642234078765
 10
16.6073347989203
 20
49.1642306540604
  0
LWPOLYLINE
  5
2011A
100
AcDbEntity
  8
směr proudění podzemních vod
100
AcDbPolyline
 70
0
 90
2
 10
16.6095035108089
 20
49.1639403001202
 10
16.6088052548015
 20
49.1640324163321
  0
LWPOLYLINE
  5
2011B
100
AcDbEntity
  8
směr proudění podzemních vod
100
AcDbPolyline
 70
0
 90
3
 10
16.6091668721569
 20
49.1640238790956
 10
16.6095035108089
 20
49.1639403001202
 10
16.6091484813248
 20
49.1639479694356
  0
LWPOLYLINE
  5
2011C
100
AcDbEntity
  8
směr proudění podzemních vod
100
AcDbPolyline
 70
0
 90
2
 10
16.6114677977732
 20
49.1636036147852
 10
16.6107998496593
 20
49.1637657576633
  0
LWPOLYLINE
  5
2011D
100
AcDbEntity
  8
směr proudění podzemních vod
100
AcDbPolyline
 70
0
 90
3
 10
16.6111550503097
 20
49.1637204783325
 10
16.6114677977732
 20
49.1636036147852
 10
16.6111188985629
 20
49.1636473643742
  0
LWPOLYLINE
  5
2011E
100
AcDbEntity
  8
směr proudění podzemních vod
100
AcDbPolyline
 70
0
 90
2
 10
16.6136924282761
 20
49.1629540871119
 10
16.6130490632105
 20
49.1631544574486
  0
LWPOLYLINE
  5
2011F
100
AcDbEntity
  8
směr proudění podzemních vod
100
AcDbPolyline
 70
0
 90
3
 10
16.613396731902
 20
49.1630886884179
 10
16.6136924282761
 20
49.1629540871119
 10
16.6133508306181
 20
49.1630179670737
  0
LWPOLYLINE
  5
20120
100
AcDbEntity
  8
směr proudění podzemních vod
100
AcDbPolyline
 70
0
 90
2
 10
16.6186531352813
 20
49.1621037615442
 10
16.6179737161916
 20
49.1622438724588
  0
LWPOLYLINE
  5
20121
100
AcDbEntity
  8
směr proudění podzemních vod
100
AcDbPolyline
 70
0
 90
3
 10
16.6183319057683
 20
49.162210258252
 10
16.6186531352813
 20
49.1621037615442
 10
16.6183013556996
 20
49.162136054173
  0
LWPOLYLINE
  5
20122
100
AcDbEntity
  8
směr proudění podzemních vod
100
AcDbPolyline
 70
0
 90
2
 10
16.6183388134917
 20
49.1683220608175
 10
16.6176265188536
 20
49.1683193120061
  0
LWPOLYLINE
  5
20123
100
AcDbEntity
  8
směr proudění podzemních vod
100
AcDbPolyline
 70
0
 90
3
 10
16.6179832813208
 20
49.168359088077
 10
16.6183388134917
 20
49.1683220608175
 10
16.6179887712765
 20
49.1682823112516
  0
LWPOLYLINE
  5
20124
100
AcDbEntity
  8
směr proudění podzemních vod
100
AcDbPolyline
 70
0
 90
2
 10
16.5984907397903
 20
49.16459170131
 10
16.5980628320591
 20
49.1649650899486
  0
LWPOLYLINE
  5
20125
100
AcDbEntity
  8
směr proudění podzemních vod
100
AcDbPolyline
 70
0
 90
3
 10
16.5983241732393
 20
49.1648009610233
 10
16.5984907397903
 20
49.16459170131
 10
16.5982334383942
 20
49.1647523074499
  0
LWPOLYLINE
  5
20126
100
AcDbEntity
  8
směr proudění podzemních vod
100
AcDbPolyline
 70
0
 90
2
 10
16.6002211752256
 20
49.1632227792264
 10
16.5996946404778
 20
49.1635373133577
  0
LWPOLYLINE
  5
20127
100
AcDbEntity
  8
směr proudění podzemních vod
100
AcDbPolyline
 70
0
 90
3
 10
16.5999980487061
 20
49.1634080096453
 10
16.6002211752256
 20
49.1632227792264
 10
16.5999227368491
 20
49.1633491165689
  0
LWPOLYLINE
  5
20128
100
AcDbEntity
  8
směr proudění podzemních vod
100
AcDbPolyline
 70
0
 90
2
 10
16.6025618000686
 20
49.1620853306431
 10
16.6019288429599
 20
49.1622994698597
  0
LWPOLYLINE
  5
20129
100
AcDbEntity
  8
směr proudění podzemních vod
100
AcDbPolyline
 70
0
 90
3
 10
16.6022730195471
 20
49.1622262372149
 10
16.6025618000686
 20
49.1620853306431
 10
16.6022235965035
 20
49.1621565438756
  0
LWPOLYLINE
  5
2012A
100
AcDbEntity
  8
směr proudění podzemních vod
100
AcDbPolyline
 70
0
 90
2
 10
16.6058104436334
 20
49.1609529456392
 10
16.6051570110578
 20
49.1611387393425
  0
LWPOLYLINE
  5
2012B
100
AcDbEntity
  8
směr proudění podzemních vod
100
AcDbPolyline
 70
0
 90
3
 10
16.6055078978772
 20
49.1610808222545
 10
16.6058104436334
 20
49.1609529456392
 10
16.6054657212537
 20
49.1610091100727
  0
LWPOLYLINE
  5
2012C
100
AcDbEntity
  8
směr proudění podzemních vod
100
AcDbPolyline
 70
0
 90
2
 10
16.6080781549813
 20
49.1604951164736
 10
16.6074009387169
 20
49.1606397005675
  0
LWPOLYLINE
  5
2012D
100
AcDbEntity
  8
směr proudění podzemních vod
100
AcDbPolyline
 70
0
 90
3
 10
16.6077585845895
 20
49.1606037265338
 10
16.6080781549813
 20
49.1604951164736
 10
16.6077268999366
 20
49.1605297274412
  0
LWPOLYLINE
  5
2012E
100
AcDbEntity
  8
směr proudění podzemních vod
100
AcDbPolyline
 70
0
 90
2
 10
16.6103863886696
 20
49.1601179882528
 10
16.6096768670111
 20
49.1601583776071
  0
LWPOLYLINE
  5
2012F
100
AcDbEntity
  8
směr proudění podzemních vod
100
AcDbPolyline
 70
0
 90
3
 10
16.61003764742
 20
49.1601763834601
 10
16.6103863886696
 20
49.1601179882528
 10
16.6100323023929
 20
49.1600996023483
  0
LWPOLYLINE
  5
20130
100
AcDbEntity
  8
směr proudění podzemních vod
100
AcDbPolyline
 70
0
 90
2
 10
16.6130061118167
 20
49.1599830675811
 10
16.6122956748923
 20
49.1600157938496
  0
LWPOLYLINE
  5
20131
100
AcDbEntity
  8
směr proudění podzemních vod
100
AcDbPolyline
 70
0
 90
3
 10
16.6126559533549
 20
49.1600376914095
 10
16.6130061118167
 20
49.1599830675811
 10
16.6126525360557
 20
49.1599608627943
  0
LWPOLYLINE
  5
20132
100
AcDbEntity
  8
směr proudění podzemních vod
100
AcDbPolyline
 70
0
 90
3
 10
16.6006626453272
 20
49.1593183355972
 10
16.6012067741556
 20
49.159028630576
 10
16.6009426168783
 20
49.1592091902299
  0
LWPOLYLINE
  5
20133
100
AcDbEntity
  8
směr proudění podzemních vod
100
AcDbPolyline
 70
0
 90
3
 10
16.6127754879491
 20
49.1789011738038
 10
16.6130399155142
 20
49.1790279673901
 10
16.6128406218994
 20
49.1788557411421
  0
LWPOLYLINE
  5
20134
100
AcDbEntity
  8
směr proudění podzemních vod
100
AcDbPolyline
 70
0
 90
2
 10
16.6125392210288
 20
49.1787051038677
 10
16.6130399155142
 20
49.1790279673901
  0
LWPOLYLINE
  5
20135
100
AcDbEntity
  8
směr proudění podzemních vod
100
AcDbPolyline
 70
0
 90
2
 10
16.6004839238397
 20
49.1672302103726
 10
16.5999935437395
 20
49.1675689726917
  0
LWPOLYLINE
  5
20136
100
AcDbEntity
  8
směr proudění podzemních vod
100
AcDbPolyline
 70
0
 90
3
 10
16.6002818670951
 20
49.1674255702384
 10
16.6004839238397
 20
49.1672302103726
 10
16.6002002292818
 20
49.16737041681
  0
LWPOLYLINE
  5
20137
100
AcDbEntity
  8
směr proudění podzemních vod
100
AcDbPolyline
 70
0
 90
2
 10
16.6011411710383
 20
49.1687652379262
 10
16.600471089206
 20
49.16892367629
  0
LWPOLYLINE
  5
20138
100
AcDbEntity
  8
směr proudění podzemních vod
100
AcDbPolyline
 70
0
 90
3
 10
16.600826897915
 20
49.1688803663448
 10
16.6011411710383
 20
49.1687652379262
 10
16.6007916850205
 20
49.1688070545132
  0
LWPOLYLINE
  5
20139
100
AcDbEntity
  8
směr proudění podzemních vod
100
AcDbPolyline
 70
0
 90
2
 10
16.6007689590722
 20
49.1702680810067
 10
16.6014708195872
 20
49.1702821140841
  0
LWPOLYLINE
  5
2013A
100
AcDbEntity
  8
směr proudění podzemních vod
100
AcDbPolyline
 70
0
 90
3
 10
16.6011454356602
 20
49.1703067906798
 10
16.6014708195872
 20
49.1702821140841
 10
16.6011461735331
 20
49.1702444417833
  0
LWPOLYLINE
  5
2013B
100
AcDbEntity
  8
směr proudění podzemních vod
100
AcDbPolyline
 70
0
 90
2
 10
16.6011963297358
 20
49.1715321676424
 10
16.6005461707291
 20
49.1713413011864
  0
LWPOLYLINE
  5
2013C
100
AcDbEntity
  8
směr proudění podzemních vod
100
AcDbPolyline
 70
0
 90
3
 10
16.6008481946715
 20
49.1714720383669
 10
16.6011963297358
 20
49.1715321676424
 10
16.6009004384827
 20
49.1714032324039
  0
LWPOLYLINE
  5
2013D
100
AcDbEntity
  8
směr proudění podzemních vod
100
AcDbPolyline
 70
0
 90
2
 10
16.6237210843776
 20
49.1615086201347
 10
16.6230089300975
 20
49.1615027862547
  0
LWPOLYLINE
  5
2013E
100
AcDbEntity
  8
směr proudění podzemních vod
100
AcDbPolyline
 70
0
 90
3
 10
16.6233652350371
 20
49.1615441074701
 10
16.6237210843776
 20
49.1615086201347
 10
16.6233714964715
 20
49.1614673557013
  0
LWPOLYLINE
  5
2013F
100
AcDbEntity
  8
směr proudění podzemních vod
100
AcDbPolyline
 70
0
 90
3
 10
16.6170014062495
 20
49.1596718918634
 10
16.6173226223191
 20
49.1595653979234
 10
16.6169708598792
 20
49.1595976865116
  0
LWPOLYLINE
  5
20140
100
AcDbEntity
  8
směr proudění podzemních vod
100
AcDbPolyline
 70
0
 90
2
 10
16.6173226223191
 20
49.1595653979234
 10
16.6166432342547
 20
49.1597055010622
  0
LWPOLYLINE
  5
20141
100
AcDbEntity
  8
směr proudění podzemních vod
100
AcDbPolyline
 70
0
 90
3
 10
16.623299838957
 20
49.1591596011706
 10
16.6236372049484
 20
49.1590773505693
 10
16.6232821464208
 20
49.1590836206152
  0
LWPOLYLINE
  5
20142
100
AcDbEntity
  8
směr proudění podzemních vod
100
AcDbPolyline
 70
0
 90
2
 10
16.6236372049484
 20
49.1590773505693
 10
16.6229381854676
 20
49.159166713147
  0
LWPOLYLINE
  5
20143
100
AcDbEntity
  8
směr proudění podzemních vod
100
AcDbPolyline
 70
0
 90
2
 10
16.6397711604209
 20
49.1531190361722
 10
16.6390696403042
 20
49.1530830682351
  0
LWPOLYLINE
  5
20144
100
AcDbEntity
  8
směr proudění podzemních vod
100
AcDbPolyline
 70
0
 90
3
 10
16.6395051584536
 20
49.1531375480557
 10
16.6390696403042
 20
49.1530830682351
 10
16.6395050413329
 20
49.1530727286693
  0
LWPOLYLINE
  5
20145
100
AcDbEntity
  8
směr proudění podzemních vod
100
AcDbPolyline
 70
0
 90
3
 10
16.6369362716417
 20
49.1471110408513
 10
16.6364935676554
 20
49.147126284994
 10
16.6369125853443
 20
49.1470481109733
  0
LWPOLYLINE
  5
20146
100
AcDbEntity
  8
směr proudění podzemních vod
100
AcDbPolyline
 70
0
 90
2
 10
16.6371878298282
 20
49.1470514385302
 10
16.6364935676554
 20
49.147126284994
  0
LWPOLYLINE
  5
20147
100
AcDbEntity
  8
směr proudění podzemních vod
100
AcDbPolyline
 70
0
 90
2
 10
16.6383310867639
 20
49.2162857142787
 10
16.638983287774
 20
49.2164675878586
  0
LWPOLYLINE
  5
20148
100
AcDbEntity
  8
směr proudění podzemních vod
100
AcDbPolyline
 70
0
 90
3
 10
16.6385801722344
 20
49.2163861221444
 10
16.638983287774
 20
49.2164675878586
 10
16.6386089524814
 20
49.2163334449966
  0
LWPOLYLINE
  5
20149
100
AcDbEntity
  8
směr proudění podzemních vod
100
AcDbPolyline
 70
0
 90
2
 10
16.63220293376
 20
49.2158727408394
 10
16.6329108831227
 20
49.2158496382637
  0
LWPOLYLINE
  5
2014A
100
AcDbEntity
  8
směr proudění podzemních vod
100
AcDbPolyline
 70
0
 90
3
 10
16.6324939534573
 20
49.2158917538321
 10
16.6329108831227
 20
49.2158496382637
 10
16.6324847022834
 20
49.2158361336347
  0
LWPOLYLINE
  5
2014B
100
AcDbEntity
  8
směr proudění podzemních vod
100
AcDbPolyline
 70
0
 90
2
 10
16.6294551551393
 20
49.2133066788982
 10
16.6299271695639
 20
49.2129602767586
  0
LWPOLYLINE
  5
2014C
100
AcDbEntity
  8
směr proudění podzemních vod
100
AcDbPolyline
 70
0
 90
3
 10
16.6296801706941
 20
49.2131843027901
 10
16.6299271695639
 20
49.2129602767586
 10
16.6296132294079
 20
49.2131495592874
  0
LWPOLYLINE
  5
2014D
100
AcDbEntity
  8
směr proudění podzemních vod
100
AcDbPolyline
 70
0
 90
2
 10
16.6366444124405
 20
49.2118977689819
 10
16.6366192258039
 20
49.2114337169839
  0
LWPOLYLINE
  5
2014E
100
AcDbEntity
  8
směr proudění podzemních vod
100
AcDbPolyline
 70
0
 90
3
 10
16.6366775700806
 20
49.2117074152511
 10
16.6366192258039
 20
49.2114337169839
 10
16.6365925497634
 20
49.211712683077
  0
LWPOLYLINE
  5
2014F
100
AcDbEntity
  8
směr proudění podzemních vod
100
AcDbPolyline
 70
0
 90
2
 10
16.6288380468345
 20
49.2082216517137
 10
16.6294880897831
 20
49.2080366565946
  0
LWPOLYLINE
  5
20150
100
AcDbEntity
  8
směr proudění podzemních vod
100
AcDbPolyline
 70
0
 90
3
 10
16.6291205915449
 20
49.2081722868479
 10
16.6294880897831
 20
49.2080366565946
 10
16.6290820305214
 20
49.208122367237
  0
LWPOLYLINE
  5
20151
100
AcDbEntity
  8
směr proudění podzemních vod
100
AcDbPolyline
 70
0
 90
2
 10
16.6380032846391
 20
49.2212820361846
 10
16.6387112991293
 20
49.2212587626357
  0
LWPOLYLINE
  5
20152
100
AcDbEntity
  8
směr proudění podzemních vod
100
AcDbPolyline
 70
0
 90
3
 10
16.6382943474623
 20
49.2213009791101
 10
16.6387112991293
 20
49.2212587626357
 10
16.6382850637564
 20
49.2212453603741
  0
LWPOLYLINE
  5
20153
100
AcDbEntity
  8
směr proudění podzemních vod
100
AcDbPolyline
 70
0
 90
2
 10
16.560591725023
 20
49.2040180390953
 10
16.5612151151283
 20
49.2042434911192
  0
LWPOLYLINE
  5
20154
100
AcDbEntity
  8
směr proudění podzemních vod
100
AcDbPolyline
 70
0
 90
3
 10
16.5608690333325
 20
49.2041600376999
 10
16.5612151151283
 20
49.2042434911192
 10
16.5609290810307
 20
49.2041007260562
  0
LWPOLYLINE
  5
20155
100
AcDbEntity
  8
směr proudění podzemních vod
100
AcDbPolyline
 70
0
 90
2
 10
16.5643074851212
 20
49.2019280034895
 10
16.5648819028801
 20
49.2022036885666
  0
LWPOLYLINE
  5
20156
100
AcDbEntity
  8
směr proudění podzemních vod
100
AcDbPolyline
 70
0
 90
3
 10
16.5645548945846
 20
49.2020920080189
 10
16.5648819028801
 20
49.2022036885666
 10
16.5646259883563
 20
49.2020381953261
  0
LWPOLYLINE
  5
20157
100
AcDbEntity
  8
směr proudění podzemních vod
100
AcDbPolyline
 70
0
 90
2
 10
16.5605199951032
 20
49.1996150335934
 10
16.561094364967
 20
49.19989073761
  0
LWPOLYLINE
  5
20158
100
AcDbEntity
  8
směr proudění podzemních vod
100
AcDbPolyline
 70
0
 90
3
 10
16.5607673804788
 20
49.1997790462952
 10
16.561094364967
 20
49.19989073761
 10
16.5608384750421
 20
49.1997252359174
  0
LWPOLYLINE
  5
20159
100
AcDbEntity
  8
směr proudění podzemních vod
100
AcDbPolyline
 70
0
 90
2
 10
16.5565113251429
 20
49.2016355788891
 10
16.5570856961027
 20
49.201911302777
  0
LWPOLYLINE
  5
2015A
100
AcDbEntity
  8
směr proudění podzemních vod
100
AcDbPolyline
 70
0
 90
3
 10
16.5567587073268
 20
49.2017996001347
 10
16.5570856961027
 20
49.201911302777
 10
16.5568298091433
 20
49.2017457922457
  0
LWPOLYLINE
  5
2015B
100
AcDbEntity
  8
směr proudění podzemních vod
100
AcDbPolyline
 70
0
 90
2
 10
16.553375482207
 20
49.2042215209286
 10
16.5539498656759
 20
49.2044972603214
  0
LWPOLYLINE
  5
2015C
100
AcDbEntity
  8
směr proudění podzemních vod
100
AcDbPolyline
 70
0
 90
3
 10
16.5536228669116
 20
49.2043855488335
 10
16.5539498656759
 20
49.2044972603214
 10
16.5536939758461
 20
49.2043317429002
  0
LWPOLYLINE
  5
2015D
100
AcDbEntity
  8
směr proudění podzemních vod
100
AcDbPolyline
 70
0
 90
2
 10
16.5583837681026
 20
49.2062119745689
 10
16.5589582025355
 20
49.2064876889591
  0
LWPOLYLINE
  5
2015E
100
AcDbEntity
  8
směr proudění podzemních vod
100
AcDbPolyline
 70
0
 90
3
 10
16.5586311793328
 20
49.2063759916925
 10
16.5589582025355
 20
49.2064876889591
 10
16.5587022856877
 20
49.2063221826886
  0
LWPOLYLINE
  5
2015F
100
AcDbEntity
  8
směr proudění podzemních vod
100
AcDbPolyline
 70
0
 90
2
 10
16.5554417200951
 20
49.2084224033891
 10
16.5560161637692
 20
49.2086981323338
  0
LWPOLYLINE
  5
20160
100
AcDbEntity
  8
směr proudění podzemních vod
100
AcDbPolyline
 70
0
 90
3
 10
16.5556891326157
 20
49.2085864267653
 10
16.5560161637692
 20
49.2086981323338
 10
16.5557602453399
 20
49.2085326195944
  0
LWPOLYLINE
  5
20161
100
AcDbEntity
  8
směr proudění podzemních vod
100
AcDbPolyline
 70
0
 90
2
 10
16.5504673849233
 20
49.2066734208944
 10
16.551041780617
 20
49.2069491746634
  0
LWPOLYLINE
  5
20162
100
AcDbEntity
  8
směr proudění podzemních vod
100
AcDbPolyline
 70
0
 90
3
 10
16.5507147722341
 20
49.2068374549733
 10
16.551041780617
 20
49.2069491746634
 10
16.5507858878476
 20
49.2067836508543
  0
LWPOLYLINE
  5
20163
100
AcDbEntity
  8
směr proudění podzemních vod
100
AcDbPolyline
 70
0
 90
2
 10
16.5523597615083
 20
49.2112243340911
 10
16.5529342205029
 20
49.2115000782626
  0
LWPOLYLINE
  5
20164
100
AcDbEntity
  8
směr proudění podzemních vod
100
AcDbPolyline
 70
0
 90
3
 10
16.5526071778093
 20
49.2113883640052
 10
16.5529342205029
 20
49.2115000782626
 10
16.5526782979048
 20
49.2113345587587
  0
LWPOLYLINE
  5
20165
100
AcDbEntity
  8
směr proudění podzemních vod
100
AcDbPolyline
 70
0
 90
2
 10
16.547102474515
 20
49.215398559013
 10
16.5473893200759
 20
49.215825604962
  0
LWPOLYLINE
  5
20166
100
AcDbEntity
  8
směr proudění podzemních vod
100
AcDbPolyline
 70
0
 90
3
 10
16.54719144571
 20
49.2156216809796
 10
16.5473893200759
 20
49.215825604962
 10
16.5472941215439
 20
49.2155984051981
  0
LWPOLYLINE
  5
20167
100
AcDbEntity
  8
směr proudění podzemních vod
100
AcDbPolyline
 70
0
 90
2
 10
16.5391869507737
 20
49.2166156625031
 10
16.5395054089536
 20
49.2170329856041
  0
LWPOLYLINE
  5
20168
100
AcDbEntity
  8
směr proudění podzemních vod
100
AcDbPolyline
 70
0
 90
3
 10
16.539292510616
 20
49.2168356602121
 10
16.5395054089536
 20
49.2170329856041
 10
16.539393324167
 20
49.2168091154802
  0
LWPOLYLINE
  5
20169
100
AcDbEntity
  8
směr proudění podzemních vod
100
AcDbPolyline
 70
0
 90
2
 10
16.5475301164706
 20
49.2092674196448
 10
16.5481045258748
 20
49.209543187929
  0
LWPOLYLINE
  5
2016A
100
AcDbEntity
  8
směr proudění podzemních vod
100
AcDbPolyline
 70
0
 90
3
 10
16.5477775070005
 20
49.2094314599565
 10
16.5481045258748
 20
49.209543187929
 10
16.5478486295293
 20
49.2093776576711
  0
LWPOLYLINE
  5
2016B
100
AcDbEntity
  8
směr proudění podzemních vod
100
AcDbPolyline
 70
0
 90
2
 10
16.5446417601919
 20
49.212515111761
 10
16.5450436200068
 20
49.2129002966495
  0
LWPOLYLINE
  5
2016C
100
AcDbEntity
  8
směr proudění podzemních vod
100
AcDbPolyline
 70
0
 90
3
 10
16.5447918656118
 20
49.2127237025174
 10
16.5450436200068
 20
49.2129002966495
 10
16.5448862466441
 20
49.2126884484659
  0
LWPOLYLINE
  5
2016D
100
AcDbEntity
  8
směr proudění podzemních vod
100
AcDbPolyline
 70
0
 90
2
 10
16.5371998090538
 20
49.2147406707111
 10
16.5375959075341
 20
49.215128415223
  0
LWPOLYLINE
  5
2016E
100
AcDbEntity
  8
směr proudění podzemních vod
100
AcDbPolyline
 70
0
 90
3
 10
16.5373467958133
 20
49.214950214212
 10
16.5375959075341
 20
49.215128415223
 10
16.5374417033469
 20
49.2149155685659
  0
LWPOLYLINE
  5
2016F
100
AcDbEntity
  8
směr proudění podzemních vod
100
AcDbPolyline
 70
0
 90
2
 10
16.5336128692677
 20
49.2181570927431
 10
16.53409016334
 20
49.2185033957989
  0
LWPOLYLINE
  5
20170
100
AcDbEntity
  8
směr proudění podzemních vod
100
AcDbPolyline
 70
0
 90
3
 10
16.5338044304864
 20
49.2183505727209
 10
16.53409016334
 20
49.2185033957989
 10
16.53389073202
 20
49.2183073285497
  0
LWPOLYLINE
  5
20171
100
AcDbEntity
  8
směr proudění podzemních vod
100
AcDbPolyline
 70
0
 90
2
 10
16.5299193552723
 20
49.2147153662501
 10
16.530433972579
 20
49.2150378930074
  0
LWPOLYLINE
  5
20172
100
AcDbEntity
  8
směr proudění podzemních vod
100
AcDbPolyline
 70
0
 90
3
 10
16.5301319741151
 20
49.2148991577559
 10
16.530433972579
 20
49.2150378930074
 10
16.530213214759
 20
49.2148518973254
  0
LWPOLYLINE
  5
20173
100
AcDbEntity
  8
směr proudění podzemních vod
100
AcDbPolyline
 70
0
 90
2
 10
16.5486590471486
 20
49.2016803557888
 10
16.5492333750458
 20
49.2019561178573
  0
LWPOLYLINE
  5
20174
100
AcDbEntity
  8
směr proudění podzemních vod
100
AcDbPolyline
 70
0
 90
3
 10
16.5489064035467
 20
49.2018443938612
 10
16.5492333750458
 20
49.2019561178573
 10
16.5489775139524
 20
49.2017905908143
  0
LWPOLYLINE
  5
20175
100
AcDbEntity
  8
směr proudění podzemních vod
100
AcDbPolyline
 70
0
 90
2
 10
16.5452594101001
 20
49.204327232113
 10
16.5458337495899
 20
49.2046030118903
  0
LWPOLYLINE
  5
20176
100
AcDbEntity
  8
směr proudění podzemních vod
100
AcDbPolyline
 70
0
 90
3
 10
16.5455067684465
 20
49.2044912774083
 10
16.5458337495899
 20
49.2046030118903
 10
16.5455778863446
 20
49.2044374764805
  0
LWPOLYLINE
  5
20177
100
AcDbEntity
  8
směr proudění podzemních vod
100
AcDbPolyline
 70
0
 90
2
 10
16.5427343787729
 20
49.207511376968
 10
16.5433759663116
 20
49.2077137865412
  0
LWPOLYLINE
  5
20178
100
AcDbEntity
  8
směr proudění podzemních vod
100
AcDbPolyline
 70
0
 90
3
 10
16.5430233186271
 20
49.2076430615872
 10
16.5433759663116
 20
49.2077137865412
 10
16.5430782484235
 20
49.2075816551951
  0
LWPOLYLINE
  5
20179
100
AcDbEntity
  8
směr proudění podzemních vod
100
AcDbPolyline
 70
0
 90
2
 10
16.5348827461173
 20
49.2126433598488
 10
16.5352325966051
 20
49.2130497423589
  0
LWPOLYLINE
  5
2017A
100
AcDbEntity
  8
směr proudění podzemních vod
100
AcDbPolyline
 70
0
 90
3
 10
16.5350049377815
 20
49.2128596285935
 10
16.5352325966051
 20
49.2130497423589
 10
16.5351035931138
 20
49.2128298192541
  0
LWPOLYLINE
  5
2017B
100
AcDbEntity
  8
směr proudění podzemních vod
100
AcDbPolyline
 70
0
 90
3
 10
16.5390202381287
 20
49.2102610607755
 10
16.5393658096885
 20
49.2103454898891
 10
16.5390806824406
 20
49.2102019185752
  0
LWPOLYLINE
  5
2017C
100
AcDbEntity
  8
směr proudění podzemních vod
100
AcDbPolyline
 70
0
 90
2
 10
16.5387438323278
 20
49.2101182798268
 10
16.5393658096885
 20
49.2103454898891
  0
LWPOLYLINE
  5
2017D
100
AcDbEntity
  8
směr proudění podzemních vod
100
AcDbPolyline
 70
0
 90
2
 10
16.5039298175531
 20
49.2497712401664
 10
16.5036394235394
 20
49.2493463606791
  0
LWPOLYLINE
  5
2017E
100
AcDbEntity
  8
směr proudění podzemních vod
100
AcDbPolyline
 70
0
 90
3
 10
16.5037825272907
 20
49.2496222732581
 10
16.5036394235394
 20
49.2493463606791
 10
16.5038537958115
 20
49.2496039427747
  0
LWPOLYLINE
  5
2017F
100
AcDbEntity
  8
směr proudění podzemních vod
100
AcDbPolyline
 70
0
 90
2
 10
16.5108030122666
 20
49.2469069822007
 10
16.5104894108618
 20
49.2464892369258
  0
LWPOLYLINE
  5
20180
100
AcDbEntity
  8
směr proudění podzemních vod
100
AcDbPolyline
 70
0
 90
3
 10
16.5106476175194
 20
49.2467615910641
 10
16.5104894108618
 20
49.2464892369258
 10
16.5107178246912
 20
49.2467415886566
  0
LWPOLYLINE
  5
20181
100
AcDbEntity
  8
směr proudění podzemních vod
100
AcDbPolyline
 70
0
 90
2
 10
16.5192019759575
 20
49.2396920241578
 10
16.5186718454435
 20
49.2393819059009
  0
LWPOLYLINE
  5
20182
100
AcDbEntity
  8
směr proudění podzemních vod
100
AcDbPolyline
 70
0
 90
3
 10
16.5189746092366
 20
49.2395954574716
 10
16.5186718454435
 20
49.2393819059009
 10
16.51902820423
 20
49.2395596634356
  0
LWPOLYLINE
  5
20183
100
AcDbEntity
  8
směr proudění podzemních vod
100
AcDbPolyline
 70
0
 90
2
 10
16.5261036479935
 20
49.2355534996632
 10
16.5259164218556
 20
49.2351044651807
  0
LWPOLYLINE
  5
20184
100
AcDbEntity
  8
směr proudění podzemních vod
100
AcDbPolyline
 70
0
 90
3
 10
16.5259930817184
 20
49.23539149224
 10
16.5259164218556
 20
49.2351044651807
 10
16.526067783673
 20
49.2353805428331
  0
LWPOLYLINE
  5
20185
100
AcDbEntity
  8
směr proudění podzemních vod
100
AcDbPolyline
 70
0
 90
2
 10
16.541077642219
 20
49.1915126426543
 10
16.5417692908403
 20
49.1913993082795
  0
LWPOLYLINE
  5
20186
100
AcDbEntity
  8
směr proudění podzemních vod
100
AcDbPolyline
 70
0
 90
3
 10
16.5413881407356
 20
49.1914850700448
 10
16.5417692908403
 20
49.1913993082795
 10
16.5413746603652
 20
49.1914393725118
  0
LWPOLYLINE
  5
20187
100
AcDbEntity
  8
směr proudění podzemních vod
100
AcDbPolyline
 70
0
 90
2
 10
16.536060946033
 20
49.1920215380535
 10
16.5367483799737
 20
49.1918976604381
  0
LWPOLYLINE
  5
20188
100
AcDbEntity
  8
směr proudění podzemních vod
100
AcDbPolyline
 70
0
 90
3
 10
16.5363703824198
 20
49.1919892258592
 10
16.5367483799737
 20
49.1918976604381
 10
16.536355278542
 20
49.191943747869
  0
LWPOLYLINE
  5
20189
100
AcDbEntity
  8
směr proudění podzemních vod
100
AcDbPolyline
 70
0
 90
2
 10
16.5307693793027
 20
49.1918816058564
 10
16.5314796867982
 20
49.1919217495932
  0
LWPOLYLINE
  5
2018A
100
AcDbEntity
  8
směr proudění podzemních vod
100
AcDbPolyline
 70
0
 90
3
 10
16.5310766971241
 20
49.1919216686928
 10
16.5314796867982
 20
49.1919217495932
 10
16.5310866082263
 20
49.1918755801199
  0
LWPOLYLINE
  5
2018B
100
AcDbEntity
  8
směr proudění podzemních vod
100
AcDbPolyline
 70
0
 90
2
 10
16.5328856044265
 20
49.1990949041103
 10
16.5322732766448
 20
49.1993343335421
  0
LWPOLYLINE
  5
2018C
100
AcDbEntity
  8
směr proudění podzemních vod
100
AcDbPolyline
 70
0
 90
3
 10
16.5326004440309
 20
49.1991800775811
 10
16.5322732766448
 20
49.1993343335421
 10
16.5326334923567
 20
49.1992212760686
  0
LWPOLYLINE
  5
2018D
100
AcDbEntity
  8
směr proudění podzemních vod
100
AcDbPolyline
 70
0
 90
2
 10
16.5371145137138
 20
49.1981934029401
 10
16.5377830831924
 20
49.1980309774315
  0
LWPOLYLINE
  5
2018E
100
AcDbEntity
  8
směr proudění podzemních vod
100
AcDbPolyline
 70
0
 90
3
 10
16.5374185579686
 20
49.1981436510907
 10
16.5377830831924
 20
49.1980309774315
 10
16.5373974993106
 20
49.1980992006586
  0
LWPOLYLINE
  5
2018F
100
AcDbEntity
  8
směr proudění podzemních vod
100
AcDbPolyline
 70
0
 90
2
 10
16.5272704601203
 20
49.1916850384705
 10
16.5265601593008
 20
49.1916448697084
  0
LWPOLYLINE
  5
20190
100
AcDbEntity
  8
směr proudění podzemních vod
100
AcDbPolyline
 70
0
 90
3
 10
16.5269631453394
 20
49.1916449662898
 10
16.5265601593008
 20
49.1916448697084
 10
16.5269532305973
 20
49.1916910536147
  0
LWPOLYLINE
  5
20191
100
AcDbEntity
  8
směr proudění podzemních vod
100
AcDbPolyline
 70
0
 90
2
 10
16.5414330173824
 20
49.1969952191447
 10
16.5420131935563
 20
49.1967235983198
  0
LWPOLYLINE
  5
20192
100
AcDbEntity
  8
směr proudění podzemních vod
100
AcDbPolyline
 70
0
 90
3
 10
16.5417065105974
 20
49.1968949650591
 10
16.5420131935563
 20
49.1967235983198
 10
16.5416684053875
 20
49.1968556878947
  0
LWPOLYLINE
  5
20193
100
AcDbEntity
  8
směr proudění podzemních vod
100
AcDbPolyline
 70
0
 90
2
 10
16.545097910156
 20
49.1957180720623
 10
16.5457121625914
 20
49.1954808189674
  0
LWPOLYLINE
  5
20194
100
AcDbEntity
  8
směr proudění podzemních vod
100
AcDbPolyline
 70
0
 90
3
 10
16.5453837500445
 20
49.1956339114426
 10
16.5457121625914
 20
49.1954808189674
 10
16.5453510460297
 20
49.1955925970227
  0
LWPOLYLINE
  5
20195
100
AcDbEntity
  8
směr proudění podzemních vod
100
AcDbPolyline
 70
0
 90
2
 10
16.5496575070611
 20
49.1948780976611
 10
16.5503536728619
 20
49.1947771988087
  0
LWPOLYLINE
  5
20196
100
AcDbEntity
  8
směr proudění podzemních vod
100
AcDbPolyline
 70
0
 90
3
 10
16.549969061469
 20
49.1948560994873
 10
16.5503536728619
 20
49.1947771988087
 10
16.5499574910646
 20
49.1948101771793
  0
LWPOLYLINE
  5
20197
100
AcDbEntity
  8
směr proudění podzemních vod
100
AcDbPolyline
 70
0
 90
2
 10
16.6272323002198
 20
49.1804873500419
 10
16.6278226847139
 20
49.1802253782366
  0
LWPOLYLINE
  5
20198
100
AcDbEntity
  8
směr proudění podzemních vod
100
AcDbPolyline
 70
0
 90
3
 10
16.6275458796769
 20
49.1803794515339
 10
16.6278226847139
 20
49.1802253782366
 10
16.627500281854
 20
49.1803342363517
  0
LWPOLYLINE
  5
20199
100
AcDbEntity
  8
směr proudění podzemních vod
100
AcDbPolyline
 70
0
 90
2
 10
16.6307740497369
 20
49.1761941525178
 10
16.631460883766
 20
49.176069039805
  0
LWPOLYLINE
  5
2019A
100
AcDbEntity
  8
směr proudění podzemních vod
100
AcDbPolyline
 70
0
 90
3
 10
16.6311236841893
 20
49.1761573196698
 10
16.631460883766
 20
49.176069039805
 10
16.6311024197895
 20
49.1761049411144
  0
LWPOLYLINE
  5
2019B
100
AcDbEntity
  8
směr proudění podzemních vod
100
AcDbPolyline
 70
0
 90
2
 10
16.6212653301233
 20
49.1812871795147
 10
16.6214378417368
 20
49.1808337106313
  0
LWPOLYLINE
  5
2019C
100
AcDbEntity
  8
směr proudění podzemních vod
100
AcDbPolyline
 70
0
 90
3
 10
16.6213887936765
 20
49.1810695770166
 10
16.6214378417368
 20
49.1808337106313
 10
16.6213087908966
 20
49.181055889722
  0
LWPOLYLINE
  5
2019D
100
AcDbEntity
  8
směr proudění podzemních vod
100
AcDbPolyline
 70
0
 90
2
 10
16.6227243952719
 20
49.178178009632
 10
16.6228624058627
 20
49.177719492384
  0
LWPOLYLINE
  5
2019E
100
AcDbEntity
  8
směr proudění podzemních vod
100
AcDbPolyline
 70
0
 90
3
 10
16.6228312483187
 20
49.1779566634463
 10
16.6228624058627
 20
49.177719492384
 10
16.622750314803
 20
49.1779455918519
  0
LWPOLYLINE
  5
2019F
100
AcDbEntity
  8
směr proudění podzemních vod
100
AcDbPolyline
 70
0
 90
2
 10
16.6223396881125
 20
49.1747583081409
 10
16.6219236614985
 20
49.1743788031014
  0
LWPOLYLINE
  5
201A0
100
AcDbEntity
  8
směr proudění podzemních vod
100
AcDbPolyline
 70
0
 90
3
 10
16.6221663554489
 20
49.1745558566655
 10
16.6219236614985
 20
49.1743788031014
 10
16.6220987035591
 20
49.1745870100421
  0
LWPOLYLINE
  5
201A1
100
AcDbEntity
  8
směr proudění podzemních vod
100
AcDbPolyline
 70
0
 90
2
 10
16.6182243676543
 20
49.1784918379417
 10
16.6181137384471
 20
49.1780301410776
  0
LWPOLYLINE
  5
201A2
100
AcDbEntity
  8
směr proudění podzemních vod
100
AcDbPolyline
 70
0
 90
3
 10
16.6182087439429
 20
49.1782598968815
 10
16.6181137384471
 20
49.1780301410776
 10
16.6181269338791
 20
49.1782677252424
  0
LWPOLYLINE
  5
201A3
100
AcDbEntity
  8
směr proudění podzemních vod
100
AcDbPolyline
 70
0
 90
2
 10
16.6297233702412
 20
49.1737677111803
 10
16.6304255971361
 20
49.1738479781263
  0
LWPOLYLINE
  5
201A4
100
AcDbEntity
  8
směr proudění podzemních vod
100
AcDbPolyline
 70
0
 90
3
 10
16.6300632600668
 20
49.1738328287909
 10
16.6304255971361
 20
49.1738479781263
 10
16.6300783436384
 20
49.1737795353922
  0
LWPOLYLINE
  5
201A5
100
AcDbEntity
  8
směr proudění podzemních vod
100
AcDbPolyline
 70
0
 90
2
 10
16.6265002646111
 20
49.1735215485371
 10
16.6257894833488
 20
49.1734862728241
  0
LWPOLYLINE
  5
201A6
100
AcDbEntity
  8
směr proudění podzemních vod
100
AcDbPolyline
 70
0
 90
3
 10
16.6261523522549
 20
49.1734783333185
 10
16.6257894833488
 20
49.1734862728241
 10
16.6261452155706
 20
49.1735323332785
  0
LWPOLYLINE
  5
201A7
100
AcDbEntity
  8
směr proudění podzemních vod
100
AcDbPolyline
 70
0
 90
2
 10
16.6202091433009
 20
49.1737690038878
 10
16.6195442654707
 20
49.1736005059689
  0
LWPOLYLINE
  5
201A8
100
AcDbEntity
  8
směr proudění podzemních vod
100
AcDbPolyline
 70
0
 90
3
 10
16.6198951417664
 20
49.1736616864125
 10
16.6195442654707
 20
49.1736005059689
 10
16.6198644988684
 20
49.1737120282485
  0
LWPOLYLINE
  5
201A9
100
AcDbEntity
  8
směr proudění podzemních vod
100
AcDbPolyline
 70
0
 90
2
 10
16.6272640052172
 20
49.1756036531834
 10
16.6271490832687
 20
49.1760648987943
  0
LWPOLYLINE
  5
201AA
100
AcDbEntity
  8
směr proudění podzemních vod
100
AcDbPolyline
 70
0
 90
3
 10
16.6271683210679
 20
49.1758271845093
 10
16.6271490832687
 20
49.1760648987943
 10
16.6272497632379
 20
49.1758365046199
  0
LWPOLYLINE
  5
201AB
100
AcDbEntity
  8
směr proudění podzemních vod
100
AcDbPolyline
 70
0
 90
2
 10
16.6186206886175
 20
49.1850603774439
 10
16.6188612162707
 20
49.1846204161516
  0
LWPOLYLINE
  5
201AC
100
AcDbEntity
  8
směr proudění podzemních vod
100
AcDbPolyline
 70
0
 90
3
 10
16.6187765906531
 20
49.1848519111087
 10
16.6188612162707
 20
49.1846204161516
 10
16.6186990576866
 20
49.1848330715842
  0
LWPOLYLINE
  5
201AD
100
AcDbEntity
  8
směr proudění podzemních vod
100
AcDbPolyline
 70
0
 90
2
 10
16.6241670186047
 20
49.1732242977443
 10
16.6234946769478
 20
49.1730690666106
  0
LWPOLYLINE
  5
201AE
100
AcDbEntity
  8
směr proudění podzemních vod
100
AcDbPolyline
 70
0
 90
3
 10
16.6238482116692
 20
49.1731232586518
 10
16.6234946769478
 20
49.1730690666106
 10
16.6238199063305
 20
49.1731741853895
  0
LWPOLYLINE
  5
201AF
100
AcDbEntity
  8
směr proudění podzemních vod
100
AcDbPolyline
 70
0
 90
3
 10
16.6205829318703
 20
49.1724783789666
 10
16.6202294054697
 20
49.1724241760204
 10
16.6205546236944
 20
49.1725293040127
  0
LWPOLYLINE
  5
201B0
100
AcDbEntity
  8
směr proudění podzemních vod
100
AcDbPolyline
 70
0
 90
2
 10
16.6209017281472
 20
49.1725794261964
 10
16.6202294054697
 20
49.1724241760204
  0
LWPOLYLINE
  5
201B1
100
AcDbEntity
  8
směr proudění podzemních vod
100
AcDbPolyline
 70
0
 90
3
 10
16.6312665979457
 20
49.1739211838976
 10
16.6316296350268
 20
49.1739177811361
 10
16.6312753033162
 20
49.1738672831326
  0
LWPOLYLINE
  5
201B2
100
AcDbEntity
  8
směr proudění podzemních vod
100
AcDbPolyline
 70
0
 90
2
 10
16.6308923621515
 20
49.1738716719605
 10
16.6316019936685
 20
49.1739158274679
  0
LWPOLYLINE
  5
201B3
100
AcDbEntity
  8
směr proudění podzemních vod
100
AcDbPolyline
 70
0
 90
3
 10
16.555536397955
 20
49.2151227505056
 10
16.5552493400775
 20
49.214976794744
 10
16.5554782200669
 20
49.2151612903963
  0
LWPOLYLINE
  5
201B4
100
AcDbEntity
  8
směr proudění podzemních vod
100
AcDbPolyline
 70
0
 90
2
 10
16.5557620352335
 20
49.2153017814094
 10
16.5552493400775
 20
49.214976794744
  0
LWPOLYLINE
  5
201B5
100
AcDbEntity
  8
směr proudění podzemních vod
100
AcDbPolyline
 70
0
 90
2
 10
16.5595184532037
 20
49.2156549669452
 10
16.5594035080146
 20
49.2151937163783
  0
LWPOLYLINE
  5
201B6
100
AcDbEntity
  8
směr proudění podzemních vod
100
AcDbPolyline
 70
0
 90
3
 10
16.5595006903215
 20
49.2154230933502
 10
16.5594035080146
 20
49.2151937163783
 10
16.5594188915791
 20
49.2154312431415
  0
LWPOLYLINE
  5
201B7
100
AcDbEntity
  8
směr proudění podzemních vod
100
AcDbPolyline
 70
0
 90
2
 10
16.558282729336
 20
49.2124359800453
 10
16.5581678031087
 20
49.2119747280209
  0
LWPOLYLINE
  5
201B8
100
AcDbEntity
  8
směr proudění podzemních vod
100
AcDbPolyline
 70
0
 90
3
 10
16.5582649735334
 20
49.2122041052515
 10
16.5581678031087
 20
49.2119747280209
 10
16.5581831797559
 20
49.2122122550662
  0
LWPOLYLINE
  5
201B9
100
AcDbEntity
  8
směr proudění podzemních vod
100
AcDbPolyline
 70
0
 90
2
 10
16.5537596217348
 20
49.2182590496978
 10
16.5532478471687
 20
49.2179334201303
  0
LWPOLYLINE
  5
201BA
100
AcDbEntity
  8
směr proudění podzemních vod
100
AcDbPolyline
 70
0
 90
3
 10
16.553534495441
 20
49.2180797361444
 10
16.5532478471687
 20
49.2179334201303
 10
16.5534762016072
 20
49.2181182028747
  0
LWPOLYLINE
  5
201BB
100
AcDbEntity
  8
směr proudění podzemních vod
100
AcDbPolyline
 70
0
 90
2
 10
16.5497293052548
 20
49.2196382614679
 10
16.5498277833073
 20
49.2191753791792
  0
LWPOLYLINE
  5
201BC
100
AcDbEntity
  8
směr proudění podzemních vod
100
AcDbPolyline
 70
0
 90
3
 10
16.5498170446927
 20
49.2194133219227
 10
16.5498277833073
 20
49.2191753791792
 10
16.5497352200109
 20
49.2194052573018
  0
LWPOLYLINE
  5
201BD
100
AcDbEntity
  8
směr proudění podzemních vod
100
AcDbPolyline
 70
0
 90
2
 10
16.5447327165545
 20
49.2191717648371
 10
16.5442177289094
 20
49.2188483110736
  0
LWPOLYLINE
  5
201BE
100
AcDbEntity
  8
směr proudění podzemních vod
100
AcDbPolyline
 70
0
 90
3
 10
16.5445058201808
 20
49.2189934089097
 10
16.5442177289094
 20
49.2188483110736
 10
16.5444479073248
 20
49.2190321222733
  0
LWPOLYLINE
  5
201BF
100
AcDbEntity
  8
směr proudění podzemních vod
100
AcDbPolyline
 70
0
 90
2
 10
16.5397442699733
 20
49.219769876619
 10
16.5394715863499
 20
49.2193380002461
  0
LWPOLYLINE
  5
201C0
100
AcDbEntity
  8
směr proudění podzemních vod
100
AcDbPolyline
 70
0
 90
3
 10
16.5396461564979
 20
49.2195467835483
 10
16.5394715863499
 20
49.2193380002461
 10
16.5395693531471
 20
49.2195669522064
  0
LWPOLYLINE
  5
201C1
100
AcDbEntity
  8
směr proudění podzemních vod
100
AcDbPolyline
 70
0
 90
2
 10
16.5362449500354
 20
49.2234190259055
 10
16.5357295825939
 20
49.2230958014381
  0
LWPOLYLINE
  5
201C2
100
AcDbEntity
  8
směr proudění podzemních vod
100
AcDbPolyline
 70
0
 90
3
 10
16.5360178491003
 20
49.2232407709772
 10
16.5357295825939
 20
49.2230958014381
 10
16.5359599708227
 20
49.2232795095854
  0
LWPOLYLINE
  5
201C3
100
AcDbEntity
  8
směr proudění podzemních vod
100
AcDbPolyline
 70
0
 90
2
 10
16.5409841820267
 20
49.2249813447097
 10
16.54028939594
 20
49.2248748626506
  0
LWPOLYLINE
  5
201C4
100
AcDbEntity
  8
směr proudění podzemních vod
100
AcDbPolyline
 70
0
 90
3
 10
16.5406501882773
 20
49.2249035839151
 10
16.54028939594
 20
49.2248748626506
 10
16.5406304578832
 20
49.2249562229048
  0
LWPOLYLINE
  5
201C5
100
AcDbEntity
  8
směr proudění podzemních vod
100
AcDbPolyline
 70
0
 90
2
 10
16.5436012451644
 20
49.2234187122351
 10
16.5430339279736
 20
49.2237021660903
  0
LWPOLYLINE
  5
201C6
100
AcDbEntity
  8
směr proudění podzemních vod
100
AcDbPolyline
 70
0
 90
3
 10
16.543297218498
 20
49.223538072156
 10
16.5430339279736
 20
49.2237021660903
 10
16.5433466897595
 20
49.2235815225227
  0
LWPOLYLINE
  5
201C7
100
AcDbEntity
  8
směr proudění podzemních vod
100
AcDbPolyline
 70
0
 90
2
 10
16.5461941058359
 20
49.2249699043877
 10
16.5455660202823
 20
49.2251916973643
  0
LWPOLYLINE
  5
201C8
100
AcDbEntity
  8
směr proudění podzemních vod
100
AcDbPolyline
 70
0
 90
3
 10
16.5458652912097
 20
49.2250566212834
 10
16.5455660202823
 20
49.2251916973643
 10
16.5459037691806
 20
49.2251046083363
  0
LWPOLYLINE
  5
201C9
100
AcDbEntity
  8
směr proudění podzemních vod
100
AcDbPolyline
 70
0
 90
2
 10
16.5381895646732
 20
49.2261191376146
 10
16.5376726000107
 20
49.225796991269
  0
LWPOLYLINE
  5
201CA
100
AcDbEntity
  8
směr proudění podzemních vod
100
AcDbPolyline
 70
0
 90
3
 10
16.5379615868762
 20
49.2259413581384
 10
16.5376726000107
 20
49.225796991269
 10
16.537903892768
 20
49.2259802177169
  0
LWPOLYLINE
  5
201CB
100
AcDbEntity
  8
směr proudění podzemních vod
100
AcDbPolyline
 70
0
 90
2
 10
16.5414375017432
 20
49.2281091962786
 10
16.5409204938034
 20
49.2277870644752
  0
LWPOLYLINE
  5
201CC
100
AcDbEntity
  8
směr proudění podzemních vod
100
AcDbPolyline
 70
0
 90
3
 10
16.5412095017559
 20
49.2279314231717
 10
16.5409204938034
 20
49.2277870644752
 10
16.5411518092413
 20
49.2279702844589
  0
LWPOLYLINE
  5
201CD
100
AcDbEntity
  8
směr proudění podzemních vod
100
AcDbPolyline
 70
0
 90
2
 10
16.5465148124517
 20
49.2282574970536
 10
16.5458237361595
 20
49.2281410032154
  0
LWPOLYLINE
  5
201CE
100
AcDbEntity
  8
směr proudění podzemních vod
100
AcDbPolyline
 70
0
 90
3
 10
16.5461834961703
 20
49.2281749296725
 10
16.5458237361595
 20
49.2281410032154
 10
16.5461619969746
 20
49.2282272702772
  0
LWPOLYLINE
  5
201CF
100
AcDbEntity
  8
směr proudění podzemních vod
100
AcDbPolyline
 70
0
 90
2
 10
16.5495001217925
 20
49.2291515296652
 10
16.5488090246254
 20
49.229035053615
  0
LWPOLYLINE
  5
201D0
100
AcDbEntity
  8
směr proudění podzemních vod
100
AcDbPolyline
 70
0
 90
3
 10
16.5491687945469
 20
49.2290689708622
 10
16.5488090246254
 20
49.229035053615
 10
16.5491472979696
 20
49.2291213129099
  0
LWPOLYLINE
  5
201D1
100
AcDbEntity
  8
směr proudění podzemních vod
100
AcDbPolyline
 70
0
 90
2
 10
16.5435923312468
 20
49.2301112898446
 10
16.5432118989364
 20
49.2297158817487
  0
LWPOLYLINE
  5
201D2
100
AcDbEntity
  8
směr proudění podzemních vod
100
AcDbPolyline
 70
0
 90
3
 10
16.5434379509961
 20
49.2299022950701
 10
16.5432118989364
 20
49.2297158817487
 10
16.5433674513285
 20
49.2299306892838
  0
LWPOLYLINE
  5
201D3
100
AcDbEntity
  8
směr proudění podzemních vod
100
AcDbPolyline
 70
0
 90
2
 10
16.5445102387599
 20
49.2318817538738
 10
16.5443663085942
 20
49.231424002336
  0
LWPOLYLINE
  5
201D4
100
AcDbEntity
  8
směr proudění podzemních vod
100
AcDbPolyline
 70
0
 90
3
 10
16.5444778839715
 20
49.231650556819
 10
16.5443663085942
 20
49.231424002336
 10
16.5443966419228
 20
49.2316609105399
  0
LWPOLYLINE
  5
201D5
100
AcDbEntity
  8
směr proudění podzemních vod
100
AcDbPolyline
 70
0
 90
2
 10
16.5412256099975
 20
49.2317714503091
 10
16.5418702351698
 20
49.2315709298155
  0
LWPOLYLINE
  5
201D6
100
AcDbEntity
  8
směr proudění podzemních vod
100
AcDbPolyline
 70
0
 90
3
 10
16.5415607941081
 20
49.2316958327927
 10
16.5418702351698
 20
49.2315709298155
 10
16.5415260988662
 20
49.2316466227903
  0
LWPOLYLINE
  5
201D7
100
AcDbEntity
  8
směr proudění podzemních vod
100
AcDbPolyline
 70
0
 90
2
 10
16.5471496984986
 20
49.2332989499091
 10
16.5465018254194
 20
49.2331029407739
  0
LWPOLYLINE
  5
201D8
100
AcDbEntity
  8
směr proudění podzemních vod
100
AcDbPolyline
 70
0
 90
3
 10
16.5468464346741
 20
49.2331786972774
 10
16.5465018254194
 20
49.2331029407739
 10
16.546810906334
 20
49.2332276519121
  0
LWPOLYLINE
  5
201D9
100
AcDbEntity
  8
směr proudění podzemních vod
100
AcDbPolyline
 70
0
 90
2
 10
16.5408997192931
 20
49.2334575173998
 10
16.5416045945816
 20
49.2335306959191
  0
LWPOLYLINE
  5
201DA
100
AcDbEntity
  8
směr proudění podzemních vod
100
AcDbPolyline
 70
0
 90
3
 10
16.5412415073482
 20
49.2335191998541
 10
16.5416045945816
 20
49.2335306959191
 10
16.5412553563948
 20
49.2334657617719
  0
LWPOLYLINE
  5
201DB
100
AcDbEntity
  8
směr proudění podzemních vod
100
AcDbPolyline
 70
0
 90
2
 10
16.5430848042401
 20
49.2351429474108
 10
16.5433461980756
 20
49.2347080666433
  0
LWPOLYLINE
  5
201DC
100
AcDbEntity
  8
směr proudění podzemních vod
100
AcDbPolyline
 70
0
 90
3
 10
16.5432506156577
 20
49.2349377376994
 10
16.5433461980756
 20
49.2347080666433
 10
16.5431739293371
 20
49.2349173384596
  0
LWPOLYLINE
  5
201DD
100
AcDbEntity
  8
směr proudění podzemních vod
100
AcDbPolyline
 70
0
 90
2
 10
16.5422760110941
 20
49.2368469344332
 10
16.5424747806776
 20
49.2363980697026
  0
LWPOLYLINE
  5
201DE
100
AcDbEntity
  8
směr proudění podzemních vod
100
AcDbPolyline
 70
0
 90
3
 10
16.5424120902246
 20
49.23663255029
 10
16.5424747806776
 20
49.2363980697026
 10
16.5423328458904
 20
49.2366168898953
  0
LWPOLYLINE
  5
201DF
100
AcDbEntity
  8
směr proudění podzemních vod
100
AcDbPolyline
 70
0
 90
2
 10
16.5392829745145
 20
49.2356952563056
 10
16.5399908180632
 20
49.235755058645
  0
LWPOLYLINE
  5
201E0
100
AcDbEntity
  8
směr proudění podzemních vod
100
AcDbPolyline
 70
0
 90
3
 10
16.539627358725
 20
49.2357504421685
 10
16.5399908180632
 20
49.235755058645
 10
16.5396388423906
 20
49.2356967637883
  0
LWPOLYLINE
  5
201E1
100
AcDbEntity
  8
směr proudění podzemních vod
100
AcDbPolyline
 70
0
 90
2
 10
16.5389749135784
 20
49.23734965884
 10
16.5396827790457
 20
49.2374094629589
  0
LWPOLYLINE
  5
201E2
100
AcDbEntity
  8
směr proudění podzemních vod
100
AcDbPolyline
 70
0
 90
3
 10
16.5393193075891
 20
49.2374048455118
 10
16.5396827790457
 20
49.2374094629589
 10
16.5393307933385
 20
49.2373511672741
  0
LWPOLYLINE
  5
201E3
100
AcDbEntity
  8
směr proudění podzemních vod
100
AcDbPolyline
 70
0
 90
2
 10
16.5444228166458
 20
49.237279978188
 10
16.5438890912939
 20
49.2369696896337
  0
LWPOLYLINE
  5
201E4
100
AcDbEntity
  8
směr proudění podzemních vod
100
AcDbPolyline
 70
0
 90
3
 10
16.5441855674673
 20
49.2371074492412
 10
16.5438890912939
 20
49.2369696896337
 10
16.5441299405261
 20
49.237147587948
  0
LWPOLYLINE
  5
201E5
100
AcDbEntity
  8
směr proudění podzemních vod
100
AcDbPolyline
 70
0
 90
2
 10
16.5428198933076
 20
49.2393661732113
 10
16.5425197955822
 20
49.2389421343432
  0
LWPOLYLINE
  5
201E6
100
AcDbEntity
  8
směr proudění podzemních vod
100
AcDbPolyline
 70
0
 90
3
 10
16.5427075978741
 20
49.2391459593566
 10
16.5425197955822
 20
49.2389421343432
 10
16.5426321166613
 20
49.239168211965
  0
LWPOLYLINE
  5
201E7
100
AcDbEntity
  8
směr proudění podzemních vod
100
AcDbPolyline
 70
0
 90
2
 10
16.5540131456427
 20
49.2294268999331
 10
16.554709981982
 20
49.229326140312
  0
LWPOLYLINE
  5
201E8
100
AcDbEntity
  8
směr proudění podzemních vod
100
AcDbPolyline
 70
0
 90
3
 10
16.5543656715752
 20
49.2294024247413
 10
16.554709981982
 20
49.229326140312
 10
16.554348707652
 20
49.2293493733214
  0
LWPOLYLINE
  5
201E9
100
AcDbEntity
  8
směr proudění podzemních vod
100
AcDbPolyline
 70
0
 90
2
 10
16.5575501697758
 20
49.2287011991382
 10
16.5582254756659
 20
49.228550143392
  0
LWPOLYLINE
  5
201EA
100
AcDbEntity
  8
směr proudění podzemních vod
100
AcDbPolyline
 70
0
 90
3
 10
16.5578963183317
 20
49.2286511143624
 10
16.5582254756659
 20
49.228550143392
 10
16.5578704216869
 20
49.2285996343972
  0
LWPOLYLINE
  5
201EB
100
AcDbEntity
  8
směr proudění podzemních vod
100
AcDbPolyline
 70
0
 90
2
 10
16.5612080335621
 20
49.230576207098
 10
16.5613471492444
 20
49.2301178187562
  0
LWPOLYLINE
  5
201EC
100
AcDbEntity
  8
směr proudění podzemních vod
100
AcDbPolyline
 70
0
 90
3
 10
16.5613154630256
 20
49.2303549586103
 10
16.5613471492444
 20
49.2301178187562
 10
16.5612344666763
 20
49.2303438147165
  0
LWPOLYLINE
  5
201ED
100
AcDbEntity
  8
směr proudění podzemních vod
100
AcDbPolyline
 70
0
 90
2
 10
16.5575306653348
 20
49.2314224674659
 10
16.5582204716312
 20
49.2313026761899
  0
LWPOLYLINE
  5
201EE
100
AcDbEntity
  8
směr proudění podzemních vod
100
AcDbPolyline
 70
0
 90
3
 10
16.5578813285849
 20
49.2313883410497
 10
16.5582204716312
 20
49.2313026761899
 10
16.5578609863671
 20
49.2313358023909
  0
LWPOLYLINE
  5
201EF
100
AcDbEntity
  8
směr proudění podzemních vod
100
AcDbPolyline
 70
0
 90
2
 10
16.5530413098942
 20
49.2318795191481
 10
16.5537545538261
 20
49.2318636912584
  0
LWPOLYLINE
  5
201F0
100
AcDbEntity
  8
směr proudění podzemních vod
100
AcDbPolyline
 70
0
 90
3
 10
16.5533947552179
 20
49.2318975659719
 10
16.5537545538261
 20
49.2318636912584
 10
16.55339285115
 20
49.2318433780612
  0
LWPOLYLINE
  5
201F1
100
AcDbEntity
  8
směr proudění podzemních vod
100
AcDbPolyline
 70
0
 90
2
 10
16.560121436346
 20
49.2343962153544
 10
16.5602744085898
 20
49.2339397221393
  0
LWPOLYLINE
  5
201F2
100
AcDbEntity
  8
směr proudění podzemních vod
100
AcDbPolyline
 70
0
 90
3
 10
16.5602355497564
 20
49.23417640464
 10
16.5602744085898
 20
49.2339397221393
 10
16.5601548995951
 20
49.2341642122761
  0
LWPOLYLINE
  5
201F3
100
AcDbEntity
  8
směr proudění podzemních vod
100
AcDbPolyline
 70
0
 90
2
 10
16.5565402683994
 20
49.2356019060829
 10
16.557248327293
 20
49.2355432262255
  0
LWPOLYLINE
  5
201F4
100
AcDbEntity
  8
směr proudění podzemních vod
100
AcDbPolyline
 70
0
 90
3
 10
16.5568947762393
 20
49.235598608626
 10
16.557248327293
 20
49.2355432262255
 10
16.5568852770811
 20
49.2355447646286
  0
LWPOLYLINE
  5
201F5
100
AcDbEntity
  8
směr proudění podzemních vod
100
AcDbPolyline
 70
0
 90
2
 10
16.562421460666
 20
49.2364072743668
 10
16.5618998275155
 20
49.2360882956897
  0
LWPOLYLINE
  5
201F6
100
AcDbEntity
  8
směr proudění podzemních vod
100
AcDbPolyline
 70
0
 90
3
 10
16.5621909153331
 20
49.2362308939604
 10
16.5618998275155
 20
49.2360882956897
 10
16.5621337647998
 20
49.2362701031933
  0
LWPOLYLINE
  5
201F7
100
AcDbEntity
  8
směr proudění podzemních vod
100
AcDbPolyline
 70
0
 90
2
 10
16.5588376342616
 20
49.237550489383
 10
16.5589536299904
 20
49.2370893484639
  0
LWPOLYLINE
  5
201F8
100
AcDbEntity
  8
směr proudění podzemních vod
100
AcDbPolyline
 70
0
 90
3
 10
16.5589338883051
 20
49.2373270434895
 10
16.5589536299904
 20
49.2370893484639
 10
16.5588523642099
 20
49.2373176539495
  0
LWPOLYLINE
  5
201F9
100
AcDbEntity
  8
směr proudění podzemních vod
100
AcDbPolyline
 70
0
 90
2
 10
16.5608769563329
 20
49.2399410651681
 10
16.5605167861873
 20
49.2395375744629
  0
LWPOLYLINE
  5
201FA
100
AcDbEntity
  8
směr proudění podzemních vod
100
AcDbPolyline
 70
0
 90
3
 10
16.5607332685872
 20
49.2397288174162
 10
16.5605167861873
 20
49.2395375744629
 10
16.5606613490816
 20
49.239755656864
  0
LWPOLYLINE
  5
201FB
100
AcDbEntity
  8
směr proudění podzemních vod
100
AcDbPolyline
 70
0
 90
2
 10
16.5540955380492
 20
49.2388549671839
 10
16.5547711969777
 20
49.2387043254657
  0
LWPOLYLINE
  5
201FC
100
AcDbEntity
  8
směr proudění podzemních vod
100
AcDbPolyline
 70
0
 90
3
 10
16.5544418283754
 20
49.2388050948502
 10
16.5547711969777
 20
49.2387043254657
 10
16.5544160003326
 20
49.2387535983999
  0
LWPOLYLINE
  5
201FD
100
AcDbEntity
  8
směr proudění podzemních vod
100
AcDbPolyline
 70
0
 90
2
 10
16.5519684306114
 20
49.2354340584765
 10
16.5526815939533
 20
49.2354522873547
  0
LWPOLYLINE
  5
201FE
100
AcDbEntity
  8
směr proudění podzemních vod
100
AcDbPolyline
 70
0
 90
3
 10
16.5523189566092
 20
49.2354689135454
 10
16.5526815939533
 20
49.2354522873547
 10
16.552323084196
 20
49.2354147783426
  0
LWPOLYLINE
  5
201FF
100
AcDbEntity
  8
směr proudění podzemních vod
100
AcDbPolyline
 70
0
 90
2
 10
16.5491445080441
 20
49.2388701021004
 10
16.5498492426551
 20
49.2389441726736
  0
LWPOLYLINE
  5
20200
100
AcDbEntity
  8
směr proudění podzemních vod
100
AcDbPolyline
 70
0
 90
3
 10
16.5494861503884
 20
49.2389322166857
 10
16.5498492426551
 20
49.2389441726736
 10
16.5495001587923
 20
49.238878796786
  0
LWPOLYLINE
  5
20201
100
AcDbEntity
  8
směr proudění podzemních vod
100
AcDbPolyline
 70
0
 90
2
 10
16.5406500997687
 20
49.2415788153112
 10
16.5404465664133
 20
49.2411308626372
  0
LWPOLYLINE
  5
20202
100
AcDbEntity
  8
směr proudění podzemních vod
100
AcDbPolyline
 70
0
 90
3
 10
16.5405874992627
 20
49.2413502963535
 10
16.5404465664133
 20
49.2411308626372
 10
16.540507901178
 20
49.2413651856311
  0
LWPOLYLINE
  5
20203
100
AcDbEntity
  8
směr proudění podzemních vod
100
AcDbPolyline
 70
0
 90
2
 10
16.5472252820829
 20
49.2428176011322
 10
16.5465279428583
 20
49.2427177833152
  0
LWPOLYLINE
  5
20204
100
AcDbEntity
  8
směr proudění podzemních vod
100
AcDbPolyline
 70
0
 90
3
 10
16.5468894671673
 20
49.242743046906
 10
16.5465279428583
 20
49.2427177833152
 10
16.5468709079652
 20
49.2427958689773
  0
LWPOLYLINE
  5
20205
100
AcDbEntity
  8
směr proudění podzemních vod
100
AcDbPolyline
 70
0
 90
2
 10
16.5510605530792
 20
49.2428722932023
 10
16.5517174563678
 20
49.242689430682
  0
LWPOLYLINE
  5
20206
100
AcDbEntity
  8
směr proudění podzemních vod
100
AcDbPolyline
 70
0
 90
3
 10
16.5514003101883
 20
49.2428058327912
 10
16.5517174563678
 20
49.242689430682
 10
16.5513687496143
 20
49.242755723447
  0
LWPOLYLINE
  5
20207
100
AcDbEntity
  8
směr proudění podzemních vod
100
AcDbPolyline
 70
0
 90
2
 10
16.5495166022427
 20
49.2467863981545
 10
16.5500298971732
 20
49.2464615979632
  0
LWPOLYLINE
  5
20208
100
AcDbEntity
  8
směr proudění podzemních vod
100
AcDbPolyline
 70
0
 90
3
 10
16.5497974685188
 20
49.246644659264
 10
16.5500298971732
 20
49.2464615979632
 10
16.5497405810769
 20
49.2466052794394
  0
LWPOLYLINE
  5
20209
100
AcDbEntity
  8
směr proudění podzemních vod
100
AcDbPolyline
 70
0
 90
2
 10
16.5447011426952
 20
49.2474677442201
 10
16.5453703542486
 20
49.2476304678917
  0
LWPOLYLINE
  5
2020A
100
AcDbEntity
  8
směr proudění podzemních vod
100
AcDbPolyline
 70
0
 90
3
 10
16.5450177500512
 20
49.2475723320914
 10
16.5453703542486
 20
49.2476304678917
 10
16.545047420217
 20
49.2475217300738
  0
LWPOLYLINE
  5
2020B
100
AcDbEntity
  8
směr proudění podzemních vod
100
AcDbPolyline
 70
0
 90
2
 10
16.5467613954819
 20
49.249585540258
 10
16.5473214881432
 20
49.2492957479631
  0
LWPOLYLINE
  5
2020C
100
AcDbEntity
  8
směr proudění podzemních vod
100
AcDbPolyline
 70
0
 90
3
 10
16.5470624062158
 20
49.2494627789534
 10
16.5473214881432
 20
49.2492957479631
 10
16.5470117760327
 20
49.2494198920312
  0
LWPOLYLINE
  5
2020D
100
AcDbEntity
  8
směr proudění podzemních vod
100
AcDbPolyline
 70
0
 90
2
 10
16.5446025354375
 20
49.2515433304093
 10
16.5450625903873
 20
49.2511859475402
  0
LWPOLYLINE
  5
2020E
100
AcDbEntity
  8
směr proudění podzemních vod
100
AcDbPolyline
 70
0
 90
3
 10
16.5448598778147
 20
49.2513835753272
 10
16.5450625903873
 20
49.2511859475402
 10
16.5447971455992
 20
49.2513481996643
  0
LWPOLYLINE
  5
2020F
100
AcDbEntity
  8
směr proudění podzemních vod
100
AcDbPolyline
 70
0
 90
2
 10
16.5416529016753
 20
49.2463450039725
 10
16.5422719901327
 20
49.2465776989061
  0
LWPOLYLINE
  5
20210
100
AcDbEntity
  8
směr proudění podzemních vod
100
AcDbPolyline
 70
0
 90
3
 10
16.5419388470241
 20
49.2464823189127
 10
16.5422719901327
 20
49.2465776989061
 10
16.5419808472771
 20
49.2464356096203
  0
LWPOLYLINE
  5
20211
100
AcDbEntity
  8
směr proudění podzemních vod
100
AcDbPolyline
 70
0
 90
2
 10
16.5412968657348
 20
49.2495163091809
 10
16.5420105919116
 20
49.2495268750071
  0
LWPOLYLINE
  5
20212
100
AcDbEntity
  8
směr proudění podzemních vod
100
AcDbPolyline
 70
0
 90
3
 10
16.5416483174032
 20
49.2495473944251
 10
16.5420105919116
 20
49.2495268750071
 10
16.5416510891327
 20
49.2494932226669
  0
LWPOLYLINE
  5
20213
100
AcDbEntity
  8
směr proudění podzemních vod
100
AcDbPolyline
 70
0
 90
2
 10
16.5614164195853
 20
49.2273440685737
 10
16.5614397393992
 20
49.2268769625286
  0
LWPOLYLINE
  5
20214
100
AcDbEntity
  8
směr proudění podzemních vod
100
AcDbPolyline
 70
0
 90
3
 10
16.5614674194345
 20
49.2271143176963
 10
16.5614397393992
 20
49.2268769625286
 10
16.5613847394105
 20
49.2271119571427
  0
LWPOLYLINE
  5
20215
100
AcDbEntity
  8
směr proudění podzemních vod
100
AcDbPolyline
 70
0
 90
2
 10
16.5442783798754
 20
49.2332820751107
 10
16.5442327432915
 20
49.2328156769363
  0
LWPOLYLINE
  5
20216
100
AcDbEntity
  8
směr proudění podzemních vod
100
AcDbPolyline
 70
0
 90
3
 10
16.5442952816736
 20
49.2330501740355
 10
16.5442327432915
 20
49.2328156769363
 10
16.5442126292338
 20
49.2330530512399
  0
LWPOLYLINE
  5
20217
100
AcDbEntity
  8
směr proudění podzemních vod
100
AcDbPolyline
 70
0
 90
2
 10
16.5970478824724
 20
49.2223777978813
 10
16.597759871049
 20
49.2224083864101
  0
LWPOLYLINE
  5
20218
100
AcDbEntity
  8
směr proudění podzemních vod
100
AcDbPolyline
 70
0
 90
3
 10
16.5973967840582
 20
49.2224187187297
 10
16.597759871049
 20
49.2224083864101
 10
16.5974030982545
 20
49.222364674397
  0
LWPOLYLINE
  5
20219
100
AcDbEntity
  8
směr proudění podzemních vod
100
AcDbPolyline
 70
0
 90
2
 10
16.5995725629686
 20
49.2184575603524
 10
16.6002844967592
 20
49.2184881333193
  0
LWPOLYLINE
  5
2021A
100
AcDbEntity
  8
směr proudění podzemních vod
100
AcDbPolyline
 70
0
 90
3
 10
16.5999214390298
 20
49.2184984735913
 10
16.6002844967592
 20
49.2184881333193
 10
16.5999277499699
 20
49.218444429086
  0
LWPOLYLINE
  5
2021B
100
AcDbEntity
  8
směr proudění podzemních vod
100
AcDbPolyline
 70
0
 90
2
 10
16.6007937087238
 20
49.2228536792513
 10
16.6009184652685
 20
49.2223935224553
  0
LWPOLYLINE
  5
2021C
100
AcDbEntity
  8
směr proudění podzemních vod
100
AcDbPolyline
 70
0
 90
3
 10
16.6008941933824
 20
49.2226310386722
 10
16.6009184652685
 20
49.2223935224553
 10
16.6008128780561
 20
49.2226209814471
  0
LWPOLYLINE
  5
2021D
100
AcDbEntity
  8
směr proudění podzemních vod
100
AcDbPolyline
 70
0
 90
2
 10
16.6019129211187
 20
49.2208202079938
 10
16.6020376621362
 20
49.2203600498354
  0
LWPOLYLINE
  5
2021E
100
AcDbEntity
  8
směr proudění podzemních vod
100
AcDbPolyline
 70
0
 90
3
 10
16.6020133967651
 20
49.2205975654722
 10
16.6020376621362
 20
49.2203600498354
 10
16.6019320845497
 20
49.2205875090327
  0
LWPOLYLINE
  5
2021F
100
AcDbEntity
  8
směr proudění podzemních vod
100
AcDbPolyline
 70
0
 90
2
 10
16.6052981077327
 20
49.2212764353543
 10
16.6046497359222
 20
49.2210813578746
  0
LWPOLYLINE
  5
20220
100
AcDbEntity
  8
směr proudění podzemních vod
100
AcDbPolyline
 70
0
 90
3
 10
16.6049945141166
 20
49.221156618777
 10
16.6046497359222
 20
49.2210813578746
 10
16.6049591583134
 20
49.2212056242625
  0
LWPOLYLINE
  5
20221
100
AcDbEntity
  8
směr proudění podzemních vod
100
AcDbPolyline
 70
0
 90
2
 10
16.5954995864896
 20
49.2251157808014
 10
16.5962116122517
 20
49.2251463778817
  0
LWPOLYLINE
  5
20222
100
AcDbEntity
  8
směr proudění podzemních vod
100
AcDbPolyline
 70
0
 90
3
 10
16.5958485060829
 20
49.2251567063143
 10
16.5962116122517
 20
49.2251463778817
 10
16.595854820954
 20
49.2251026619937
  0
LWPOLYLINE
  5
20223
100
AcDbEntity
  8
směr proudění podzemních vod
100
AcDbPolyline
 70
0
 90
2
 10
16.6002066220321
 20
49.2261240527955
 10
16.6003599896164
 20
49.2256676197753
  0
LWPOLYLINE
  5
20224
100
AcDbEntity
  8
směr proudění podzemních vod
100
AcDbPolyline
 70
0
 90
3
 10
16.6003209193746
 20
49.2259042870571
 10
16.6003599896164
 20
49.2256676197753
 10
16.6002402937816
 20
49.2258920626597
  0
LWPOLYLINE
  5
20225
100
AcDbEntity
  8
směr proudění podzemních vod
100
AcDbPolyline
 70
0
 90
2
 10
16.6038442869745
 20
49.2234537408608
 10
16.603144831076
 20
49.2233613684236
  0
LWPOLYLINE
  5
20226
100
AcDbEntity
  8
směr proudění podzemních vod
100
AcDbPolyline
 70
0
 90
3
 10
16.6035067939814
 20
49.2233827754615
 10
16.603144831076
 20
49.2233613684236
 10
16.6034895566469
 20
49.2234357888241
  0
LWPOLYLINE
  5
20227
100
AcDbEntity
  8
směr proudění podzemních vod
100
AcDbPolyline
 70
0
 90
2
 10
16.6266000966246
 20
49.243550224191
 10
16.6270398323262
 20
49.2431859086286
  0
LWPOLYLINE
  5
20228
100
AcDbEntity
  8
směr proudění podzemních vod
100
AcDbPolyline
 70
0
 90
3
 10
16.6268136392492
 20
49.2434192309972
 10
16.6270398323262
 20
49.2431859086286
 10
16.6267435976514
 20
49.243387178558
  0
LWPOLYLINE
  5
20229
100
AcDbEntity
  8
směr proudění podzemních vod
100
AcDbPolyline
 70
0
 90
3
 10
16.6303613024754
 20
49.2396291136418
 10
16.6306679794499
 20
49.2394392476492
 10
16.630305415116
 20
49.2395867909439
  0
LWPOLYLINE
  5
2022A
100
AcDbEntity
  8
směr proudění podzemních vod
100
AcDbPolyline
 70
0
 90
2
 10
16.6301052256345
 20
49.2397218076471
 10
16.6306679794499
 20
49.2394392476492
  0
LWPOLYLINE
  5
2022B
100
AcDbEntity
  8
směr proudění podzemních vod
100
AcDbPolyline
 70
0
 90
3
 10
16.6278125518091
 20
49.2387061488441
 10
16.6274878883766
 20
49.2385295745015
 10
16.6277550881142
 20
49.2387475564689
  0
LWPOLYLINE
  5
2022C
100
AcDbEntity
  8
směr proudění podzemních vod
100
AcDbPolyline
 70
0
 90
2
 10
16.6279838173641
 20
49.2388614891173
 10
16.6274878883766
 20
49.2385295745015
  0
LWPOLYLINE
  5
2022D
100
AcDbEntity
  8
směr proudění podzemních vod
100
AcDbPolyline
 70
0
 90
3
 10
16.6295381232045
 20
49.2369205372924
 10
16.6293950087455
 20
49.2366605577432
 10
16.6294565336988
 20
49.2369371511008
  0
LWPOLYLINE
  5
2022E
100
AcDbEntity
  8
směr proudění podzemních vod
100
AcDbPolyline
 70
0
 90
2
 10
16.6295654615023
 20
49.2371112871123
 10
16.6293950087455
 20
49.2366605577432
  0
LWPOLYLINE
  5
2022F
100
AcDbEntity
  8
směr proudění podzemních vod
100
AcDbPolyline
 70
0
 90
2
 10
16.6244090431455
 20
49.237484079339
 10
16.6237271227322
 20
49.2373566751927
  0
LWPOLYLINE
  5
20230
100
AcDbEntity
  8
směr proudění podzemních vod
100
AcDbPolyline
 70
0
 90
3
 10
16.6241427370397
 20
49.237404715262
 10
16.6237271227322
 20
49.2373566751927
 10
16.6241241588014
 20
49.2374593260849
  0
LWPOLYLINE
  5
20231
100
AcDbEntity
  8
směr proudění podzemních vod
100
AcDbPolyline
 70
0
 90
2
 10
16.6240618020672
 20
49.2340715470305
 10
16.624079052961
 20
49.2336073411317
  0
LWPOLYLINE
  5
20232
100
AcDbEntity
  8
směr proudění podzemních vod
100
AcDbPolyline
 70
0
 90
3
 10
16.6241123094476
 20
49.2338828351187
 10
16.624079052961
 20
49.2336073411317
 10
16.6240269218008
 20
49.2338847610314
  0
LWPOLYLINE
  5
20233
100
AcDbEntity
  8
směr proudění podzemních vod
100
AcDbPolyline
 70
0
 90
2
 10
16.6199745883808
 20
49.2347646598842
 10
16.619410466907
 20
49.2344833191502
  0
LWPOLYLINE
  5
20234
100
AcDbEntity
  8
směr proudění podzemních vod
100
AcDbPolyline
 70
0
 90
3
 10
16.6197707605579
 20
49.2346272151864
 10
16.619410466907
 20
49.2344833191502
 10
16.6197230749912
 20
49.2346736390837
  0
LWPOLYLINE
  5
20235
100
AcDbEntity
  8
směr proudění podzemních vod
100
AcDbPolyline
 70
0
 90
2
 10
16.6305380638264
 20
49.2320917073202
 10
16.6309551918507
 20
49.2317162135879
  0
LWPOLYLINE
  5
20236
100
AcDbEntity
  8
směr proudění podzemních vod
100
AcDbPolyline
 70
0
 90
3
 10
16.6307434207276
 20
49.2319552496748
 10
16.6309551918507
 20
49.2317162135879
 10
16.6306715014756
 20
49.2319250486072
  0
LWPOLYLINE
  5
20237
100
AcDbEntity
  8
směr proudění podzemních vod
100
AcDbPolyline
 70
0
 90
2
 10
16.6278430181277
 20
49.2308272771243
 10
16.6277829264493
 20
49.2303646035073
  0
LWPOLYLINE
  5
20238
100
AcDbEntity
  8
směr proudění podzemních vod
100
AcDbPolyline
 70
0
 90
3
 10
16.6278618222817
 20
49.2306360839942
 10
16.6277829264493
 20
49.2303646035073
 10
16.6277772678831
 20
49.230644091264
  0
LWPOLYLINE
  5
20239
100
AcDbEntity
  8
směr proudění podzemních vod
100
AcDbPolyline
 70
0
 90
2
 10
16.6276913686804
 20
49.2274500928228
 10
16.6272872816372
 20
49.2270685499717
  0
LWPOLYLINE
  5
2023A
100
AcDbEntity
  8
směr proudění podzemních vod
100
AcDbPolyline
 70
0
 90
3
 10
16.627562216047
 20
49.227278187254
 10
16.6272872816372
 20
49.2270685499717
 10
16.6274950027696
 20
49.2273127204599
  0
LWPOLYLINE
  5
2023B
100
AcDbEntity
  8
směr proudění podzemních vod
100
AcDbPolyline
 70
0
 90
2
 10
16.626485038145
 20
49.2249258910157
 10
16.62620302998
 20
49.2244998638551
  0
LWPOLYLINE
  5
2023C
100
AcDbEntity
  8
směr proudění podzemních vod
100
AcDbPolyline
 70
0
 90
3
 10
16.6264098587301
 20
49.2247407373861
 10
16.62620302998
 20
49.2244998638551
 10
16.6263336158314
 20
49.2247659687688
  0
LWPOLYLINE
  5
2023D
100
AcDbEntity
  8
směr proudění podzemních vod
100
AcDbPolyline
 70
0
 90
2
 10
16.6242415310653
 20
49.2215807973489
 10
16.623959559869
 20
49.221154764386
  0
LWPOLYLINE
  5
2023E
100
AcDbEntity
  8
směr proudění podzemních vod
100
AcDbPolyline
 70
0
 90
3
 10
16.6241663651101
 20
49.2213956421597
 10
16.623959559869
 20
49.221154764386
 10
16.6240901262188
 20
49.2214208720752
  0
LWPOLYLINE
  5
2023F
100
AcDbEntity
  8
směr proudění podzemních vod
100
AcDbPolyline
 70
0
 90
2
 10
16.6308730845257
 20
49.2291327673358
 10
16.6310857626188
 20
49.2286898058746
  0
LWPOLYLINE
  5
20240
100
AcDbEntity
  8
směr proudění podzemních vod
100
AcDbPolyline
 70
0
 90
3
 10
16.6310013368063
 20
49.2289605718618
 10
16.6310857626188
 20
49.2286898058746
 10
16.6309184764083
 20
49.2289469520718
  0
LWPOLYLINE
  5
20241
100
AcDbEntity
  8
směr proudění podzemních vod
100
AcDbPolyline
 70
0
 90
2
 10
16.6330828614618
 20
49.225264710318
 10
16.6337411417774
 20
49.2250923006033
  0
LWPOLYLINE
  5
20242
100
AcDbEntity
  8
směr proudění podzemních vod
100
AcDbPolyline
 70
0
 90
3
 10
16.6333675947841
 20
49.2252208022767
 10
16.6337411417774
 20
49.2250923006033
 10
16.6333312753755
 20
49.2251701627501
  0
LWPOLYLINE
  5
20243
100
AcDbEntity
  8
směr proudění podzemních vod
100
AcDbPolyline
 70
0
 90
2
 10
16.6215902582525
 20
49.2302238580816
 10
16.621395325318
 20
49.2297774074963
  0
LWPOLYLINE
  5
20244
100
AcDbEntity
  8
směr proudění podzemních vod
100
AcDbPolyline
 70
0
 90
3
 10
16.6215525243756
 20
49.2300338694151
 10
16.621395325318
 20
49.2297774074963
 10
16.6214719054007
 20
49.2300523843918
  0
LWPOLYLINE
  5
20245
100
AcDbEntity
  8
směr proudění podzemních vod
100
AcDbPolyline
 70
0
 90
2
 10
16.6201115460048
 20
49.2277852009633
 10
16.6200711487591
 20
49.2273216110276
  0
LWPOLYLINE
  5
20246
100
AcDbEntity
  8
směr proudění podzemních vod
100
AcDbPolyline
 70
0
 90
3
 10
16.6201384679233
 20
49.2275944253524
 10
16.6200711487591
 20
49.2273216110276
 10
16.6200536132547
 20
49.227600887748
  0
LWPOLYLINE
  5
20247
100
AcDbEntity
  8
směr proudění podzemních vod
100
AcDbPolyline
 70
0
 90
2
 10
16.6194126728188
 20
49.2255316487069
 10
16.6193104598131
 20
49.225072156101
  0
LWPOLYLINE
  5
20248
100
AcDbEntity
  8
směr proudění podzemních vod
100
AcDbPolyline
 70
0
 90
3
 10
16.6194139874456
 20
49.2253400617836
 10
16.6193104598131
 20
49.225072156101
 10
16.6193303256452
 20
49.2253513652945
  0
LWPOLYLINE
  5
20249
100
AcDbEntity
  8
směr proudění podzemních vod
100
AcDbPolyline
 70
0
 90
2
 10
16.618571872454
 20
49.2231787881567
 10
16.6183849254382
 20
49.2227308795187
  0
LWPOLYLINE
  5
2024A
100
AcDbEntity
  8
směr proudění podzemních vod
100
AcDbPolyline
 70
0
 90
3
 10
16.6185375285453
 20
49.2229885249046
 10
16.6183849254382
 20
49.2227308795187
 10
16.6184565974009
 20
49.2230064225548
  0
LWPOLYLINE
  5
2024B
100
AcDbEntity
  8
směr proudění podzemních vod
100
AcDbPolyline
 70
0
 90
2
 10
16.616680567837
 20
49.231835316506
 10
16.6165783671904
 20
49.2313758219569
  0
LWPOLYLINE
  5
2024C
100
AcDbEntity
  8
směr proudění podzemních vod
100
AcDbPolyline
 70
0
 90
3
 10
16.616681893209
 20
49.231643729813
 10
16.6165783671904
 20
49.2313758219569
 10
16.6165982201354
 20
49.2316550313308
  0
LWPOLYLINE
  5
2024D
100
AcDbEntity
  8
směr proudění podzemních vod
100
AcDbPolyline
 70
0
 90
2
 10
16.6279770285908
 20
49.2344402655958
 10
16.6282937442812
 20
49.2340248134814
  0
LWPOLYLINE
  5
2024E
100
AcDbEntity
  8
směr proudění podzemních vod
100
AcDbPolyline
 70
0
 90
3
 10
16.6281451590544
 20
49.2342834710744
 10
16.6282937442812
 20
49.2340248134814
 10
16.6280666065737
 20
49.2342614639472
  0
LWPOLYLINE
  5
2024F
100
AcDbEntity
  8
směr proudění podzemních vod
100
AcDbPolyline
 70
0
 90
2
 10
16.6319725878116
 20
49.2379984000512
 10
16.6326812219108
 20
49.237980781612
  0
LWPOLYLINE
  5
20250
100
AcDbEntity
  8
směr proudění podzemních vod
100
AcDbPolyline
 70
0
 90
3
 10
16.6322633736793
 20
49.2380196653278
 10
16.6326812219108
 20
49.237980781612
 10
16.632255122896
 20
49.2379639778133
  0
LWPOLYLINE
  5
20251
100
AcDbEntity
  8
směr proudění podzemních vod
100
AcDbPolyline
 70
0
 90
2
 10
16.6150608389539
 20
49.2290398942565
 10
16.6147925134843
 20
49.228610087145
  0
LWPOLYLINE
  5
20252
100
AcDbEntity
  8
směr proudění podzemních vod
100
AcDbPolyline
 70
0
 90
3
 10
16.6149915994684
 20
49.2288537490157
 10
16.6147925134843
 20
49.228610087145
 10
16.614914559859
 20
49.2288779269235
  0
LWPOLYLINE
  5
20253
100
AcDbEntity
  8
směr proudění podzemních vod
100
AcDbPolyline
 70
0
 90
2
 10
16.6123691891813
 20
49.2261325387419
 10
16.6125836744277
 20
49.225689953495
  0
LWPOLYLINE
  5
20254
100
AcDbEntity
  8
směr proudění podzemních vod
100
AcDbPolyline
 70
0
 90
3
 10
16.6124981407826
 20
49.2259605693342
 10
16.6125836744277
 20
49.225689953495
 10
16.6124153426556
 20
49.2259468042787
  0
LWPOLYLINE
  5
20255
100
AcDbEntity
  8
směr proudění podzemních vod
100
AcDbPolyline
 70
0
 90
2
 10
16.6769125533785
 20
49.2000265114526
 10
16.6763306769982
 20
49.1997618553951
  0
LWPOLYLINE
  5
20256
100
AcDbEntity
  8
směr proudění podzemních vod
100
AcDbPolyline
 70
0
 90
3
 10
16.6765776709806
 20
49.1999028130353
 10
16.6763306769982
 20
49.1997618553951
 10
16.6766201817975
 20
49.1998657774074
  0
LWPOLYLINE
  5
20257
100
AcDbEntity
  8
směr proudění podzemních vod
100
AcDbPolyline
 70
0
 90
2
 10
16.6719257003236
 20
49.1978100377543
 10
16.6713438767439
 20
49.1975453555791
  0
LWPOLYLINE
  5
20258
100
AcDbEntity
  8
směr proudění podzemních vod
100
AcDbPolyline
 70
0
 90
3
 10
16.6715908468615
 20
49.1976863240316
 10
16.6713438767439
 20
49.1975453555791
 10
16.6716333581376
 20
49.1976492901319
  0
LWPOLYLINE
  5
20259
100
AcDbEntity
  8
směr proudění podzemních vod
100
AcDbPolyline
 70
0
 90
2
 10
16.6732340527478
 20
49.1953005391088
 10
16.6726522514823
 20
49.1950358643224
  0
LWPOLYLINE
  5
2025A
100
AcDbEntity
  8
směr proudění podzemních vod
100
AcDbPolyline
 70
0
 90
3
 10
16.672899212822
 20
49.1951768300295
 10
16.6726522514823
 20
49.1950358643224
 10
16.6729417223321
 20
49.1951397957285
  0
LWPOLYLINE
  5
2025B
100
AcDbEntity
  8
směr proudění podzemních vod
100
AcDbPolyline
 70
0
 90
2
 10
16.6794349048463
 20
49.1968964098119
 10
16.6788530517303
 20
49.1966317663427
  0
LWPOLYLINE
  5
2025C
100
AcDbEntity
  8
směr proudění podzemních vod
100
AcDbPolyline
 70
0
 90
3
 10
16.6791000372945
 20
49.196772718654
 10
16.6788530517303
 20
49.1966317663427
 10
16.6791425435417
 20
49.1967356820778
  0
LWPOLYLINE
  5
2025D
100
AcDbEntity
  8
směr proudění podzemních vod
100
AcDbPolyline
 70
0
 90
2
 10
16.6745138017755
 20
49.192724095082
 10
16.6738204861555
 20
49.1926294450271
  0
LWPOLYLINE
  5
2025E
100
AcDbEntity
  8
směr proudění podzemních vod
100
AcDbPolyline
 70
0
 90
3
 10
16.6741318430481
 20
49.1926959639357
 10
16.6738204861555
 20
49.1926294450271
 10
16.6741488916435
 20
49.1926509881821
  0
LWPOLYLINE
  5
2025F
100
AcDbEntity
  8
směr proudění podzemních vod
100
AcDbPolyline
 70
0
 90
2
 10
16.6826459494912
 20
49.192009610772
 10
16.6821799050462
 20
49.1923590942141
  0
LWPOLYLINE
  5
20260
100
AcDbEntity
  8
směr proudění podzemních vod
100
AcDbPolyline
 70
0
 90
3
 10
16.6824211230558
 20
49.1922139300201
 10
16.6821799050462
 20
49.1923590942141
 10
16.6823696967458
 20
49.1921821238222
  0
LWPOLYLINE
  5
20261
100
AcDbEntity
  8
směr proudění podzemních vod
100
AcDbPolyline
 70
0
 90
2
 10
16.6798266449601
 20
49.1946102557311
 10
16.6791410646382
 20
49.194726691356
  0
LWPOLYLINE
  5
20262
100
AcDbEntity
  8
směr proudění podzemních vod
100
AcDbPolyline
 70
0
 90
3
 10
16.6794651801203
 20
49.1946959307626
 10
16.6791410646382
 20
49.194726691356
 10
16.6794500640323
 20
49.1946506581598
  0
LWPOLYLINE
  5
20263
100
AcDbEntity
  8
směr proudění podzemních vod
100
AcDbPolyline
 70
0
 90
2
 10
16.6703328832366
 20
49.191467111375
 10
16.6697469308581
 20
49.1912064433537
  0
LWPOLYLINE
  5
20264
100
AcDbEntity
  8
směr proudění podzemních vod
100
AcDbPolyline
 70
0
 90
3
 10
16.6699961109563
 20
49.1913457065772
 10
16.6697469308581
 20
49.1912064433537
 10
16.6700380225106
 20
49.1913083826395
  0
LWPOLYLINE
  5
20265
100
AcDbEntity
  8
směr proudění podzemních vod
100
AcDbPolyline
 70
0
 90
2
 10
16.6859368343437
 20
49.1956217582743
 10
16.6852953693248
 20
49.1954250162223
  0
LWPOLYLINE
  5
20266
100
AcDbEntity
  8
směr proudění podzemních vod
100
AcDbPolyline
 70
0
 90
3
 10
16.6855750032368
 20
49.1955367375915
 10
16.6852953693248
 20
49.1954250162223
 10
16.6856073977502
 20
49.1954955436877
  0
LWPOLYLINE
  5
20267
100
AcDbEntity
  8
směr proudění podzemních vod
100
AcDbPolyline
 70
0
 90
2
 10
16.6893493034034
 20
49.2006716336126
 10
16.688768121454
 20
49.2004063154846
  0
LWPOLYLINE
  5
20268
100
AcDbEntity
  8
směr proudění podzemních vod
100
AcDbPolyline
 70
0
 90
3
 10
16.6890147449256
 20
49.2005475542409
 10
16.688768121454
 20
49.2004063154846
 10
16.6890573543197
 20
49.2005105667818
  0
LWPOLYLINE
  5
20269
100
AcDbEntity
  8
směr proudění podzemních vod
100
AcDbPolyline
 70
0
 90
3
 10
16.6867128469756
 20
49.1932901409553
 10
16.6863870323869
 20
49.1932684850319
 10
16.6867149303116
 20
49.1932438183049
  0
LWPOLYLINE
  5
2026A
100
AcDbEntity
  8
směr proudění podzemních vod
100
AcDbPolyline
 70
0
 90
2
 10
16.687095211601
 20
49.1932644555557
 10
16.6863870323869
 20
49.1932684850319
  0
LWPOLYLINE
  5
2026B
100
AcDbEntity
  8
směr proudění podzemních vod
100
AcDbPolyline
 70
0
 90
2
 10
16.6954416882102
 20
49.1938552422574
 10
16.6947402819333
 20
49.1937910368145
  0
LWPOLYLINE
  5
2026C
100
AcDbEntity
  8
směr proudění podzemních vod
100
AcDbPolyline
 70
0
 90
3
 10
16.6950577107238
 20
49.1938438302527
 10
16.6947402819333
 20
49.1937910368145
 10
16.6950701562493
 20
49.1937982108188
  0
LWPOLYLINE
  5
2026D
100
AcDbEntity
  8
směr proudění podzemních vod
100
AcDbPolyline
 70
0
 90
2
 10
16.6925220819286
 20
49.1978340933559
 10
16.6919319430438
 20
49.1975774391462
  0
LWPOLYLINE
  5
2026E
100
AcDbEntity
  8
směr proudění podzemních vod
100
AcDbPolyline
 70
0
 90
3
 10
16.6921833558321
 20
49.1977149936785
 10
16.6919319430438
 20
49.1975774391462
 10
16.6922246773017
 20
49.1976773859992
  0
LWPOLYLINE
  5
2026F
100
AcDbEntity
  8
směr proudění podzemních vod
100
AcDbPolyline
 70
0
 90
2
 10
16.6843260664163
 20
49.1986739224815
 10
16.6836845683009
 20
49.1984771715668
  0
LWPOLYLINE
  5
20270
100
AcDbEntity
  8
směr proudění podzemních vod
100
AcDbPolyline
 70
0
 90
3
 10
16.6839642157965
 20
49.1985888967867
 10
16.6836845683009
 20
49.1984771715668
 10
16.6839966136441
 20
49.1985477033558
  0
LWPOLYLINE
  5
20271
100
AcDbEntity
  8
směr proudění podzemních vod
100
AcDbPolyline
 70
0
 90
2
 10
16.6827060510232
 20
49.1901383586533
 10
16.6829214980222
 20
49.1905805090658
  0
LWPOLYLINE
  5
20272
100
AcDbEntity
  8
směr proudění podzemních vod
100
AcDbPolyline
 70
0
 90
3
 10
16.6828566370281
 20
49.1903701296977
 10
16.6829214980222
 20
49.1905805090658
 10
16.6827885114278
 20
49.1903825349935
  0
LWPOLYLINE
  5
20273
100
AcDbEntity
  8
směr proudění podzemních vod
100
AcDbPolyline
 70
0
 90
2
 10
16.6874310753389
 20
49.1897037191649
 10
16.6870792948644
 20
49.190106551855
  0
LWPOLYLINE
  5
20274
100
AcDbEntity
  8
směr proudění podzemních vod
100
AcDbPolyline
 70
0
 90
3
 10
16.6872721134893
 20
49.1899330741435
 10
16.6870792948644
 20
49.190106551855
 10
16.6872121341201
 20
49.1899085355309
  0
LWPOLYLINE
  5
20275
100
AcDbEntity
  8
směr proudění podzemních vod
100
AcDbPolyline
 70
0
 90
2
 10
16.6949176497107
 20
49.1867005111275
 10
16.6946077120123
 20
49.1862831811446
  0
LWPOLYLINE
  5
20276
100
AcDbEntity
  8
směr proudění podzemních vod
100
AcDbPolyline
 70
0
 90
3
 10
16.6947179229228
 20
49.1864852898215
 10
16.6946077120123
 20
49.1862831811446
 10
16.6947826257315
 20
49.1864666094459
  0
LWPOLYLINE
  5
20277
100
AcDbEntity
  8
směr proudění podzemních vod
100
AcDbPolyline
 70
0
 90
2
 10
16.6989977628636
 20
49.1918720212661
 10
16.6988263228349
 20
49.1914216754861
  0
LWPOLYLINE
  5
20278
100
AcDbEntity
  8
směr proudění podzemních vod
100
AcDbPolyline
 70
0
 90
3
 10
16.6988703223076
 20
49.191634360583
 10
16.6988263228349
 20
49.1914216754861
 10
16.6989395300782
 20
49.1916248651549
  0
LWPOLYLINE
  5
20279
100
AcDbEntity
  8
směr proudění podzemních vod
100
AcDbPolyline
 70
0
 90
2
 10
16.7023255593148
 20
49.1954480518267
 10
16.7017034177571
 20
49.1952262539524
  0
LWPOLYLINE
  5
2027A
100
AcDbEntity
  8
směr proudění podzemních vod
100
AcDbPolyline
 70
0
 90
3
 10
16.7019722330972
 20
49.1953488509328
 10
16.7017034177571
 20
49.1952262539524
 10
16.702008368582
 20
49.1953090160004
  0
LWPOLYLINE
  5
2027B
100
AcDbEntity
  8
směr proudění podzemních vod
100
AcDbPolyline
 70
0
 90
2
 10
16.6962247704186
 20
49.2001846129854
 10
16.6957037918551
 20
49.1998701549319
  0
LWPOLYLINE
  5
2027C
100
AcDbEntity
  8
směr proudění podzemních vod
100
AcDbPolyline
 70
0
 90
3
 10
16.6959189463531
 20
49.200031981881
 10
16.6957037918551
 20
49.1998701549319
 10
16.6959688068969
 20
49.1999991179446
  0
LWPOLYLINE
  5
2027D
100
AcDbEntity
  8
směr proudění podzemních vod
100
AcDbPolyline
 70
0
 90
2
 10
16.6939565841606
 20
49.202376029248
 10
16.6933753574124
 20
49.2021107352781
  0
LWPOLYLINE
  5
2027E
100
AcDbEntity
  8
směr proudění podzemních vod
100
AcDbPolyline
 70
0
 90
3
 10
16.6936220040058
 20
49.2022519633564
 10
16.6933753574124
 20
49.2021107352781
 10
16.6936646099175
 20
49.202214975005
  0
LWPOLYLINE
  5
2027F
100
AcDbEntity
  8
směr proudění podzemních vod
100
AcDbPolyline
 70
0
 90
3
 10
16.6815388407492
 20
49.2020459260579
 10
16.6812918219755
 20
49.2019049790787
 10
16.6815813496984
 20
49.2020088886153
  0
LWPOLYLINE
  5
20280
100
AcDbEntity
  8
směr proudění podzemních vod
100
AcDbPolyline
 70
0
 90
2
 10
16.6863517873015
 20
49.2040211481208
 10
16.6857698136096
 20
49.2037565398044
  0
LWPOLYLINE
  5
20281
100
AcDbEntity
  8
směr proudění podzemních vod
100
AcDbPolyline
 70
0
 90
3
 10
16.6860168543479
 20
49.2038974771619
 10
16.6857698136096
 20
49.2037565398044
 10
16.6860593615399
 20
49.203860438081
  0
LWPOLYLINE
  5
20282
100
AcDbEntity
  8
směr proudění podzemních vod
100
AcDbPolyline
 70
0
 90
2
 10
16.6907427890143
 20
49.2066785275278
 10
16.69016076067
 20
49.2064139414552
  0
LWPOLYLINE
  5
20283
100
AcDbEntity
  8
směr proudění podzemních vod
100
AcDbPolyline
 70
0
 90
3
 10
16.6904078286531
 20
49.2065548685601
 10
16.69016076067
 20
49.2064139414552
 10
16.6904503334791
 20
49.2065178277824
  0
LWPOLYLINE
  5
20284
100
AcDbEntity
  8
směr proudění podzemních vod
100
AcDbPolyline
 70
0
 90
2
 10
16.6692683206473
 20
49.2034594708425
 10
16.668686444809
 20
49.2031947763942
  0
LWPOLYLINE
  5
20285
100
AcDbEntity
  8
směr proudění podzemních vod
100
AcDbPolyline
 70
0
 90
3
 10
16.668933435511
 20
49.2033357504098
 10
16.668686444809
 20
49.2031947763942
 10
16.6689759536202
 20
49.2032987175236
  0
LWPOLYLINE
  5
20286
100
AcDbEntity
  8
směr proudění podzemních vod
100
AcDbPolyline
 70
0
 90
2
 10
16.676239352622
 20
49.2063060739998
 10
16.6756574074852
 20
49.2060414148992
  0
LWPOLYLINE
  5
20287
100
AcDbEntity
  8
směr proudění podzemních vod
100
AcDbPolyline
 70
0
 90
3
 10
16.6759044308422
 20
49.2061823738429
 10
16.6756574074852
 20
49.2060414148992
 10
16.6759469475507
 20
49.2061453385014
  0
LWPOLYLINE
  5
20288
100
AcDbEntity
  8
směr proudění podzemních vod
100
AcDbPolyline
 70
0
 90
2
 10
16.6778517388596
 20
49.2116040598921
 10
16.6772697215328
 20
49.2113394090411
  0
LWPOLYLINE
  5
20289
100
AcDbEntity
  8
směr proudění podzemních vod
100
AcDbPolyline
 70
0
 90
3
 10
16.6775167758836
 20
49.211480364418
 10
16.6772697215328
 20
49.2113394090411
 10
16.6775592959344
 20
49.211443328515
  0
LWPOLYLINE
  5
2028A
100
AcDbEntity
  8
směr proudění podzemních vod
100
AcDbPolyline
 70
0
 90
2
 10
16.6815870562455
 20
49.2088642352176
 10
16.6810050511384
 20
49.208599603082
  0
LWPOLYLINE
  5
2028B
100
AcDbEntity
  8
směr proudění podzemních vod
100
AcDbPolyline
 70
0
 90
3
 10
16.6812521038245
 20
49.2087405506234
 10
16.6810050511384
 20
49.208599603082
 10
16.6812946173678
 20
49.2087035132316
  0
LWPOLYLINE
  5
2028C
100
AcDbEntity
  8
směr proudění podzemních vod
100
AcDbPolyline
 70
0
 90
2
 10
16.6840298643421
 20
49.2147062034755
 10
16.683447777575
 20
49.2144415838968
  0
LWPOLYLINE
  5
2028D
100
AcDbEntity
  8
směr proudění podzemních vod
100
AcDbPolyline
 70
0
 90
3
 10
16.6836948663341
 20
49.2145825260809
 10
16.683447777575
 20
49.2144415838968
 10
16.6837373830656
 20
49.2145454878253
  0
LWPOLYLINE
  5
2028E
100
AcDbEntity
  8
směr proudění podzemních vod
100
AcDbPolyline
 70
0
 90
2
 10
16.6873265214371
 20
49.2115003458417
 10
16.6867444547141
 20
49.2112357427474
  0
LWPOLYLINE
  5
2028F
100
AcDbEntity
  8
směr proudění podzemních vod
100
AcDbPolyline
 70
0
 90
3
 10
16.6869915368691
 20
49.2113766779493
 10
16.6867444547141
 20
49.2112357427474
 10
16.6870340483854
 20
49.2113396384596
  0
LWPOLYLINE
  5
20290
100
AcDbEntity
  8
směr proudění podzemních vod
100
AcDbPolyline
 70
0
 90
2
 10
16.6450827999177
 20
49.2119916593454
 10
16.6445694140848
 20
49.2116674204365
  0
LWPOLYLINE
  5
20291
100
AcDbEntity
  8
směr proudění podzemních vod
100
AcDbPolyline
 70
0
 90
3
 10
16.6448885712142
 20
49.2118354608245
 10
16.6445694140848
 20
49.2116674204365
 10
16.6448319868383
 20
49.2118694480021
  0
LWPOLYLINE
  5
20292
100
AcDbEntity
  8
směr proudění podzemních vod
100
AcDbPolyline
 70
0
 90
2
 10
16.6505815286755
 20
49.2141774880319
 10
16.6499279010301
 20
49.2139906709561
  0
LWPOLYLINE
  5
20293
100
AcDbEntity
  8
směr proudění podzemních vod
100
AcDbPolyline
 70
0
 90
3
 10
16.6503164185588
 20
49.2140753782514
 10
16.6499279010301
 20
49.2139906709561
 10
16.6502814416602
 20
49.2141201482751
  0
LWPOLYLINE
  5
20294
100
AcDbEntity
  8
směr proudění podzemních vod
100
AcDbPolyline
 70
0
 90
2
 10
16.658554664892
 20
49.2128793688785
 10
16.6578793897028
 20
49.212729221982
  0
LWPOLYLINE
  5
20295
100
AcDbEntity
  8
směr proudění podzemních vod
100
AcDbPolyline
 70
0
 90
3
 10
16.6582773939949
 20
49.2127922260822
 10
16.6578793897028
 20
49.212729221982
 10
16.6582482888027
 20
49.2128387633922
  0
LWPOLYLINE
  5
20296
100
AcDbEntity
  8
směr proudění podzemních vod
100
AcDbPolyline
 70
0
 90
2
 10
16.648737907478
 20
49.2225413508203
 10
16.648121667039
 20
49.222776580598
  0
LWPOLYLINE
  5
20297
100
AcDbEntity
  8
směr proudění podzemních vod
100
AcDbPolyline
 70
0
 90
3
 10
16.6484555132111
 20
49.2226212058169
 10
16.648121667039
 20
49.222776580598
 10
16.6484900117355
 20
49.2226661363679
  0
LWPOLYLINE
  5
20298
100
AcDbEntity
  8
směr proudění podzemních vod
100
AcDbPolyline
 70
0
 90
2
 10
16.663252316808
 20
49.2213554786912
 10
16.6625390951676
 20
49.2213580794842
  0
LWPOLYLINE
  5
20299
100
AcDbEntity
  8
směr proudění podzemních vod
100
AcDbPolyline
 70
0
 90
3
 10
16.6629467519461
 20
49.2213324527605
 10
16.6625390951676
 20
49.2213580794842
 10
16.6629424469226
 20
49.2213826665369
  0
LWPOLYLINE
  5
2029A
100
AcDbEntity
  8
směr proudění podzemních vod
100
AcDbPolyline
 70
0
 90
2
 10
16.6664004048451
 20
49.2147221894563
 10
16.6657502592454
 20
49.2145302162586
  0
LWPOLYLINE
  5
2029B
100
AcDbEntity
  8
směr proudění podzemních vod
100
AcDbPolyline
 70
0
 90
3
 10
16.6661371924479
 20
49.2146179899958
 10
16.6657502592454
 20
49.2145302162586
 10
16.6661013925845
 20
49.2146624798568
  0
LWPOLYLINE
  5
2029C
100
AcDbEntity
  8
směr proudění podzemních vod
100
AcDbPolyline
 70
0
 90
2
 10
16.6422910478518
 20
49.2247863547376
 10
16.6416324758511
 20
49.2249657916072
  0
LWPOLYLINE
  5
2029D
100
AcDbEntity
  8
směr proudění podzemních vod
100
AcDbPolyline
 70
0
 90
3
 10
16.641994930395
 20
49.224840890936
 10
16.6416324758511
 20
49.2249657916072
 10
16.6420199970791
 20
49.2248884282051
  0
LWPOLYLINE
  5
2029E
100
AcDbEntity
  8
směr proudění podzemních vod
100
AcDbPolyline
 70
0
 90
2
 10
16.6539926984828
 20
49.2264244813689
 10
16.6539018919511
 20
49.2268878582801
  0
LWPOLYLINE
  5
2029F
100
AcDbEntity
  8
směr proudění podzemních vod
100
AcDbPolyline
 70
0
 90
3
 10
16.6539172630853
 20
49.2266197989614
 10
16.6539018919511
 20
49.2268878582801
 10
16.6539926797893
 20
49.2266292638694
  0
LWPOLYLINE
  5
202A0
100
AcDbEntity
  8
směr proudění podzemních vod
100
AcDbPolyline
 70
0
 90
2
 10
16.6567362600645
 20
49.223249521823
 10
16.6563347579959
 20
49.2236356534421
  0
LWPOLYLINE
  5
202A1
100
AcDbEntity
  8
směr proudění podzemních vod
100
AcDbPolyline
 70
0
 90
3
 10
16.6565339005279
 20
49.2234012528073
 10
16.6563347579959
 20
49.2236356534421
 10
16.6565945787357
 20
49.2234320707995
  0
LWPOLYLINE
  5
202A2
100
AcDbEntity
  8
směr proudění podzemních vod
100
AcDbPolyline
 70
0
 90
3
 10
16.6568714988917
 20
49.2158509465662
 10
16.6564920498441
 20
49.2157501062409
 10
16.6568322131339
 20
49.2158941559299
  0
LWPOLYLINE
  5
202A3
100
AcDbEntity
  8
směr proudění podzemních vod
100
AcDbPolyline
 70
0
 90
2
 10
16.6571260869553
 20
49.2159639733483
 10
16.6564920498441
 20
49.2157501062409
  0
LWPOLYLINE
  5
202A4
100
AcDbEntity
  8
směr proudění podzemních vod
100
AcDbPolyline
 70
0
 90
3
 10
16.6639767454936
 20
49.2186489230577
 10
16.6636542025381
 20
49.2184836444947
 10
16.6639208410079
 20
49.2186833947905
  0
LWPOLYLINE
  5
202A5
100
AcDbEntity
  8
směr proudění podzemních vod
100
AcDbPolyline
 70
0
 90
2
 10
16.6641741182002
 20
49.21880343667
 10
16.6636542025381
 20
49.2184836444947
  0
LWPOLYLINE
  5
202A6
100
AcDbEntity
  8
směr proudění podzemních vod
100
AcDbPolyline
 70
0
 90
2
 10
16.6560831002194
 20
49.2203740674961
 10
16.6554283832173
 20
49.2201887687957
  0
LWPOLYLINE
  5
202A7
100
AcDbEntity
  8
směr proudění podzemních vod
100
AcDbPolyline
 70
0
 90
3
 10
16.6558174060124
 20
49.2202725746067
 10
16.6554283832173
 20
49.2201887687957
 10
16.6557826667933
 20
49.2203174244444
  0
LWPOLYLINE
  5
202A8
100
AcDbEntity
  8
směr proudění podzemních vod
100
AcDbPolyline
 70
0
 90
2
 10
16.6485184078519
 20
49.218588633584
 10
16.6478637442682
 20
49.2184032911422
  0
LWPOLYLINE
  5
202A9
100
AcDbEntity
  8
směr proudění podzemních vod
100
AcDbPolyline
 70
0
 90
3
 10
16.6482527388713
 20
49.2184871223664
 10
16.6478637442682
 20
49.2184032911422
 10
16.6482179939103
 20
49.2185319708341
  0
LWPOLYLINE
  5
202AA
100
AcDbEntity
  8
směr proudění podzemních vod
100
AcDbPolyline
 70
0
 90
2
 10
16.6431293133416
 20
49.2173989069428
 10
16.642474685653
 20
49.2172135339118
  0
LWPOLYLINE
  5
202AB
100
AcDbEntity
  8
směr proudění podzemních vod
100
AcDbPolyline
 70
0
 90
3
 10
16.6428636617881
 20
49.2172973833072
 10
16.642474685653
 20
49.2172135339118
 10
16.6428289127837
 20
49.2173422301611
  0
LWPOLYLINE
  5
202AC
100
AcDbEntity
  8
směr proudění podzemních vod
100
AcDbPolyline
 70
0
 90
2
 10
16.6751322170945
 20
49.2174724602582
 10
16.6744820015622
 20
49.2172805363114
  0
LWPOLYLINE
  5
202AD
100
AcDbEntity
  8
směr proudění podzemních vod
100
AcDbPolyline
 70
0
 90
3
 10
16.6748689717187
 20
49.2173682807485
 10
16.6744820015622
 20
49.2172805363114
 10
16.6748331777077
 20
49.2174127732976
  0
LWPOLYLINE
  5
202AE
100
AcDbEntity
  8
směr proudění podzemních vod
100
AcDbPolyline
 70
0
 90
3
 10
16.6430938713487
 20
49.2211108138433
 10
16.6426856551572
 20
49.221132262497
 10
16.643088368265
 20
49.2211609772829
  0
LWPOLYLINE
  5
202AF
100
AcDbEntity
  8
směr proudění podzemních vod
100
AcDbPolyline
 70
0
 90
2
 10
16.643398847362
 20
49.2211369655615
 10
16.6426856551572
 20
49.221132262497
  0
LWPOLYLINE
  5
202B0
100
AcDbEntity
  8
směr proudění podzemních vod
100
AcDbPolyline
 70
0
 90
2
 10
16.6471643037433
 20
49.2260822242668
 10
16.6470734353245
 20
49.2265455959212
  0
LWPOLYLINE
  5
202B1
100
AcDbEntity
  8
směr proudění podzemních vod
100
AcDbPolyline
 70
0
 90
3
 10
16.6470888419421
 20
49.2262775374055
 10
16.6470734353245
 20
49.2265455959212
 10
16.6471642568186
 20
49.2262870067737
  0
LWPOLYLINE
  5
202B2
100
AcDbEntity
  8
směr proudění podzemních vod
100
AcDbPolyline
 70
0
 90
3
 10
16.5755523436102
 20
49.2334517799208
 10
16.5759140392064
 20
49.2334755421481
 10
16.5755703889223
 20
49.2333988810621
  0
LWPOLYLINE
  5
202B3
100
AcDbEntity
  8
směr proudění podzemních vod
100
AcDbPolyline
 70
0
 90
2
 10
16.5752158779629
 20
49.2333786179372
 10
16.5759140392064
 20
49.2334755421481
  0
LWPOLYLINE
  5
202B4
100
AcDbEntity
  8
směr proudění podzemních vod
100
AcDbPolyline
 70
0
 90
2
 10
16.5779747531353
 20
49.2338802500937
 10
16.5786551861043
 20
49.2340212438273
  0
LWPOLYLINE
  5
202B5
100
AcDbEntity
  8
směr proudění podzemních vod
100
AcDbPolyline
 70
0
 90
3
 10
16.5782987410965
 20
49.2339745249709
 10
16.5786551861043
 20
49.2340212438273
 10
16.5783245680685
 20
49.2339230291071
  0
LWPOLYLINE
  5
202B6
100
AcDbEntity
  8
směr proudění podzemních vod
100
AcDbPolyline
 70
0
 90
2
 10
16.5826674808127
 20
49.2350350258859
 10
16.5833526576519
 20
49.2351658315542
  0
LWPOLYLINE
  5
202B7
100
AcDbEntity
  8
směr proudění podzemních vod
100
AcDbPolyline
 70
0
 90
3
 10
16.5829946718791
 20
49.2351244422151
 10
16.5833526576519
 20
49.2351658315542
 10
16.5830187008688
 20
49.2350725746092
  0
LWPOLYLINE
  5
202B8
100
AcDbEntity
  8
směr proudění podzemních vod
100
AcDbPolyline
 70
0
 90
2
 10
16.5857871677929
 20
49.2357068329837
 10
16.5864606016066
 20
49.2355520586889
  0
LWPOLYLINE
  5
202B9
100
AcDbEntity
  8
směr proudění podzemních vod
100
AcDbPolyline
 70
0
 90
3
 10
16.5861327074192
 20
49.2356548415432
 10
16.5864606016066
 20
49.2355520586889
 10
16.5861061471363
 20
49.2356035059146
  0
LWPOLYLINE
  5
202BA
100
AcDbEntity
  8
směr proudění podzemních vod
100
AcDbPolyline
 70
0
 90
2
 10
16.5684923749683
 20
49.2367221336494
 10
16.5691941633984
 20
49.2368072485901
  0
LWPOLYLINE
  5
202BB
100
AcDbEntity
  8
směr proudění podzemních vod
100
AcDbPolyline
 70
0
 90
3
 10
16.5688316299762
 20
49.2367895951955
 10
16.5691941633984
 20
49.2368072485901
 10
16.5688475888536
 20
49.2367364099978
  0
LWPOLYLINE
  5
202BC
100
AcDbEntity
  8
směr proudění podzemních vod
100
AcDbPolyline
 70
0
 90
2
 10
16.5721372617943
 20
49.2374955369928
 10
16.5728178444134
 20
49.2376363200717
  0
LWPOLYLINE
  5
202BD
100
AcDbEntity
  8
směr proudění podzemních vod
100
AcDbPolyline
 70
0
 90
3
 10
16.5724613411612
 20
49.2375897107884
 10
16.5728178444134
 20
49.2376363200717
 10
16.5724871332921
 20
49.2375382077915
  0
LWPOLYLINE
  5
202BE
100
AcDbEntity
  8
směr proudění podzemních vod
100
AcDbPolyline
 70
0
 90
2
 10
16.5744972946911
 20
49.2379341384221
 10
16.5751823518592
 20
49.2380653010892
  0
LWPOLYLINE
  5
202BF
100
AcDbEntity
  8
směr proudění podzemních vod
100
AcDbPolyline
 70
0
 90
3
 10
16.5748243951736
 20
49.2380237257863
 10
16.5751823518592
 20
49.2380653010892
 10
16.5748484890711
 20
49.2379718701441
  0
LWPOLYLINE
  5
202C0
100
AcDbEntity
  8
směr proudění podzemních vod
100
AcDbPolyline
 70
0
 90
2
 10
16.5784251248619
 20
49.2383901050856
 10
16.5789966079069
 20
49.238110116814
  0
LWPOLYLINE
  5
202C1
100
AcDbEntity
  8
směr proudění podzemních vod
100
AcDbPolyline
 70
0
 90
3
 10
16.5787309237693
 20
49.2382726019229
 10
16.5789966079069
 20
49.238110116814
 10
16.578682055558
 20
49.2382288529148
  0
LWPOLYLINE
  5
202C2
100
AcDbEntity
  8
směr proudění podzemních vod
100
AcDbPolyline
 70
0
 90
2
 10
16.5827755799581
 20
49.2371822738775
 10
16.5834400161591
 20
49.2370116023815
  0
LWPOLYLINE
  5
202C3
100
AcDbEntity
  8
směr proudění podzemních vod
100
AcDbPolyline
 70
0
 90
3
 10
16.5831180225938
 20
49.2371221071504
 10
16.5834400161591
 20
49.2370116023815
 10
16.583088634521
 20
49.2370714363967
  0
LWPOLYLINE
  5
202C4
100
AcDbEntity
  8
směr proudění podzemních vod
100
AcDbPolyline
 70
0
 90
2
 10
16.5813631136718
 20
49.2394074772522
 10
16.5813533707746
 20
49.2389401664944
  0
LWPOLYLINE
  5
202C5
100
AcDbEntity
  8
směr proudění podzemních vod
100
AcDbPolyline
 70
0
 90
3
 10
16.5813978180093
 20
49.2391764270018
 10
16.5813533707746
 20
49.2389401664944
 10
16.5813150390088
 20
49.2391765771121
  0
LWPOLYLINE
  5
202C6
100
AcDbEntity
  8
směr proudění podzemních vod
100
AcDbPolyline
 70
0
 90
2
 10
16.5785441795462
 20
49.2402533429956
 10
16.5785344630952
 20
49.2397860320686
  0
LWPOLYLINE
  5
202C7
100
AcDbEntity
  8
směr proudění podzemních vod
100
AcDbPolyline
 70
0
 90
3
 10
16.5785788976344
 20
49.2400222936264
 10
16.5785344630952
 20
49.2397860320686
 10
16.5784961172117
 20
49.2400224417156
  0
LWPOLYLINE
  5
202C8
100
AcDbEntity
  8
směr proudění podzemních vod
100
AcDbPolyline
 70
0
 90
2
 10
16.5756321304116
 20
49.2416530533923
 10
16.5755324152027
 20
49.2411902823707
  0
LWPOLYLINE
  5
202C9
100
AcDbEntity
  8
směr proudění podzemních vod
100
AcDbPolyline
 70
0
 90
3
 10
16.5756220358389
 20
49.2414209826
 10
16.5755324152027
 20
49.2411902823707
 10
16.5755399436663
 20
49.2414279706971
  0
LWPOLYLINE
  5
202CA
100
AcDbEntity
  8
směr proudění podzemních vod
100
AcDbPolyline
 70
0
 90
2
 10
16.5733321329016
 20
49.2434386265572
 10
16.5730993744098
 20
49.2429968154258
  0
LWPOLYLINE
  5
202CB
100
AcDbEntity
  8
směr proudění podzemních vod
100
AcDbPolyline
 70
0
 90
3
 10
16.5732545873104
 20
49.2432120804965
 10
16.5730993744098
 20
49.2429968154258
 10
16.573176036926
 20
49.2432291964688
  0
LWPOLYLINE
  5
202CC
100
AcDbEntity
  8
směr proudění podzemních vod
100
AcDbPolyline
 70
0
 90
2
 10
16.570653121247
 20
49.2443681059228
 10
16.570171077291
 20
49.2440234074875
  0
LWPOLYLINE
  5
202CD
100
AcDbEntity
  8
směr proudění podzemních vod
100
AcDbPolyline
 70
0
 90
3
 10
16.570444298684
 20
49.2441804653303
 10
16.570171077291
 20
49.2440234074875
 10
16.5703826346464
 20
49.2442166306214
  0
LWPOLYLINE
  5
202CE
100
AcDbEntity
  8
směr proudění podzemních vod
100
AcDbPolyline
 70
0
 90
2
 10
16.5674830542337
 20
49.2453602906036
 10
16.5674828929127
 20
49.2448929369537
  0
LWPOLYLINE
  5
202CF
100
AcDbEntity
  8
směr proudění podzemních vod
100
AcDbPolyline
 70
0
 90
3
 10
16.5675224977994
 20
49.2451295670493
 10
16.5674828929127
 20
49.2448929369537
 10
16.5674397132783
 20
49.2451289893215
  0
LWPOLYLINE
  5
202D0
100
AcDbEntity
  8
směr proudění podzemních vod
100
AcDbPolyline
 70
0
 90
2
 10
16.5655756836394
 20
49.2447172578708
 10
16.5662093737675
 20
49.2445020977858
  0
LWPOLYLINE
  5
202D1
100
AcDbEntity
  8
směr proudění podzemních vod
100
AcDbPolyline
 70
0
 90
3
 10
16.5659067129262
 20
49.244634010721
 10
16.5662093737675
 20
49.2445020977858
 10
16.5658694005099
 20
49.2445856256129
  0
LWPOLYLINE
  5
202D2
100
AcDbEntity
  8
směr proudění podzemních vod
100
AcDbPolyline
 70
0
 90
2
 10
16.5649830139762
 20
49.2435114935572
 10
16.5656967581497
 20
49.243518400484
  0
LWPOLYLINE
  5
202D3
100
AcDbEntity
  8
směr proudění podzemních vod
100
AcDbPolyline
 70
0
 90
3
 10
16.5653347845122
 20
49.2435407765864
 10
16.5656967581497
 20
49.243518400484
 10
16.5653369074554
 20
49.2434865924704
  0
LWPOLYLINE
  5
202D4
100
AcDbEntity
  8
směr proudění podzemních vod
100
AcDbPolyline
 70
0
 90
2
 10
16.567659496554
 20
49.2440024633066
 10
16.5681876036133
 20
49.2436880284078
  0
LWPOLYLINE
  5
202D5
100
AcDbEntity
  8
směr proudění podzemních vod
100
AcDbPolyline
 70
0
 90
3
 10
16.5679467972666
 20
49.2438663800654
 10
16.5681876036133
 20
49.2436880284078
 10
16.5678917677802
 20
49.2438258857237
  0
LWPOLYLINE
  5
202D6
100
AcDbEntity
  8
směr proudění podzemních vod
100
AcDbPolyline
 70
0
 90
2
 10
16.5647443993413
 20
49.2419058358945
 10
16.5653508645582
 20
49.2421523098337
  0
LWPOLYLINE
  5
202D7
100
AcDbEntity
  8
směr proudění podzemních vod
100
AcDbPolyline
 70
0
 90
3
 10
16.5650229498332
 20
49.2420494972095
 10
16.5653508645582
 20
49.2421523098337
 10
16.5650673715561
 20
49.2420037595779
  0
LWPOLYLINE
  5
202D8
100
AcDbEntity
  8
směr proudění podzemních vod
100
AcDbPolyline
 70
0
 90
2
 10
16.5659352693449
 20
49.241013870617
 10
16.5664646106306
 20
49.2413273946911
  0
LWPOLYLINE
  5
202D9
100
AcDbEntity
  8
směr proudění podzemních vod
100
AcDbPolyline
 70
0
 90
3
 10
16.5661700765203
 20
49.2411878368319
 10
16.5664646106306
 20
49.2413273946911
 10
16.5662262756528
 20
49.2411480385495
  0
LWPOLYLINE
  5
202DA
100
AcDbEntity
  8
směr proudění podzemních vod
100
AcDbPolyline
 70
0
 90
2
 10
16.5704089051616
 20
49.2424873701002
 10
16.5709419196797
 20
49.2421765157884
  0
LWPOLYLINE
  5
202DB
100
AcDbEntity
  8
směr proudění podzemních vod
100
AcDbPolyline
 70
0
 90
3
 10
16.5706983246983
 20
49.2423532327631
 10
16.5709419196797
 20
49.2421765157884
 10
16.5706439377069
 20
49.242312369366
  0
LWPOLYLINE
  5
202DC
100
AcDbEntity
  8
směr proudění podzemních vod
100
AcDbPolyline
 70
0
 90
2
 10
16.5619160366862
 20
49.2407957057543
 10
16.5615947159936
 20
49.2403783850475
  0
LWPOLYLINE
  5
202DD
100
AcDbEntity
  8
směr proudění podzemních vod
100
AcDbPolyline
 70
0
 90
3
 10
16.5617926977611
 20
49.2405780393998
 10
16.5615947159936
 20
49.2403783850475
 10
16.5617183777341
 20
49.240601910866
  0
LWPOLYLINE
  5
202DE
100
AcDbEntity
  8
směr proudění podzemních vod
100
AcDbPolyline
 70
0
 90
2
 10
16.5638122185808
 20
49.2393101315748
 10
16.5634908915397
 20
49.238892816043
  0
LWPOLYLINE
  5
202DF
100
AcDbEntity
  8
směr proudění podzemních vod
100
AcDbPolyline
 70
0
 90
3
 10
16.563688875165
 20
49.2390924662985
 10
16.5634908915397
 20
49.238892816043
 10
16.5636145581341
 20
49.2391163398854
  0
LWPOLYLINE
  5
202E0
100
AcDbEntity
  8
směr proudění podzemních vod
100
AcDbPolyline
 70
0
 90
2
 10
16.5755674661738
 20
49.2398086114084
 10
16.5761310583699
 20
49.2395218338538
  0
LWPOLYLINE
  5
202E1
100
AcDbEntity
  8
směr proudění podzemních vod
100
AcDbPolyline
 70
0
 90
3
 10
16.575869943837
 20
49.2396874695017
 10
16.5761310583699
 20
49.2395218338538
 10
16.575819862245
 20
49.2396443122773
  0
LWPOLYLINE
  5
202E2
100
AcDbEntity
  8
směr proudění podzemních vod
100
AcDbPolyline
 70
0
 90
2
 10
16.5960060004037
 20
49.197509843631
 10
16.5960134594495
 20
49.197971534356
  0
LWPOLYLINE
  5
202E3
100
AcDbEntity
  8
směr proudění podzemních vod
100
AcDbPolyline
 70
0
 90
3
 10
16.5959641709417
 20
49.1977160794393
 10
16.5960134594495
 20
49.197971534356
 10
16.5960536582284
 20
49.1977228235815
  0
LWPOLYLINE
  5
202E4
100
AcDbEntity
  8
směr proudění podzemních vod
100
AcDbPolyline
 70
0
 90
3
 10
16.6004159446839
 20
49.1961578952212
 10
16.6006755654441
 20
49.1963511622705
 10
16.6004957748344
 20
49.1961305540535
  0
LWPOLYLINE
  5
202E5
100
AcDbEntity
  8
směr proudění podzemních vod
100
AcDbPolyline
 70
0
 90
2
 10
16.6002738890228
 20
49.1959718366728
 10
16.6006755654441
 20
49.1963511622705
  0
LWPOLYLINE
  5
202E6
100
AcDbEntity
  8
směr proudění podzemních vod
100
AcDbPolyline
 70
0
 90
3
 10
16.6038341729154
 20
49.194565474162
 10
16.6042092602912
 20
49.1946421044961
 10
16.6038806725359
 20
49.1945149183399
  0
LWPOLYLINE
  5
202E7
100
AcDbEntity
  8
směr proudění podzemních vod
100
AcDbPolyline
 70
0
 90
2
 10
16.6035652277572
 20
49.1944549422309
 10
16.6042092602912
 20
49.1946421044961
  0
LWPOLYLINE
  5
202E8
100
AcDbEntity
  8
směr proudění podzemních vod
100
AcDbPolyline
 70
0
 90
3
 10
16.6039960164954
 20
49.1981996247912
 10
16.604356713815
 20
49.1983017417327
 10
16.6040503922649
 20
49.198152563933
  0
LWPOLYLINE
  5
202E9
100
AcDbEntity
  8
směr proudění podzemních vod
100
AcDbPolyline
 70
0
 90
2
 10
16.6037463294374
 20
49.198071129771
 10
16.604356713815
 20
49.1983017417327
  0
LWPOLYLINE
  5
202EA
100
AcDbEntity
  8
směr proudění podzemních vod
100
AcDbPolyline
 70
0
 90
3
 10
16.6075679936977
 20
49.1997035013938
 10
16.6079495332996
 20
49.1997650505295
 10
16.6076097241854
 20
49.199651186972
  0
LWPOLYLINE
  5
202EB
100
AcDbEntity
  8
směr proudění podzemních vod
100
AcDbPolyline
 70
0
 90
2
 10
16.6072892663241
 20
49.1996038860661
 10
16.6079495332996
 20
49.1997650505295
  0
LWPOLYLINE
  5
202EC
100
AcDbEntity
  8
směr proudění podzemních vod
100
AcDbPolyline
 70
0
 90
3
 10
16.611552452658
 20
49.1969490682865
 10
16.6119387209402
 20
49.1969962088289
 10
16.6115895439574
 20
49.1968952756002
  0
LWPOLYLINE
  5
202ED
100
AcDbEntity
  8
směr proudění podzemních vod
100
AcDbPolyline
 70
0
 90
2
 10
16.6112654995539
 20
49.1968600689169
 10
16.6119387209402
 20
49.1969962088289
  0
LWPOLYLINE
  5
202EE
100
AcDbEntity
  8
směr proudění podzemních vod
100
AcDbPolyline
 70
0
 90
3
 10
16.6072250428913
 20
49.195956758703
 10
16.6075966354978
 20
49.1960404014174
 10
16.6072737361372
 20
49.195907097
  0
LWPOLYLINE
  5
202EF
100
AcDbEntity
  8
směr proudění podzemních vod
100
AcDbPolyline
 70
0
 90
2
 10
16.6069610337873
 20
49.1958412209704
 10
16.6075966354978
 20
49.1960404014174
  0
LWPOLYLINE
  5
202F0
100
AcDbEntity
  8
směr proudění podzemních vod
100
AcDbPolyline
 70
0
 90
2
 10
16.6063072390183
 20
49.190918972231
 10
16.606666209821
 20
49.1905168986738
  0
LWPOLYLINE
  5
202F1
100
AcDbEntity
  8
směr proudění podzemních vod
100
AcDbPolyline
 70
0
 90
3
 10
16.6064914287089
 20
49.1907751204361
 10
16.606666209821
 20
49.1905168986738
 10
16.6064119730543
 20
49.1907468954412
  0
LWPOLYLINE
  5
202F2
100
AcDbEntity
  8
směr proudění podzemních vod
100
AcDbPolyline
 70
0
 90
2
 10
16.6036919423556
 20
49.1930096031485
 10
16.60427888681
 20
49.192746847855
  0
LWPOLYLINE
  5
202F3
100
AcDbEntity
  8
směr proudění podzemních vod
100
AcDbPolyline
 70
0
 90
3
 10
16.6039523374178
 20
49.1929312314715
 10
16.60427888681
 20
49.192746847855
 10
16.6038989424053
 20
49.1928834401396
  0
LWPOLYLINE
  5
202F4
100
AcDbEntity
  8
směr proudění podzemních vod
100
AcDbPolyline
 70
0
 90
2
 10
16.607695614182
 20
49.1933913706676
 10
16.6083934594057
 20
49.1933028247534
  0
LWPOLYLINE
  5
202F5
100
AcDbEntity
  8
směr proudění podzemních vod
100
AcDbPolyline
 70
0
 90
3
 10
16.6079820823229
 20
49.193387150593
 10
16.6083934594057
 20
49.1933028247534
 10
16.6079620053662
 20
49.1933293967222
  0
LWPOLYLINE
  5
202F6
100
AcDbEntity
  8
směr proudění podzemních vod
100
AcDbPolyline
 70
0
 90
2
 10
16.6123323571461
 20
49.1927760323907
 10
16.613011682289
 20
49.19263895173
  0
LWPOLYLINE
  5
202F7
100
AcDbEntity
  8
směr proudění podzemních vod
100
AcDbPolyline
 70
0
 90
3
 10
16.6126164806062
 20
49.1927517036419
 10
16.613011682289
 20
49.19263895173
 10
16.612587068879
 20
49.1926956939955
  0
LWPOLYLINE
  5
202F8
100
AcDbEntity
  8
směr proudění podzemních vod
100
AcDbPolyline
 70
0
 90
2
 10
16.5636300154222
 20
49.1843037333531
 10
16.5643006321337
 20
49.1844601389466
  0
LWPOLYLINE
  5
202F9
100
AcDbEntity
  8
směr proudění podzemních vod
100
AcDbPolyline
 70
0
 90
3
 10
16.5638801721475
 20
49.184392224234
 10
16.5643006321337
 20
49.1844601389466
 10
16.5639154627079
 20
49.1843407152488
  0
LWPOLYLINE
  5
202FA
100
AcDbEntity
  8
směr proudění podzemních vod
100
AcDbPolyline
 70
0
 90
2
 10
16.559930647791
 20
49.1799768279722
 10
16.5606312930449
 20
49.1798947877104
  0
LWPOLYLINE
  5
202FB
100
AcDbEntity
  8
směr proudění podzemních vod
100
AcDbPolyline
 70
0
 90
3
 10
16.5602147989681
 20
49.1799724091281
 10
16.5606312930449
 20
49.1798947877104
 10
16.5602065039491
 20
49.1799162061692
  0
LWPOLYLINE
  5
202FC
100
AcDbEntity
  8
směr proudění podzemních vod
100
AcDbPolyline
 70
0
 90
2
 10
16.5583947086449
 20
49.1858217016196
 10
16.5588134325575
 20
49.1861990255276
  0
LWPOLYLINE
  5
202FD
100
AcDbEntity
  8
směr proudění podzemních vod
100
AcDbPolyline
 70
0
 90
3
 10
16.5585249304058
 20
49.1859873334138
 10
16.5588134325575
 20
49.1861990255276
 10
16.5585984312614
 20
49.1859578869374
  0
LWPOLYLINE
  5
202FE
100
AcDbEntity
  8
směr proudění podzemních vod
100
AcDbPolyline
 70
0
 90
2
 10
16.5548400782937
 20
49.1826968597505
 10
16.5553504750268
 20
49.1830220725044
  0
LWPOLYLINE
  5
202FF
100
AcDbEntity
  8
směr proudění podzemních vod
100
AcDbPolyline
 70
0
 90
3
 10
16.5550113233397
 20
49.1828455837052
 10
16.5553504750268
 20
49.1830220725044
 10
16.5550761218774
 20
49.1828083808875
  0
LWPOLYLINE
  5
20300
100
AcDbEntity
  8
směr proudění podzemních vod
100
AcDbPolyline
 70
0
 90
2
 10
16.5482802149964
 20
49.184311320565
 10
16.5486325996483
 20
49.1847167207805
  0
LWPOLYLINE
  5
20301
100
AcDbEntity
  8
směr proudění podzemních vod
100
AcDbPolyline
 70
0
 90
3
 10
16.5483816485585
 20
49.1844853870947
 10
16.5486325996483
 20
49.1847167207805
 10
16.548459670586
 20
49.1844614573335
  0
LWPOLYLINE
  5
20302
100
AcDbEntity
  8
směr proudění podzemních vod
100
AcDbPolyline
 70
0
 90
2
 10
16.549902700837
 20
49.1774944335633
 10
16.5496983588894
 20
49.1770474888134
  0
LWPOLYLINE
  5
20303
100
AcDbEntity
  8
směr proudění podzemních vod
100
AcDbPolyline
 70
0
 90
3
 10
16.5498635489554
 20
49.1773098766966
 10
16.5496983588894
 20
49.1770474888134
 10
16.5497793308604
 20
49.1773216988276
  0
LWPOLYLINE
  5
20304
100
AcDbEntity
  8
směr proudění podzemních vod
100
AcDbPolyline
 70
0
 90
2
 10
16.5571426491237
 20
49.1761066086835
 10
16.5569708495205
 20
49.1756538176811
  0
LWPOLYLINE
  5
20305
100
AcDbEntity
  8
směr proudění podzemních vod
100
AcDbPolyline
 70
0
 90
3
 10
16.5571168830759
 20
49.175921042547
 10
16.5569708495205
 20
49.1756538176811
 10
16.5570319073799
 20
49.1759302349192
  0
LWPOLYLINE
  5
20306
100
AcDbEntity
  8
směr proudění podzemních vod
100
AcDbPolyline
 70
0
 90
2
 10
16.6377361879344
 20
49.2260638818037
 10
16.6383623088764
 20
49.2258567236404
  0
LWPOLYLINE
  5
20307
100
AcDbEntity
  8
směr proudění podzemních vod
100
AcDbPolyline
 70
0
 90
3
 10
16.6380378466068
 20
49.225996300087
 10
16.6383623088764
 20
49.2258567236404
 10
16.6380031034019
 20
49.2259408904594
  0
LWPOLYLINE
  5
20308
100
AcDbEntity
  8
směr proudění podzemních vod
100
AcDbPolyline
 70
0
 90
2
 10
16.6348276183899
 20
49.2271118116476
 10
16.6354537647415
 20
49.2269046692958
  0
LWPOLYLINE
  5
20309
100
AcDbEntity
  8
směr proudění podzemních vod
100
AcDbPolyline
 70
0
 90
3
 10
16.6351292872646
 20
49.227044238437
 10
16.6354537647415
 20
49.2269046692958
 10
16.6350945480914
 20
49.2269888271463
  0
LWPOLYLINE
  5
2030A
100
AcDbEntity
  8
směr proudění podzemních vod
100
AcDbPolyline
 70
0
 90
2
 10
16.6451561278807
 20
49.2291464401568
 10
16.6454674387714
 20
49.2287347208593
  0
LWPOLYLINE
  5
2030B
100
AcDbEntity
  8
směr proudění podzemních vod
100
AcDbPolyline
 70
0
 90
3
 10
16.6453356274559
 20
49.2289738637774
 10
16.6454674387714
 20
49.2287347208593
 10
16.6452570805822
 20
49.2289431742341
  0
LWPOLYLINE
  5
2030C
100
AcDbEntity
  8
směr proudění podzemních vod
100
AcDbPolyline
 70
0
 90
2
 10
16.638861691054
 20
49.2329679890462
 10
16.6394381530656
 20
49.2327061285799
  0
LWPOLYLINE
  5
2030D
100
AcDbEntity
  8
směr proudění podzemních vod
100
AcDbPolyline
 70
0
 90
3
 10
16.6391462280255
 20
49.232873742752
 10
16.6394381530656
 20
49.2327061285799
 10
16.6391001163172
 20
49.2328220109852
  0
LWPOLYLINE
  5
2030E
100
AcDbEntity
  8
směr proudění podzemních vod
100
AcDbPolyline
 70
0
 90
2
 10
16.6531559544436
 20
49.2303792170661
 10
16.6531434680286
 20
49.2299198554721
  0
LWPOLYLINE
  5
2030F
100
AcDbEntity
  8
směr proudění podzemních vod
100
AcDbPolyline
 70
0
 90
3
 10
16.6531942465722
 20
49.2301719179182
 10
16.6531434680286
 20
49.2299198554721
 10
16.6531029482445
 20
49.2301683078257
  0
LWPOLYLINE
  5
20310
100
AcDbEntity
  8
směr proudění podzemních vod
100
AcDbPolyline
 70
0
 90
2
 10
16.6552797865853
 20
49.2363002695305
 10
16.6551180251269
 20
49.2358532123998
  0
LWPOLYLINE
  5
20311
100
AcDbEntity
  8
směr proudění podzemních vod
100
AcDbPolyline
 70
0
 90
3
 10
16.6552497096164
 20
49.2360923891084
 10
16.6551180251269
 20
49.2358532123998
 10
16.6551593246812
 20
49.23610160995
  0
LWPOLYLINE
  5
20312
100
AcDbEntity
  8
směr proudění podzemních vod
100
AcDbPolyline
 70
0
 90
2
 10
16.6609413793923
 20
49.2284196895989
 10
16.660521648694
 20
49.2280515661365
  0
LWPOLYLINE
  5
20313
100
AcDbEntity
  8
směr proudění podzemních vod
100
AcDbPolyline
 70
0
 90
3
 10
16.6607876216855
 20
49.2282367650176
 10
16.660521648694
 20
49.2280515661365
 10
16.6607102911126
 20
49.2282687502324
  0
LWPOLYLINE
  5
20314
100
AcDbEntity
  8
směr proudění podzemních vod
100
AcDbPolyline
 70
0
 90
2
 10
16.6661582806269
 20
49.2326109798326
 10
16.6657975452658
 20
49.2322169325473
  0
LWPOLYLINE
  5
20315
100
AcDbEntity
  8
směr proudění podzemních vod
100
AcDbPolyline
 70
0
 90
3
 10
16.6660335616853
 20
49.2324188051409
 10
16.6657975452658
 20
49.2322169325473
 10
16.6659516801087
 20
49.2324455025703
  0
LWPOLYLINE
  5
20316
100
AcDbEntity
  8
směr proudění podzemních vod
100
AcDbPolyline
 70
0
 90
3
 10
16.5845256334846
 20
49.185052477399
 10
16.5846989986262
 20
49.1847927404772
 10
16.5844383729107
 20
49.1850205404403
  0
LWPOLYLINE
  5
20317
100
AcDbEntity
  8
směr proudění podzemních vod
100
AcDbPolyline
 70
0
 90
2
 10
16.5843410121034
 20
49.1851937673491
 10
16.5846989986262
 20
49.1847927404772
  0
LWPOLYLINE
  5
20318
100
AcDbEntity
  8
směr proudění podzemních vod
100
AcDbPolyline
 70
0
 90
3
 10
16.5780901733887
 20
49.1840793821628
 10
16.5779293236952
 20
49.1838162089666
 10
16.5779942456364
 20
49.1840977552081
  0
LWPOLYLINE
  5
20319
100
AcDbEntity
  8
směr proudění podzemních vod
100
AcDbPolyline
 70
0
 90
2
 10
16.5781143308492
 20
49.1842647407878
 10
16.5779293236952
 20
49.1838162089666
  0
LWPOLYLINE
  5
2031A
100
AcDbEntity
  8
směr proudění podzemních vod
100
AcDbPolyline
 70
0
 90
3
 10
16.574046377435
 20
49.1858950845421
 10
16.573707253692
 20
49.1857191193091
 10
16.5739770627436
 20
49.1859422795243
  0
LWPOLYLINE
  5
2031B
100
AcDbEntity
  8
směr proudění podzemních vod
100
AcDbPolyline
 70
0
 90
2
 10
16.5742078816828
 20
49.1860480586286
 10
16.573707253692
 20
49.1857191193091
  0
LWPOLYLINE
  5
2031C
100
AcDbEntity
  8
směr proudění podzemních vod
100
AcDbPolyline
 70
0
 90
3
 10
16.5709782646724
 20
49.188581492173
 10
16.5706139267688
 20
49.1884286889426
 10
16.5709165107595
 20
49.1886330032173
  0
LWPOLYLINE
  5
2031D
100
AcDbEntity
  8
směr proudění podzemních vod
100
AcDbPolyline
 70
0
 90
2
 10
16.571162353597
 20
49.1887230872123
 10
16.5706139267688
 20
49.1884286889426
  0
LWPOLYLINE
  5
2031E
100
AcDbEntity
  8
směr proudění podzemních vod
100
AcDbPolyline
 70
0
 90
2
 10
16.5698871236761
 20
49.1936146940685
 10
16.5692159484115
 20
49.193465050218
  0
LWPOLYLINE
  5
2031F
100
AcDbEntity
  8
směr proudění podzemních vod
100
AcDbPolyline
 70
0
 90
3
 10
16.5696389448266
 20
49.1935244046753
 10
16.5692159484115
 20
49.193465050218
 10
16.5696086695051
 20
49.193586838464
  0
LWPOLYLINE
  5
20320
100
AcDbEntity
  8
směr proudění podzemních vod
100
AcDbPolyline
 70
0
 90
2
 10
16.5696347269549
 20
49.1966273490461
 10
16.5689424217455
 20
49.1965271337508
  0
LWPOLYLINE
  5
20321
100
AcDbEntity
  8
směr proudění podzemních vod
100
AcDbPolyline
 70
0
 90
3
 10
16.5693728514003
 20
49.196555550046
 10
16.5689424217455
 20
49.1965271337508
 10
16.5693532666079
 20
49.1966197915403
  0
LWPOLYLINE
  5
20322
100
AcDbEntity
  8
směr proudění podzemních vod
100
AcDbPolyline
 70
0
 90
2
 10
16.5735909805454
 20
49.1946511186337
 10
16.5730375755609
 20
49.1943606964426
  0
LWPOLYLINE
  5
20323
100
AcDbEntity
  8
směr proudění podzemních vod
100
AcDbPolyline
 70
0
 90
3
 10
16.5734045024259
 20
49.1945108611738
 10
16.5730375755609
 20
49.1943606964426
 10
16.5733436105408
 20
49.194562814162
  0
LWPOLYLINE
  5
20324
100
AcDbEntity
  8
směr proudění podzemních vod
100
AcDbPolyline
 70
0
 90
2
 10
16.5747558435983
 20
49.1904909125448
 10
16.5743037481129
 20
49.1901330248341
  0
LWPOLYLINE
  5
20325
100
AcDbEntity
  8
směr proudění podzemních vod
100
AcDbPolyline
 70
0
 90
3
 10
16.5746166098811
 20
49.1903287999945
 10
16.5743037481129
 20
49.1901330248341
 10
16.5745409243228
 20
49.1903715895155
  0
LWPOLYLINE
  5
20326
100
AcDbEntity
  8
směr proudění podzemních vod
100
AcDbPolyline
 70
0
 90
2
 10
16.5768497524364
 20
49.1886798966644
 10
16.5764091853969
 20
49.1883158929783
  0
LWPOLYLINE
  5
20327
100
AcDbEntity
  8
směr proudění podzemních vod
100
AcDbPolyline
 70
0
 90
3
 10
16.5767157235348
 20
49.1885159128298
 10
16.5764091853969
 20
49.1883158929783
 10
16.576638692637
 20
49.1885576552273
  0
LWPOLYLINE
  5
20328
100
AcDbEntity
  8
směr proudění podzemních vod
100
AcDbPolyline
 70
0
 90
2
 10
16.5654630874571
 20
49.1928077893716
 10
16.566158111058
 20
49.1928993994997
  0
LWPOLYLINE
  5
20329
100
AcDbEntity
  8
směr proudění podzemních vod
100
AcDbPolyline
 70
0
 90
2
 10
16.5572892436649
 20
49.1919910132559
 10
16.5579980844917
 20
49.1919983024039
  0
LWPOLYLINE
  5
2032A
100
AcDbEntity
  8
směr proudění podzemních vod
100
AcDbPolyline
 70
0
 90
3
 10
16.5575677324394
 20
49.1920269754289
 10
16.5579980844917
 20
49.1919983024039
 10
16.5575672824217
 20
49.1919614647004
  0
LWPOLYLINE
  5
2032B
100
AcDbEntity
  8
směr proudění podzemních vod
100
AcDbPolyline
 70
0
 90
2
 10
16.5642748618974
 20
49.1872885714737
 10
16.5648613658365
 20
49.1875495268846
  0
LWPOLYLINE
  5
2032C
100
AcDbEntity
  8
směr proudění podzemních vod
100
AcDbPolyline
 70
0
 90
3
 10
16.5644775859452
 20
49.187418768719
 10
16.5648613658365
 20
49.1875495268846
 10
16.5645320376105
 20
49.1873638341376
  0
LWPOLYLINE
  5
2032D
100
AcDbEntity
  8
směr proudění podzemních vod
100
AcDbPolyline
 70
0
 90
3
 10
16.5796483428894
 20
49.1878648678612
 10
16.5794874726495
 20
49.1876016969807
 10
16.5795524085339
 20
49.1878832412958
  0
LWPOLYLINE
  5
2032E
100
AcDbEntity
  8
směr proudění podzemních vod
100
AcDbPolyline
 70
0
 90
2
 10
16.5796725081606
 20
49.1880502251631
 10
16.5794874726495
 20
49.1876016969807
  0
LWPOLYLINE
  5
2032F
100
AcDbEntity
  8
směr proudění podzemních vod
100
AcDbPolyline
 70
0
 90
3
 10
16.5830059632859
 20
49.1878993688347
 10
16.5829518429806
 20
49.1876180874439
 10
16.5829060575249
 20
49.187901245324
  0
LWPOLYLINE
  5
20330
100
AcDbEntity
  8
směr proudění podzemních vod
100
AcDbPolyline
 70
0
 90
2
 10
16.5829578374726
 20
49.1880827081521
 10
16.5829518429806
 20
49.1876180874439
  0
LWPOLYLINE
  5
20331
100
AcDbEntity
  8
směr proudění podzemních vod
100
AcDbPolyline
 70
0
 90
2
 10
16.577449556208
 20
49.1929916549114
 10
16.5769974170961
 20
49.1926337777831
  0
LWPOLYLINE
  5
20332
100
AcDbEntity
  8
směr proudění podzemních vod
100
AcDbPolyline
 70
0
 90
3
 10
16.5773103066561
 20
49.192829545669
 10
16.5769974170961
 20
49.1926337777831
 10
16.5772346196017
 20
49.1928723369406
  0
LWPOLYLINE
  5
20333
100
AcDbEntity
  8
směr proudění podzemních vod
100
AcDbPolyline
 70
0
 90
3
 10
16.5800475646786
 20
49.1918732829726
 10
16.5798112211081
 20
49.1916358323802
 10
16.5799589618885
 20
49.1919036055739
  0
LWPOLYLINE
  5
20334
100
AcDbEntity
  8
směr proudění podzemních vod
100
AcDbPolyline
 70
0
 90
2
 10
16.5801266043812
 20
49.1920519586265
 10
16.5798112211081
 20
49.1916358323802
  0
LWPOLYLINE
  5
20335
100
AcDbEntity
  8
směr proudění podzemních vod
100
AcDbPolyline
 70
0
 90
3
 10
16.5657269688375
 20
49.1928763281859
 10
16.566158111058
 20
49.1928993994997
 10
16.5657446948593
 20
49.1928118551421
  0
LWPOLYLINE
  5
20336
100
AcDbEntity
  8
směr proudění podzemních vod
100
AcDbPolyline
 70
0
 90
2
 10
16.549607420932
 20
49.1914435302237
 10
16.5503144527641
 20
49.1914774184929
  0
LWPOLYLINE
  5
20337
100
AcDbEntity
  8
směr proudění podzemních vod
100
AcDbPolyline
 70
0
 90
3
 10
16.5498823067314
 20
49.1914898885799
 10
16.5503144527641
 20
49.1914774184929
 10
16.5498875834717
 20
49.1914244692171
  0
LWPOLYLINE
  5
20338
100
AcDbEntity
  8
směr proudění podzemních vod
100
AcDbPolyline
 70
0
 90
3
 10
16.552754520948
 20
49.1881819843373
 10
16.5531706897062
 20
49.1882592360217
 10
16.5527909229285
 20
49.1881209722462
  0
LWPOLYLINE
  5
20339
100
AcDbEntity
  8
směr proudění podzemních vod
100
AcDbPolyline
 70
0
 90
2
 10
16.5525158517168
 20
49.1880813093028
 10
16.5531706897062
 20
49.1882592360217
  0
LWPOLYLINE
  5
2033A
100
AcDbEntity
  8
směr proudění podzemních vod
100
AcDbPolyline
 70
0
 90
3
 10
16.5580563303225
 20
49.1893090254855
 10
16.5584884552998
 20
49.1892965247665
 10
16.5580615948226
 20
49.1892436047331
  0
LWPOLYLINE
  5
2033B
100
AcDbEntity
  8
směr proudění podzemních vod
100
AcDbPolyline
 70
0
 90
2
 10
16.5577814475955
 20
49.1892626864966
 10
16.5584884552998
 20
49.1892965247665
  0
LWPOLYLINE
  5
2033C
100
AcDbEntity
  8
směr proudění podzemních vod
100
AcDbPolyline
 70
0
 90
3
 10
16.573458149109
 20
49.1812139043538
 10
16.5736349017269
 20
49.1814726551411
 10
16.5735528754552
 20
49.1811930347026
  0
LWPOLYLINE
  5
2033D
100
AcDbEntity
  8
směr proudění podzemních vod
100
AcDbPolyline
 70
0
 90
2
 10
16.5734227155812
 20
49.181029326375
 10
16.5736349017269
 20
49.1814726551411
  0
LWPOLYLINE
  5
2033E
100
AcDbEntity
  8
směr proudění podzemních vod
100
AcDbPolyline
 70
0
 90
3
 10
16.5790728659795
 20
49.1809347652937
 10
16.5790595092096
 20
49.1812181402119
 10
16.57917198454
 20
49.1809431081319
  0
LWPOLYLINE
  5
2033F
100
AcDbEntity
  8
směr proudění podzemních vod
100
AcDbPolyline
 70
0
 90
2
 10
16.5791639450419
 20
49.1807585742499
 10
16.5790595092096
 20
49.1812181402119
  0
LWPOLYLINE
  5
20340
100
AcDbEntity
  8
směr proudění podzemních vod
100
AcDbPolyline
 70
0
 90
2
 10
16.5733209379639
 20
49.1979417449789
 10
16.5727521023479
 20
49.1976643903072
  0
LWPOLYLINE
  5
20341
100
AcDbEntity
  8
směr proudění podzemních vod
100
AcDbPolyline
 70
0
 90
3
 10
16.5731269619221
 20
49.1978059167611
 10
16.5727521023479
 20
49.1976643903072
 10
16.5730689210807
 20
49.1978592549971
  0
LWPOLYLINE
  5
20342
100
AcDbEntity
  8
směr proudění podzemních vod
100
AcDbPolyline
 70
0
 90
2
 10
16.5773434559765
 20
49.1965786202575
 10
16.5769044624376
 20
49.1962137645654
  0
LWPOLYLINE
  5
20343
100
AcDbEntity
  8
směr proudění podzemních vod
100
AcDbPolyline
 70
0
 90
3
 10
16.5772101455902
 20
49.1964143769541
 10
16.5769044624376
 20
49.1962137645654
 10
16.5771329149511
 20
49.1964559705853
  0
LWPOLYLINE
  5
20344
100
AcDbEntity
  8
směr proudění podzemních vod
100
AcDbPolyline
 70
0
 90
3
 10
16.5574329796836
 20
49.1949025457375
 10
16.5578651535979
 20
49.1948900473792
 10
16.5574382456062
 20
49.1948371250689
  0
LWPOLYLINE
  5
20345
100
AcDbEntity
  8
směr proudění podzemních vod
100
AcDbPolyline
 70
0
 90
2
 10
16.5571580665143
 20
49.1948562052926
 10
16.5578651535979
 20
49.1948900473792
  0
LWPOLYLINE
  5
20346
100
AcDbEntity
  8
směr proudění podzemních vod
100
AcDbPolyline
 70
0
 90
3
 10
16.5652657315637
 20
49.1959734646105
 10
16.5656979128606
 20
49.1959609369142
 10
16.5652709884756
 20
49.1959080445835
  0
LWPOLYLINE
  5
20347
100
AcDbEntity
  8
směr proudění podzemních vod
100
AcDbPolyline
 70
0
 90
2
 10
16.5649908063325
 20
49.1959271438257
 10
16.5656979128606
 20
49.1959609369142
  0
LWPOLYLINE
  5
20348
100
AcDbEntity
  8
směr proudění podzemních vod
100
AcDbPolyline
 70
0
 90
3
 10
16.5634609006724
 20
49.1895070133975
 10
16.563880235304
 20
49.1894374778252
 10
16.5634458658102
 20
49.1894422477648
  0
LWPOLYLINE
  5
20349
100
AcDbEntity
  8
směr proudění podzemních vod
100
AcDbPolyline
 70
0
 90
2
 10
16.5631773988209
 20
49.1894980784985
 10
16.563880235304
 20
49.1894374778252
  0
LWPOLYLINE
  5
2034A
100
AcDbEntity
  8
směr proudění podzemních vod
100
AcDbPolyline
 70
0
 90
2
 10
16.5802962517283
 20
49.1953865731956
 10
16.5798440702101
 20
49.195028707342
  0
LWPOLYLINE
  5
2034B
100
AcDbEntity
  8
směr proudění podzemních vod
100
AcDbPolyline
 70
0
 90
3
 10
16.5801569847726
 20
49.1952244673467
 10
16.5798440702101
 20
49.195028707342
 10
16.5800812978801
 20
49.1952672605669
  0
LWPOLYLINE
  5
2034C
100
AcDbEntity
  8
směr proudění podzemních vod
100
AcDbPolyline
 70
0
 90
3
 10
16.587202602899
 20
49.1882820924408
 10
16.587233041746
 20
49.1879992860496
 10
16.5871040504892
 20
49.1882711874096
  0
LWPOLYLINE
  5
2034D
100
AcDbEntity
  8
směr proudění podzemních vod
100
AcDbPolyline
 70
0
 90
2
 10
16.5871009554602
 20
49.1884557856553
 10
16.587233041746
 20
49.1879992860496
  0
LWPOLYLINE
  5
2034E
100
AcDbEntity
  8
směr proudění podzemních vod
100
AcDbPolyline
 70
0
 90
2
 10
16.6069628427369
 20
49.2193334346933
 10
16.6065528419323
 20
49.2189509524988
  0
LWPOLYLINE
  5
2034F
100
AcDbEntity
  8
směr proudění podzemních vod
100
AcDbPolyline
 70
0
 90
3
 10
16.606792764588
 20
49.2191297459814
 10
16.6065528419323
 20
49.2189509524988
 10
16.6067245319635
 20
49.2191604089581
  0
LWPOLYLINE
  5
20350
100
AcDbEntity
  8
směr proudění podzemních vod
100
AcDbPolyline
 70
0
 90
2
 10
16.6070132243191
 20
49.2166325267681
 10
16.606417826123
 20
49.2168900090079
  0
LWPOLYLINE
  5
20351
100
AcDbEntity
  8
směr proudění podzemních vod
100
AcDbPolyline
 70
0
 90
3
 10
16.6066975327377
 20
49.2167380442825
 10
16.606417826123
 20
49.2168900090079
 10
16.6067423650833
 20
49.2167836011167
  0
LWPOLYLINE
  5
20352
100
AcDbEntity
  8
směr proudění podzemních vod
100
AcDbPolyline
 70
0
 90
2
 10
16.605076962415
 20
49.21509874915
 10
16.6052252388426
 20
49.214641599158
  0
LWPOLYLINE
  5
20353
100
AcDbEntity
  8
směr proudění podzemních vod
100
AcDbPolyline
 70
0
 90
3
 10
16.6051887973215
 20
49.2148784461643
 10
16.6052252388426
 20
49.214641599158
 10
16.6051080581296
 20
49.2148666048472
  0
LWPOLYLINE
  5
20354
100
AcDbEntity
  8
směr proudění podzemních vod
100
AcDbPolyline
 70
0
 90
2
 10
16.606813446499
 20
49.2154777258992
 10
16.6062790194931
 20
49.2151681283756
  0
LWPOLYLINE
  5
20355
100
AcDbEntity
  8
směr proudění podzemních vod
100
AcDbPolyline
 70
0
 90
3
 10
16.6065757814376
 20
49.215305503921
 10
16.6062790194931
 20
49.2151681283756
 10
16.6065202999326
 20
49.2153457148953
  0
LWPOLYLINE
  5
20356
100
AcDbEntity
  8
směr proudění podzemních vod
100
AcDbPolyline
 70
0
 90
2
 10
16.6100244674416
 20
49.2150595868356
 10
16.6093655572742
 20
49.2152387481505
  0
LWPOLYLINE
  5
20357
100
AcDbEntity
  8
směr proudění podzemních vod
100
AcDbPolyline
 70
0
 90
3
 10
16.6096840435175
 20
49.2151241349534
 10
16.6093655572742
 20
49.2152387481505
 10
16.6097149276726
 20
49.215174420149
  0
LWPOLYLINE
  5
20358
100
AcDbEntity
  8
směr proudění podzemních vod
100
AcDbPolyline
 70
0
 90
2
 10
16.6082764361753
 20
49.2141012584813
 10
16.6079584380085
 20
49.2136829020377
  0
LWPOLYLINE
  5
20359
100
AcDbEntity
  8
směr proudění podzemních vod
100
AcDbPolyline
 70
0
 90
3
 10
16.608154806376
 20
49.2138831944363
 10
16.6079584380085
 20
49.2136829020377
 10
16.6080803460784
 20
49.2139068264271
  0
LWPOLYLINE
  5
2035A
100
AcDbEntity
  8
směr proudění podzemních vod
100
AcDbPolyline
 70
0
 90
2
 10
16.6097036313082
 20
49.2120185274535
 10
16.6090556176686
 20
49.2118231125769
  0
LWPOLYLINE
  5
2035B
100
AcDbEntity
  8
směr proudění podzemních vod
100
AcDbPolyline
 70
0
 90
3
 10
16.60940024154
 20
49.211898552569
 10
16.6090556176686
 20
49.2118231125769
 10
16.6093648321978
 20
49.2119475404379
  0
LWPOLYLINE
  5
2035C
100
AcDbEntity
  8
směr proudění podzemních vod
100
AcDbPolyline
 70
0
 90
2
 10
16.6060716634726
 20
49.2127070733421
 10
16.6062990691287
 20
49.2122640992006
  0
LWPOLYLINE
  5
2035D
100
AcDbEntity
  8
směr proudění podzemních vod
100
AcDbPolyline
 70
0
 90
3
 10
16.6062213633758
 20
49.2124966388479
 10
16.6062990691287
 20
49.2122640992006
 10
16.6061432356089
 20
49.2124788025699
  0
LWPOLYLINE
  5
2035E
100
AcDbEntity
  8
směr proudění podzemních vod
100
AcDbPolyline
 70
0
 90
2
 10
16.606857701163
 20
49.2105632658135
 10
16.6070760272965
 20
49.2101183364294
  0
LWPOLYLINE
  5
2035F
100
AcDbEntity
  8
směr proudění podzemních vod
100
AcDbPolyline
 70
0
 90
3
 10
16.6070030819034
 20
49.21035153723
 10
16.6070760272965
 20
49.2101183364294
 10
16.6069246009382
 20
49.2103343880735
  0
LWPOLYLINE
  5
20360
100
AcDbEntity
  8
směr proudění podzemních vod
100
AcDbPolyline
 70
0
 90
2
 10
16.6023366912198
 20
49.2111398911802
 10
16.6030480305886
 20
49.211175008996
  0
LWPOLYLINE
  5
20361
100
AcDbEntity
  8
směr proudění podzemních vod
100
AcDbPolyline
 70
0
 90
3
 10
16.6026848894431
 20
49.2111830308951
 10
16.6030480305886
 20
49.211175008996
 10
16.6026920039244
 20
49.2111290289377
  0
LWPOLYLINE
  5
20362
100
AcDbEntity
  8
směr proudění podzemních vod
100
AcDbPolyline
 70
0
 90
2
 10
16.6009958240099
 20
49.2153421994345
 10
16.6017072227693
 20
49.2153773255028
  0
LWPOLYLINE
  5
20363
100
AcDbEntity
  8
směr proudění podzemních vod
100
AcDbPolyline
 70
0
 90
3
 10
16.6013440506012
 20
49.2153853431715
 10
16.6017072227693
 20
49.2153773255028
 10
16.6013511657852
 20
49.2153313412365
  0
LWPOLYLINE
  5
20364
100
AcDbEntity
  8
směr proudění podzemních vod
100
AcDbPolyline
 70
0
 90
2
 10
16.6046333384417
 20
49.1500597485702
 10
16.6053442077274
 20
49.1500287225805
  0
LWPOLYLINE
  5
20365
100
AcDbEntity
  8
směr proudění podzemních vod
100
AcDbPolyline
 70
0
 90
3
 10
16.6049868927578
 20
49.1500877714448
 10
16.6053442077274
 20
49.1500287225805
 10
16.6049745644056
 20
49.1500048172229
  0
LWPOLYLINE
  5
20366
100
AcDbEntity
  8
směr proudění podzemních vod
100
AcDbPolyline
 70
0
 90
2
 10
16.607680380492
 20
49.1499724202622
 10
16.6083844310418
 20
49.1499009139911
  0
LWPOLYLINE
  5
20367
100
AcDbEntity
  8
směr proudění podzemních vod
100
AcDbPolyline
 70
0
 90
3
 10
16.6080363118868
 20
49.149980145133
 10
16.6083844310418
 20
49.1499009139911
 10
16.6080130193475
 20
49.1498982103525
  0
LWPOLYLINE
  5
20368
100
AcDbEntity
  8
směr proudění podzemních vod
100
AcDbPolyline
 70
0
 90
2
 10
16.6103028666599
 20
49.1497664451946
 10
16.6109857221789
 20
49.1496331792437
  0
LWPOLYLINE
  5
20369
100
AcDbEntity
  8
směr proudění podzemních vod
100
AcDbPolyline
 70
0
 90
3
 10
16.610657121644
 20
49.1497425448632
 10
16.6109857221789
 20
49.1496331792437
 10
16.6106171633451
 20
49.149663426326
  0
LWPOLYLINE
  5
2036A
100
AcDbEntity
  8
směr proudění podzemních vod
100
AcDbPolyline
 70
0
 90
2
 10
16.6125644970383
 20
49.149300434001
 10
16.6131398571682
 20
49.1490248334748
  0
LWPOLYLINE
  5
2036B
100
AcDbEntity
  8
směr proudění podzemních vod
100
AcDbPolyline
 70
0
 90
3
 10
16.6128860829072
 20
49.149200079757
 10
16.6131398571682
 20
49.1490248334748
 10
16.6128080339036
 20
49.1491343108635
  0
LWPOLYLINE
  5
2036C
100
AcDbEntity
  8
směr proudění podzemních vod
100
AcDbPolyline
 70
0
 90
2
 10
16.6143155268462
 20
49.1484720538289
 10
16.6148531982627
 20
49.1481654554147
  0
LWPOLYLINE
  5
2036D
100
AcDbEntity
  8
směr proudění podzemních vod
100
AcDbPolyline
 70
0
 90
3
 10
16.6146229842724
 20
49.1483541807318
 10
16.6148531982627
 20
49.1481654554147
 10
16.61453672
 20
49.1482929883297
  0
LWPOLYLINE
  5
2036E
100
AcDbEntity
  8
směr proudění podzemních vod
100
AcDbPolyline
 70
0
 90
2
 10
16.6190954483373
 20
49.1482718120673
 10
16.6195016767898
 20
49.1478878967781
  0
LWPOLYLINE
  5
2036F
100
AcDbEntity
  8
směr proudění podzemních vod
100
AcDbPolyline
 70
0
 90
3
 10
16.619349277116
 20
49.1481079634482
 10
16.6195016767898
 20
49.1478878967781
 10
16.6192427239864
 20
49.1480625649226
  0
LWPOLYLINE
  5
20370
100
AcDbEntity
  8
směr proudění podzemních vod
100
AcDbPolyline
 70
0
 90
2
 10
16.6221014607147
 20
49.1474090174166
 10
16.6223312862908
 20
49.1469666666664
  0
LWPOLYLINE
  5
20371
100
AcDbEntity
  8
směr proudění podzemních vod
100
AcDbPolyline
 70
0
 90
3
 10
16.6222787248528
 20
49.1472007464713
 10
16.6223331043827
 20
49.1469616832313
 10
16.622157261892
 20
49.1471762957985
  0
LWPOLYLINE
  5
20372
100
AcDbEntity
  8
směr proudění podzemních vod
100
AcDbPolyline
 70
0
 90
2
 10
16.6234300690989
 20
49.1459380443307
 10
16.6237633701919
 20
49.1455250132472
  0
LWPOLYLINE
  5
20373
100
AcDbEntity
  8
směr proudění podzemních vod
100
AcDbPolyline
 70
0
 90
3
 10
16.6236521929795
 20
49.1457554566592
 10
16.6237633701919
 20
49.1455250132472
 10
16.6235381327143
 20
49.1457187436641
  0
LWPOLYLINE
  5
20374
100
AcDbEntity
  8
směr proudění podzemních vod
100
AcDbPolyline
 70
0
 90
2
 10
16.6257403066372
 20
49.1441177357406
 10
16.6263585865878
 20
49.1438856222926
  0
LWPOLYLINE
  5
20375
100
AcDbEntity
  8
směr proudění podzemních vod
100
AcDbPolyline
 70
0
 90
3
 10
16.6260768200794
 20
49.1440413574655
 10
16.6263585865878
 20
49.1438856222926
 10
16.6260103605056
 20
49.1439703239154
  0
LWPOLYLINE
  5
20376
100
AcDbEntity
  8
směr proudění podzemních vod
100
AcDbPolyline
 70
0
 90
2
 10
16.5979731792725
 20
49.1461375205941
 10
16.5986788713401
 20
49.1460736118295
  0
LWPOLYLINE
  5
20377
100
AcDbEntity
  8
směr proudění podzemních vod
100
AcDbPolyline
 70
0
 90
3
 10
16.5983288412947
 20
49.1461490799451
 10
16.5986788713401
 20
49.1460736118295
 10
16.5983076064466
 20
49.1460669054096
  0
LWPOLYLINE
  5
20378
100
AcDbEntity
  8
směr proudění podzemních vod
100
AcDbPolyline
 70
0
 90
2
 10
16.6040978388306
 20
49.145658972674
 10
16.6048025164482
 20
49.1455904446821
  0
LWPOLYLINE
  5
20379
100
AcDbEntity
  8
směr proudění podzemních vod
100
AcDbPolyline
 70
0
 90
3
 10
16.6044536551225
 20
49.1456682023416
 10
16.6048025164482
 20
49.1455904446821
 10
16.6044311708787
 20
49.1455861707208
  0
LWPOLYLINE
  5
2037A
100
AcDbEntity
  8
směr proudění podzemních vod
100
AcDbPolyline
 70
0
 90
2
 10
16.6069341817611
 20
49.145337178927
 10
16.6076169851882
 20
49.1452039337181
  0
LWPOLYLINE
  5
2037B
100
AcDbEntity
  8
směr proudění podzemních vod
100
AcDbPolyline
 70
0
 90
3
 10
16.607288406582
 20
49.1453132898135
 10
16.6076169851882
 20
49.1452039337181
 10
16.607248457217
 20
49.1452341700629
  0
LWPOLYLINE
  5
2037C
100
AcDbEntity
  8
směr proudění podzemních vod
100
AcDbPolyline
 70
0
 90
2
 10
16.6094506642112
 20
49.1450434161122
 10
16.6101334569976
 20
49.1449101550942
  0
LWPOLYLINE
  5
2037D
100
AcDbEntity
  8
směr proudění podzemních vod
100
AcDbPolyline
 70
0
 90
3
 10
16.6098048858776
 20
49.1450195183698
 10
16.6101334569976
 20
49.1449101550942
 10
16.6097649325874
 20
49.1449404003804
  0
LWPOLYLINE
  5
2037E
100
AcDbEntity
  8
směr proudění podzemních vod
100
AcDbPolyline
 70
0
 90
2
 10
16.6115495408506
 20
49.1447874572807
 10
16.6122323257036
 20
49.1446541848133
  0
LWPOLYLINE
  5
2037F
100
AcDbEntity
  8
směr proudění podzemních vod
100
AcDbPolyline
 70
0
 90
3
 10
16.6119037595373
 20
49.1447635539812
 10
16.6122323257036
 20
49.1446541848133
 10
16.6118638032525
 20
49.144684435821
  0
LWPOLYLINE
  5
20380
100
AcDbEntity
  8
směr proudění podzemních vod
100
AcDbPolyline
 70
0
 90
2
 10
16.6139244793694
 20
49.1444161027186
 10
16.6146072515293
 20
49.1442828151825
  0
LWPOLYLINE
  5
20381
100
AcDbEntity
  8
směr proudění podzemních vod
100
AcDbPolyline
 70
0
 90
3
 10
16.6142786944146
 20
49.1443921912247
 10
16.6146072515293
 20
49.1442828151825
 10
16.6142387346403
 20
49.1443130738822
  0
LWPOLYLINE
  5
20382
100
AcDbEntity
  8
směr proudění podzemních vod
100
AcDbPolyline
 70
0
 90
2
 10
16.6160875669545
 20
49.1439857655935
 10
16.6167703273924
 20
49.1438524652332
  0
LWPOLYLINE
  5
20383
100
AcDbEntity
  8
směr proudění podzemních vod
100
AcDbPolyline
 70
0
 90
3
 10
16.616441777891
 20
49.1439618474501
 10
16.6167703273924
 20
49.1438524652332
 10
16.6164018150127
 20
49.1438827308513
  0
LWPOLYLINE
  5
20384
100
AcDbEntity
  8
směr proudění podzemních vod
100
AcDbPolyline
 70
0
 90
2
 10
16.618204145396
 20
49.1434898179177
 10
16.6188441627767
 20
49.1432846355921
  0
LWPOLYLINE
  5
20385
100
AcDbEntity
  8
směr proudění podzemních vod
100
AcDbPolyline
 70
0
 90
3
 10
16.618547527111
 20
49.1434279916854
 10
16.6188441627767
 20
49.1432846355921
 10
16.6184882673106
 20
49.1433542665172
  0
LWPOLYLINE
  5
20386
100
AcDbEntity
  8
směr proudění podzemních vod
100
AcDbPolyline
 70
0
 90
2
 10
16.6202769398708
 20
49.1428822571481
 10
16.6209364875307
 20
49.1427057033882
  0
LWPOLYLINE
  5
20387
100
AcDbEntity
  8
směr proudění podzemních vod
100
AcDbPolyline
 70
0
 90
3
 10
16.6206258654134
 20
49.1428356821943
 10
16.6209364875307
 20
49.1427057033882
 10
16.6205742775062
 20
49.1427595158669
  0
LWPOLYLINE
  5
20388
100
AcDbEntity
  8
směr proudění podzemních vod
100
AcDbPolyline
 70
0
 90
2
 10
16.6228832128352
 20
49.1422319408607
 10
16.6235659322778
 20
49.1420986002994
  0
LWPOLYLINE
  5
20389
100
AcDbEntity
  8
směr proudění podzemních vod
100
AcDbPolyline
 70
0
 90
3
 10
16.6232374078467
 20
49.1422080027189
 10
16.6235659322778
 20
49.1420986002994
 10
16.6231974355406
 20
49.1421288884526
  0
LWPOLYLINE
  5
2038A
100
AcDbEntity
  8
směr proudění podzemních vod
100
AcDbPolyline
 70
0
 90
2
 10
16.6253396814669
 20
49.1418370054971
 10
16.6260361678259
 20
49.1417390103503
  0
LWPOLYLINE
  5
2038B
100
AcDbEntity
  8
směr proudění podzemních vod
100
AcDbPolyline
 70
0
 90
3
 10
16.6256956418756
 20
49.141831266542
 10
16.6260361678259
 20
49.1417390103503
 10
16.6256651968521
 20
49.141750347604
  0
LWPOLYLINE
  5
2038C
100
AcDbEntity
  8
směr proudění podzemních vod
100
AcDbPolyline
 70
0
 90
2
 10
16.5963238229366
 20
49.1426752483169
 10
16.5970066182969
 20
49.1425420650085
  0
LWPOLYLINE
  5
2038D
100
AcDbEntity
  8
směr proudění podzemních vod
100
AcDbPolyline
 70
0
 90
3
 10
16.5966780339721
 20
49.1426513908982
 10
16.5970066182969
 20
49.1425420650085
 10
16.5966381036702
 20
49.1425722674499
  0
LWPOLYLINE
  5
2038E
100
AcDbEntity
  8
směr proudění podzemních vod
100
AcDbPolyline
 70
0
 90
2
 10
16.6026618711743
 20
49.1414365910916
 10
16.6033446325079
 20
49.1413033702032
  0
LWPOLYLINE
  5
2038F
100
AcDbEntity
  8
směr proudění podzemních vod
100
AcDbPolyline
 70
0
 90
3
 10
16.6030160703373
 20
49.1414127141879
 10
16.6033446325079
 20
49.1413033702032
 10
16.6029761309208
 20
49.1413335929177
  0
LWPOLYLINE
  5
20390
100
AcDbEntity
  8
směr proudění podzemních vod
100
AcDbPolyline
 70
0
 90
2
 10
16.5936291176021
 20
49.1429198606347
 10
16.5943119235466
 20
49.1427866932976
  0
LWPOLYLINE
  5
20391
100
AcDbEntity
  8
směr proudění podzemních vod
100
AcDbPolyline
 70
0
 90
3
 10
16.5939833315238
 20
49.1428960123928
 10
16.5943119235466
 20
49.1427866932976
 10
16.5939434053238
 20
49.1428168880156
  0
LWPOLYLINE
  5
20392
100
AcDbEntity
  8
směr proudění podzemních vod
100
AcDbPolyline
 70
0
 90
2
 10
16.5952130741456
 20
49.1463725108813
 10
16.5959201981308
 20
49.1463158071551
  0
LWPOLYLINE
  5
20393
100
AcDbEntity
  8
směr proudění podzemních vod
100
AcDbPolyline
 70
0
 90
3
 10
16.595568419884
 20
49.146387696902
 10
16.5959201981308
 20
49.1463158071551
 10
16.5955491359753
 20
49.1463053155082
  0
LWPOLYLINE
  5
20394
100
AcDbEntity
  8
směr proudění podzemních vod
100
AcDbPolyline
 70
0
 90
2
 10
16.6058927408752
 20
49.140974389993
 10
16.6065956443656
 20
49.140898689302
  0
LWPOLYLINE
  5
20395
100
AcDbEntity
  8
směr proudění podzemních vod
100
AcDbPolyline
 70
0
 90
3
 10
16.6062487003889
 20
49.1409799923228
 10
16.6065956443656
 20
49.140898689302
 10
16.6062242775512
 20
49.1408981997916
  0
LWPOLYLINE
  5
20396
100
AcDbEntity
  8
směr proudění podzemních vod
100
AcDbPolyline
 70
0
 90
2
 10
16.6085220043836
 20
49.1407034078641
 10
16.6092233109435
 20
49.1406215969482
  0
LWPOLYLINE
  5
20397
100
AcDbEntity
  8
směr proudění podzemních vod
100
AcDbPolyline
 70
0
 90
3
 10
16.6088780427128
 20
49.1407059116633
 10
16.6092233109435
 20
49.1406215969482
 10
16.6088519693888
 20
49.14062433849
  0
LWPOLYLINE
  5
20398
100
AcDbEntity
  8
směr proudění podzemních vod
100
AcDbPolyline
 70
0
 90
2
 10
16.6108172917631
 20
49.1403664857456
 10
16.6115000178796
 20
49.1402332166136
  0
LWPOLYLINE
  5
20399
100
AcDbEntity
  8
směr proudění podzemních vod
100
AcDbPolyline
 70
0
 90
3
 10
16.611171480748
 20
49.1403425838706
 10
16.6115000178796
 20
49.1402332166136
 10
16.6111315278214
 20
49.1402634653128
  0
LWPOLYLINE
  5
2039A
100
AcDbEntity
  8
směr proudění podzemních vod
100
AcDbPolyline
 70
0
 90
2
 10
16.6127509697211
 20
49.1400364352549
 10
16.6134336847505
 20
49.1399031545632
  0
LWPOLYLINE
  5
2039B
100
AcDbEntity
  8
směr proudění podzemních vod
100
AcDbPolyline
 70
0
 90
3
 10
16.6131051540616
 20
49.1400125273391
 10
16.6134336847505
 20
49.1399031545632
 10
16.6130651996791
 20
49.1399334095434
  0
LWPOLYLINE
  5
2039C
100
AcDbEntity
  8
směr proudění podzemních vod
100
AcDbPolyline
 70
0
 90
2
 10
16.6144713035668
 20
49.1397312604179
 10
16.6151540097857
 20
49.1395979695276
  0
LWPOLYLINE
  5
2039D
100
AcDbEntity
  8
směr proudění podzemních vod
100
AcDbPolyline
 70
0
 90
3
 10
16.6148254847579
 20
49.1397073481079
 10
16.6151540097857
 20
49.1395979695276
 10
16.614785527877
 20
49.139628230904
  0
LWPOLYLINE
  5
2039E
100
AcDbEntity
  8
směr proudění podzemních vod
100
AcDbPolyline
 70
0
 90
2
 10
16.6166227036824
 20
49.1393559554322
 10
16.6173053989701
 20
49.1392226517883
  0
LWPOLYLINE
  5
2039F
100
AcDbEntity
  8
směr proudění podzemních vod
100
AcDbPolyline
 70
0
 90
3
 10
16.6169768813114
 20
49.1393320356149
 10
16.6173053989701
 20
49.1392226517883
 10
16.6169369213012
 20
49.1392529191513
  0
LWPOLYLINE
  5
203A0
100
AcDbEntity
  8
směr proudění podzemních vod
100
AcDbPolyline
 70
0
 90
2
 10
16.6189996955895
 20
49.1389877414017
 10
16.6196823792914
 20
49.1388544245624
  0
LWPOLYLINE
  5
203A1
100
AcDbEntity
  8
směr proudění podzemních vod
100
AcDbPolyline
 70
0
 90
3
 10
16.6193538693043
 20
49.1389638151721
 10
16.6196823792914
 20
49.1388544245624
 10
16.6193139057994
 20
49.138884699527
  0
LWPOLYLINE
  5
203A2
100
AcDbEntity
  8
směr proudění podzemních vod
100
AcDbPolyline
 70
0
 90
2
 10
16.6215095451732
 20
49.1385880040719
 10
16.6222050822827
 20
49.1384872829645
  0
LWPOLYLINE
  5
203A3
100
AcDbEntity
  8
směr proudění podzemních vod
100
AcDbPolyline
 70
0
 90
3
 10
16.6218654231473
 20
49.1385808707579
 10
16.6222050822827
 20
49.1384872829645
 10
16.6218342454471
 20
49.1385000719684
  0
LWPOLYLINE
  5
203A4
100
AcDbEntity
  8
směr proudění podzemních vod
100
AcDbPolyline
 70
0
 90
2
 10
16.6239385468613
 20
49.1382454197451
 10
16.6246441729879
 20
49.1381817310976
  0
LWPOLYLINE
  5
203A5
100
AcDbEntity
  8
směr proudění podzemních vod
100
AcDbPolyline
 70
0
 90
3
 10
16.6242941434599
 20
49.1382570905764
 10
16.6246441729879
 20
49.1381817310976
 10
16.6242729715352
 20
49.1381749089873
  0
LWPOLYLINE
  5
203A6
100
AcDbEntity
  8
směr proudění podzemních vod
100
AcDbPolyline
 70
0
 90
2
 10
16.6263727541676
 20
49.1381163685228
 10
16.6270827602866
 20
49.1380791392146
  0
LWPOLYLINE
  5
203A7
100
AcDbEntity
  8
směr proudění podzemních vod
100
AcDbPolyline
 70
0
 90
3
 10
16.6267267602222
 20
49.1381413020083
 10
16.6270827602866
 20
49.1380791392146
 10
16.6267127531969
 20
49.1380584632571
  0
LWPOLYLINE
  5
203A8
100
AcDbEntity
  8
směr proudění podzemních vod
100
AcDbPolyline
 70
0
 90
2
 10
16.600989929373
 20
49.1458918301545
 10
16.6016923174055
 20
49.1458138253481
  0
LWPOLYLINE
  5
203A9
100
AcDbEntity
  8
směr proudění podzemních vod
100
AcDbPolyline
 70
0
 90
3
 10
16.601345961415
 20
49.1458962654079
 10
16.6016923174055
 20
49.1458138253481
 10
16.6013209145679
 20
49.1458145529262
  0
LWPOLYLINE
  5
203AA
100
AcDbEntity
  8
směr proudění podzemních vod
100
AcDbPolyline
 70
0
 90
2
 10
16.5990573927526
 20
49.1422121432863
 10
16.5997401744166
 20
49.1420789437713
  0
LWPOLYLINE
  5
203AB
100
AcDbEntity
  8
směr proudění podzemních vod
100
AcDbPolyline
 70
0
 90
3
 10
16.5994115991755
 20
49.1421882774642
 10
16.5997401744166
 20
49.1420789437713
 10
16.5993716647378
 20
49.14210915585
  0
LWPOLYLINE
  5
203AC
100
AcDbEntity
  8
směr proudění podzemních vod
100
AcDbPolyline
 70
0
 90
2
 10
16.631458692132
 20
49.1442089832646
 10
16.6307492861529
 20
49.1441664851039
  0
LWPOLYLINE
  5
203AD
100
AcDbEntity
  8
směr proudění podzemních vod
100
AcDbPolyline
 70
0
 90
3
 10
16.6311162548747
 20
49.1441449314806
 10
16.6307492861529
 20
49.1441664851039
 10
16.6311085958963
 20
49.1442281269928
  0
LWPOLYLINE
  5
203AE
100
AcDbEntity
  8
směr proudění podzemních vod
100
AcDbPolyline
 70
0
 90
2
 10
16.6177892882221
 20
49.1495343642249
 10
16.6181533267192
 20
49.1491326445663
  0
LWPOLYLINE
  5
203AF
100
AcDbEntity
  8
směr proudění podzemních vod
100
AcDbPolyline
 70
0
 90
3
 10
16.6180249145499
 20
49.1493592021261
 10
16.6181533267192
 20
49.1491326445663
 10
16.6179137505544
 20
49.1493188358953
  0
LWPOLYLINE
  5
203B0
100
AcDbEntity
  8
směr proudění podzemních vod
100
AcDbPolyline
 70
0
 90
2
 10
16.6170408063974
 20
49.1474290492471
 10
16.6175077314457
 20
49.1470760876053
  0
LWPOLYLINE
  5
203B1
100
AcDbEntity
  8
směr proudění podzemních vod
100
AcDbPolyline
 70
0
 90
3
 10
16.6173200698601
 20
49.1472840981091
 10
16.6175077314457
 20
49.1470760876053
 10
16.6172215967018
 20
49.1472314315301
  0
LWPOLYLINE
  5
203B2
100
AcDbEntity
  8
směr proudění podzemních vod
100
AcDbPolyline
 70
0
 90
2
 10
16.6185225375442
 20
49.1463381861921
 10
16.6188554322869
 20
49.1459250126534
  0
LWPOLYLINE
  5
203B3
100
AcDbEntity
  8
směr proudění podzemních vod
100
AcDbPolyline
 70
0
 90
3
 10
16.6187444820133
 20
49.1461555034322
 10
16.6188554322869
 20
49.1459250126534
 10
16.6186303838483
 20
49.1461188396908
  0
LWPOLYLINE
  5
203B4
100
AcDbEntity
  8
směr proudění podzemních vod
100
AcDbPolyline
 70
0
 90
2
 10
16.6202040634555
 20
49.1469699162744
 10
16.6205850888475
 20
49.1465750411958
  0
LWPOLYLINE
  5
203B5
100
AcDbEntity
  8
směr proudění podzemních vod
100
AcDbPolyline
 70
0
 90
3
 10
16.6204470616973
 20
49.1467991502255
 10
16.6205850888475
 20
49.1465750411958
 10
16.6203376719
 20
49.1467567581066
  0
LWPOLYLINE
  5
203B6
100
AcDbEntity
  8
směr proudění podzemních vod
100
AcDbPolyline
 70
0
 90
2
 10
16.6209945379534
 20
49.1487943109819
 10
16.6212642930063
 20
49.148361771293
  0
LWPOLYLINE
  5
203B7
100
AcDbEntity
  8
směr proudění podzemních vod
100
AcDbPolyline
 70
0
 90
3
 10
16.6211882106566
 20
49.1485982720579
 10
16.6212642930063
 20
49.148361771293
 10
16.6210691913886
 20
49.1485690992958
  0
LWPOLYLINE
  5
203B8
100
AcDbEntity
  8
směr proudění podzemních vod
100
AcDbPolyline
 70
0
 90
2
 10
16.6200966487982
 20
49.1447952027185
 10
16.6205635259518
 20
49.1444422284533
  0
LWPOLYLINE
  5
203B9
100
AcDbEntity
  8
směr proudění podzemních vod
100
AcDbPolyline
 70
0
 90
3
 10
16.6203758885081
 20
49.1446502441146
 10
16.6205635259518
 20
49.1444422284533
 10
16.6202774173285
 20
49.1445975801268
  0
LWPOLYLINE
  5
203BA
100
AcDbEntity
  8
směr proudění podzemních vod
100
AcDbPolyline
 70
0
 90
2
 10
16.6215453135167
 20
49.1455218188185
 10
16.6220121885748
 20
49.1451688388179
  0
LWPOLYLINE
  5
203BB
100
AcDbEntity
  8
směr proudění podzemních vod
100
AcDbPolyline
 70
0
 90
3
 10
16.6218245530889
 20
49.1453768567205
 10
16.6220121885748
 20
49.1451688388179
 10
16.621726080292
 20
49.1453241940709
  0
LWPOLYLINE
  5
203BC
100
AcDbEntity
  8
směr proudění podzemních vod
100
AcDbPolyline
 70
0
 90
3
 10
16.621996194393
 20
49.1437954725454
 10
16.6222856480528
 20
49.1436459284857
 10
16.6219333490468
 20
49.1437230369086
  0
LWPOLYLINE
  5
203BD
100
AcDbEntity
  8
směr proudění podzemních vod
100
AcDbPolyline
 70
0
 90
2
 10
16.6216560212281
 20
49.1438645160477
 10
16.6222856480528
 20
49.1436459284857
  0
LWPOLYLINE
  5
203BE
100
AcDbEntity
  8
směr proudění podzemních vod
100
AcDbPolyline
 70
0
 90
3
 10
16.6234465571071
 20
49.1443290252101
 10
16.6236552883858
 20
49.1441298468336
 10
16.6233537637635
 20
49.1442720961286
  0
LWPOLYLINE
  5
203BF
100
AcDbEntity
  8
směr proudění podzemních vod
100
AcDbPolyline
 70
0
 90
2
 10
16.6231529617487
 20
49.1444612113558
 10
16.6236552883858
 20
49.1441298468336
  0
LWPOLYLINE
  5
203C0
100
AcDbEntity
  8
směr proudění podzemních vod
100
AcDbPolyline
 70
0
 90
3
 10
16.6247317754567
 20
49.144803209389
 10
16.6248540598991
 20
49.1445752004555
 10
16.6246195538832
 20
49.1447641365591
  0
LWPOLYLINE
  5
203C1
100
AcDbEntity
  8
směr proudění podzemních vod
100
AcDbPolyline
 70
0
 90
2
 10
16.6245009211574
 20
49.1449810733622
 10
16.6248540598991
 20
49.1445752004555
  0
LWPOLYLINE
  5
203C2
100
AcDbEntity
  8
směr proudění podzemních vod
100
AcDbPolyline
 70
0
 90
3
 10
16.6248025642492
 20
49.1435173117376
 10
16.6251069400347
 20
49.1433811166799
 10
16.6247474240333
 20
49.1434422241263
  0
LWPOLYLINE
  5
203C3
100
AcDbEntity
  8
směr proudění podzemních vod
100
AcDbPolyline
 70
0
 90
2
 10
16.6244559868827
 20
49.1435709170711
 10
16.6251069400347
 20
49.1433811166799
  0
LWPOLYLINE
  5
203C4
100
AcDbEntity
  8
směr proudění podzemních vod
100
AcDbPolyline
 70
0
 90
3
 10
16.6269450624258
 20
49.1444146684617
 10
16.6271267894779
 20
49.1442044060627
 10
16.6268451203135
 20
49.1443632107144
  0
LWPOLYLINE
  5
203C5
100
AcDbEntity
  8
směr proudění podzemních vod
100
AcDbPolyline
 70
0
 90
2
 10
16.6266699680761
 20
49.1445629983594
 10
16.6271267894779
 20
49.1442044060627
  0
LWPOLYLINE
  5
203C6
100
AcDbEntity
  8
směr proudění podzemních vod
100
AcDbPolyline
 70
0
 90
2
 10
16.6310149979647
 20
49.1431635985767
 10
16.630305608676
 20
49.143121097782
  0
LWPOLYLINE
  5
203C7
100
AcDbEntity
  8
směr proudění podzemních vod
100
AcDbPolyline
 70
0
 90
3
 10
16.6306725684945
 20
49.1430995454684
 10
16.630305608676
 20
49.143121097782
 10
16.6306649101512
 20
49.1431827419536
  0
LWPOLYLINE
  5
203C8
100
AcDbEntity
  8
směr proudění podzemních vod
100
AcDbPolyline
 70
0
 90
2
 10
16.6307677104133
 20
49.1417652251456
 10
16.6300583401123
 20
49.1417227218386
  0
LWPOLYLINE
  5
203C9
100
AcDbEntity
  8
směr proudění podzemních vod
100
AcDbPolyline
 70
0
 90
3
 10
16.6304252909114
 20
49.1417011712942
 10
16.6300583401123
 20
49.1417227218386
 10
16.6304176311557
 20
49.1417843667889
  0
LWPOLYLINE
  5
203CA
100
AcDbEntity
  8
směr proudění podzemních vod
100
AcDbPolyline
 70
0
 90
2
 10
16.6300257458491
 20
49.1379896965305
 10
16.6293164300079
 20
49.1379471895522
  0
LWPOLYLINE
  5
203CB
100
AcDbEntity
  8
směr proudění podzemních vod
100
AcDbPolyline
 70
0
 90
3
 10
16.6296833533541
 20
49.1379256404524
 10
16.6293164300079
 20
49.1379471895522
 10
16.6296756927965
 20
49.1380088368359
  0
LWPOLYLINE
  5
203CC
100
AcDbEntity
  8
směr proudění podzemních vod
100
AcDbPolyline
 70
0
 90
2
 10
16.5926187928741
 20
49.2552665413126
 10
16.5930455254189
 20
49.2554005040124
  0
LWPOLYLINE
  5
203CD
100
AcDbEntity
  8
směr proudění podzemních vod
100
AcDbPolyline
 70
0
 90
2
 10
16.5941425048912
 20
49.2526397961408
 10
16.5945864801546
 20
49.2527953346644
  0
LWPOLYLINE
  5
203CE
100
AcDbEntity
  8
směr proudění podzemních vod
100
AcDbPolyline
 70
0
 90
2
 10
16.5971263182366
 20
49.2535580293204
 10
16.5975527562211
 20
49.2537061653566
  0
LWPOLYLINE
  5
203CF
100
AcDbEntity
  8
směr proudění podzemních vod
100
AcDbPolyline
 70
0
 90
2
 10
16.5952431185467
 20
49.2559749572128
 10
16.5956871273365
 20
49.2561304905264
  0
LWPOLYLINE
  5
203D0
100
AcDbEntity
  8
směr proudění podzemních vod
100
AcDbPolyline
 70
0
 90
2
 10
16.5948003793406
 20
49.2507628763711
 10
16.595221525339
 20
49.2508860672621
  0
LWPOLYLINE
  5
203D1
100
AcDbEntity
  8
směr proudění podzemních vod
100
AcDbPolyline
 70
0
 90
2
 10
16.5965021194055
 20
49.2519681418403
 10
16.5968546463023
 20
49.2521675059145
  0
LWPOLYLINE
  5
203D2
100
AcDbEntity
  8
směr proudění podzemních vod
100
AcDbPolyline
 70
0
 90
2
 10
16.6002990568893
 20
49.2525107086841
 10
16.6009674225321
 20
49.2524731688709
  0
LWPOLYLINE
  5
203D3
100
AcDbEntity
  8
směr proudění podzemních vod
100
AcDbPolyline
 70
0
 90
2
 10
16.5986969697902
 20
49.248770195882
 10
16.5990494827545
 20
49.2489695533631
  0
LWPOLYLINE
  5
203D4
100
AcDbEntity
  8
směr proudění podzemních vod
100
AcDbPolyline
 70
0
 90
2
 10
16.5937051583806
 20
49.2491549845173
 10
16.5939972226749
 20
49.2489801866596
  0
LWPOLYLINE
  5
203D5
100
AcDbEntity
  8
směr proudění podzemních vod
100
AcDbPolyline
 70
0
 90
2
 10
16.5922792176854
 20
49.2463306567563
 10
16.5925616211892
 20
49.2465719231857
  0
LWPOLYLINE
  5
203D6
100
AcDbEntity
  8
směr proudění podzemních vod
100
AcDbPolyline
 70
0
 90
2
 10
16.5925465485572
 20
49.2437323233945
 10
16.5923356621491
 20
49.2440442345572
  0
LWPOLYLINE
  5
203D7
100
AcDbEntity
  8
směr proudění podzemních vod
100
AcDbPolyline
 70
0
 90
2
 10
16.595522259755
 20
49.2424242213388
 10
16.5958747147483
 20
49.2426235887149
  0
LWPOLYLINE
  5
203D8
100
AcDbEntity
  8
směr proudění podzemních vod
100
AcDbPolyline
 70
0
 90
2
 10
16.5932255995172
 20
49.2417820160463
 10
16.5936795214374
 20
49.2418768148273
  0
LWPOLYLINE
  5
203D9
100
AcDbEntity
  8
směr proudění podzemních vod
100
AcDbPolyline
 70
0
 90
2
 10
16.5877973830374
 20
49.2523261389937
 10
16.5882003525204
 20
49.2522229250408
  0
LWPOLYLINE
  5
203DA
100
AcDbEntity
  8
směr proudění podzemních vod
100
AcDbPolyline
 70
0
 90
2
 10
16.5884712018152
 20
49.2502025805088
 10
16.5889476246945
 20
49.2501324021554
  0
LWPOLYLINE
  5
203DB
100
AcDbEntity
  8
směr proudění podzemních vod
100
AcDbPolyline
 70
0
 90
2
 10
16.5910751066109
 20
49.2487650476908
 10
16.5915468643823
 20
49.2489044678676
  0
LWPOLYLINE
  5
203DC
100
AcDbEntity
  8
směr proudění podzemních vod
100
AcDbPolyline
 70
0
 90
2
 10
16.5881313969809
 20
49.2472282122396
 10
16.5884878058978
 20
49.2470538243265
  0
LWPOLYLINE
  5
203DD
100
AcDbEntity
  8
směr proudění podzemních vod
100
AcDbPolyline
 70
0
 90
2
 10
16.5877638272728
 20
49.2446288285074
 10
16.5881846564501
 20
49.2446156012419
  0
LWPOLYLINE
  5
203DE
100
AcDbEntity
  8
směr proudění podzemních vod
100
AcDbPolyline
 70
0
 90
2
 10
16.5878837984678
 20
49.2431380571345
 10
16.588418157926
 20
49.2430980470584
  0
LWPOLYLINE
  5
203DF
100
AcDbEntity
  8
směr proudění podzemních vod
100
AcDbPolyline
 70
0
 90
2
 10
16.5880747519056
 20
49.2412371975848
 10
16.5885907005776
 20
49.2411622336451
  0
LWPOLYLINE
  5
203E0
100
AcDbEntity
  8
směr proudění podzemních vod
100
AcDbPolyline
 70
0
 90
2
 10
16.5876745227479
 20
49.2386227786678
 10
16.588178063927
 20
49.2385925707466
  0
LWPOLYLINE
  5
203E1
100
AcDbEntity
  8
směr proudění podzemních vod
100
AcDbPolyline
 70
0
 90
2
 10
16.5878669819677
 20
49.2364937324811
 10
16.5883061310355
 20
49.2365436110234
  0
LWPOLYLINE
  5
203E2
100
AcDbEntity
  8
směr proudění podzemních vod
100
AcDbPolyline
 70
0
 90
2
 10
16.5894292258651
 20
49.2353892436775
 10
16.5899017106888
 20
49.2354386610787
  0
LWPOLYLINE
  5
203E3
100
AcDbEntity
  8
směr proudění podzemních vod
100
AcDbPolyline
 70
0
 90
2
 10
16.5916314512221
 20
49.251871196719
 10
16.5920754118458
 20
49.2520267440196
  0
LWPOLYLINE
  5
203E4
100
AcDbEntity
  8
směr proudění podzemních vod
100
AcDbPolyline
 70
0
 90
2
 10
16.5914038937927
 20
49.2499560742876
 10
16.5918478351582
 20
49.2501116224146
  0
LWPOLYLINE
  5
203E5
100
AcDbEntity
  8
směr proudění podzemních vod
100
AcDbPolyline
 70
0
 90
2
 10
16.5899353490882
 20
49.2366296173689
 10
16.5905023957479
 20
49.236542076007
  0
LWPOLYLINE
  5
203E6
100
AcDbEntity
  8
směr proudění podzemních vod
100
AcDbPolyline
 70
0
 90
2
 10
16.5909307419326
 20
49.235450568389
 10
16.5913928231658
 20
49.2353963882852
  0
LWPOLYLINE
  5
203E7
100
AcDbEntity
  8
směr proudění podzemních vod
100
AcDbPolyline
 70
0
 90
2
 10
16.585865527089
 20
49.2411283677894
 10
16.5863598132772
 20
49.2411883444169
  0
LWPOLYLINE
  5
203E8
100
AcDbEntity
  8
směr proudění podzemních vod
100
AcDbPolyline
 70
0
 90
2
 10
16.5822936446093
 20
49.2400549626873
 10
16.5824870895406
 20
49.2403149254254
  0
LWPOLYLINE
  5
203E9
100
AcDbEntity
  8
směr proudění podzemních vod
100
AcDbPolyline
 70
0
 90
2
 10
16.5850610037467
 20
49.2430777002798
 10
16.5855630365036
 20
49.243106395222
  0
LWPOLYLINE
  5
203EA
100
AcDbEntity
  8
směr proudění podzemních vod
100
AcDbPolyline
 70
0
 90
2
 10
16.5801649638944
 20
49.242036148184
 10
16.5801961722922
 20
49.2423585169272
  0
LWPOLYLINE
  5
203EB
100
AcDbEntity
  8
směr proudění podzemních vod
100
AcDbPolyline
 70
0
 90
2
 10
16.578475212069
 20
49.2432773808148
 10
16.5786048994148
 20
49.2436344039031
  0
LWPOLYLINE
  5
203EC
100
AcDbEntity
  8
směr proudění podzemních vod
100
AcDbPolyline
 70
0
 90
2
 10
16.5849855746
 20
49.2445534467289
 10
16.585533358016
 20
49.2445737716497
  0
LWPOLYLINE
  5
203ED
100
AcDbEntity
  8
směr proudění podzemních vod
100
AcDbPolyline
 70
0
 90
2
 10
16.5858142883468
 20
49.2473716618078
 10
16.5863751843691
 20
49.2473720430157
  0
LWPOLYLINE
  5
203EE
100
AcDbEntity
  8
směr proudění podzemních vod
100
AcDbPolyline
 70
0
 90
2
 10
16.5829854140783
 20
49.2471647004756
 10
16.5835023536582
 20
49.2471892417011
  0
LWPOLYLINE
  5
203EF
100
AcDbEntity
  8
směr proudění podzemních vod
100
AcDbPolyline
 70
0
 90
2
 10
16.5859982768719
 20
49.2502854580468
 10
16.5865110163377
 20
49.2502706227952
  0
LWPOLYLINE
  5
203F0
100
AcDbEntity
  8
směr proudění podzemních vod
100
AcDbPolyline
 70
0
 90
2
 10
16.5894409846593
 20
49.253216049926
 10
16.5896466971567
 20
49.2529518637183
  0
LWPOLYLINE
  5
203F1
100
AcDbEntity
  8
směr proudění podzemních vod
100
AcDbPolyline
 70
0
 90
2
 10
16.5894049837593
 20
49.2515965125265
 10
16.5896721068499
 20
49.2512948564755
  0
LWPOLYLINE
  5
203F2
100
AcDbEntity
  8
směr proudění podzemních vod
100
AcDbPolyline
 70
0
 90
2
 10
16.5887013182982
 20
49.2551663539912
 10
16.5892903382606
 20
49.2551647815446
  0
LWPOLYLINE
  5
203F3
100
AcDbEntity
  8
směr proudění podzemních vod
100
AcDbPolyline
 70
0
 90
3
 10
16.5889675732014
 20
49.2551807396504
 10
16.5892903382606
 20
49.2551647815446
 10
16.5889717126458
 20
49.2551475328095
  0
LWPOLYLINE
  5
203F4
100
AcDbEntity
  8
směr proudění podzemních vod
100
AcDbPolyline
 70
0
 90
3
 10
16.5879670567431
 20
49.2536038965015
 10
16.5882776296221
 20
49.2535442273394
 10
16.5879605238652
 20
49.2535708550826
  0
LWPOLYLINE
  5
203F5
100
AcDbEntity
  8
směr proudění podzemních vod
100
AcDbPolyline
 70
0
 90
2
 10
16.587702080763
 20
49.2536261754542
 10
16.5882776296221
 20
49.2535442273394
  0
LWPOLYLINE
  5
203F6
100
AcDbEntity
  8
směr proudění podzemních vod
100
AcDbPolyline
 70
0
 90
3
 10
16.5895589774584
 20
49.2531087260839
 10
16.5896460796522
 20
49.2529539328595
 10
16.5895005840395
 20
49.2530900963977
  0
LWPOLYLINE
  5
203F7
100
AcDbEntity
  8
směr proudění podzemních vod
100
AcDbPolyline
 70
0
 90
3
 10
16.5879846197098
 20
49.2523024440806
 10
16.5882003525204
 20
49.2522229250408
 10
16.5879624640975
 20
49.2522654585683
  0
LWPOLYLINE
  5
203F8
100
AcDbEntity
  8
směr proudění podzemních vod
100
AcDbPolyline
 70
0
 90
3
 10
16.5895593455781
 20
49.2514724719583
 10
16.5896721068499
 20
49.2512948564755
 10
16.5894935729097
 20
49.2514418385814
  0
LWPOLYLINE
  5
203F9
100
AcDbEntity
  8
směr proudění podzemních vod
100
AcDbPolyline
 70
0
 90
3
 10
16.5862206168157
 20
49.2502955042982
 10
16.5865110163377
 20
49.2502706227952
 10
16.5862193025267
 20
49.2502633078704
  0
LWPOLYLINE
  5
203FA
100
AcDbEntity
  8
směr proudění podzemních vod
100
AcDbPolyline
 70
0
 90
3
 10
16.5886569407888
 20
49.2501947245253
 10
16.5889476246945
 20
49.2501324021554
 10
16.5886458550306
 20
49.2501577194448
  0
LWPOLYLINE
  5
203FB
100
AcDbEntity
  8
směr proudění podzemních vod
100
AcDbPolyline
 70
0
 90
3
 10
16.5928498396252
 20
49.2553566660265
 10
16.5926187928741
 20
49.2552665413126
 10
16.5928737621963
 20
49.2553309971742
  0
LWPOLYLINE
  5
203FC
100
AcDbEntity
  8
směr proudění podzemních vod
100
AcDbPolyline
 70
0
 90
3
 10
16.595473218112
 20
49.2560738414529
 10
16.5952431185467
 20
49.2559749572128
 10
16.5954979435533
 20
49.2560470215234
  0
LWPOLYLINE
  5
203FD
100
AcDbEntity
  8
směr proudění podzemních vod
100
AcDbPolyline
 70
0
 90
3
 10
16.5918568288475
 20
49.2519694395518
 10
16.5916314512221
 20
49.251871196719
 10
16.5918876960222
 20
49.2519426543247
  0
LWPOLYLINE
  5
203FE
100
AcDbEntity
  8
směr proudění podzemních vod
100
AcDbPolyline
 70
0
 90
3
 10
16.5943780088946
 20
49.252745806499
 10
16.5941425048912
 20
49.2526397961408
 10
16.5944121603791
 20
49.2527140218263
  0
LWPOLYLINE
  5
203FF
100
AcDbEntity
  8
směr proudění podzemních vod
100
AcDbPolyline
 70
0
 90
3
 10
16.5973320441304
 20
49.2536449432568
 10
16.5971263182366
 20
49.2535580293204
 10
16.5973520694556
 20
49.25362422916
  0
LWPOLYLINE
  5
20400
100
AcDbEntity
  8
směr proudění podzemních vod
100
AcDbPolyline
 70
0
 90
3
 10
16.5916335106658
 20
49.2500573586585
 10
16.5914038937927
 20
49.2499560742876
 10
16.5916678105774
 20
49.250028401059
  0
LWPOLYLINE
  5
20401
100
AcDbEntity
  8
směr proudění podzemních vod
100
AcDbPolyline
 70
0
 90
3
 10
16.5950410541855
 20
49.2508523074846
 10
16.5948003793406
 20
49.2507628763711
 10
16.5950659745401
 20
49.2508242949976
  0
LWPOLYLINE
  5
20402
100
AcDbEntity
  8
směr proudění podzemních vod
100
AcDbPolyline
 70
0
 90
3
 10
16.5966705579731
 20
49.2520837368688
 10
16.5965021194055
 20
49.2519681418403
 10
16.5967079906582
 20
49.252061842496
  0
LWPOLYLINE
  5
20403
100
AcDbEntity
  8
směr proudění podzemních vod
100
AcDbPolyline
 70
0
 90
3
 10
16.6007539799423
 20
49.2525139167453
 10
16.6002990568893
 20
49.2525107086841
 10
16.6007377966622
 20
49.2524556259362
  0
LWPOLYLINE
  5
20404
100
AcDbEntity
  8
směr proudění podzemních vod
100
AcDbPolyline
 70
0
 90
3
 10
16.598886931134
 20
49.2489038909615
 10
16.5986969697902
 20
49.248770195882
 10
16.5989342640374
 20
49.2488778684729
  0
LWPOLYLINE
  5
20405
100
AcDbEntity
  8
směr proudění podzemních vod
100
AcDbPolyline
 70
0
 90
3
 10
16.5912981142152
 20
49.2488560640283
 10
16.5910751066109
 20
49.2487650476908
 10
16.5913338602938
 20
49.2488183557761
  0
LWPOLYLINE
  5
20406
100
AcDbEntity
  8
směr proudění podzemních vod
100
AcDbPolyline
 70
0
 90
3
 10
16.5831974375741
 20
49.2471886246352
 10
16.5835023536582
 20
49.2471892417011
 10
16.5832031993249
 20
49.2471612657743
  0
LWPOLYLINE
  5
20407
100
AcDbEntity
  8
směr proudění podzemních vod
100
AcDbPolyline
 70
0
 90
3
 10
16.586090170989
 20
49.2473859182717
 10
16.5863751843691
 20
49.2473720430157
 10
16.5860891820754
 20
49.247358482777
  0
LWPOLYLINE
  5
20408
100
AcDbEntity
  8
směr proudění podzemních vod
100
AcDbPolyline
 70
0
 90
3
 10
16.5882938423193
 20
49.2471672315361
 10
16.5884878058978
 20
49.2470538243265
 10
16.5882669683875
 20
49.2471476179252
  0
LWPOLYLINE
  5
20409
100
AcDbEntity
  8
směr proudění podzemních vod
100
AcDbPolyline
 70
0
 90
3
 10
16.5852255049364
 20
49.2445747240896
 10
16.5855436664934
 20
49.2445742935128
 10
16.5852277659642
 20
49.2445499333962
  0
LWPOLYLINE
  5
2040A
100
AcDbEntity
  8
směr proudění podzemních vod
100
AcDbPolyline
 70
0
 90
3
 10
16.5879651442155
 20
49.244633945091
 10
16.5881846564501
 20
49.2446156012419
 10
16.5879624931842
 20
49.2446128300751
  0
LWPOLYLINE
  5
2040B
100
AcDbEntity
  8
směr proudění podzemních vod
100
AcDbPolyline
 70
0
 90
3
 10
16.5852360693247
 20
49.243104178502
 10
16.5855630365036
 20
49.243106395222
 10
16.5852391717226
 20
49.2430705940872
  0
LWPOLYLINE
  5
2040C
100
AcDbEntity
  8
směr proudění podzemních vod
100
AcDbPolyline
 70
0
 90
3
 10
16.5881034678665
 20
49.2431374599155
 10
16.588418157926
 20
49.2430980470584
 10
16.5880969284011
 20
49.2431064105382
  0
LWPOLYLINE
  5
2040D
100
AcDbEntity
  8
směr proudění podzemních vod
100
AcDbPolyline
 70
0
 90
3
 10
16.5860263431838
 20
49.2411638061294
 10
16.5863598132772
 20
49.2411883444169
 10
16.5860309384015
 20
49.2411323402493
  0
LWPOLYLINE
  5
2040E
100
AcDbEntity
  8
směr proudění podzemních vod
100
AcDbPolyline
 70
0
 90
3
 10
16.5882860532682
 20
49.2412316280195
 10
16.5885907005776
 20
49.2411622336451
 10
16.5882736623237
 20
49.2411842610881
  0
LWPOLYLINE
  5
2040F
100
AcDbEntity
  8
směr proudění podzemních vod
100
AcDbPolyline
 70
0
 90
3
 10
16.5878861705667
 20
49.2386244632086
 10
16.588178063927
 20
49.2385925707466
 10
16.5878819303084
 20
49.2385943828433
  0
LWPOLYLINE
  5
20410
100
AcDbEntity
  8
směr proudění podzemních vod
100
AcDbPolyline
 70
0
 90
3
 10
16.592413444763
 20
49.2464771289197
 10
16.5922792176854
 20
49.2463306567563
 10
16.5924664747858
 20
49.2464575488256
  0
LWPOLYLINE
  5
20411
100
AcDbEntity
  8
směr proudění podzemních vod
100
AcDbPolyline
 70
0
 90
3
 10
16.5938618206619
 20
49.249036255546
 10
16.5937051583806
 20
49.2491549845173
 10
16.5939041821262
 20
49.2490625998966
  0
LWPOLYLINE
  5
20412
100
AcDbEntity
  8
směr proudění podzemních vod
100
AcDbPolyline
 70
0
 90
3
 10
16.5924483162744
 20
49.2439370573834
 10
16.5925465485572
 20
49.2437323233945
 10
16.5923855978182
 20
49.2439149025429
  0
LWPOLYLINE
  5
20413
100
AcDbEntity
  8
směr proudění podzemních vod
100
AcDbPolyline
 70
0
 90
3
 10
16.593501485799
 20
49.2418659975614
 10
16.5932255995172
 20
49.2417820160463
 10
16.5935211367636
 20
49.2418215143788
  0
LWPOLYLINE
  5
20414
100
AcDbEntity
  8
směr proudění podzemních vod
100
AcDbPolyline
 70
0
 90
3
 10
16.5957028029276
 20
49.2425516783128
 10
16.595522259755
 20
49.2424242213388
 10
16.5957456807276
 20
49.2425265481806
  0
LWPOLYLINE
  5
20415
100
AcDbEntity
  8
směr proudění podzemních vod
100
AcDbPolyline
 70
0
 90
3
 10
16.5880072431806
 20
49.236530349599
 10
16.5883061310355
 20
49.2365436110234
 10
16.5880126116967
 20
49.2364904877079
  0
LWPOLYLINE
  5
20416
100
AcDbEntity
  8
směr proudění podzemních vod
100
AcDbPolyline
 70
0
 90
3
 10
16.5901705437486
 20
49.2366194728036
 10
16.5905023957479
 20
49.236542076007
 10
16.5901521401123
 20
49.2365747050709
  0
LWPOLYLINE
  5
20417
100
AcDbEntity
  8
směr proudění podzemních vod
100
AcDbPolyline
 70
0
 90
3
 10
16.5896222874278
 20
49.2354239850527
 10
16.5899017106888
 20
49.2354386610787
 10
16.5896271735199
 20
49.2353981731648
  0
LWPOLYLINE
  5
20418
100
AcDbEntity
  8
směr proudění podzemních vod
100
AcDbPolyline
 70
0
 90
3
 10
16.59112026706
 20
49.2354481738052
 10
16.5913930168526
 20
49.2353963947899
 10
16.5911126950258
 20
49.2354122230696
  0
LWPOLYLINE
  5
20419
100
AcDbEntity
  8
směr proudění podzemních vod
100
AcDbPolyline
 70
0
 90
2
 10
16.6763818796524
 20
49.1889446481469
 10
16.6759694168217
 20
49.1885664451415
  0
LWPOLYLINE
  5
2041A
100
AcDbEntity
  8
směr proudění podzemních vod
100
AcDbPolyline
 70
0
 90
3
 10
16.6761764995796
 20
49.1888061642064
 10
16.6759694168217
 20
49.1885664451415
 10
16.6762527396186
 20
49.1887774458542
  0
LWPOLYLINE
  5
2041B
100
AcDbEntity
  8
směr proudění podzemních vod
100
AcDbPolyline
 70
0
 90
2
 10
16.6844276686186
 20
49.1858263402705
 10
16.684268796852
 20
49.185373259864
  0
LWPOLYLINE
  5
2041C
100
AcDbEntity
  8
směr proudění podzemních vod
100
AcDbPolyline
 70
0
 90
3
 10
16.6843193271296
 20
49.1856467402076
 10
16.684268796852
 20
49.185373259864
 10
16.6844065479604
 20
49.1856394445047
  0
LWPOLYLINE
  5
2041D
100
AcDbEntity
  8
směr proudění podzemních vod
100
AcDbPolyline
 70
0
 90
2
 10
16.6811369852732
 20
49.1801845952911
 10
16.6808418905166
 20
49.1797618635001
  0
LWPOLYLINE
  5
2041E
100
AcDbEntity
  8
směr proudění podzemních vod
100
AcDbPolyline
 70
0
 90
3
 10
16.6809755837238
 20
49.1800230280219
 10
16.6808418905166
 20
49.1797618635001
 10
16.6810587524743
 20
49.1800043420695
  0
LWPOLYLINE
  5
2041F
100
AcDbEntity
  8
směr proudění podzemních vod
100
AcDbPolyline
 70
0
 90
2
 10
16.6739359207597
 20
49.1759656509058
 10
16.6733712045292
 20
49.1756844958021
  0
LWPOLYLINE
  5
20420
100
AcDbEntity
  8
směr proudění podzemních vod
100
AcDbPolyline
 70
0
 90
3
 10
16.6736772428724
 20
49.175873254149
 10
16.6733712045292
 20
49.1756844958021
 10
16.673737068558
 20
49.175831023077
  0
LWPOLYLINE
  5
20421
100
AcDbEntity
  8
směr proudění podzemních vod
100
AcDbPolyline
 70
0
 90
2
 10
16.6896940792963
 20
49.1761072448474
 10
16.6892816230043
 20
49.1757290887691
  0
LWPOLYLINE
  5
20422
100
AcDbEntity
  8
směr proudění podzemních vod
100
AcDbPolyline
 70
0
 90
3
 10
16.6894887165495
 20
49.1759687844235
 10
16.6892816230043
 20
49.1757290887691
 10
16.6895649292889
 20
49.175940056319
  0
LWPOLYLINE
  5
20423
100
AcDbEntity
  8
směr proudění podzemních vod
100
AcDbPolyline
 70
0
 90
2
 10
16.6804110049193
 20
49.1708624771162
 10
16.6799505082737
 20
49.17050898432
  0
LWPOLYLINE
  5
20424
100
AcDbEntity
  8
směr proudění podzemních vod
100
AcDbPolyline
 70
0
 90
3
 10
16.6801882595223
 20
49.1707361109656
 10
16.6799505082737
 20
49.17050898432
 10
16.6802604119119
 20
49.170703192332
  0
LWPOLYLINE
  5
20425
100
AcDbEntity
  8
směr proudění podzemních vod
100
AcDbPolyline
 70
0
 90
2
 10
16.6981418202824
 20
49.1728907413793
 10
16.6976953471227
 20
49.1725295871749
  0
LWPOLYLINE
  5
20426
100
AcDbEntity
  8
směr proudění podzemních vod
100
AcDbPolyline
 70
0
 90
3
 10
16.6979241045636
 20
49.1727606554421
 10
16.6976953471227
 20
49.1725295871749
 10
16.6979975300715
 20
49.1727289659658
  0
LWPOLYLINE
  5
20427
100
AcDbEntity
  8
směr proudění podzemních vod
100
AcDbPolyline
 70
0
 90
2
 10
16.6875373655724
 20
49.1655419638832
 10
16.6870758425938
 20
49.1651890748466
  0
LWPOLYLINE
  5
20428
100
AcDbEntity
  8
směr proudění podzemních vod
100
AcDbPolyline
 70
0
 90
3
 10
16.6873142589996
 20
49.1654158904182
 10
16.6870758425938
 20
49.1651890748466
 10
16.687386304778
 20
49.1653828765794
  0
LWPOLYLINE
  5
20429
100
AcDbEntity
  8
směr proudění podzemních vod
100
AcDbPolyline
 70
0
 90
2
 10
16.6678805478865
 20
49.1880052086264
 10
16.6671969075316
 20
49.1878806034645
  0
LWPOLYLINE
  5
2042A
100
AcDbEntity
  8
směr proudění podzemních vod
100
AcDbPolyline
 70
0
 90
3
 10
16.6675782907727
 20
49.1879855000214
 10
16.6671969075316
 20
49.1878806034645
 10
16.667613704794
 20
49.1879228374855
  0
LWPOLYLINE
  5
2042B
100
AcDbEntity
  8
směr proudění podzemních vod
100
AcDbPolyline
 70
0
 90
2
 10
16.6804714230431
 20
49.187631612115
 10
16.6806076668599
 20
49.1871753772125
  0
LWPOLYLINE
  5
2042C
100
AcDbEntity
  8
směr proudění podzemních vod
100
AcDbPolyline
 70
0
 90
3
 10
16.6804839925129
 20
49.1874386580644
 10
16.6806076668599
 20
49.1871753772125
 10
16.6805681931721
 20
49.1874552661644
  0
LWPOLYLINE
  5
2042D
100
AcDbEntity
  8
směr proudění podzemních vod
100
AcDbPolyline
 70
0
 90
2
 10
16.6811468529379
 20
49.1887287350863
 10
16.681742162324
 20
49.1884760055723
  0
LWPOLYLINE
  5
2042E
100
AcDbEntity
  8
směr proudění podzemních vod
100
AcDbPolyline
 70
0
 90
3
 10
16.6813673258846
 20
49.1886006086942
 10
16.681742162324
 20
49.1884760055723
 10
16.6814075995873
 20
49.188651844144
  0
LWPOLYLINE
  5
2042F
100
AcDbEntity
  8
směr proudění podzemních vod
100
AcDbPolyline
 70
0
 90
2
 10
16.6724007506744
 20
49.18432746134
 10
16.6719883566114
 20
49.1839492438484
  0
LWPOLYLINE
  5
20430
100
AcDbEntity
  8
směr proudění podzemních vod
100
AcDbPolyline
 70
0
 90
3
 10
16.6721954008444
 20
49.1841889702212
 10
16.6719883566114
 20
49.1839492438484
 10
16.6722716362329
 20
49.1841602535834
  0
LWPOLYLINE
  5
20431
100
AcDbEntity
  8
směr proudění podzemních vod
100
AcDbPolyline
 70
0
 90
3
 10
16.5655758973145
 20
49.1771665930285
 10
16.5655047006965
 20
49.1768856261019
 10
16.5656713266275
 20
49.1771471804917
  0
LWPOLYLINE
  5
20432
100
AcDbEntity
  8
směr proudění podzemních vod
100
AcDbPolyline
 70
0
 90
2
 10
16.5657045740638
 20
49.1773331551284
 10
16.5655047006965
 20
49.1768856261019
  0
LWPOLYLINE
  5
20433
100
AcDbEntity
  8
směr proudění podzemních vod
100
AcDbPolyline
 70
0
 90
2
 10
16.5643024099075
 20
49.1732765561612
 10
16.5641025655244
 20
49.1728290244501
  0
LWPOLYLINE
  5
20434
100
AcDbEntity
  8
směr proudění podzemních vod
100
AcDbPolyline
 70
0
 90
3
 10
16.5641737483883
 20
49.1731099924036
 10
16.5641025655244
 20
49.1728290244501
 10
16.5642691704394
 20
49.173090581013
  0
LWPOLYLINE
  5
20435
100
AcDbEntity
  8
směr proudění podzemních vod
100
AcDbPolyline
 70
0
 90
2
 10
16.5629159066351
 20
49.1688542154865
 10
16.5627160925598
 20
49.1684066810974
  0
LWPOLYLINE
  5
20436
100
AcDbEntity
  8
směr proudění podzemních vod
100
AcDbPolyline
 70
0
 90
3
 10
16.5627872612384
 20
49.1686876500814
 10
16.5627160925598
 20
49.1684066810974
 10
16.5628826753186
 20
49.1686682398225
  0
LWPOLYLINE
  5
20437
100
AcDbEntity
  8
směr proudění podzemních vod
100
AcDbPolyline
 70
0
 90
2
 10
16.5618288599982
 20
49.1641432998812
 10
16.5617827182561
 20
49.1636779631799
  0
LWPOLYLINE
  5
20438
100
AcDbEntity
  8
směr proudění podzemních vod
100
AcDbPolyline
 70
0
 90
3
 10
16.5617587217238
 20
49.1639623459755
 10
16.5617827182561
 20
49.1636779631799
 10
16.561858285293
 20
49.1639570493272
  0
LWPOLYLINE
  5
20439
100
AcDbEntity
  8
směr proudění podzemních vod
100
AcDbPolyline
 70
0
 90
2
 10
16.5609479391043
 20
49.1579783980207
 10
16.5608456464016
 20
49.1575169298282
  0
LWPOLYLINE
  5
2043A
100
AcDbEntity
  8
směr proudění podzemních vod
100
AcDbPolyline
 70
0
 90
3
 10
16.5608561365944
 20
49.1578016649162
 10
16.5608456464016
 20
49.1575169298282
 10
16.5609547320755
 20
49.1577912036508
  0
LWPOLYLINE
  5
2043B
100
AcDbEntity
  8
směr proudění podzemních vod
100
AcDbPolyline
 70
0
 90
2
 10
16.5552137858326
 20
49.1727945298135
 10
16.5550140268127
 20
49.1723469824525
  0
LWPOLYLINE
  5
2043C
100
AcDbEntity
  8
směr proudění podzemních vod
100
AcDbPolyline
 70
0
 90
3
 10
16.5550851574722
 20
49.1726279560144
 10
16.5550140268127
 20
49.1723469824525
 10
16.5551805807834
 20
49.1726085520466
  0
LWPOLYLINE
  5
2043D
100
AcDbEntity
  8
směr proudění podzemních vod
100
AcDbPolyline
 70
0
 90
2
 10
16.5512071025468
 20
49.1668941302865
 10
16.5508497229548
 20
49.1664909752287
  0
LWPOLYLINE
  5
2043E
100
AcDbEntity
  8
směr proudění podzemních vod
100
AcDbPolyline
 70
0
 90
3
 10
16.5510213941926
 20
49.1667526027663
 10
16.5508497229548
 20
49.1664909752287
 10
16.5511069432431
 20
49.1667187790672
  0
LWPOLYLINE
  5
2043F
100
AcDbEntity
  8
směr proudění podzemních vod
100
AcDbPolyline
 70
0
 90
2
 10
16.6075713896591
 20
49.271527611079
 10
16.6075859690777
 20
49.2719869434815
  0
LWPOLYLINE
  5
20440
100
AcDbEntity
  8
směr proudění podzemních vod
100
AcDbPolyline
 70
0
 90
3
 10
16.6075340054158
 20
49.2717349835581
 10
16.6075859690777
 20
49.2719869434815
 10
16.6076253958589
 20
49.2717384157195
  0
LWPOLYLINE
  5
20441
100
AcDbEntity
  8
směr proudění podzemních vod
100
AcDbPolyline
 70
0
 90
3
 10
16.6063646295958
 20
49.2696910376388
 10
16.6060373912341
 20
49.2695539748506
 10
16.6063015119294
 20
49.2697344205146
  0
LWPOLYLINE
  5
20442
100
AcDbEntity
  8
směr proudění podzemních vod
100
AcDbPolyline
 70
0
 90
2
 10
16.606582111543
 20
49.2698438388218
 10
16.6060373912341
 20
49.2695539748506
  0
LWPOLYLINE
  5
20443
100
AcDbEntity
  8
směr proudění podzemních vod
100
AcDbPolyline
 70
0
 90
3
 10
16.6113248131397
 20
49.2718237451893
 10
16.6112547119724
 20
49.2720738184232
 10
16.6114100644598
 20
49.2718455669867
  0
LWPOLYLINE
  5
20444
100
AcDbEntity
  8
směr proudění podzemních vod
100
AcDbPolyline
 70
0
 90
2
 10
16.6114587031254
 20
49.2716342037439
 10
16.6112547119724
 20
49.2720738184232
  0
LWPOLYLINE
  5
20445
100
AcDbEntity
  8
směr proudění podzemních vod
100
AcDbPolyline
 70
0
 90
3
 10
16.6111221158412
 20
49.2664757310091
 10
16.6107931731414
 20
49.2663404472542
 10
16.6110595532258
 20
49.2665194545636
  0
LWPOLYLINE
  5
20446
100
AcDbEntity
  8
směr proudění podzemních vod
100
AcDbPolyline
 70
0
 90
2
 10
16.6113415102921
 20
49.2666273488506
 10
16.6107931731414
 20
49.2663404472542
  0
LWPOLYLINE
  5
20447
100
AcDbEntity
  8
směr proudění podzemních vod
100
AcDbPolyline
 70
0
 90
2
 10
16.6071144632172
 20
49.2645315828144
 10
16.6064562225246
 20
49.2643718758599
  0
LWPOLYLINE
  5
20448
100
AcDbEntity
  8
směr proudění podzemních vod
100
AcDbPolyline
 70
0
 90
3
 10
16.6068334257666
 20
49.2644327197141
 10
16.6064562225246
 20
49.2643718758599
 10
16.6067950098104
 20
49.2644870879911
  0
LWPOLYLINE
  5
20449
100
AcDbEntity
  8
směr proudění podzemních vod
100
AcDbPolyline
 70
0
 90
2
 10
16.6184937612026
 20
49.2710156229044
 10
16.6190150711387
 20
49.2713233795209
  0
LWPOLYLINE
  5
2044A
100
AcDbEntity
  8
směr proudění podzemních vod
100
AcDbPolyline
 70
0
 90
3
 10
16.6186989902717
 20
49.271175519863
 10
16.6190150711387
 20
49.2713233795209
 10
16.6187654253873
 20
49.2711343116753
  0
LWPOLYLINE
  5
2044B
100
AcDbEntity
  8
směr proudění podzemních vod
100
AcDbPolyline
 70
0
 90
2
 10
16.6173989608104
 20
49.267206801175
 10
16.6176450518554
 20
49.2667765195764
  0
LWPOLYLINE
  5
2044C
100
AcDbEntity
  8
směr proudění podzemních vod
100
AcDbPolyline
 70
0
 90
3
 10
16.6175509063068
 20
49.2670231872671
 10
16.6176450518554
 20
49.2667765195764
 10
16.6174679452497
 20
49.2669978773588
  0
LWPOLYLINE
  5
2044D
100
AcDbEntity
  8
směr proudění podzemních vod
100
AcDbPolyline
 70
0
 90
2
 10
16.6260343498592
 20
49.2688095364749
 10
16.6265202381216
 20
49.2691411702414
  0
LWPOLYLINE
  5
2044E
100
AcDbEntity
  8
směr proudění podzemních vod
100
AcDbPolyline
 70
0
 90
3
 10
16.6262213501536
 20
49.2689787316658
 10
16.6265202381216
 20
49.2691411702414
 10
16.6262921663291
 20
49.2689407775958
  0
LWPOLYLINE
  5
2044F
100
AcDbEntity
  8
směr proudění podzemních vod
100
AcDbPolyline
 70
0
 90
3
 10
16.6228067608874
 20
49.2662314025204
 10
16.6224188143172
 20
49.2662177777003
 10
16.6227845512109
 20
49.2662895126147
  0
LWPOLYLINE
  5
20450
100
AcDbEntity
  8
směr proudění podzemních vod
100
AcDbPolyline
 70
0
 90
2
 10
16.6231110963283
 20
49.2662941410202
 10
16.6224188143172
 20
49.2662177777003
  0
LWPOLYLINE
  5
20451
100
AcDbEntity
  8
směr proudění podzemních vod
100
AcDbPolyline
 70
0
 90
3
 10
16.6198672784366
 20
49.259666749149
 10
16.6195399792071
 20
49.2598036821656
 10
16.6199009948598
 20
49.2597224357343
  0
LWPOLYLINE
  5
20452
100
AcDbEntity
  8
směr proudění podzemních vod
100
AcDbPolyline
 70
0
 90
2
 10
16.6201703976522
 20
49.2596016187827
 10
16.6195399792071
 20
49.2598036821656
  0
LWPOLYLINE
  5
20453
100
AcDbEntity
  8
směr proudění podzemních vod
100
AcDbPolyline
 70
0
 90
3
 10
16.6081240074469
 20
49.2605642702024
 10
16.607999103791
 20
49.2608050145676
 10
16.6082034852853
 20
49.2605939724557
  0
LWPOLYLINE
  5
20454
100
AcDbEntity
  8
směr proudění podzemních vod
100
AcDbPolyline
 70
0
 90
2
 10
16.6082985582892
 20
49.260389483744
 10
16.607999103791
 20
49.2608050145676
  0
LWPOLYLINE
  5
20455
100
AcDbEntity
  8
směr proudění podzemních vod
100
AcDbPolyline
 70
0
 90
3
 10
16.611177792884
 20
49.2568884429609
 10
16.6111199237195
 20
49.2566370351174
 10
16.6110863594849
 20
49.256885932119
  0
LWPOLYLINE
  5
20456
100
AcDbEntity
  8
směr proudění podzemních vod
100
AcDbPolyline
 70
0
 90
2
 10
16.6111453032506
 20
49.2570961678513
 10
16.6111199237195
 20
49.2566370351174
  0
LWPOLYLINE
  5
20457
100
AcDbEntity
  8
směr proudění podzemních vod
100
AcDbPolyline
 70
0
 90
3
 10
16.6156820064757
 20
49.2560372781923
 10
16.6153649693826
 20
49.2558903875325
 10
16.6156158869228
 20
49.2560786893837
  0
LWPOLYLINE
  5
20458
100
AcDbEntity
  8
směr proudění podzemních vod
100
AcDbPolyline
 70
0
 90
2
 10
16.6158883168394
 20
49.2561965438806
 10
16.6153649693826
 20
49.2558903875325
  0
LWPOLYLINE
  5
20459
100
AcDbEntity
  8
směr proudění podzemních vod
100
AcDbPolyline
 70
0
 90
3
 10
16.6296431155516
 20
49.2641440488119
 10
16.6299552676594
 20
49.2642954010753
 10
16.6297106025672
 20
49.2641035845472
  0
LWPOLYLINE
  5
2045A
100
AcDbEntity
  8
směr proudění podzemních vod
100
AcDbPolyline
 70
0
 90
2
 10
16.6294420976808
 20
49.2639818928118
 10
16.6299552676594
 20
49.2642954010753
  0
LWPOLYLINE
  5
2045B
100
AcDbEntity
  8
směr proudění podzemních vod
100
AcDbPolyline
 70
0
 90
3
 10
16.6349587381836
 20
49.2657562371481
 10
16.6353472384957
 20
49.2657568782261
 10
16.6349763836785
 20
49.265697461089
  0
LWPOLYLINE
  5
2045C
100
AcDbEntity
  8
směr proudění podzemních vod
100
AcDbPolyline
 70
0
 90
2
 10
16.634649909363
 20
49.2657037506764
 10
16.6353472384957
 20
49.2657568782261
  0
LWPOLYLINE
  5
2045D
100
AcDbEntity
  8
směr proudění podzemních vod
100
AcDbPolyline
 70
0
 90
3
 10
16.6308403164262
 20
49.259233913793
 10
16.6305861062228
 20
49.2590416708039
 10
16.6307609826733
 20
49.2592637777209
  0
LWPOLYLINE
  5
2045E
100
AcDbEntity
  8
směr proudění podzemních vod
100
AcDbPolyline
 70
0
 90
2
 10
16.6309824808151
 20
49.2594208457373
 10
16.6305861062228
 20
49.2590416708039
  0
LWPOLYLINE
  5
2045F
100
AcDbEntity
  8
směr proudění podzemních vod
100
AcDbPolyline
 70
0
 90
3
 10
16.6240872663564
 20
49.2554460997572
 10
16.624282653847
 20
49.2552263639824
 10
16.6240183817058
 20
49.2554066666555
  0
LWPOLYLINE
  5
20460
100
AcDbEntity
  8
směr proudění podzemních vod
100
AcDbPolyline
 70
0
 90
2
 10
16.623863216728
 20
49.2555947411699
 10
16.624282653847
 20
49.2552263639824
  0
LWPOLYLINE
  5
20461
100
AcDbEntity
  8
směr proudění podzemních vod
100
AcDbPolyline
 70
0
 90
3
 10
16.6411833119985
 20
49.2586569062486
 10
16.6415368292617
 20
49.258551538605
 10
16.6411619287641
 20
49.258598664302
  0
LWPOLYLINE
  5
20462
100
AcDbEntity
  8
směr proudění podzemních vod
100
AcDbPolyline
 70
0
 90
2
 10
16.6408691989634
 20
49.2586934160442
 10
16.6415368292617
 20
49.258551538605
  0
LWPOLYLINE
  5
20463
100
AcDbEntity
  8
směr proudění podzemních vod
100
AcDbPolyline
 70
0
 90
3
 10
16.6405267673727
 20
49.2516301466675
 10
16.6408177841139
 20
49.2514617742891
 10
16.6404803254755
 20
49.2515785356705
  0
LWPOLYLINE
  5
20464
100
AcDbEntity
  8
směr proudění podzemních vod
100
AcDbPolyline
 70
0
 90
2
 10
16.6402426977484
 20
49.2517251319376
 10
16.6408177841139
 20
49.2514617742891
  0
LWPOLYLINE
  5
20465
100
AcDbEntity
  8
směr proudění podzemních vod
100
AcDbPolyline
 70
0
 90
3
 10
16.6403868492656
 20
49.2628415777577
 10
16.6407365329846
 20
49.2629523297938
 10
16.6404416689839
 20
49.2627936109673
  0
LWPOLYLINE
  5
20466
100
AcDbEntity
  8
směr proudění podzemních vod
100
AcDbPolyline
 70
0
 90
2
 10
16.6401432936909
 20
49.2627066947088
 10
16.6407365329846
 20
49.2629523297938
  0
LWPOLYLINE
  5
20467
100
AcDbEntity
  8
směr proudění podzemních vod
100
AcDbPolyline
 70
0
 90
2
 10
16.6257734190539
 20
49.2500110576247
 10
16.6264419185587
 20
49.2498711825346
  0
LWPOLYLINE
  5
20468
100
AcDbEntity
  8
směr proudění podzemních vod
100
AcDbPolyline
 70
0
 90
3
 10
16.6260877306828
 20
49.249975489611
 10
16.6264419185587
 20
49.2498711825346
 10
16.6260667589765
 20
49.2499171836906
  0
LWPOLYLINE
  5
20469
100
AcDbEntity
  8
směr proudění podzemních vod
100
AcDbPolyline
 70
0
 90
2
 10
16.6327023055399
 20
49.2494257849918
 10
16.6332844682555
 20
49.249169202068
  0
LWPOLYLINE
  5
2046A
100
AcDbEntity
  8
směr proudění podzemních vod
100
AcDbPolyline
 70
0
 90
3
 10
16.6329889130857
 20
49.2493341411071
 10
16.6332844682555
 20
49.249169202068
 10
16.6329438897414
 20
49.2492819942299
  0
LWPOLYLINE
  5
2046B
100
AcDbEntity
  8
směr proudění podzemních vod
100
AcDbPolyline
 70
0
 90
2
 10
16.6254717742876
 20
49.2423932256876
 10
16.6255888329603
 20
49.2419402296109
  0
LWPOLYLINE
  5
2046C
100
AcDbEntity
  8
směr proudění podzemních vod
100
AcDbPolyline
 70
0
 90
3
 10
16.6255677857071
 20
49.242194102442
 10
16.6255888329603
 20
49.2419402296109
 10
16.6254790459254
 20
49.2421795322163
  0
LWPOLYLINE
  5
2046D
100
AcDbEntity
  8
směr proudění podzemních vod
100
AcDbPolyline
 70
0
 90
2
 10
16.632621695861
 20
49.2429412634091
 10
16.6332979933404
 20
49.2428187280009
  0
LWPOLYLINE
  5
2046E
100
AcDbEntity
  8
směr proudění podzemních vod
100
AcDbPolyline
 70
0
 90
3
 10
16.6329378572391
 20
49.2429138242697
 10
16.6332979933404
 20
49.2428187280009
 10
16.6329204101724
 20
49.2428550233376
  0
LWPOLYLINE
  5
2046F
100
AcDbEntity
  8
směr proudění podzemních vod
100
AcDbPolyline
 70
0
 90
2
 10
16.6392399147795
 20
49.2414229593156
 10
16.6398620125793
 20
49.2412104226536
  0
LWPOLYLINE
  5
20470
100
AcDbEntity
  8
směr proudění podzemních vod
100
AcDbPolyline
 70
0
 90
3
 10
16.6395402827996
 20
49.2413527837242
 10
16.6398620125793
 20
49.2412104226536
 10
16.6395044190862
 20
49.2412976782342
  0
LWPOLYLINE
  5
20471
100
AcDbEntity
  8
směr proudění podzemních vod
100
AcDbPolyline
 70
0
 90
2
 10
16.6127969271851
 20
49.2460029590536
 10
16.6123155183964
 20
49.2456686762128
  0
LWPOLYLINE
  5
20472
100
AcDbEntity
  8
směr proudění podzemních vod
100
AcDbPolyline
 70
0
 90
3
 10
16.6126121800684
 20
49.2458327464116
 10
16.6123155183964
 20
49.2456686762128
 10
16.6125409146403
 20
49.2458703115475
  0
LWPOLYLINE
  5
20473
100
AcDbEntity
  8
směr proudění podzemních vod
100
AcDbPolyline
 70
0
 90
2
 10
16.6194747390153
 20
49.2452836235165
 10
16.6192615428356
 20
49.2448459057683
  0
LWPOLYLINE
  5
20474
100
AcDbEntity
  8
směr proudění podzemních vod
100
AcDbPolyline
 70
0
 90
3
 10
16.6194206229453
 20
49.2450778406824
 10
16.6192615428356
 20
49.2448459057683
 10
16.6193315512278
 20
49.2450915300043
  0
LWPOLYLINE
  5
20475
100
AcDbEntity
  8
směr proudění podzemních vod
100
AcDbPolyline
 70
0
 90
2
 10
16.6150222360461
 20
49.2620580836818
 10
16.6144923317488
 20
49.2623594192182
  0
LWPOLYLINE
  5
20476
100
AcDbEntity
  8
směr proudění podzemních vod
100
AcDbPolyline
 70
0
 90
3
 10
16.61475486805
 20
49.2621720218421
 10
16.6144923317488
 20
49.2623594192182
 10
16.6148093242391
 20
49.2622201660562
  0
LWPOLYLINE
  5
20477
100
AcDbEntity
  8
směr proudění podzemních vod
100
AcDbPolyline
 70
0
 90
2
 10
16.5912323558235
 20
49.1870261678646
 10
16.5914149403544
 20
49.1865759506492
  0
LWPOLYLINE
  5
20478
100
AcDbEntity
  8
směr proudění podzemních vod
100
AcDbPolyline
 70
0
 90
3
 10
16.591351420502
 20
49.1868553571051
 10
16.5914149403544
 20
49.1865759506492
 10
16.5912633719164
 20
49.1868420229191
  0
LWPOLYLINE
  5
20479
100
AcDbEntity
  8
směr proudění podzemních vod
100
AcDbPolyline
 70
0
 90
2
 10
16.5960886979301
 20
49.189528714314
 10
16.5959266711679
 20
49.1890751277245
  0
LWPOLYLINE
  5
2047A
100
AcDbEntity
  8
směr proudění podzemních vod
100
AcDbPolyline
 70
0
 90
3
 10
16.5960711652187
 20
49.1893412703895
 10
16.5959266711679
 20
49.1890751277245
 10
16.5959838952784
 20
49.1893566568152
  0
LWPOLYLINE
  5
2047B
100
AcDbEntity
  8
směr proudění podzemních vod
100
AcDbPolyline
 70
0
 90
2
 10
16.5975556455255
 20
49.1923823787825
 10
16.5972602523807
 20
49.1919586604591
  0
LWPOLYLINE
  5
2047C
100
AcDbEntity
  8
směr proudění podzemních vod
100
AcDbPolyline
 70
0
 90
3
 10
16.5974820303034
 20
49.1922008870919
 10
16.5972602523807
 20
49.1919586604591
 10
16.5974011009187
 20
49.192227256018
  0
LWPOLYLINE
  5
2047D
100
AcDbEntity
  8
směr proudění podzemních vod
100
AcDbPolyline
 70
0
 90
2
 10
16.6005338586358
 20
49.1863182919104
 10
16.6001993287001
 20
49.1859072745361
  0
LWPOLYLINE
  5
2047E
100
AcDbEntity
  8
směr proudění podzemních vod
100
AcDbPolyline
 70
0
 90
3
 10
16.6004433739833
 20
49.1861401090056
 10
16.6001993287001
 20
49.1859072745361
 10
16.6003650808826
 20
49.1861696881939
  0
LWPOLYLINE
  5
2047F
100
AcDbEntity
  8
směr proudění podzemních vod
100
AcDbPolyline
 70
0
 90
2
 10
16.6017964469596
 20
49.1889747428444
 10
16.6016465222882
 20
49.1885193722666
  0
LWPOLYLINE
  5
20480
100
AcDbEntity
  8
směr proudění podzemních vod
100
AcDbPolyline
 70
0
 90
3
 10
16.6017839072116
 20
49.1887871271496
 10
16.6016465222882
 20
49.1885193722666
 10
16.601696241532
 20
49.1888015127705
  0
LWPOLYLINE
  5
20481
100
AcDbEntity
  8
směr proudění podzemních vod
100
AcDbPolyline
 70
0
 90
2
 10
16.6016224909887
 20
49.1922373292077
 10
16.6016627217578
 20
49.1917722230811
  0
LWPOLYLINE
  5
20482
100
AcDbEntity
  8
směr proudění podzemních vod
100
AcDbPolyline
 70
0
 90
3
 10
16.6016865275088
 20
49.1920542829892
 10
16.6016627217578
 20
49.1917722230811
 10
16.601596175753
 20
49.1920528702861
  0
LWPOLYLINE
  5
20483
100
AcDbEntity
  8
směr proudění podzemních vod
100
AcDbPolyline
 70
0
 90
2
 10
16.6081616930843
 20
49.1884540390187
 10
16.6082056684993
 20
49.1879890781495
  0
LWPOLYLINE
  5
20484
100
AcDbEntity
  8
směr proudění podzemních vod
100
AcDbPolyline
 70
0
 90
3
 10
16.6082271987926
 20
49.1882712173355
 10
16.6082056684993
 20
49.1879890781495
 10
16.6081368662439
 20
49.1882694913533
  0
LWPOLYLINE
  5
20485
100
AcDbEntity
  8
směr proudění podzemních vod
100
AcDbPolyline
 70
0
 90
3
 10
16.5881590469809
 20
49.185741434441
 10
16.5882715672185
 20
49.1854687415241
 10
16.588073952584
 20
49.1857214982293
  0
LWPOLYLINE
  5
20486
100
AcDbEntity
  8
směr proudění podzemních vod
100
AcDbPolyline
 70
0
 90
2
 10
16.5880105692805
 20
49.185902042925
 10
16.5882715672185
 20
49.1854687415241
  0
LWPOLYLINE
  5
20487
100
AcDbEntity
  8
směr proudění podzemních vod
100
AcDbPolyline
 70
0
 90
3
 10
16.5865546674104
 20
49.1911008031383
 10
16.5865435649299
 20
49.1908184054562
 10
16.5864644212108
 20
49.191097643813
  0
LWPOLYLINE
  5
20488
100
AcDbEntity
  8
směr proudění podzemních vod
100
AcDbPolyline
 70
0
 90
2
 10
16.5864824226224
 20
49.1912825316981
 10
16.5865435649299
 20
49.1908184054562
  0
LWPOLYLINE
  5
20489
100
AcDbEntity
  8
směr proudění podzemních vod
100
AcDbPolyline
 70
0
 90
3
 10
16.5860373874513
 20
49.194407506232
 10
16.5860327895947
 20
49.194125030636
 10
16.5859472180015
 20
49.1944034541857
  0
LWPOLYLINE
  5
2048A
100
AcDbEntity
  8
směr proudění podzemních vod
100
AcDbPolyline
 70
0
 90
2
 10
16.5859609611023
 20
49.1945884990577
 10
16.5860327895947
 20
49.194125030636
  0
LWPOLYLINE
  5
2048B
100
AcDbEntity
  8
směr proudění podzemních vod
100
AcDbPolyline
 70
0
 90
3
 10
16.5925724496677
 20
49.1961209604099
 10
16.5929042594645
 20
49.1959406386166
 10
16.5925204344852
 20
49.1960725186473
  0
LWPOLYLINE
  5
2048C
100
AcDbEntity
  8
směr proudění podzemních vod
100
AcDbPolyline
 70
0
 90
2
 10
16.5923098342099
 20
49.1961961047745
 10
16.5929042594645
 20
49.1959406386166
  0
LWPOLYLINE
  5
2048D
100
AcDbEntity
  8
směr proudění podzemních vod
100
AcDbPolyline
 70
0
 90
2
 10
16.5838169907745
 20
49.1945274927879
 10
16.5836058572877
 20
49.1940826642016
  0
LWPOLYLINE
  5
2048E
100
AcDbEntity
  8
směr proudění podzemních vod
100
AcDbPolyline
 70
0
 90
3
 10
16.5837790426853
 20
49.1943413509851
 10
16.5836058572877
 20
49.1940826642016
 10
16.5836936663101
 20
49.1943607892269
  0
LWPOLYLINE
  5
2048F
100
AcDbEntity
  8
směr proudění podzemních vod
100
AcDbPolyline
 70
0
 90
2
 10
16.583391304292
 20
49.1912106337032
 10
16.5833516840653
 20
49.1907455049177
  0
LWPOLYLINE
  5
20490
100
AcDbEntity
  8
směr proudění podzemních vod
100
AcDbPolyline
 70
0
 90
3
 10
16.5834236100124
 20
49.1910240350502
 10
16.5833516840653
 20
49.1907455049177
 10
16.5833335875953
 20
49.1910292732491
  0
LWPOLYLINE
  5
20491
100
AcDbEntity
  8
směr proudění podzemních vod
100
AcDbPolyline
 70
0
 90
2
 10
16.5889339420703
 20
49.1952095425665
 10
16.5894709284397
 20
49.1949043050471
  0
LWPOLYLINE
  5
20492
100
AcDbEntity
  8
směr proudění podzemních vod
100
AcDbPolyline
 70
0
 90
3
 10
16.5891788743841
 20
49.1951120710255
 10
16.5894709284397
 20
49.1949043050471
 10
16.5891174479279
 20
49.1950686195139
  0
LWPOLYLINE
  5
20493
100
AcDbEntity
  8
směr proudění podzemních vod
100
AcDbPolyline
 70
0
 90
2
 10
16.5904108326061
 20
49.1920322744649
 10
16.5905266058588
 20
49.1915726424863
  0
LWPOLYLINE
  5
20494
100
AcDbEntity
  8
směr proudění podzemních vod
100
AcDbPolyline
 70
0
 90
3
 10
16.5905043234776
 20
49.1918547558871
 10
16.5905266058588
 20
49.1915726424863
 10
16.5904147181664
 20
49.1918470286038
  0
LWPOLYLINE
  5
20495
100
AcDbEntity
  8
směr proudění podzemních vod
100
AcDbPolyline
 70
0
 90
2
 10
16.5909741412243
 20
49.1890006058464
 10
16.5910459133422
 20
49.1885371337989
  0
LWPOLYLINE
  5
20496
100
AcDbEntity
  8
směr proudění podzemních vod
100
AcDbPolyline
 70
0
 90
3
 10
16.5910505406377
 20
49.188819609539
 10
16.5910459133422
 20
49.1885371337989
 10
16.5909603794298
 20
49.1888155622071
  0
LWPOLYLINE
  5
20497
100
AcDbEntity
  8
směr proudění podzemních vod
100
AcDbPolyline
 70
0
 90
2
 10
16.5953065809598
 20
49.187652113917
 10
16.5953162013993
 20
49.1871863038163
  0
LWPOLYLINE
  5
20498
100
AcDbEntity
  8
směr proudění podzemních vod
100
AcDbPolyline
 70
0
 90
3
 10
16.5953585209334
 20
49.1874674297619
 10
16.5953162013993
 20
49.1871863038163
 10
16.5952681692184
 20
49.1874685694707
  0
LWPOLYLINE
  5
20499
100
AcDbEntity
  8
směr proudění podzemních vod
100
AcDbPolyline
 70
0
 90
3
 10
16.5938075318487
 20
49.1925994514598
 10
16.5937773288595
 20
49.1923176544975
 10
16.593717157014
 20
49.192598919238
  0
LWPOLYLINE
  5
2049A
100
AcDbEntity
  8
směr proudění podzemních vod
100
AcDbPolyline
 70
0
 90
2
 10
16.5937476556994
 20
49.1927831018709
 10
16.5937773288595
 20
49.1923176544975
  0
LWPOLYLINE
  5
2049B
100
AcDbEntity
  8
směr proudění podzemních vod
100
AcDbPolyline
 70
0
 90
2
 10
16.5772496676103
 20
49.1996198286452
 10
16.5766960817929
 20
49.1993333018028
  0
LWPOLYLINE
  5
2049C
100
AcDbEntity
  8
směr proudění podzemních vod
100
AcDbPolyline
 70
0
 90
3
 10
16.577096385855
 20
49.1994969817629
 10
16.5766960817929
 20
49.1993333018028
 10
16.5770296391921
 20
49.1995544786096
  0
LWPOLYLINE
  5
2049D
100
AcDbEntity
  8
směr proudění podzemních vod
100
AcDbPolyline
 70
0
 90
2
 10
16.5746496854778
 20
49.2015577315528
 10
16.5740538294095
 20
49.2013102529782
  0
LWPOLYLINE
  5
2049E
100
AcDbEntity
  8
směr proudění podzemních vod
100
AcDbPolyline
 70
0
 90
3
 10
16.574477833783
 20
49.2014459297325
 10
16.5740538294095
 20
49.2013102529782
 10
16.5744205163521
 20
49.2015076411493
  0
LWPOLYLINE
  5
2049F
100
AcDbEntity
  8
směr proudění podzemních vod
100
AcDbPolyline
 70
0
 90
2
 10
16.5696686863339
 20
49.2000791290698
 10
16.5689800272315
 20
49.1999788939024
  0
LWPOLYLINE
  5
204A0
100
AcDbEntity
  8
směr proudění podzemních vod
100
AcDbPolyline
 70
0
 90
3
 10
16.5694491276811
 20
49.2000121946009
 10
16.5689800272315
 20
49.1999788939024
 10
16.5694271835464
 20
49.2000829917083
  0
LWPOLYLINE
  5
204A1
100
AcDbEntity
  8
směr proudění podzemních vod
100
AcDbPolyline
 70
0
 90
2
 10
16.5795645697673
 20
49.1980729450558
 10
16.5791035961792
 20
49.1977230285731
  0
LWPOLYLINE
  5
204A2
100
AcDbEntity
  8
směr proudění podzemních vod
100
AcDbPolyline
 70
0
 90
3
 10
16.5794494774867
 20
49.197933330263
 10
16.5791035961792
 20
49.1977230285731
 10
16.5793673563258
 20
49.1979815263223
  0
LWPOLYLINE
  5
204A3
100
AcDbEntity
  8
směr proudění podzemních vod
100
AcDbPolyline
 70
0
 90
2
 10
16.5820938855464
 20
49.1965161678039
 10
16.5818327676027
 20
49.1960867298438
  0
LWPOLYLINE
  5
204A4
100
AcDbEntity
  8
směr proudění podzemních vod
100
AcDbPolyline
 70
0
 90
3
 10
16.5820547532201
 20
49.1963595688839
 10
16.5818327676027
 20
49.1960867298438
 10
16.581953106944
 20
49.1963875272157
  0
LWPOLYLINE
  5
204A5
100
AcDbEntity
  8
směr proudění podzemních vod
100
AcDbPolyline
 70
0
 90
2
 10
16.5780146599283
 20
49.2033751387537
 10
16.5785731320682
 20
49.2036576040257
  0
LWPOLYLINE
  5
204A6
100
AcDbEntity
  8
směr proudění podzemních vod
100
AcDbPolyline
 70
0
 90
3
 10
16.5781700335997
 20
49.2034968584927
 10
16.5785731320682
 20
49.2036576040257
 10
16.5782358027165
 20
49.2034388778575
  0
LWPOLYLINE
  5
204A7
100
AcDbEntity
  8
směr proudění podzemních vod
100
AcDbPolyline
 70
0
 90
2
 10
16.5806156641262
 20
49.201212254145
 10
16.5812166089319
 20
49.2014543905184
  0
LWPOLYLINE
  5
204A8
100
AcDbEntity
  8
směr proudění podzemních vod
100
AcDbPolyline
 70
0
 90
3
 10
16.5807898231196
 20
49.2013225121122
 10
16.5812166089319
 20
49.2014543905184
 10
16.5808458519532
 20
49.2012602940402
  0
LWPOLYLINE
  5
204A9
100
AcDbEntity
  8
směr proudění podzemních vod
100
AcDbPolyline
 70
0
 90
3
 10
16.5826541597082
 20
49.1995885266106
 10
16.5830809355538
 20
49.1997203981538
 10
16.5827101842392
 20
49.1995263076157
  0
LWPOLYLINE
  5
204AA
100
AcDbEntity
  8
směr proudění podzemních vod
100
AcDbPolyline
 70
0
 90
2
 10
16.582480002657
 20
49.1994782714284
 10
16.5830809355538
 20
49.1997203981538
  0
LWPOLYLINE
  5
204AB
100
AcDbEntity
  8
směr proudění podzemních vod
100
AcDbPolyline
 70
0
 90
3
 10
16.5850691942704
 20
49.198205825658
 10
16.585522718245
 20
49.1982911109994
 10
16.5851092572695
 20
49.1981385225359
  0
LWPOLYLINE
  5
204AC
100
AcDbEntity
  8
směr proudění podzemních vod
100
AcDbPolyline
 70
0
 90
2
 10
16.5848703021544
 20
49.1981153126946
 10
16.585522718245
 20
49.1982911109994
  0
LWPOLYLINE
  5
204AD
100
AcDbEntity
  8
směr proudění podzemních vod
100
AcDbPolyline
 70
0
 90
2
 10
16.5902747368764
 20
49.1812870998628
 10
16.5903086277521
 20
49.1817469839495
  0
LWPOLYLINE
  5
204AE
100
AcDbEntity
  8
směr proudění podzemních vod
100
AcDbPolyline
 70
0
 90
3
 10
16.5902454975296
 20
49.1815362342357
 10
16.5903086277521
 20
49.1817469839495
 10
16.5903403694918
 20
49.1815318112458
  0
LWPOLYLINE
  5
204AF
100
AcDbEntity
  8
směr proudění podzemních vod
100
AcDbPolyline
 70
0
 90
2
 10
16.5900753147174
 20
49.182576470423
 10
16.5899319382217
 20
49.1830271948455
  0
LWPOLYLINE
  5
204B0
100
AcDbEntity
  8
směr proudění podzemních vod
100
AcDbPolyline
 70
0
 90
3
 10
16.5899515691116
 20
49.1828128053757
 10
16.5899319382217
 20
49.1830271948455
 10
16.5900450967803
 20
49.1828241432515
  0
LWPOLYLINE
  5
204B1
100
AcDbEntity
  8
směr proudění podzemních vod
100
AcDbPolyline
 70
0
 90
2
 10
16.5893375408417
 20
49.184133113867
 10
16.5890045921338
 20
49.1845385186552
  0
LWPOLYLINE
  5
204B2
100
AcDbEntity
  8
směr proudění podzemních vod
100
AcDbPolyline
 70
0
 90
3
 10
16.5891163962769
 20
49.18433663491
 10
16.5890045921338
 20
49.1845385186552
 10
16.5892011504726
 20
49.1843649348811
  0
LWPOLYLINE
  5
204B3
100
AcDbEntity
  8
směr proudění podzemních vod
100
AcDbPolyline
 70
0
 90
2
 10
16.5955417378062
 20
49.1814321570141
 10
16.5959284588022
 20
49.1818164977534
  0
LWPOLYLINE
  5
204B4
100
AcDbEntity
  8
směr proudění podzemních vod
100
AcDbPolyline
 70
0
 90
3
 10
16.5957102841438
 20
49.1816562707335
 10
16.5959284588022
 20
49.1818164977534
 10
16.5957884689669
 20
49.1816207663476
  0
LWPOLYLINE
  5
204B5
100
AcDbEntity
  8
směr proudění podzemních vod
100
AcDbPolyline
 70
0
 90
2
 10
16.5971081130988
 20
49.1832931800433
 10
16.5974948621161
 20
49.1836775155288
  0
LWPOLYLINE
  5
204B6
100
AcDbEntity
  8
směr proudění podzemních vod
100
AcDbPolyline
 70
0
 90
3
 10
16.5972766728417
 20
49.1835172914155
 10
16.5974948621161
 20
49.1836775155288
 10
16.5973548594799
 20
49.1834817859784
  0
LWPOLYLINE
  5
204B7
100
AcDbEntity
  8
směr proudění podzemních vod
100
AcDbPolyline
 70
0
 90
2
 10
16.5990249583785
 20
49.1849764809848
 10
16.5994117355354
 20
49.1853608090605
  0
LWPOLYLINE
  5
204B8
100
AcDbEntity
  8
směr proudění podzemních vod
100
AcDbPolyline
 70
0
 90
3
 10
16.5991935326566
 20
49.1852005886094
 10
16.5994117355354
 20
49.1853608090605
 10
16.5992717205787
 20
49.1851650818825
  0
LWPOLYLINE
  5
204B9
100
AcDbEntity
  8
směr proudění podzemních vod
100
AcDbPolyline
 70
0
 90
2
 10
16.5934050355028
 20
49.1794553191061
 10
16.5937917245173
 20
49.1798396671122
  0
LWPOLYLINE
  5
204BA
100
AcDbEntity
  8
směr proudění podzemních vod
100
AcDbPolyline
 70
0
 90
3
 10
16.5935735654636
 20
49.1796794360085
 10
16.5937917245173
 20
49.1798396671122
 10
16.5936517486972
 20
49.1796439330599
  0
LWPOLYLINE
  5
204BB
100
AcDbEntity
  8
směr proudění podzemních vod
100
AcDbPolyline
 70
0
 90
2
 10
16.5971296318601
 20
49.1728801506742
 10
16.5978084998059
 20
49.1729979056943
  0
LWPOLYLINE
  5
204BC
100
AcDbEntity
  8
směr proudění podzemních vod
100
AcDbPolyline
 70
0
 90
3
 10
16.5974830185085
 20
49.172973688269
 10
16.5978084998059
 20
49.1729979056943
 10
16.5975052439372
 20
49.1729130650787
  0
LWPOLYLINE
  5
204BD
100
AcDbEntity
  8
směr proudění podzemních vod
100
AcDbPolyline
 70
0
 90
2
 10
16.5993062266098
 20
49.1784906851027
 10
16.5999319222852
 20
49.1786997897898
  0
LWPOLYLINE
  5
204BE
100
AcDbEntity
  8
směr proudění podzemních vod
100
AcDbPolyline
 70
0
 90
3
 10
16.599621547899
 20
49.178631047532
 10
16.5999319222852
 20
49.1786997897898
 10
16.5996628049012
 20
49.1785748695661
  0
LWPOLYLINE
  5
204BF
100
AcDbEntity
  8
směr proudění podzemních vod
100
AcDbPolyline
 70
0
 90
2
 10
16.6030083418308
 20
49.1800057934814
 10
16.6035081892493
 20
49.1803292287198
  0
LWPOLYLINE
  5
204C0
100
AcDbEntity
  8
směr proudění podzemních vod
100
AcDbPolyline
 70
0
 90
3
 10
16.6032440917744
 20
49.1802021324764
 10
16.6035081892493
 20
49.1803292287198
 10
16.603309348873
 20
49.1801567747085
  0
LWPOLYLINE
  5
204C1
100
AcDbEntity
  8
směr proudění podzemních vod
100
AcDbPolyline
 70
0
 90
2
 10
16.6048832571528
 20
49.1820067262883
 10
16.6050496882697
 20
49.1824540340542
  0
LWPOLYLINE
  5
204C2
100
AcDbEntity
  8
směr proudění podzemních vod
100
AcDbPolyline
 70
0
 90
3
 10
16.6049266829874
 20
49.1822549691733
 10
16.6050496882697
 20
49.1824540340542
 10
16.6050185504798
 20
49.1822388221323
  0
LWPOLYLINE
  5
204C3
100
AcDbEntity
  8
směr proudění podzemních vod
100
AcDbPolyline
 70
0
 90
2
 10
16.5921152832123
 20
49.1719414121739
 10
16.5927941263731
 20
49.1720591967168
  0
LWPOLYLINE
  5
204C4
100
AcDbEntity
  8
směr proudění podzemních vod
100
AcDbPolyline
 70
0
 90
3
 10
16.5924686536987
 20
49.1720349651402
 10
16.5927941263731
 20
49.1720591967168
 10
16.5924908848359
 20
49.1719743429098
  0
LWPOLYLINE
  5
204C5
100
AcDbEntity
  8
směr proudění podzemních vod
100
AcDbPolyline
 70
0
 90
2
 10
16.5918912922349
 20
49.1765375670957
 10
16.5925701977885
 20
49.176655352898
  0
LWPOLYLINE
  5
204C6
100
AcDbEntity
  8
směr proudění podzemních vod
100
AcDbPolyline
 70
0
 90
3
 10
16.5922446950518
 20
49.1766311206957
 10
16.5925701977885
 20
49.176655352898
 10
16.5922669285282
 20
49.1765704985505
  0
LWPOLYLINE
  5
204C7
100
AcDbEntity
  8
směr proudění podzemních vod
100
AcDbPolyline
 70
0
 90
2
 10
16.6019285140248
 20
49.1737709415302
 10
16.6025666347598
 20
49.1739631469602
  0
LWPOLYLINE
  5
204C8
100
AcDbEntity
  8
směr proudění podzemních vod
100
AcDbPolyline
 70
0
 90
3
 10
16.6022522726205
 20
49.1739027587521
 10
16.6025666347598
 20
49.1739631469602
 10
16.602289996834
 20
49.1738455246785
  0
LWPOLYLINE
  5
204C9
100
AcDbEntity
  8
směr proudění podzemních vod
100
AcDbPolyline
 70
0
 90
2
 10
16.6109608389203
 20
49.1773727171149
 10
16.611461511036
 20
49.1776955876422
  0
LWPOLYLINE
  5
204CA
100
AcDbEntity
  8
směr proudění podzemních vod
100
AcDbPolyline
 70
0
 90
3
 10
16.6111970932504
 20
49.1775687903192
 10
16.611461511036
 20
49.1776955876422
 10
16.6112622270425
 20
49.1775233576455
  0
LWPOLYLINE
  5
204CB
100
AcDbEntity
  8
směr proudění podzemních vod
100
AcDbPolyline
 70
0
 90
2
 10
16.5930038195686
 20
49.1671819746761
 10
16.5935642417794
 20
49.166904598672
  0
LWPOLYLINE
  5
204CC
100
AcDbEntity
  8
směr proudění podzemních vod
100
AcDbPolyline
 70
0
 90
3
 10
16.5933342201141
 20
49.1670574947087
 10
16.5935642417794
 20
49.166904598672
 10
16.5932752283464
 20
49.1670085961663
  0
LWPOLYLINE
  5
204CD
100
AcDbEntity
  8
směr proudění podzemních vod
100
AcDbPolyline
 70
0
 90
2
 10
16.6029996023278
 20
49.1704263341223
 10
16.603701464361
 20
49.1704403535286
  0
LWPOLYLINE
  5
204CE
100
AcDbEntity
  8
směr proudění podzemních vod
100
AcDbPolyline
 70
0
 90
3
 10
16.6033760805008
 20
49.1704650364172
 10
16.603701464361
 20
49.1704403535286
 10
16.6033768155714
 20
49.170402687507
  0
LWPOLYLINE
  5
204CF
100
AcDbEntity
  8
směr proudění podzemních vod
100
AcDbPolyline
 70
0
 90
3
 10
16.5983604629896
 20
49.1702012112732
 10
16.5986869755163
 20
49.1701841164793
 10
16.5983645718511
 20
49.1701389195993
  0
LWPOLYLINE
  5
204D0
100
AcDbEntity
  8
směr proudění podzemních vod
100
AcDbPolyline
 70
0
 90
2
 10
16.5979863186917
 20
49.1701537727994
 10
16.5986869755163
 20
49.1701841164793
  0
LWPOLYLINE
  5
204D1
100
AcDbEntity
  8
směr proudění podzemních vod
100
AcDbPolyline
 70
0
 90
3
 10
16.5931066850072
 20
49.1698913737515
 10
16.5934338559711
 20
49.1698810458182
 10
16.5931137913383
 20
49.1698291979023
  0
LWPOLYLINE
  5
204D2
100
AcDbEntity
  8
směr proudění podzemních vod
100
AcDbPolyline
 70
0
 90
2
 10
16.5927350126701
 20
49.1698362140007
 10
16.5934338559711
 20
49.1698810458182
  0
LWPOLYLINE
  5
204D3
100
AcDbEntity
  8
směr proudění podzemních vod
100
AcDbPolyline
 70
0
 90
2
 10
16.5963784432321
 20
49.1659770088321
 10
16.596861050394
 20
49.1656425955265
  0
LWPOLYLINE
  5
204D4
100
AcDbEntity
  8
směr proudění podzemních vod
100
AcDbPolyline
 70
0
 90
3
 10
16.5966728295083
 20
49.1658183632442
 10
16.596861050394
 20
49.1656425955265
 10
16.5966023025108
 20
49.1657765466955
  0
LWPOLYLINE
  5
204D5
100
AcDbEntity
  8
směr proudění podzemních vod
100
AcDbPolyline
 70
0
 90
2
 10
16.5899181253311
 20
49.1799272813022
 10
16.5899808104344
 20
49.1803858636489
  0
LWPOLYLINE
  5
204D6
100
AcDbEntity
  8
směr proudění podzemních vod
100
AcDbPolyline
 70
0
 90
3
 10
16.5899045272552
 20
49.1801769922265
 10
16.5899808104344
 20
49.1803858636489
 10
16.5899990388553
 20
49.1801700177662
  0
LWPOLYLINE
  5
204D7
100
AcDbEntity
  8
směr proudění podzemních vod
100
AcDbPolyline
 70
0
 90
2
 10
16.589200633978
 20
49.1776840596267
 10
16.589436544112
 20
49.1781177267718
  0
LWPOLYLINE
  5
204D8
100
AcDbEntity
  8
směr proudění podzemních vod
100
AcDbPolyline
 70
0
 90
3
 10
16.5892828852925
 20
49.1779280418753
 10
16.589436544112
 20
49.1781177267718
 10
16.5893717137101
 20
49.1779057687575
  0
LWPOLYLINE
  5
204D9
100
AcDbEntity
  8
směr proudění podzemních vod
100
AcDbPolyline
 70
0
 90
2
 10
16.5874622963782
 20
49.1753214415322
 10
16.5880378256437
 20
49.1755852729033
  0
LWPOLYLINE
  5
204DA
100
AcDbEntity
  8
směr proudění podzemních vod
100
AcDbPolyline
 70
0
 90
3
 10
16.5877449554126
 20
49.1754890474457
 10
16.5880378256437
 20
49.1755852729033
 10
16.5877976651755
 20
49.1754371511219
  0
LWPOLYLINE
  5
204DB
100
AcDbEntity
  8
směr proudění podzemních vod
100
AcDbPolyline
 70
0
 90
2
 10
16.5955808267632
 20
49.177538111825
 10
16.5962253426488
 20
49.1777209878299
  0
LWPOLYLINE
  5
204DC
100
AcDbEntity
  8
směr proudění podzemních vod
100
AcDbPolyline
 70
0
 90
3
 10
16.595908991272
 20
49.1776651864845
 10
16.5962253426488
 20
49.1777209878299
 10
16.5959447723807
 20
49.1776074178763
  0
LWPOLYLINE
  5
204DD
100
AcDbEntity
  8
směr proudění podzemních vod
100
AcDbPolyline
 70
0
 90
2
 10
16.6041888225589
 20
49.1726461626399
 10
16.6035953359129
 20
49.1723878260553
  0
LWPOLYLINE
  5
204DE
100
AcDbEntity
  8
směr proudění podzemních vod
100
AcDbPolyline
 70
0
 90
3
 10
16.6038604875021
 20
49.1725493334355
 10
16.6041888225589
 20
49.1726461626399
 10
16.6039292696455
 20
49.1724870928715
  0
LWPOLYLINE
  5
204DF
100
AcDbEntity
  8
směr proudění podzemních vod
100
AcDbPolyline
 70
0
 90
2
 10
16.5980788975379
 20
49.1692994436694
 10
16.5987478695672
 20
49.1691595435795
  0
LWPOLYLINE
  5
204E0
100
AcDbEntity
  8
směr proudění podzemních vod
100
AcDbPolyline
 70
0
 90
3
 10
16.5984535559774
 20
49.1692538072418
 10
16.5987478695672
 20
49.1691595435795
 10
16.598422612886
 20
49.1691948509495
  0
LWPOLYLINE
  5
204E1
100
AcDbEntity
  8
směr proudění podzemních vod
100
AcDbPolyline
 70
0
 90
2
 10
16.6030609397652
 20
49.1686077374152
 10
16.6037565410491
 20
49.1685449466604
  0
LWPOLYLINE
  5
204E2
100
AcDbEntity
  8
směr proudění podzemních vod
100
AcDbPolyline
 70
0
 90
3
 10
16.603441976324
 20
49.1686048037372
 10
16.6037565410491
 20
49.1685449466604
 10
16.60342687215
 20
49.1685432452135
  0
LWPOLYLINE
  5
204E3
100
AcDbEntity
  8
směr proudění podzemních vod
100
AcDbPolyline
 70
0
 90
3
 10
16.6025962213172
 20
49.1720209064025
 10
16.6029245517673
 20
49.1721177393084
 10
16.6026650041659
 20
49.171958667482
  0
LWPOLYLINE
  5
204E4
100
AcDbEntity
  8
směr proudění podzemních vod
100
AcDbPolyline
 70
0
 90
2
 10
16.6029245517673
 20
49.1721177393084
 10
16.6023310780364
 20
49.1718593962024
  0
LWPOLYLINE
  5
204E5
100
AcDbEntity
  8
směr proudění podzemních vod
100
AcDbPolyline
 70
0
 90
2
 10
16.5978409518579
 20
49.1707981330901
 10
16.5984958505781
 20
49.1709642503892
  0
LWPOLYLINE
  5
204E6
100
AcDbEntity
  8
směr proudění podzemních vod
100
AcDbPolyline
 70
0
 90
3
 10
16.5981764392311
 20
49.1709166489525
 10
16.5984958505781
 20
49.1709642503892
 10
16.5982087240665
 20
49.1708580024193
  0
LWPOLYLINE
  5
204E7
100
AcDbEntity
  8
směr proudění podzemních vod
100
AcDbPolyline
 70
0
 90
2
 10
16.6060310345074
 20
49.175309324443
 10
16.6066691908109
 20
49.1755015080368
  0
LWPOLYLINE
  5
204E8
100
AcDbEntity
  8
směr proudění podzemních vod
100
AcDbPolyline
 70
0
 90
3
 10
16.6063548140613
 20
49.1754411301255
 10
16.6066691908109
 20
49.1755015080368
 10
16.6063925347117
 20
49.1753838947221
  0
LWPOLYLINE
  5
204E9
100
AcDbEntity
  8
směr proudění podzemních vod
100
AcDbPolyline
 70
0
 90
2
 10
16.6081998205743
 20
49.1760932492301
 10
16.6087315736305
 20
49.176393993189
  0
LWPOLYLINE
  5
204EA
100
AcDbEntity
  8
směr proudění podzemních vod
100
AcDbPolyline
 70
0
 90
3
 10
16.6084550977162
 20
49.1762787879936
 10
16.6087315736305
 20
49.176393993189
 10
16.608515564831
 20
49.1762306643861
  0
LWPOLYLINE
  5
204EB
100
AcDbEntity
  8
směr proudění podzemních vod
100
AcDbPolyline
 70
0
 90
3
 10
16.6008838462809
 20
49.1736078099514
 10
16.6011982048809
 20
49.1736682018906
 10
16.6009215732126
 20
49.1735505764201
  0
LWPOLYLINE
  5
204EC
100
AcDbEntity
  8
směr proudění podzemních vod
100
AcDbPolyline
 70
0
 90
2
 10
16.6005600932518
 20
49.1734759888842
 10
16.6011982048809
 20
49.1736682018906
  0
LWPOLYLINE
  5
204ED
100
AcDbEntity
  8
směr proudění podzemních vod
100
AcDbPolyline
 70
0
 90
2
 10
16.6053743222468
 20
49.1705658640304
 10
16.6046621591775
 20
49.1705554823188
  0
LWPOLYLINE
  5
204EE
100
AcDbEntity
  8
směr proudění podzemních vod
100
AcDbPolyline
 70
0
 90
3
 10
16.6050178984843
 20
49.1705990769044
 10
16.6053743222468
 20
49.1705658640304
 10
16.6050253011788
 20
49.1705223689055
  0
LWPOLYLINE
  5
204EF
100
AcDbEntity
  8
směr proudění podzemních vod
100
AcDbPolyline
 70
0
 90
3
 10
16.6053332688091
 20
49.1730886487141
 10
16.6056520730547
 20
49.1731983234051
 10
16.6054076673611
 20
49.1730292504909
  0
LWPOLYLINE
  5
204F0
100
AcDbEntity
  8
směr proudění podzemních vod
100
AcDbPolyline
 70
0
 90
2
 10
16.6056520730547
 20
49.1731983234051
 10
16.605083501801
 20
49.1729169199889
  0
LWPOLYLINE
  5
204F1
100
AcDbEntity
  8
směr proudění podzemních vod
100
AcDbPolyline
 70
0
 90
3
 10
16.6034269941604
 20
49.1743566192187
 10
16.6037491840076
 20
49.1744619658137
 10
16.6034995134314
 20
49.1742962293712
  0
LWPOLYLINE
  5
204F2
100
AcDbEntity
  8
směr proudění podzemních vod
100
AcDbPolyline
 70
0
 90
2
 10
16.6037491840076
 20
49.1744619658137
 10
16.6031718783253
 20
49.1741883005016
  0
LWPOLYLINE
  5
204F3
100
AcDbEntity
  8
směr proudění podzemních vod
100
AcDbPolyline
 70
0
 90
2
 10
16.628037578868
 20
49.1948065691854
 10
16.6278489640725
 20
49.194355855527
  0
LWPOLYLINE
  5
204F4
100
AcDbEntity
  8
směr proudění podzemních vod
100
AcDbPolyline
 70
0
 90
3
 10
16.627982541158
 20
49.1945772221692
 10
16.6278489640725
 20
49.194355855527
 10
16.6279025490984
 20
49.1945909890167
  0
LWPOLYLINE
  5
204F5
100
AcDbEntity
  8
směr proudění podzemních vod
100
AcDbPolyline
 70
0
 90
2
 10
16.6273842520303
 20
49.1916400989797
 10
16.6273488109274
 20
49.191173318289
  0
LWPOLYLINE
  5
204F6
100
AcDbEntity
  8
směr proudění podzemních vod
100
AcDbPolyline
 70
0
 90
3
 10
16.6274061863597
 20
49.1914083776881
 10
16.6273488109274
 20
49.191173318289
 10
16.6273235491377
 20
49.1914104826508
  0
LWPOLYLINE
  5
204F7
100
AcDbEntity
  8
směr proudění podzemních vod
100
AcDbPolyline
 70
0
 90
2
 10
16.6278970914487
 20
49.1870583787991
 10
16.6279211336269
 20
49.1865912862002
  0
LWPOLYLINE
  5
204F8
100
AcDbEntity
  8
směr proudění podzemních vod
100
AcDbPolyline
 70
0
 90
3
 10
16.627948412592
 20
49.1868286617384
 10
16.6279211336269
 20
49.1865912862002
 10
16.6278658039806
 20
49.186826245302
  0
LWPOLYLINE
  5
204F9
100
AcDbEntity
  8
směr proudění podzemních vod
100
AcDbPolyline
 70
0
 90
2
 10
16.6286358431142
 20
49.1846533431587
 10
16.6287338299613
 20
49.1841904197278
  0
LWPOLYLINE
  5
204FA
100
AcDbEntity
  8
směr proudění podzemních vod
100
AcDbPolyline
 70
0
 90
3
 10
16.6287233154069
 20
49.1844283686292
 10
16.6287338299613
 20
49.1841904197278
 10
16.6286415409855
 20
49.1844203358697
  0
LWPOLYLINE
  5
204FB
100
AcDbEntity
  8
směr proudění podzemních vod
100
AcDbPolyline
 70
0
 90
2
 10
16.6250752388797
 20
49.1936816295077
 10
16.6256972735888
 20
49.193453098666
  0
LWPOLYLINE
  5
204FC
100
AcDbEntity
  8
směr proudění podzemních vod
100
AcDbPolyline
 70
0
 90
3
 10
16.6254016255686
 20
49.1935913827805
 10
16.6256972735888
 20
49.193453098666
 10
16.6253619716245
 20
49.1935438165139
  0
LWPOLYLINE
  5
204FD
100
AcDbEntity
  8
směr proudění podzemních vod
100
AcDbPolyline
 70
0
 90
2
 10
16.6184639952844
 20
49.1922020233279
 10
16.6188359648935
 20
49.191803288446
  0
LWPOLYLINE
  5
204FE
100
AcDbEntity
  8
směr proudění podzemních vod
100
AcDbPolyline
 70
0
 90
3
 10
16.6186813088556
 20
49.1920186777212
 10
16.6188359648935
 20
49.191803288446
 10
16.6186112253611
 20
49.1919899021368
  0
LWPOLYLINE
  5
204FF
100
AcDbEntity
  8
směr proudění podzemních vod
100
AcDbPolyline
 70
0
 90
2
 10
16.6204344384983
 20
49.1892480285381
 10
16.6206256008816
 20
49.188797778896
  0
LWPOLYLINE
  5
20500
100
AcDbEntity
  8
směr proudění podzemních vod
100
AcDbPolyline
 70
0
 90
3
 10
16.6205668424243
 20
49.1890326916039
 10
16.6206256008816
 20
49.188797778896
 10
16.6204874210308
 20
49.189017592278
  0
LWPOLYLINE
  5
20501
100
AcDbEntity
  8
směr proudění podzemních vod
100
AcDbPolyline
 70
0
 90
2
 10
16.621667130383
 20
49.1872984398341
 10
16.6220759388154
 20
49.1869155301985
  0
LWPOLYLINE
  5
20502
100
AcDbEntity
  8
směr proudění podzemních vod
100
AcDbPolyline
 70
0
 90
3
 10
16.6219012911973
 20
49.1871242453271
 10
16.6220759388154
 20
49.1869155301985
 10
16.621834059954
 20
49.1870926865097
  0
LWPOLYLINE
  5
20503
100
AcDbEntity
  8
směr proudění podzemních vod
100
AcDbPolyline
 70
0
 90
2
 10
16.6248409760532
 20
49.1848713381393
 10
16.6253407734247
 20
49.1845380382966
  0
LWPOLYLINE
  5
20504
100
AcDbEntity
  8
směr proudění podzemních vod
100
AcDbPolyline
 70
0
 90
3
 10
16.6251158629816
 20
49.1847249372589
 10
16.6253407734247
 20
49.1845380382966
 10
16.6250575271982
 20
49.1846865229571
  0
LWPOLYLINE
  5
20505
100
AcDbEntity
  8
směr proudění podzemních vod
100
AcDbPolyline
 70
0
 90
2
 10
16.6266187536783
 20
49.1836848678391
 10
16.6271257429739
 20
49.1833562753287
  0
LWPOLYLINE
  5
20506
100
AcDbEntity
  8
směr proudění podzemních vod
100
AcDbPolyline
 70
0
 90
3
 10
16.626896792972
 20
49.183541051626
 10
16.6271257429739
 20
49.1833562753287
 10
16.6268392998773
 20
49.1835020954206
  0
LWPOLYLINE
  5
20507
100
AcDbEntity
  8
směr proudění podzemních vod
100
AcDbPolyline
 70
0
 90
2
 10
16.6287289272224
 20
49.1821507028911
 10
16.6292561839449
 20
49.1818361260534
  0
LWPOLYLINE
  5
20508
100
AcDbEntity
  8
směr proudění podzemních vod
100
AcDbPolyline
 70
0
 90
3
 10
16.629015787036
 20
49.1820145429198
 10
16.6292561839449
 20
49.1818361260534
 10
16.6289608021394
 20
49.1819740628432
  0
LWPOLYLINE
  5
20509
100
AcDbEntity
  8
směr proudění podzemních vod
100
AcDbPolyline
 70
0
 90
2
 10
16.6127597196706
 20
49.1893393207836
 10
16.6134086626146
 20
49.1891456597681
  0
LWPOLYLINE
  5
2050A
100
AcDbEntity
  8
směr proudění podzemních vod
100
AcDbPolyline
 70
0
 90
3
 10
16.6130964429551
 20
49.1892672663472
 10
16.6134086626146
 20
49.1891456597681
 10
16.6130629962278
 20
49.1892176949227
  0
LWPOLYLINE
  5
2050B
100
AcDbEntity
  8
směr proudění podzemních vod
100
AcDbPolyline
 70
0
 90
2
 10
16.6172096540442
 20
49.1867145248805
 10
16.6176029629329
 20
49.1863247041871
  0
LWPOLYLINE
  5
2050C
100
AcDbEntity
  8
směr proudění podzemních vod
100
AcDbPolyline
 70
0
 90
3
 10
16.6174367456586
 20
49.1865363558246
 10
16.6176029629329
 20
49.1863247041871
 10
16.6173682735208
 20
49.1865059662584
  0
LWPOLYLINE
  5
2050D
100
AcDbEntity
  8
směr proudění podzemních vod
100
AcDbPolyline
 70
0
 90
2
 10
16.6110937414203
 20
49.1853092042209
 10
16.6113268200038
 20
49.1848675240659
  0
LWPOLYLINE
  5
2050E
100
AcDbEntity
  8
směr proudění podzemních vod
100
AcDbPolyline
 70
0
 90
3
 10
16.6112461115682
 20
49.1850996191171
 10
16.6113268200038
 20
49.1848675240659
 10
16.6111682637212
 20
49.1850813435906
  0
LWPOLYLINE
  5
2050F
100
AcDbEntity
  8
směr proudění podzemních vod
100
AcDbPolyline
 70
0
 90
2
 10
16.612236565603
 20
49.1830778421638
 10
16.6124613284755
 20
49.1826343165322
  0
LWPOLYLINE
  5
20510
100
AcDbEntity
  8
směr proudění podzemních vod
100
AcDbPolyline
 70
0
 90
3
 10
16.6123908030089
 20
49.1828570661165
 10
16.61246714719
 20
49.1826243378728
 10
16.6123126228717
 20
49.1828394197398
  0
LWPOLYLINE
  5
20511
100
AcDbEntity
  8
směr proudění podzemních vod
100
AcDbPolyline
 70
0
 90
2
 10
16.6140854487356
 20
49.1800975031713
 10
16.6136859301981
 20
49.1797104290522
  0
LWPOLYLINE
  5
20512
100
AcDbEntity
  8
směr proudění podzemních vod
100
AcDbPolyline
 70
0
 90
3
 10
16.6139209076362
 20
49.1798919155599
 10
16.6136859301981
 20
49.1797104290522
 10
16.6138519309017
 20
49.1799218016113
  0
LWPOLYLINE
  5
20513
100
AcDbEntity
  8
směr proudění podzemních vod
100
AcDbPolyline
 70
0
 90
2
 10
16.6142039993142
 20
49.1885972070315
 10
16.6146369889782
 20
49.1882258875457
  0
LWPOLYLINE
  5
20514
100
AcDbEntity
  8
směr proudění podzemních vod
100
AcDbPolyline
 70
0
 90
3
 10
16.6144491183355
 20
49.1884296118118
 10
16.6146369889782
 20
49.1882258875457
 10
16.6143839671383
 20
49.188396230277
  0
LWPOLYLINE
  5
20515
100
AcDbEntity
  8
směr proudění podzemních vod
100
AcDbPolyline
 70
0
 90
2
 10
16.6293680310005
 20
49.1822915687886
 10
16.6294504296106
 20
49.181827341801
  0
LWPOLYLINE
  5
20516
100
AcDbEntity
  8
směr proudění podzemních vod
100
AcDbPolyline
 70
0
 90
3
 10
16.6294479170314
 20
49.1820653849774
 10
16.6294504296106
 20
49.181827341801
 10
16.6293658954589
 20
49.1820585343222
  0
LWPOLYLINE
  5
20517
100
AcDbEntity
  8
směr proudění podzemních vod
100
AcDbPolyline
 70
0
 90
3
 10
16.6102812816178
 20
49.1869784235501
 10
16.610380920203
 20
49.1867495095962
 10
16.6102050439689
 20
49.1869574296628
  0
LWPOLYLINE
  5
20518
100
AcDbEntity
  8
směr proudění podzemních vod
100
AcDbPolyline
 70
0
 90
2
 10
16.6101119301172
 20
49.1871823330795
 10
16.610380920203
 20
49.1867495095962
  0
LWPOLYLINE
  5
20519
100
AcDbEntity
  8
směr proudění podzemních vod
100
AcDbPolyline
 70
0
 90
2
 10
16.6710317954171
 20
49.1627584937135
 10
16.6703597607753
 20
49.1626029524028
  0
LWPOLYLINE
  5
2051A
100
AcDbEntity
  8
směr proudění podzemních vod
100
AcDbPolyline
 70
0
 90
3
 10
16.6707070998647
 20
49.1627187347999
 10
16.6703597607753
 20
49.1626029524028
 10
16.6707474394777
 20
49.1626613527513
  0
LWPOLYLINE
  5
2051B
100
AcDbEntity
  8
směr proudění podzemních vod
100
AcDbPolyline
 70
0
 90
2
 10
16.6641669614388
 20
49.1557752697858
 10
16.6634950429313
 20
49.1556196883535
  0
LWPOLYLINE
  5
2051C
100
AcDbEntity
  8
směr proudění podzemních vod
100
AcDbPolyline
 70
0
 90
3
 10
16.6638423171036
 20
49.1557354915223
 10
16.6634950429313
 20
49.1556196883535
 10
16.6638826591169
 20
49.1556781109219
  0
LWPOLYLINE
  5
2051D
100
AcDbEntity
  8
směr proudění podzemních vod
100
AcDbPolyline
 70
0
 90
2
 10
16.6758980893037
 20
49.1581703740628
 10
16.6752261015275
 20
49.1580148610142
  0
LWPOLYLINE
  5
2051E
100
AcDbEntity
  8
směr proudění podzemních vod
100
AcDbPolyline
 70
0
 90
3
 10
16.6755734198687
 20
49.1581306288294
 10
16.6752261015275
 20
49.1580148610142
 10
16.6756137502656
 20
49.1580732441425
  0
LWPOLYLINE
  5
2051F
100
AcDbEntity
  8
směr proudění podzemních vod
100
AcDbPolyline
 70
0
 90
2
 10
16.6889385697688
 20
49.1605680345403
 10
16.6882665085956
 20
49.1604125975066
  0
LWPOLYLINE
  5
20520
100
AcDbEntity
  8
směr proudění podzemních vod
100
AcDbPolyline
 70
0
 90
3
 10
16.688613874174
 20
49.160528326023
 10
16.6882665085956
 20
49.1604125975066
 10
16.6886541914404
 20
49.1604709367935
  0
LWPOLYLINE
  5
20521
100
AcDbEntity
  8
směr proudění podzemních vod
100
AcDbPolyline
 70
0
 90
2
 10
16.694464499529
 20
49.1552886754517
 10
16.6937924925218
 20
49.1551332705095
  0
LWPOLYLINE
  5
20522
100
AcDbEntity
  8
směr proudění podzemních vod
100
AcDbPolyline
 70
0
 90
3
 10
16.6941398340479
 20
49.1552489824679
 10
16.6937924925218
 20
49.1551332705095
 10
16.6941801404836
 20
49.1551915921525
  0
LWPOLYLINE
  5
20523
100
AcDbEntity
  8
směr proudění podzemních vod
100
AcDbPolyline
 70
0
 90
2
 10
16.6835322776733
 20
49.1525331373435
 10
16.6828603409107
 20
49.1523776685672
  0
LWPOLYLINE
  5
20524
100
AcDbEntity
  8
směr proudění podzemních vod
100
AcDbPolyline
 70
0
 90
3
 10
16.6832076376293
 20
49.1524934134817
 10
16.6828603409107
 20
49.1523776685672
 10
16.6832479558288
 20
49.1524360270632
  0
LWPOLYLINE
  5
20525
100
AcDbEntity
  8
směr proudění podzemních vod
100
AcDbPolyline
 70
0
 90
2
 10
16.6739464336166
 20
49.1502740611022
 10
16.6732745587418
 20
49.1501185374328
  0
LWPOLYLINE
  5
20526
100
AcDbEntity
  8
směr proudění podzemních vod
100
AcDbPolyline
 70
0
 90
3
 10
16.6736218172665
 20
49.1502343112402
 10
16.6732745587418
 20
49.1501185374328
 10
16.6736621434947
 20
49.1501769271675
  0
LWPOLYLINE
  5
20527
100
AcDbEntity
  8
směr proudění podzemních vod
100
AcDbPolyline
 70
0
 90
2
 10
16.6637684479559
 20
49.1478839725879
 10
16.6630745928656
 20
49.1477779001787
  0
LWPOLYLINE
  5
20528
100
AcDbEntity
  8
směr proudění podzemních vod
100
AcDbPolyline
 70
0
 90
3
 10
16.6634391507491
 20
49.1478678998056
 10
16.6630745928656
 20
49.1477779001787
 10
16.6634696023938
 20
49.1478079526811
  0
LWPOLYLINE
  5
20529
100
AcDbEntity
  8
směr proudění podzemních vod
100
AcDbPolyline
 70
0
 90
2
 10
16.6893644450577
 20
49.1449099050012
 10
16.6886925931986
 20
49.1447544700613
  0
LWPOLYLINE
  5
2052A
100
AcDbEntity
  8
směr proudění podzemních vod
100
AcDbPolyline
 70
0
 90
3
 10
16.6890398501976
 20
49.144870197528
 10
16.6886925931986
 20
49.1447544700613
 10
16.6890801554539
 20
49.144812809002
  0
LWPOLYLINE
  5
2052B
100
AcDbEntity
  8
směr proudění podzemních vod
100
AcDbPolyline
 70
0
 90
2
 10
16.6788337317514
 20
49.1424165879551
 10
16.6781619466788
 20
49.1422610916258
  0
LWPOLYLINE
  5
2052C
100
AcDbEntity
  8
směr proudění podzemních vod
100
AcDbPolyline
 70
0
 90
3
 10
16.6785091616505
 20
49.1423768508324
 10
16.6781619466788
 20
49.1422610916258
 10
16.6785494770532
 20
49.1423194659706
  0
LWPOLYLINE
  5
2052D
100
AcDbEntity
  8
směr proudění podzemních vod
100
AcDbPolyline
 70
0
 90
2
 10
16.6682021387873
 20
49.1394500013549
 10
16.6675304285952
 20
49.1392944431394
  0
LWPOLYLINE
  5
2052E
100
AcDbEntity
  8
směr proudění podzemních vod
100
AcDbPolyline
 70
0
 90
3
 10
16.6678775979895
 20
49.1394102343936
 10
16.6675304285952
 20
49.1392944431394
 10
16.667917922052
 20
49.139352852239
  0
LWPOLYLINE
  5
2052F
100
AcDbEntity
  8
směr proudění podzemních vod
100
AcDbPolyline
 70
0
 90
2
 10
16.6895732908296
 20
49.1329225278214
 10
16.68890160189
 20
49.1327670939846
  0
LWPOLYLINE
  5
20530
100
AcDbEntity
  8
směr proudění podzemních vod
100
AcDbPolyline
 70
0
 90
3
 10
16.6892487755422
 20
49.1328828209919
 10
16.68890160189
 20
49.1327670939846
 10
16.6892890695951
 20
49.1328254312998
  0
LWPOLYLINE
  5
20531
100
AcDbEntity
  8
směr proudění podzemních vod
100
AcDbPolyline
 70
0
 90
2
 10
16.6800355242442
 20
49.1303889534187
 10
16.6793638981359
 20
49.1302334638852
  0
LWPOLYLINE
  5
20532
100
AcDbEntity
  8
směr proudění podzemních vod
100
AcDbPolyline
 70
0
 90
3
 10
16.6797110316648
 20
49.1303492205347
 10
16.6793638981359
 20
49.1302334638852
 10
16.679751336044
 20
49.1302918342553
  0
LWPOLYLINE
  5
20533
100
AcDbEntity
  8
směr proudění podzemních vod
100
AcDbPolyline
 70
0
 90
2
 10
16.583414855764
 20
49.2054147823704
 10
16.583156355615
 20
49.2058473765819
  0
LWPOLYLINE
  5
20534
100
AcDbEntity
  8
směr proudění podzemních vod
100
AcDbPolyline
 70
0
 90
3
 10
16.5832752797871
 20
49.2055694027263
 10
16.583156355615
 20
49.2058473765819
 10
16.583361201864
 20
49.2055939026003
  0
LWPOLYLINE
  5
20535
100
AcDbEntity
  8
směr proudění podzemních vod
100
AcDbPolyline
 70
0
 90
2
 10
16.5856791639205
 20
49.2031189924285
 10
16.5862801004837
 20
49.2033655133703
  0
LWPOLYLINE
  5
20536
100
AcDbEntity
  8
směr proudění podzemních vod
100
AcDbPolyline
 70
0
 90
3
 10
16.5858852200597
 20
49.2032374862787
 10
16.5862801004837
 20
49.2033655133703
 10
16.5859378682068
 20
49.2031866960796
  0
LWPOLYLINE
  5
20537
100
AcDbEntity
  8
směr proudění podzemních vod
100
AcDbPolyline
 70
0
 90
2
 10
16.587449893146
 20
49.2015299467756
 10
16.5879891729671
 20
49.2012283698321
  0
LWPOLYLINE
  5
20538
100
AcDbEntity
  8
směr proudění podzemních vod
100
AcDbPolyline
 70
0
 90
3
 10
16.5876847014915
 20
49.20143542485
 10
16.5879896260035
 20
49.2012270578868
 10
16.587626575524
 20
49.2013872678637
  0
LWPOLYLINE
  5
20539
100
AcDbEntity
  8
směr proudění podzemních vod
100
AcDbPolyline
 70
0
 90
2
 10
16.5897224692073
 20
49.2001728528247
 10
16.5899929505358
 20
49.1997434232378
  0
LWPOLYLINE
  5
2053A
100
AcDbEntity
  8
směr proudění podzemních vod
100
AcDbPolyline
 70
0
 90
3
 10
16.5898663150069
 20
49.2000199277174
 10
16.5899929505358
 20
49.1997434232378
 10
16.5897810994839
 20
49.1999944041925
  0
LWPOLYLINE
  5
2053B
100
AcDbEntity
  8
směr proudění podzemních vod
100
AcDbPolyline
 70
0
 90
2
 10
16.5891753459549
 20
49.2046281272427
 10
16.5897763168599
 20
49.2048746298311
  0
LWPOLYLINE
  5
2053C
100
AcDbEntity
  8
směr proudění podzemních vod
100
AcDbPolyline
 70
0
 90
3
 10
16.5893814167336
 20
49.2047466148255
 10
16.5897763168599
 20
49.2048746298311
 10
16.5894340615376
 20
49.2046958229458
  0
LWPOLYLINE
  5
2053D
100
AcDbEntity
  8
směr proudění podzemních vod
100
AcDbPolyline
 70
0
 90
2
 10
16.6274667858382
 20
49.2026505601342
 10
16.6275369108966
 20
49.202185467608
  0
LWPOLYLINE
  5
2053E
100
AcDbEntity
  8
směr proudění podzemních vod
100
AcDbPolyline
 70
0
 90
3
 10
16.6275407014733
 20
49.2024235021423
 10
16.6275369108966
 20
49.202185467608
 10
16.6274584772352
 20
49.2024175860702
  0
LWPOLYLINE
  5
2053F
100
AcDbEntity
  8
směr proudění podzemních vod
100
AcDbPolyline
 70
0
 90
3
 10
16.6278020750126
 20
49.1999132524655
 10
16.6277982833663
 20
49.1996752178458
 10
16.6277198549081
 20
49.1999073365782
  0
LWPOLYLINE
  5
20540
100
AcDbEntity
  8
směr proudění podzemních vod
100
AcDbPolyline
 70
0
 90
2
 10
16.627728164325
 20
49.2001403107154
 10
16.6277982833663
 20
49.1996752178458
  0
LWPOLYLINE
  5
20541
100
AcDbEntity
  8
směr proudění podzemních vod
100
AcDbPolyline
 70
0
 90
3
 10
16.6279303043995
 20
49.1963266694439
 10
16.6279019809118
 20
49.1960893456002
 10
16.6278476682927
 20
49.1963244077389
  0
LWPOLYLINE
  5
20542
100
AcDbEntity
  8
směr proudění podzemních vod
100
AcDbPolyline
 70
0
 90
2
 10
16.6278799761729
 20
49.1965564814594
 10
16.6279019809118
 20
49.1960893456002
  0
LWPOLYLINE
  5
20543
100
AcDbEntity
  8
směr proudění podzemních vod
100
AcDbPolyline
 70
0
 90
2
 10
16.6209161536997
 20
49.203266383083
 10
16.6213146970471
 20
49.2028787959877
  0
LWPOLYLINE
  5
20544
100
AcDbEntity
  8
směr proudění podzemních vod
100
AcDbPolyline
 70
0
 90
3
 10
16.6211456523852
 20
49.2030895018192
 10
16.6213146970471
 20
49.2028787959877
 10
16.6210775583576
 20
49.2030587278917
  0
LWPOLYLINE
  5
20545
100
AcDbEntity
  8
směr proudění podzemních vod
100
AcDbPolyline
 70
0
 90
2
 10
16.6224251199071
 20
49.2016624393158
 10
16.6228236371838
 20
49.20127484681
  0
LWPOLYLINE
  5
20546
100
AcDbEntity
  8
směr proudění podzemních vod
100
AcDbPolyline
 70
0
 90
3
 10
16.622654604412
 20
49.2014855549074
 10
16.6228236371838
 20
49.20127484681
 10
16.6225865130149
 20
49.2014547819593
  0
LWPOLYLINE
  5
20547
100
AcDbEntity
  8
směr proudění podzemních vod
100
AcDbPolyline
 70
0
 90
2
 10
16.6250548476526
 20
49.1995710845456
 10
16.6253295915307
 20
49.1991397987334
  0
LWPOLYLINE
  5
20548
100
AcDbEntity
  8
směr proudění podzemních vod
100
AcDbPolyline
 70
0
 90
3
 10
16.6252269188104
 20
49.1993681403226
 10
16.6253295915307
 20
49.1991397987334
 10
16.6251509407998
 20
49.1993467161193
  0
LWPOLYLINE
  5
20549
100
AcDbEntity
  8
směr proudění podzemních vod
100
AcDbPolyline
 70
0
 90
3
 10
16.6361797918572
 20
49.2076850716731
 10
16.6358306215566
 20
49.2076192826265
 10
16.6361475911727
 20
49.2077349995012
  0
LWPOLYLINE
  5
2054A
100
AcDbEntity
  8
směr proudění podzemních vod
100
AcDbPolyline
 70
0
 90
2
 10
16.6364906549881
 20
49.2077965016502
 10
16.6358306215566
 20
49.2076192826265
  0
LWPOLYLINE
  5
2054B
100
AcDbEntity
  8
směr proudění podzemních vod
100
AcDbPolyline
 70
0
 90
3
 10
16.6158076528051
 20
49.200931899483
 10
16.6161281253759
 20
49.2008198015109
 10
16.6157777011653
 20
49.2008813759014
  0
LWPOLYLINE
  5
2054C
100
AcDbEntity
  8
směr proudění podzemních vod
100
AcDbPolyline
 70
0
 90
2
 10
16.6154661654683
 20
49.200993761848
 10
16.6161281253759
 20
49.2008198015109
  0
LWPOLYLINE
  5
2054D
100
AcDbEntity
  8
směr proudění podzemních vod
100
AcDbPolyline
 70
0
 90
3
 10
16.6191653997676
 20
49.1999483519468
 10
16.6194861405457
 20
49.1998365929194
 10
16.6191355735011
 20
49.1998977966927
  0
LWPOLYLINE
  5
2054E
100
AcDbEntity
  8
směr proudění podzemních vod
100
AcDbPolyline
 70
0
 90
2
 10
16.6188237676755
 20
49.2000098541621
 10
16.6194861405457
 20
49.1998365929194
  0
LWPOLYLINE
  5
2054F
100
AcDbEntity
  8
směr proudění podzemních vod
100
AcDbPolyline
 70
0
 90
2
 10
16.6229698675771
 20
49.1988988826634
 10
16.6236217476029
 20
49.1987093205614
  0
LWPOLYLINE
  5
20550
100
AcDbEntity
  8
směr proudění podzemních vod
100
AcDbPolyline
 70
0
 90
3
 10
16.6233076967142
 20
49.1988289535038
 10
16.6236217476029
 20
49.1987093205614
 10
16.6232749734844
 20
49.1987791733431
  0
LWPOLYLINE
  5
20551
100
AcDbEntity
  8
směr proudění podzemních vod
100
AcDbPolyline
 70
0
 90
3
 10
16.6160216686011
 20
49.1970363932564
 10
16.6163841951386
 20
49.1970214508998
 10
16.6160263791699
 20
49.196982279259
  0
LWPOLYLINE
  5
20552
100
AcDbEntity
  8
směr proudění podzemních vod
100
AcDbPolyline
 70
0
 90
2
 10
16.6156718007908
 20
49.1969999113567
 10
16.6163841951386
 20
49.1970214508998
  0
LWPOLYLINE
  5
20553
100
AcDbEntity
  8
směr proudění podzemních vod
100
AcDbPolyline
 70
0
 90
3
 10
16.6200637854598
 20
49.1970636201035
 10
16.6204263122012
 20
49.1970486660383
 10
16.6200684916176
 20
49.1970095059404
  0
LWPOLYLINE
  5
20554
100
AcDbEntity
  8
směr proudění podzemních vod
100
AcDbPolyline
 70
0
 90
2
 10
16.6197139158396
 20
49.1970271505554
 10
16.6204263122012
 20
49.1970486660383
  0
LWPOLYLINE
  5
20555
100
AcDbEntity
  8
směr proudění podzemních vod
100
AcDbPolyline
 70
0
 90
3
 10
16.6235617096132
 20
49.1970934833194
 10
16.6239242356704
 20
49.1970785173707
 10
16.6235664121017
 20
49.197039368119
  0
LWPOLYLINE
  5
20556
100
AcDbEntity
  8
směr proudění podzemních vod
100
AcDbPolyline
 70
0
 90
2
 10
16.6232118372026
 20
49.1970570243764
 10
16.6239242356704
 20
49.1970785173707
  0
LWPOLYLINE
  5
20557
100
AcDbEntity
  8
směr proudění podzemních vod
100
AcDbPolyline
 70
0
 90
3
 10
16.6261044436663
 20
49.1970986060483
 10
16.6264553155338
 20
49.1970370084682
 10
16.6260927434842
 20
49.1970449485628
  0
LWPOLYLINE
  5
20558
100
AcDbEntity
  8
směr proudění podzemních vod
100
AcDbPolyline
 70
0
 90
2
 10
16.6257504738636
 20
49.1971081535821
 10
16.6264553155338
 20
49.1970370084682
  0
LWPOLYLINE
  5
20559
100
AcDbEntity
  8
směr proudění podzemních vod
100
AcDbPolyline
 70
0
 90
2
 10
16.6281946069238
 20
49.198150671683
 10
16.6282326814736
 20
49.1976839807541
  0
LWPOLYLINE
  5
2055A
100
AcDbEntity
  8
směr proudění podzemních vod
100
AcDbPolyline
 70
0
 90
3
 10
16.6282528316461
 20
49.1979216627671
 10
16.6282326814736
 20
49.1976839807541
 10
16.6281702917173
 20
49.197918180007
  0
LWPOLYLINE
  5
2055B
100
AcDbEntity
  8
směr proudění podzemních vod
100
AcDbPolyline
 70
0
 90
2
 10
16.6268322139459
 20
49.1978234930394
 10
16.627139026729
 20
49.1974015968784
  0
LWPOLYLINE
  5
2055C
100
AcDbEntity
  8
směr proudění podzemních vod
100
AcDbPolyline
 70
0
 90
2
 10
16.6166629356345
 20
49.1958070945665
 10
16.6173537091984
 20
49.1956909802283
  0
LWPOLYLINE
  5
2055D
100
AcDbEntity
  8
směr proudění podzemních vod
100
AcDbPolyline
 70
0
 90
3
 10
16.6170137592473
 20
49.1957748373898
 10
16.6173537091984
 20
49.1956909802283
 10
16.6169940840586
 20
49.1957221903351
  0
LWPOLYLINE
  5
2055E
100
AcDbEntity
  8
směr proudění podzemních vod
100
AcDbPolyline
 70
0
 90
2
 10
16.6201361813729
 20
49.1956272352379
 10
16.6208336745505
 20
49.1955298982973
  0
LWPOLYLINE
  5
2055F
100
AcDbEntity
  8
směr proudění podzemních vod
100
AcDbPolyline
 70
0
 90
3
 10
16.6204887353615
 20
49.1956044913496
 10
16.6208336745505
 20
49.1955298982973
 10
16.6204723912224
 20
49.1955513572144
  0
LWPOLYLINE
  5
20560
100
AcDbEntity
  8
směr proudění podzemních vod
100
AcDbPolyline
 70
0
 90
2
 10
16.6234087220736
 20
49.1952330043125
 10
16.6240485108779
 20
49.1950265734322
  0
LWPOLYLINE
  5
20561
100
AcDbEntity
  8
směr proudění podzemních vod
100
AcDbPolyline
 70
0
 90
3
 10
16.6237420063262
 20
49.1951543109301
 10
16.6240485108779
 20
49.1950265734322
 10
16.6237062851929
 20
49.1951054248941
  0
LWPOLYLINE
  5
20562
100
AcDbEntity
  8
směr proudění podzemních vod
100
AcDbPolyline
 70
0
 90
2
 10
16.6333717706993
 20
49.2074222193838
 10
16.6326898002073
 20
49.207285228346
  0
LWPOLYLINE
  5
20563
100
AcDbEntity
  8
směr proudění podzemních vod
100
AcDbPolyline
 70
0
 90
3
 10
16.6330451853461
 20
49.2073295709777
 10
16.632688307383
 20
49.2072849465492
 10
16.6330200774603
 20
49.207381216435
  0
LWPOLYLINE
  5
20564
100
AcDbEntity
  8
směr proudění podzemních vod
100
AcDbPolyline
 70
0
 90
2
 10
16.6333275227687
 20
49.2042794457363
 10
16.6329590118154
 20
49.203879299716
  0
LWPOLYLINE
  5
20565
100
AcDbEntity
  8
směr proudění podzemních vod
100
AcDbPolyline
 70
0
 90
3
 10
16.6331794096866
 20
49.2040685375129
 10
16.6329590118154
 20
49.203879299716
 10
16.633108125045
 20
49.2040960349789
  0
LWPOLYLINE
  5
20566
100
AcDbEntity
  8
směr proudění podzemních vod
100
AcDbPolyline
 70
0
 90
2
 10
16.6249934361658
 20
49.2050646341611
 10
16.6256295820357
 20
49.204853259022
  0
LWPOLYLINE
  5
20567
100
AcDbEntity
  8
směr proudění podzemních vod
100
AcDbPolyline
 70
0
 90
3
 10
16.6253253429221
 20
49.2049833625362
 10
16.6256295820357
 20
49.204853259022
 10
16.6252887347072
 20
49.2049347568578
  0
LWPOLYLINE
  5
20568
100
AcDbEntity
  8
směr proudění podzemních vod
100
AcDbPolyline
 70
0
 90
2
 10
16.6323206270704
 20
49.2054092246659
 10
16.6320224765049
 20
49.2049846563722
  0
LWPOLYLINE
  5
20569
100
AcDbEntity
  8
směr proudění podzemních vod
100
AcDbPolyline
 70
0
 90
3
 10
16.6322093136527
 20
49.2051888125138
 10
16.6320224765049
 20
49.2049846563722
 10
16.6321337931102
 20
49.2052109317727
  0
LWPOLYLINE
  5
2056A
100
AcDbEntity
  8
směr proudění podzemních vod
100
AcDbPolyline
 70
0
 90
2
 10
16.6303484075838
 20
49.2025917741514
 10
16.6302157101973
 20
49.2021325762496
  0
LWPOLYLINE
  5
2056B
100
AcDbEntity
  8
směr proudění podzemních vod
100
AcDbPolyline
 70
0
 90
3
 10
16.6303216971554
 20
49.2023602679307
 10
16.6302157101973
 20
49.2021325762496
 10
16.6302402607692
 20
49.2023697728168
  0
LWPOLYLINE
  5
2056C
100
AcDbEntity
  8
směr proudění podzemních vod
100
AcDbPolyline
 70
0
 90
2
 10
16.6337932948507
 20
49.2022579293514
 10
16.6335427494647
 20
49.2018203572115
  0
LWPOLYLINE
  5
2056D
100
AcDbEntity
  8
směr proudění podzemních vod
100
AcDbPolyline
 70
0
 90
3
 10
16.6337065791557
 20
49.2020328239389
 10
16.6335427494647
 20
49.2018203572115
 10
16.6336288224129
 20
49.2020513109289
  0
LWPOLYLINE
  5
2056E
100
AcDbEntity
  8
směr proudění podzemních vod
100
AcDbPolyline
 70
0
 90
2
 10
16.6303810962195
 20
49.2003569844764
 10
16.6304914137019
 20
49.1998952519135
  0
LWPOLYLINE
  5
2056F
100
AcDbEntity
  8
směr proudění podzemních vod
100
AcDbPolyline
 70
0
 90
3
 10
16.6304745684278
 20
49.2001330440032
 10
16.6304914137019
 20
49.1998952519135
 10
16.6303929933619
 20
49.2001240778376
  0
LWPOLYLINE
  5
20570
100
AcDbEntity
  8
směr proudění podzemních vod
100
AcDbPolyline
 70
0
 90
2
 10
16.6330339463254
 20
49.2003684978752
 10
16.63270735803
 20
49.199953020363
  0
LWPOLYLINE
  5
20571
100
AcDbEntity
  8
směr proudění podzemních vod
100
AcDbPolyline
 70
0
 90
3
 10
16.6329078233988
 20
49.2001515402823
 10
16.63270735803
 20
49.199953020363
 10
16.6328338826644
 20
49.2001758350263
  0
LWPOLYLINE
  5
20572
100
AcDbEntity
  8
směr proudění podzemních vod
100
AcDbPolyline
 70
0
 90
2
 10
16.6311507503668
 20
49.198341541654
 10
16.6309445721017
 20
49.1978941412585
  0
LWPOLYLINE
  5
20573
100
AcDbEntity
  8
směr proudění podzemních vod
100
AcDbPolyline
 70
0
 90
3
 10
16.6310867647631
 20
49.1981131934206
 10
16.6309445721017
 20
49.1978941412585
 10
16.6310073306539
 20
49.1981282982755
  0
LWPOLYLINE
  5
20574
100
AcDbEntity
  8
směr proudění podzemních vod
100
AcDbPolyline
 70
0
 90
2
 10
16.6270193227568
 20
49.1976263476272
 10
16.6269450489371
 20
49.197602497931
  0
LWPOLYLINE
  5
20575
100
AcDbEntity
  8
směr proudění podzemních vod
100
AcDbPolyline
 70
0
 90
2
 10
16.6416050076758
 20
49.2077841197087
 10
16.6414133877385
 20
49.207335023742
  0
LWPOLYLINE
  5
20576
100
AcDbEntity
  8
směr proudění podzemních vod
100
AcDbPolyline
 70
0
 90
3
 10
16.6414545409983
 20
49.2075393006945
 10
16.6414133877385
 20
49.207335023742
 10
16.6415432077629
 20
49.2075254767824
  0
LWPOLYLINE
  5
20577
100
AcDbEntity
  8
směr proudění podzemních vod
100
AcDbPolyline
 70
0
 90
2
 10
16.6402235896755
 20
49.2044731142788
 10
16.6400297062975
 20
49.2040244367568
  0
LWPOLYLINE
  5
20578
100
AcDbEntity
  8
směr proudění podzemních vod
100
AcDbPolyline
 70
0
 90
3
 10
16.6400718929007
 20
49.2042286241127
 10
16.6400297062975
 20
49.2040244367568
 10
16.6401604840099
 20
49.2042146063712
  0
LWPOLYLINE
  5
20579
100
AcDbEntity
  8
směr proudění podzemních vod
100
AcDbPolyline
 70
0
 90
2
 10
16.638729964292
 20
49.201146065208
 10
16.6383475077179
 20
49.2007528221518
  0
LWPOLYLINE
  5
2057A
100
AcDbEntity
  8
směr proudění podzemních vod
100
AcDbPolyline
 70
0
 90
3
 10
16.6384774554746
 20
49.2009404526122
 10
16.6383475077179
 20
49.2007528221518
 10
16.6385561562219
 20
49.2009103445391
  0
LWPOLYLINE
  5
2057B
100
AcDbEntity
  8
směr proudění podzemních vod
100
AcDbPolyline
 70
0
 90
2
 10
16.6380936736166
 20
49.195741207012
 10
16.637392254627
 20
49.1956628159688
  0
LWPOLYLINE
  5
2057C
100
AcDbEntity
  8
směr proudění podzemních vod
100
AcDbPolyline
 70
0
 90
3
 10
16.6376916498897
 20
49.195725726381
 10
16.637392254627
 20
49.1956628159688
 10
16.637710456504
 20
49.1956672954736
  0
LWPOLYLINE
  5
2057D
100
AcDbEntity
  8
směr proudění podzemních vod
100
AcDbPolyline
 70
0
 90
2
 10
16.6355430071073
 20
49.1989507106727
 10
16.6349649848292
 20
49.1986787357911
  0
LWPOLYLINE
  5
2057E
100
AcDbEntity
  8
směr proudění podzemních vod
100
AcDbPolyline
 70
0
 90
3
 10
16.6351920067243
 20
49.1988212954415
 10
16.6349649848292
 20
49.1986787357911
 10
16.635248000905
 20
49.1987741815445
  0
LWPOLYLINE
  5
2057F
100
AcDbEntity
  8
směr proudění podzemních vod
100
AcDbPolyline
 70
0
 90
2
 10
16.6335879446596
 20
49.1954055121128
 10
16.6328810839659
 20
49.1953521221357
  0
LWPOLYLINE
  5
20580
100
AcDbEntity
  8
směr proudění podzemních vod
100
AcDbPolyline
 70
0
 90
3
 10
16.6331852345708
 20
49.1954043181654
 10
16.6328810839659
 20
49.1953521221357
 10
16.6331991875316
 20
49.1953453060094
  0
LWPOLYLINE
  5
20581
100
AcDbEntity
  8
směr proudění podzemních vod
100
AcDbPolyline
 70
0
 90
2
 10
16.6303962991131
 20
49.1952063854996
 10
16.6296860272463
 20
49.1951785788008
  0
LWPOLYLINE
  5
20582
100
AcDbEntity
  8
směr proudění podzemních vod
100
AcDbPolyline
 70
0
 90
3
 10
16.6299941004581
 20
49.1952197232217
 10
16.6296860272463
 20
49.1951785788008
 10
16.6300030757093
 20
49.1951602961338
  0
LWPOLYLINE
  5
20583
100
AcDbEntity
  8
směr proudění podzemních vod
100
AcDbPolyline
 70
0
 90
2
 10
16.6437353967707
 20
49.1964651612587
 10
16.6430431162261
 20
49.1963573603171
  0
LWPOLYLINE
  5
20584
100
AcDbEntity
  8
směr proudění podzemních vod
100
AcDbPolyline
 70
0
 90
3
 10
16.6433357194166
 20
49.1964327640557
 10
16.6430431162261
 20
49.1963573603171
 10
16.643360223882
 20
49.1963752465538
  0
LWPOLYLINE
  5
20585
100
AcDbEntity
  8
směr proudění podzemních vod
100
AcDbPolyline
 70
0
 90
2
 10
16.6488250442294
 20
49.1979378760014
 10
16.6483077398689
 20
49.1976176797409
  0
LWPOLYLINE
  5
20586
100
AcDbEntity
  8
směr proudění podzemních vod
100
AcDbPolyline
 70
0
 90
3
 10
16.6485036200208
 20
49.1977788574552
 10
16.6483077398689
 20
49.1976176797409
 10
16.6485687259196
 20
49.1977370753851
  0
LWPOLYLINE
  5
20587
100
AcDbEntity
  8
směr proudění podzemních vod
100
AcDbPolyline
 70
0
 90
2
 10
16.6544157420379
 20
49.2008310821742
 10
16.6540274602257
 20
49.2004402984872
  0
LWPOLYLINE
  5
20588
100
AcDbEntity
  8
směr proudění podzemních vod
100
AcDbPolyline
 70
0
 90
3
 10
16.6541601904955
 20
49.2006270902244
 10
16.6540274602257
 20
49.2004402984872
 10
16.6542384398276
 20
49.2005964818113
  0
LWPOLYLINE
  5
20589
100
AcDbEntity
  8
směr proudění podzemních vod
100
AcDbPolyline
 70
0
 90
2
 10
16.6304210297402
 20
49.1924471762826
 10
16.6297107986157
 20
49.1924193707242
  0
LWPOLYLINE
  5
2058A
100
AcDbEntity
  8
směr proudění podzemních vod
100
AcDbPolyline
 70
0
 90
3
 10
16.6300188548464
 20
49.1924605141985
 10
16.6297107986157
 20
49.1924193707242
 10
16.6300278282022
 20
49.1924010869866
  0
LWPOLYLINE
  5
2058B
100
AcDbEntity
  8
směr proudění podzemních vod
100
AcDbPolyline
 70
0
 90
2
 10
16.634026560699
 20
49.192440440387
 10
16.6333194371376
 20
49.1924920680713
  0
LWPOLYLINE
  5
2058C
100
AcDbEntity
  8
směr proudění podzemních vod
100
AcDbPolyline
 70
0
 90
3
 10
16.633633680104
 20
49.1924983355766
 10
16.6333194371376
 20
49.1924920680713
 10
16.6336271281792
 20
49.1924387732075
  0
LWPOLYLINE
  5
2058D
100
AcDbEntity
  8
směr proudění podzemních vod
100
AcDbPolyline
 70
0
 90
2
 10
16.6387453406434
 20
49.1923654025141
 10
16.6380346267295
 20
49.1923872673855
  0
LWPOLYLINE
  5
2058E
100
AcDbEntity
  8
směr proudění podzemních vod
100
AcDbPolyline
 70
0
 90
3
 10
16.6383476115585
 20
49.1924067025599
 10
16.6380346267295
 20
49.1923872673855
 10
16.6383468890085
 20
49.1923469870862
  0
LWPOLYLINE
  5
2058F
100
AcDbEntity
  8
směr proudění podzemních vod
100
AcDbPolyline
 70
0
 90
2
 10
16.6446410917473
 20
49.1927518283637
 10
16.6439414403116
 20
49.1926670766184
  0
LWPOLYLINE
  5
20590
100
AcDbEntity
  8
směr proudění podzemních vod
100
AcDbPolyline
 70
0
 90
3
 10
16.644239458396
 20
49.1927327000188
 10
16.6439414403116
 20
49.1926670766184
 10
16.6442594980456
 20
49.1926744451607
  0
LWPOLYLINE
  5
20591
100
AcDbEntity
  8
směr proudění podzemních vod
100
AcDbPolyline
 70
0
 90
2
 10
16.650885951441
 20
49.1946436337159
 10
16.6502137208239
 20
49.1944908070252
  0
LWPOLYLINE
  5
20592
100
AcDbEntity
  8
směr proudění podzemních vod
100
AcDbPolyline
 70
0
 90
3
 10
16.6504932754349
 20
49.1945850901537
 10
16.6502137208239
 20
49.1944908070252
 10
16.6505264710109
 20
49.1945294767967
  0
LWPOLYLINE
  5
20593
100
AcDbEntity
  8
směr proudění podzemních vod
100
AcDbPolyline
 70
0
 90
2
 10
16.6582379534376
 20
49.1959199059082
 10
16.6575669188885
 20
49.1960750097566
  0
LWPOLYLINE
  5
20594
100
AcDbEntity
  8
směr proudění podzemních vod
100
AcDbPolyline
 70
0
 90
3
 10
16.6578752038435
 20
49.1960345362232
 10
16.6575669188885
 20
49.1960750097566
 10
16.6578482683519
 20
49.1959774880274
  0
LWPOLYLINE
  5
20595
100
AcDbEntity
  8
směr proudění podzemních vod
100
AcDbPolyline
 70
0
 90
2
 10
16.6605062689825
 20
49.1904689606711
 10
16.6603595916186
 20
49.1900126608645
  0
LWPOLYLINE
  5
20596
100
AcDbEntity
  8
směr proudění podzemních vod
100
AcDbPolyline
 70
0
 90
3
 10
16.6603804156735
 20
49.190218258025
 10
16.6603595916186
 20
49.1900126608645
 10
16.6604702342488
 20
49.1902082339525
  0
LWPOLYLINE
  5
20597
100
AcDbEntity
  8
směr proudění podzemních vod
100
AcDbPolyline
 70
0
 90
2
 10
16.6553511913777
 20
49.1908717674475
 10
16.6548407287155
 20
49.1905469372439
  0
LWPOLYLINE
  5
20598
100
AcDbEntity
  8
směr proudění podzemních vod
100
AcDbPolyline
 70
0
 90
3
 10
16.6550331807418
 20
49.1907098663366
 10
16.6548407287155
 20
49.1905469372439
 10
16.6550991472227
 20
49.1906686749169
  0
LWPOLYLINE
  5
20599
100
AcDbEntity
  8
směr proudění podzemních vod
100
AcDbPolyline
 70
0
 90
3
 10
16.6515118723238
 20
49.2035102009883
 10
16.6512142429668
 20
49.203443700242
 10
16.6515323159536
 20
49.2034520062856
  0
LWPOLYLINE
  5
2059A
100
AcDbEntity
  8
směr proudění podzemních vod
100
AcDbPolyline
 70
0
 90
2
 10
16.6519134580916
 20
49.2035305134875
 10
16.6512142429668
 20
49.203443700242
  0
LWPOLYLINE
  5
2059B
100
AcDbEntity
  8
směr proudění podzemních vod
100
AcDbPolyline
 70
0
 90
3
 10
16.6452684947526
 20
49.2026877931936
 10
16.6449748722651
 20
49.2026140465187
 10
16.64529224387
 20
49.2026301397074
  0
LWPOLYLINE
  5
2059C
100
AcDbEntity
  8
směr proudění podzemních vod
100
AcDbPolyline
 70
0
 90
2
 10
16.6456686340009
 20
49.2027179297775
 10
16.6449748722651
 20
49.2026140465187
  0
LWPOLYLINE
  5
2059D
100
AcDbEntity
  8
směr proudění podzemních vod
100
AcDbPolyline
 70
0
 90
3
 10
16.6457557444
 20
49.2069174080833
 10
16.6454758659212
 20
49.2068234478173
 10
16.6457887972374
 20
49.2068617562362
  0
LWPOLYLINE
  5
2059E
100
AcDbEntity
  8
směr proudění podzemních vod
100
AcDbPolyline
 70
0
 90
2
 10
16.6461486740266
 20
49.206975496987
 10
16.6454758659212
 20
49.2068234478173
  0
LWPOLYLINE
  5
2059F
100
AcDbEntity
  8
směr proudění podzemních vod
100
AcDbPolyline
 70
0
 90
3
 10
16.6570181425715
 20
49.2088477776408
 10
16.6567666491127
 20
49.2087240610401
 10
16.6570651319084
 20
49.2087966083744
  0
LWPOLYLINE
  5
205A0
100
AcDbEntity
  8
směr proudění podzemních vod
100
AcDbPolyline
 70
0
 90
2
 10
16.6573903430005
 20
49.2089487129182
 10
16.6567666491127
 20
49.2087240610401
  0
LWPOLYLINE
  5
205A1
100
AcDbEntity
  8
směr proudění podzemních vod
100
AcDbPolyline
 70
0
 90
2
 10
16.6516558579161
 20
49.2078312446172
 10
16.6509523264805
 20
49.2077607219397
  0
LWPOLYLINE
  5
205A2
100
AcDbEntity
  8
směr proudění podzemních vod
100
AcDbPolyline
 70
0
 90
3
 10
16.6512533919644
 20
49.207820270607
 10
16.6509523264805
 20
49.2077607219397
 10
16.6512706767919
 20
49.2077616371182
  0
LWPOLYLINE
  5
205A3
100
AcDbEntity
  8
směr proudění podzemních vod
100
AcDbPolyline
 70
0
 90
2
 10
16.6588012335242
 20
49.2043085299652
 10
16.6581677176799
 20
49.2040960785533
  0
LWPOLYLINE
  5
205A4
100
AcDbEntity
  8
směr proudění podzemních vod
100
AcDbPolyline
 70
0
 90
3
 10
16.6584246693272
 20
49.2042148607029
 10
16.6581677176799
 20
49.2040960785533
 10
16.6584693208957
 20
49.2041628022066
  0
LWPOLYLINE
  5
205A5
100
AcDbEntity
  8
směr proudění podzemních vod
100
AcDbPolyline
 70
0
 90
2
 10
16.6510753103681
 20
49.2105765855817
 10
16.6503941115955
 20
49.2104414152145
  0
LWPOLYLINE
  5
205A6
100
AcDbEntity
  8
směr proudění podzemních vod
100
AcDbPolyline
 70
0
 90
3
 10
16.6506792630932
 20
49.2105283319038
 10
16.6503941115955
 20
49.2104414152145
 10
16.6507090645725
 20
49.2104718962915
  0
LWPOLYLINE
  5
205A7
100
AcDbEntity
  8
směr proudění podzemních vod
100
AcDbPolyline
 70
0
 90
2
 10
16.6655158923388
 20
49.1939928182645
 10
16.6660037696987
 20
49.1936533879123
  0
LWPOLYLINE
  5
205A8
100
AcDbEntity
  8
směr proudění podzemních vod
100
AcDbPolyline
 70
0
 90
3
 10
16.665758101581
 20
49.1937819687084
 10
16.6660037696987
 20
49.1936533879123
 10
16.6658219410508
 20
49.1938245786429
  0
LWPOLYLINE
  5
205A9
100
AcDbEntity
  8
směr proudění podzemních vod
100
AcDbPolyline
 70
0
 90
2
 10
16.6650388751984
 20
49.1891199505406
 10
16.6645787512885
 20
49.188764287032
  0
LWPOLYLINE
  5
205AA
100
AcDbEntity
  8
směr proudění podzemních vod
100
AcDbPolyline
 70
0
 90
3
 10
16.6647462538698
 20
49.1889386516877
 10
16.6645787512885
 20
49.188764287032
 10
16.66481798756
 20
49.1889018343978
  0
LWPOLYLINE
  5
205AB
100
AcDbEntity
  8
směr proudění podzemních vod
100
AcDbPolyline
 70
0
 90
2
 10
16.6671996107706
 20
49.1921990599342
 10
16.6670921028146
 20
49.1917380970872
  0
LWPOLYLINE
  5
205AC
100
AcDbEntity
  8
směr proudění podzemních vod
100
AcDbPolyline
 70
0
 90
3
 10
16.667095346627
 20
49.1919441365594
 10
16.6670921028146
 20
49.1917380970872
 10
16.6671858842447
 20
49.1919374208734
  0
LWPOLYLINE
  5
205AD
100
AcDbEntity
  8
směr proudění podzemních vod
100
AcDbPolyline
 70
0
 90
2
 10
16.6582952961308
 20
49.1933653350384
 10
16.6579084766108
 20
49.1929739540784
  0
LWPOLYLINE
  5
205AE
100
AcDbEntity
  8
směr proudění podzemních vod
100
AcDbPolyline
 70
0
 90
3
 10
16.6580405159777
 20
49.1931609501538
 10
16.6579084766108
 20
49.1929739540784
 10
16.6581188633307
 20
49.1931304627399
  0
LWPOLYLINE
  5
205AF
100
AcDbEntity
  8
směr proudění podzemních vod
100
AcDbPolyline
 70
0
 90
2
 10
16.6612195210328
 20
49.1932879715323
 10
16.6611888572863
 20
49.1928220883168
  0
LWPOLYLINE
  5
205B0
100
AcDbEntity
  8
směr proudění podzemních vod
100
AcDbPolyline
 70
0
 90
3
 10
16.661158016993
 20
49.1930271448924
 10
16.6611888572863
 20
49.1928220883168
 10
16.6612491333942
 20
49.1930268976731
  0
LWPOLYLINE
  5
205B1
100
AcDbEntity
  8
směr proudění podzemních vod
100
AcDbPolyline
 70
0
 90
2
 10
16.6628657152333
 20
49.1967287280858
 10
16.6625287636691
 20
49.1971394472956
  0
LWPOLYLINE
  5
205B2
100
AcDbEntity
  8
směr proudění podzemních vod
100
AcDbPolyline
 70
0
 90
3
 10
16.6627151846367
 20
49.1969735215436
 10
16.6625287636691
 20
49.1971394472956
 10
16.6626366678247
 20
49.1969432155985
  0
LWPOLYLINE
  5
205B3
100
AcDbEntity
  8
směr proudění podzemních vod
100
AcDbPolyline
 70
0
 90
3
 10
16.6605780821631
 20
49.2105889781077
 10
16.6603472826576
 20
49.2104490073197
 10
16.6606328382549
 20
49.2105412374315
  0
LWPOLYLINE
  5
205B4
100
AcDbEntity
  8
směr proudění podzemních vod
100
AcDbPolyline
 70
0
 90
2
 10
16.6609325230678
 20
49.2107144015867
 10
16.6603472826576
 20
49.2104490073197
  0
LWPOLYLINE
  5
205B5
100
AcDbEntity
  8
směr proudění podzemních vod
100
AcDbPolyline
 70
0
 90
3
 10
16.6543341188119
 20
49.2117328684366
 10
16.6540638479687
 20
49.2116274956335
 10
16.6543724836218
 20
49.2116786993742
  0
LWPOLYLINE
  5
205B6
100
AcDbEntity
  8
směr proudění podzemních vod
100
AcDbPolyline
 70
0
 90
2
 10
16.6547206903881
 20
49.2118071294198
 10
16.6540638479687
 20
49.2116274956335
  0
LWPOLYLINE
  5
205B7
100
AcDbEntity
  8
směr proudění podzemních vod
100
AcDbPolyline
 70
0
 90
3
 10
16.6634129718452
 20
49.2065584215795
 10
16.6631709339408
 20
49.2064268665487
 10
16.6634636882785
 20
49.2065088040402
  0
LWPOLYLINE
  5
205B8
100
AcDbEntity
  8
směr proudění podzemních vod
100
AcDbPolyline
 70
0
 90
2
 10
16.6637772543518
 20
49.2066710543889
 10
16.6631709339408
 20
49.2064268665487
  0
LWPOLYLINE
  5
205B9
100
AcDbEntity
  8
směr proudění podzemních vod
100
AcDbPolyline
 70
0
 90
2
 10
16.668008222672
 20
49.2130482250313
 10
16.6673580928026
 20
49.2128562608381
  0
LWPOLYLINE
  5
205BA
100
AcDbEntity
  8
směr proudění podzemních vod
100
AcDbPolyline
 70
0
 90
3
 10
16.6677450156373
 20
49.2129440301031
 10
16.6673580928026
 20
49.2128562608381
 10
16.6677092184274
 20
49.2129885204752
  0
LWPOLYLINE
  5
205BB
100
AcDbEntity
  8
směr proudění podzemních vod
100
AcDbPolyline
 70
0
 90
2
 10
16.6717330146362
 20
49.2089576963518
 10
16.6710829253571
 20
49.2087657531092
  0
LWPOLYLINE
  5
205BC
100
AcDbEntity
  8
směr proudění podzemních vod
100
AcDbPolyline
 70
0
 90
3
 10
16.6714698214911
 20
49.2088535098487
 10
16.6710829253571
 20
49.2087657531092
 10
16.6714340305815
 20
49.2088980014063
  0
LWPOLYLINE
  5
205BD
100
AcDbEntity
  8
směr proudění podzemních vod
100
AcDbPolyline
 70
0
 90
2
 10
16.6749158618476
 20
49.2151379707195
 10
16.674265677787
 20
49.2149460454849
  0
LWPOLYLINE
  5
205BE
100
AcDbEntity
  8
směr proudění podzemních vod
100
AcDbPolyline
 70
0
 90
3
 10
16.6746526293287
 20
49.2150337906783
 10
16.674265677787
 20
49.2149460454849
 10
16.6746168368105
 20
49.2150782831776
  0
LWPOLYLINE
  5
205BF
100
AcDbEntity
  8
směr proudění podzemních vod
100
AcDbPolyline
 70
0
 90
2
 10
16.6564546279365
 20
49.1995486302719
 10
16.6558211829915
 20
49.1993361658332
  0
LWPOLYLINE
  5
205C0
100
AcDbEntity
  8
směr proudění podzemních vod
100
AcDbPolyline
 70
0
 90
3
 10
16.6560781043397
 20
49.1994549532907
 10
16.6558211829915
 20
49.1993361658332
 10
16.6561227540819
 20
49.1994028956624
  0
LWPOLYLINE
  5
205C1
100
AcDbEntity
  8
směr proudění podzemních vod
100
AcDbPolyline
 70
0
 90
2
 10
16.6634925878688
 20
49.2015689836227
 10
16.6628590867714
 20
49.2013565587641
  0
LWPOLYLINE
  5
205C2
100
AcDbEntity
  8
směr proudění podzemních vod
100
AcDbPolyline
 70
0
 90
3
 10
16.6631160356126
 20
49.201475329627
 10
16.6628590867714
 20
49.2013565587641
 10
16.6631606797844
 20
49.2014232692919
  0
ENDSEC
  0
SECTION
  2
OBJECTS
  0
DICTIONARY
  5
C
330
0
100
AcDbDictionary
281
     1
  3
ACAD_GROUP
350
D
  3
ACAD_LAYOUT
350
1A
  3
ACAD_MLEADERSTYLE
350
43
  3
ACAD_PLOTSETTINGS
350
19
  3
ACAD_PLOTSTYLENAME
350
E
  3
ACAD_TABLESTYLE
350
42
  0
DICTIONARY
  5
D
102
{ACAD_REACTORS
330
C
102
}
330
C
100
AcDbDictionary
281
     1
  0
DICTIONARY
  5
1A
102
{ACAD_REACTORS
330
C
102
}
330
C
100
AcDbDictionary
281
     1
  3
Layout1
350
1E
  3
Model
350
22
  0
DICTIONARY
  5
43
102
{ACAD_REACTORS
330
C
102
}
330
C
100
AcDbDictionary
281
     1
  0
DICTIONARY
  5
19
102
{ACAD_REACTORS
330
C
102
}
330
C
100
AcDbDictionary
281
     1
  0
ACDBDICTIONARYWDFLT
  5
E
102
{ACAD_REACTORS
330
C
102
}
330
C
100
AcDbDictionary
281
     1
  3
Normal
350
F
100
AcDbDictionaryWithDefault
340
F
  0
DICTIONARY
  5
42
102
{ACAD_REACTORS
330
C
102
}
330
C
100
AcDbDictionary
281
     1
  0
LAYOUT
  5
1E
102
{ACAD_REACTORS
330
1A
102
}
330
1A
100
AcDbPlotSettings
  1

  2
none_device
  4

  6

 40
0.0
 41
0.0
 42
0.0
 43
0.0
 44
0.0
 45
0.0
 46
0.0
 47
0.0
 48
0.0
 49
0.0
140
0.0
141
0.0
142
1.0
143
1.0
 70
   688
 72
     0
 73
     0
 74
     5
  7

 75
    16
 76
     0
 77
     2
 78
   300
147
1.0
148
0.0
149
0.0
100
AcDbLayout
  1
Layout1
 70
     1
 71
     1
 10
0.0
 20
0.0
 11
12.0
 21
9.0
 12
0.0
 22
0.0
 32
0.0
 14
1.000000000000000E+20
 24
1.000000000000000E+20
 34
1.000000000000000E+20
 15
-1.000000000000000E+20
 25
-1.000000000000000E+20
 35
-1.000000000000000E+20
146
0.0
 13
0.0
 23
0.0
 33
0.0
 16
1.0
 26
0.0
 36
0.0
 17
0.0
 27
1.0
 37
0.0
 76
     0
330
1B
  0
LAYOUT
  5
22
102
{ACAD_REACTORS
330
1A
102
}
330
1A
100
AcDbPlotSettings
  1

  2
none_device
  4

  6

 40
0.0
 41
0.0
 42
0.0
 43
0.0
 44
0.0
 45
0.0
 46
0.0
 47
0.0
 48
0.0
 49
0.0
140
0.0
141
0.0
142
1.0
143
1.0
 70
  1712
 72
     0
 73
     0
 74
     0
  7

 75
     0
 76
     0
 77
     2
 78
   300
147
1.0
148
0.0
149
0.0
100
AcDbLayout
  1
Model
 70
     1
 71
     0
 10
0.0
 20
0.0
 11
12.0
 21
9.0
 12
0.0
 22
0.0
 32
0.0
 14
30.0
 24
49.75
 34
0.0
 15
130.5
 25
163.1318914119703
 35
0.0
146
0.0
 13
0.0
 23
0.0
 33
0.0
 16
1.0
 26
0.0
 36
0.0
 17
0.0
 27
1.0
 37
0.0
 76
     0
330
1F
331
29
  0
ENDSEC
  0
EOF
