  0
SECTION
  2
HEADER
  9
$ACADVER
  1
AC1018
  9
$ACADMAINTVER
 70
     0
  9
$DWGCODEPAGE
  3
ANSI_1252
  9
$EXTMIN
 10
-605283.3874
 20
-1169442.6667
 30
0.0
  9
$EXTMAX
 10
-589894.96
 20
-1155923.7455
 30
0.0
  9
$LIMMIN
 10
0.0
 20
0.0
  9
$LIMMAX
 10
12.0
 20
9.0
  9
$ORTHOMODE
 70
     0
  9
$REGENMODE
 70
     1
  9
$FILLMODE
 70
     1
  9
$QTEXTMODE
 70
     0
  9
$MIRRTEXT
 70
     1
  9
$LTSCALE
 40
1.0
  9
$ATTMODE
 70
     1
  9
$TEXTSIZE
 40
0.2
  9
$TRACEWID
 40
0.05
  9
$TEXTSTYLE
  7
Standard
  9
$CLAYER
  8
0
  9
$CELTYPE
  6
ByLayer
  9
$CECOLOR
 62
   256
  9
$CELTSCALE
 40
1.0
  9
$DISPSILH
 70
     0
  9
$LUNITS
 70
     2
  9
$LUPREC
 70
     4
  9
$SKETCHINC
 40
0.1
  9
$FILLETRAD
 40
0.5
  9
$AUNITS
 70
     0
  9
$AUPREC
 70
     0
  9
$MENU
  1
.
  9
$ELEVATION
 40
0.0
  9
$PELEVATION
 40
0.0
  9
$THICKNESS
 40
0.0
  9
$LIMCHECK
 70
     0
  9
$CHAMFERA
 40
0.5
  9
$CHAMFERB
 40
0.5
  9
$CHAMFERC
 40
1.0
  9
$CHAMFERD
 40
0.0
  9
$SKPOLY
 70
     0
  9
$ANGBASE
 50
0.0
  9
$ANGDIR
 70
     0
  9
$PDMODE
 70
     0
  9
$PDSIZE
 40
0.0
  9
$PLINEWID
 40
0.0
  9
$SPLFRAME
 70
     0
  9
$SPLINETYPE
 70
     6
  9
$SPLINESEGS
 70
     8
  9
$HANDSEED
  5
00020021
  9
$SURFTAB1
 70
     6
  9
$SURFTAB2
 70
     6
  9
$SURFTYPE
 70
     6
  9
$SURFU
 70
     6
  9
$SURFV
 70
     6
  9
$UCSBASE
  2

  9
$UCSNAME
  2

  9
$UCSORG
 10
0.0
 20
0.0
 30
0.0
  9
$UCSXDIR
 10
1.0
 20
0.0
 30
0.0
  9
$UCSYDIR
 10
0.0
 20
1.0
 30
0.0
  9
$UCSORTHOREF
  2

  9
$UCSORTHOVIEW
 70
     0
  9
$UCSORGTOP
 10
0.0
 20
0.0
 30
0.0
  9
$UCSORGBOTTOM
 10
0.0
 20
0.0
 30
0.0
  9
$UCSORGLEFT
 10
0.0
 20
0.0
 30
0.0
  9
$UCSORGRIGHT
 10
0.0
 20
0.0
 30
0.0
  9
$UCSORGFRONT
 10
0.0
 20
0.0
 30
0.0
  9
$UCSORGBACK
 10
0.0
 20
0.0
 30
0.0
  9
$PUCSBASE
  2

  9
$PUCSNAME
  2

  9
$PUCSORG
 10
0.0
 20
0.0
 30
0.0
  9
$PUCSXDIR
 10
1.0
 20
0.0
 30
0.0
  9
$PUCSYDIR
 10
0.0
 20
1.0
 30
0.0
  9
$PUCSORTHOREF
  2

  9
$PUCSORTHOVIEW
 70
     0
  9
$PUCSORGTOP
 10
0.0
 20
0.0
 30
0.0
  9
$PUCSORGBOTTOM
 10
0.0
 20
0.0
 30
0.0
  9
$PUCSORGLEFT
 10
0.0
 20
0.0
 30
0.0
  9
$PUCSORGRIGHT
 10
0.0
 20
0.0
 30
0.0
  9
$PUCSORGFRONT
 10
0.0
 20
0.0
 30
0.0
  9
$PUCSORGBACK
 10
0.0
 20
0.0
 30
0.0
  9
$WORLDVIEW
 70
     1
  9
$SHADEDGE
 70
     3
  9
$SHADEDIF
 70
    70
  9
$TILEMODE
 70
     1
  9
$MAXACTVP
 70
    64
  9
$PINSBASE
 10
0.0
 20
0.0
 30
0.0
  9
$PLIMCHECK
 70
     0
  9
$PEXTMIN
 10
1.000000000000000E+20
 20
1.000000000000000E+20
 30
1.000000000000000E+20
  9
$PEXTMAX
 10
-1.000000000000000E+20
 20
-1.000000000000000E+20
 30
-1.000000000000000E+20
  9
$PLIMMIN
 10
0.0
 20
0.0
  9
$PLIMMAX
 10
12.0
 20
9.0
  9
$UNITMODE
 70
     0
  9
$VISRETAIN
 70
     1
  9
$PLINEGEN
 70
     0
  9
$PSLTSCALE
 70
     1
  9
$TREEDEPTH
 70
  3020
  9
$CMLSTYLE
  2
Standard
  9
$CMLJUST
 70
     0
  9
$CMLSCALE
 40
1.0
  9
$PROXYGRAPHICS
 70
     1
  9
$MEASUREMENT
 70
     0
  9
$CELWEIGHT
370
    -1
  9
$ENDCAPS
280
     0
  9
$JOINSTYLE
280
     0
  9
$LWDISPLAY
290
     0
  9
$INSUNITS
 70
     1
  9
$HYPERLINKBASE
  1

  9
$STYLESHEET
  1

  9
$XEDIT
290
     1
  9
$CEPSNTYPE
380
     0
  9
$PSTYLEMODE
290
     1
  9
$EXTNAMES
290
     1
  9
$PSVPSCALE
 40
0.0
  9
$OLESTARTUP
290
     0
  9
$SORTENTS
280
   127
  9
$INDEXCTL
280
     0
  9
$HIDETEXT
280
     1
  9
$XCLIPFRAME
290
     0
  9
$HALOGAP
280
     0
  9
$OBSCOLOR
 70
   257
  9
$OBSLTYPE
280
     0
  9
$INTERSECTIONDISPLAY
280
     0
  9
$INTERSECTIONCOLOR
 70
   257
  9
$DIMASSOC
280
     2
  9
$PROJECTNAME
  1

  0
ENDSEC
  0
SECTION
  2
CLASSES
  0
CLASS
  1
ACDBDICTIONARYWDFLT
  2
AcDbDictionaryWithDefault
  3
ObjectDBX Classes
 90
        0
 91
        4
280
     0
281
     0
  0
ENDSEC
  0
SECTION
  2
TABLES
  0
TABLE
  2
VPORT
  5
8
330
0
100
AcDbSymbolTable
 70
     1
  0
VPORT
  5
29
330
8
100
AcDbSymbolTableRecord
100
AcDbViewportTableRecord
  2
*Active
 70
     0
 10
0.0
 20
0.0
 11
1.0
 21
1.0
 12
80.25
 22
106.4409457059851
 13
0.0
 23
0.0
 14
0.5
 24
0.5
 15
0.5
 25
0.5
 16
0.0
 26
0.0
 36
1.0
 17
0.0
 27
0.0
 37
0.0
 40
113.3818914119703
 41
0.8863849310366128
 42
50.0
 43
0.0
 44
0.0
 50
0.0
 51
0.0
 71
     0
 72
  1000
 73
     1
 74
     3
 75
     0
 76
     0
 77
     0
 78
     0
281
     0
 65
     1
110
0.0
120
0.0
130
0.0
111
1.0
121
0.0
131
0.0
112
0.0
122
1.0
132
0.0
 79
     0
146
0.0
  0
ENDTAB
  0
TABLE
  2
LTYPE
  5
5
330
0
100
AcDbSymbolTable
 70
     1
  0
LTYPE
  5
14
330
5
100
AcDbSymbolTableRecord
100
AcDbLinetypeTableRecord
  2
ByBlock
 70
     0
  3

 72
    65
 73
     0
 40
0.0
  0
LTYPE
  5
15
330
5
100
AcDbSymbolTableRecord
100
AcDbLinetypeTableRecord
  2
ByLayer
 70
     0
  3

 72
    65
 73
     0
 40
0.0
  0
LTYPE
  5
16
330
5
100
AcDbSymbolTableRecord
100
AcDbLinetypeTableRecord
  2
Continuous
 70
     0
  3
Solid line
 72
    65
 73
     0
 40
0.0
  0
ENDTAB
  0
TABLE
  2
LAYER
  5
2
330
0
100
AcDbSymbolTable
 70
     1
  0
LAYER
  5
10
330
2
100
AcDbSymbolTableRecord
100
AcDbLayerTableRecord
  2
0
 70
     0
 62
     7
  6
Continuous
370
    -3
390
F
  0
LAYER
  5
20020
330
2
100
AcDbSymbolTableRecord
100
AcDbLayerTableRecord
  2
plocha AZZU
 70
     0
 62
     7
  6
Continuous
370
    -3
390
F
  0
ENDTAB
  0
TABLE
  2
STYLE
  5
3
330
0
100
AcDbSymbolTable
 70
     1
  0
STYLE
  5
11
330
3
100
AcDbSymbolTableRecord
100
AcDbTextStyleTableRecord
  2
Standard
 70
     0
 40
0.0
 41
1.0
 50
0.0
 71
     0
 42
0.2
  3
txt
  4

  0
ENDTAB
  0
TABLE
  2
VIEW
  5
6
330
0
100
AcDbSymbolTable
 70
     0
  0
ENDTAB
  0
TABLE
  2
UCS
  5
7
330
0
100
AcDbSymbolTable
 70
     0
  0
ENDTAB
  0
TABLE
  2
APPID
  5
9
330
0
100
AcDbSymbolTable
 70
     1
  0
APPID
  5
12
330
9
100
AcDbSymbolTableRecord
100
AcDbRegAppTableRecord
  2
ACAD
 70
     0
  0
ENDTAB
  0
TABLE
  2
DIMSTYLE
  5
A
330
0
100
AcDbSymbolTable
 70
     1
100
AcDbDimStyleTable
  0
DIMSTYLE
105
27
330
A
100
AcDbSymbolTableRecord
100
AcDbDimStyleTableRecord
  2
Standard
 70
     0
340
11
  0
ENDTAB
  0
TABLE
  2
BLOCK_RECORD
  5
1
330
0
100
AcDbSymbolTable
 70
     1
  0
BLOCK_RECORD
  5
1F
330
1
100
AcDbSymbolTableRecord
100
AcDbBlockTableRecord
  2
*Model_Space
340
22
  0
BLOCK_RECORD
  5
1B
330
1
100
AcDbSymbolTableRecord
100
AcDbBlockTableRecord
  2
*Paper_Space
340
1E
  0
ENDTAB
  0
ENDSEC
  0
SECTION
  2
BLOCKS
  0
BLOCK
  5
20
330
1F
100
AcDbEntity
  8
0
100
AcDbBlockBegin
  2
*Model_Space
 70
     0
 10
0.0
 20
0.0
 30
0.0
  3
*Model_Space
  1

  0
ENDBLK
  5
21
330
1F
100
AcDbEntity
  8
0
100
AcDbBlockEnd
  0
BLOCK
  5
1C
330
1B
100
AcDbEntity
 67
     1
  8
0
100
AcDbBlockBegin
  2
*Paper_Space
 70
     0
 10
0.0
 20
0.0
 30
0.0
  3
*Paper_Space
  1

  0
ENDBLK
  5
1D
330
1B
100
AcDbEntity
 67
     1
  8
0
100
AcDbBlockEnd
  0
ENDSEC
  0
SECTION
  2
ENTITIES
  0
HATCH
  5
20000
100
AcDbEntity
  8
plocha AZZU
100
AcDbHatch
 10
0
 20
0
 30
0
210
0
220
0
230
1
  2
SOLID
 70
1
 71
0
 91
1
 92
2
 72
0
 73
1
 93
44
 10
-589942.3132
 20
-1159513.4335
 10
-589915.3092
 20
-1159465.2792
 10
-589894.96
 20
-1159424.23
 10
-589912.1
 20
-1159420.46
 10
-589939.6957
 20
-1159418.5385
 10
-589957.1299
 20
-1159449.9334
 10
-589988.3508
 20
-1159520.3127
 10
-590014.28
 20
-1159545.7127
 10
-590047.6175
 20
-1159549.9461
 10
-590081.9499
 20
-1159534.3741
 10
-590127.6745
 20
-1159498.8105
 10
-590169.8553
 20
-1159492.796
 10
-590227.0054
 20
-1159494.9126
 10
-590261.4013
 20
-1159488.5626
 10
-590297.3634
 20
-1159468.3275
 10
-590325.4306
 20
-1159477.4501
 10
-590348.1848
 20
-1159498.0876
 10
-590372.5265
 20
-1159549.9461
 10
-590411.1558
 20
-1159580.6378
 10
-590434.4392
 20
-1159606.0379
 10
-590464.0725
 20
-1159613.9754
 10
-590506.6803
 20
-1159652.2419
 10
-590449.7786
 20
-1159678.6605
 10
-590438.6015
 20
-1159667.4834
 10
-590432.3225
 20
-1159656.3088
 10
-590407.4516
 20
-1159649.4296
 10
-590368.4905
 20
-1159656.3062
 10
-590343.9515
 20
-1159649.4296
 10
-590324.7981
 20
-1159635.9842
 10
-590309.5566
 20
-1159606.5172
 10
-590284.1541
 20
-1159560.7927
 10
-590262.816
 20
-1159531.3258
 10
-590246.5846
 20
-1159522.4294
 10
-590217.4804
 20
-1159533.0127
 10
-590184.5761
 20
-1159556.7282
 10
-590158.7428
 20
-1159578.5211
 10
-590130.7228
 20
-1159617.6944
 10
-590105.3202
 20
-1159628.8715
 10
-590072.805
 20
-1159628.8715
 10
-590037.5634
 20
-1159624.5587
 10
-590003.7101
 20
-1159621.7588
 10
-589989.9383
 20
-1159606.567
 10
-589971.9466
 20
-1159575.3461
 10
-589942.3132
 20
-1159513.4335
 97
0
 75
0
 76
1
 98
0
  0
HATCH
  5
20001
100
AcDbEntity
  8
plocha AZZU
100
AcDbHatch
 10
0
 20
0
 30
0
210
0
220
0
230
1
  2
SOLID
 70
1
 71
0
 91
1
 92
2
 72
0
 73
1
 93
85
 10
-590172.2636
 20
-1161444.8254
 10
-590174.02
 20
-1161431.94
 10
-590173.83
 20
-1161410.31
 10
-590169.0848
 20
-1161390.579
 10
-590162.82
 20
-1161373.15
 10
-590164.6146
 20
-1161330.8122
 10
-590171.8895
 20
-1161303.8521
 10
-590183.494
 20
-1161278.3183
 10
-590181.732
 20
-1161268.3335
 10
-590161.6191
 20
-1161243.9411
 10
-590138.0826
 20
-1161222.9723
 10
-590127.3842
 20
-1161209.7063
 10
-590126.0898
 20
-1161202.325
 10
-590126.9562
 20
-1161165.6289
 10
-590125.86
 20
-1161132.7199
 10
-590135.02
 20
-1161107.12
 10
-590142.79
 20
-1161082.4099
 10
-590161.2647
 20
-1161032.3301
 10
-590168.52
 20
-1161010.57
 10
-590173.4282
 20
-1160993.1322
 10
-590183.9491
 20
-1160976.1039
 10
-590198.4215
 20
-1160958.5078
 10
-590198.8495
 20
-1160948.6653
 10
-590202.1183
 20
-1160919.4861
 10
-590200.7937
 20
-1160909.9803
 10
-590195.8391
 20
-1160904.5304
 10
-590175.5259
 20
-1160890.1625
 10
-590181.4713
 20
-1160875.7945
 10
-590185.4349
 20
-1160845.5723
 10
-590191.3802
 20
-1160804.9457
 10
-590194.8483
 20
-1160772.7417
 10
-590196.8301
 20
-1160743.0149
 10
-590196.3347
 20
-1160716.2608
 10
-590191.3802
 20
-1160687.0295
 10
-590190.3893
 20
-1160666.7162
 10
-590197.3255
 20
-1160666.7162
 10
-590208.7208
 20
-1160677.6159
 10
-590210.7026
 20
-1160711.8017
 10
-590208.7208
 20
-1160741.5285
 10
-590208.7208
 20
-1160754.4101
 10
-590212.1889
 20
-1160755.8965
 10
-590220.6115
 20
-1160756.8874
 10
-590223.0888
 20
-1160759.3646
 10
-590209.7116
 20
-1160765.31
 10
-590205.2527
 20
-1160775.7143
 10
-590201.7846
 20
-1160820.3045
 10
-590201.7846
 20
-1160837.1497
 10
-590202.7755
 20
-1160849.0404
 10
-590204.7572
 20
-1160854.9858
 10
-590210.2072
 20
-1160858.9493
 10
-590228.0432
 20
-1160865.8856
 10
-590239.9339
 20
-1160871.3355
 10
-590243.8975
 20
-1160887.6852
 10
-590240.9248
 20
-1160904.5304
 10
-590228.5387
 20
-1160926.8255
 10
-590217.39
 20
-1160953.39
 10
-590212.1155
 20
-1160973.0577
 10
-590206.6195
 20
-1160995.3871
 10
-590209.56
 20
-1160999.76
 10
-590215.0667
 20
-1161007.4441
 10
-590228.52
 20
-1161018.65
 10
-590235.06
 20
-1161028.73
 10
-590236.39
 20
-1161036.36
 10
-590228.2551
 20
-1161055.7489
 10
-590210.9699
 20
-1161097.83
 10
-590197.4
 20
-1161133.02
 10
-590197.1772
 20
-1161145.9449
 10
-590189.007
 20
-1161168.1964
 10
-590183.0158
 20
-1161191.305
 10
-590182.1599
 20
-1161200.7196
 10
-590182.4466
 20
-1161212.6789
 10
-590192.8584
 20
-1161221.2605
 10
-590199.2199
 20
-1161229.54
 10
-590210.01
 20
-1161254.98
 10
-590219.39
 20
-1161285.36
 10
-590221.07
 20
-1161295.86
 10
-590221.9099
 20
-1161329.09
 10
-590224.45
 20
-1161357.74
 10
-590225.74
 20
-1161371.44
 10
-590232.33
 20
-1161393.19
 10
-590232.89
 20
-1161409.31
 10
-590231.2
 20
-1161432.57
 10
-590222.1697
 20
-1161466.7339
 10
-590220.4977
 20
-1161473.6103
 10
-590172.2636
 20
-1161444.8254
 97
0
 75
0
 76
1
 98
0
  0
HATCH
  5
20002
100
AcDbEntity
  8
plocha AZZU
100
AcDbHatch
 10
0
 20
0
 30
0
210
0
220
0
230
1
  2
SOLID
 70
1
 71
0
 91
2
 92
2
 72
0
 73
1
 93
69
 10
-590045.719
 20
-1160245.0913
 10
-590030.8556
 20
-1160229.237
 10
-590042.7463
 20
-1160206.9419
 10
-590060.0869
 20
-1160181.6742
 10
-590087.8319
 20
-1160152.4428
 10
-590096.2545
 20
-1160143.5248
 10
-590119.5405
 20
-1160132.1295
 10
-590162.1488
 20
-1160111.3208
 10
-590178.4986
 20
-1160104.88
 10
-590194.8483
 20
-1160097.4483
 10
-590240.9248
 20
-1160075.6486
 10
-590276.597
 20
-1160058.8034
 10
-590305.8283
 20
-1160039.9765
 10
-590339.0232
 20
-1160017.1859
 10
-590356.024
 20
-1160006.3911
 10
-590363.7954
 20
-1160011.2406
 10
-590352.8957
 20
-1160025.6086
 10
-590345.9594
 20
-1160045.9219
 10
-590336.546
 20
-1160081.0985
 10
-590328.1234
 20
-1160099.43
 10
-590316.2327
 20
-1160109.339
 10
-590285.0196
 20
-1160126.1841
 10
-590219.6206
 20
-1160151.4519
 10
-590191.3802
 20
-1160164.3335
 10
-590173.5441
 20
-1160177.2151
 10
-590150.2582
 20
-1160196.5375
 10
-590124.495
 20
-1160222.3008
 10
-590098.2363
 20
-1160259.9547
 10
-590091.3
 20
-1160272.3408
 10
-590082.382
 20
-1160274.3225
 10
-590080.4002
 20
-1160279.2771
 10
-590078.9964
 20
-1160296.0396
 10
-590076.354
 20
-1160331.0512
 10
-590074.3723
 20
-1160352.8509
 10
-590079.657
 20
-1160370.6869
 10
-590090.2265
 20
-1160388.523
 10
-590121.2745
 20
-1160427.4981
 10
-590155.6255
 20
-1160463.1703
 10
-590177.4251
 20
-1160488.2729
 10
-590194.8483
 20
-1160521.0548
 10
-590198.6421
 20
-1160537.8895
 10
-590202.7755
 20
-1160556.2316
 10
-590213.1798
 20
-1160587.4447
 10
-590217.6349
 20
-1160607.9106
 10
-590229.0341
 20
-1160660.2753
 10
-590225.0705
 20
-1160670.6797
 10
-590219.1252
 20
-1160669.1934
 10
-590216.7997
 20
-1160667.7478
 10
-590200.7937
 20
-1160657.7981
 10
-590188.4074
 20
-1160633.5212
 10
-590177.5077
 20
-1160612.7125
 10
-590166.6079
 20
-1160583.4811
 10
-590160.1671
 20
-1160571.0949
 10
-590142.331
 20
-1160545.3318
 10
-590126.9721
 20
-1160527.9911
 10
-590093.2818
 20
-1160493.3099
 10
-590072.9685
 20
-1160469.5285
 10
-590056.1233
 20
-1160443.2698
 10
-590046.6273
 20
-1160424.8557
 10
-590037.3789
 20
-1160403.7167
 10
-590030.1124
 20
-1160375.9717
 10
-590022.8459
 20
-1160354.8326
 10
-590021.5247
 20
-1160338.9784
 10
-590016.2399
 20
-1160304.6274
 10
-590018.2217
 20
-1160274.9005
 10
-590020.8641
 20
-1160256.404
 10
-590023.5064
 20
-1160244.5133
 10
-590040.7645
 20
-1160252.523
 10
-590045.719
 20
-1160245.0913
 97
0
 92
2
 72
0
 73
1
 93
7
 10
-590067.1057
 20
-1160352.8509
 10
-590058.7301
 20
-1160338.6706
 10
-590049.5011
 20
-1160340.9078
 10
-590032.5363
 20
-1160346.3435
 10
-590042.0152
 20
-1160362.0466
 10
-590047.9811
 20
-1160364.0279
 10
-590067.1057
 20
-1160352.8509
 97
0
 75
0
 76
1
 98
0
  0
HATCH
  5
20003
100
AcDbEntity
  8
plocha AZZU
100
AcDbHatch
 10
0
 20
0
 30
0
210
0
220
0
230
1
  2
SOLID
 70
1
 71
0
 91
1
 92
2
 72
0
 73
1
 93
33
 10
-590367.56
 20
-1159993.7298
 10
-590389.5588
 20
-1159968.6322
 10
-590410.863
 20
-1159946.3371
 10
-590422.2582
 20
-1159927.5102
 10
-590427.7081
 20
-1159907.6923
 10
-590426.7172
 20
-1159873.5064
 10
-590428.2036
 20
-1159860.6249
 10
-590436.1307
 20
-1159850.2205
 10
-590443.5624
 20
-1159842.7889
 10
-590446.6177
 20
-1159836.7609
 10
-590447.2782
 20
-1159808.3553
 10
-590451.9693
 20
-1159781.8623
 10
-590457.5966
 20
-1159766.95
 10
-590460.4102
 20
-1159757.1023
 10
-590464.912
 20
-1159726.4336
 10
-590469.7385
 20
-1159709.9266
 10
-590467.096
 20
-1159697.3753
 10
-590509.3742
 20
-1159676.2362
 10
-590513.3377
 20
-1159682.8422
 10
-590517.3012
 20
-1159690.7694
 10
-590525.2285
 20
-1159723.799
 10
-590525.2285
 20
-1159757.4895
 10
-590515.5577
 20
-1159784.676
 10
-590500.1259
 20
-1159816.943
 10
-590474.3626
 20
-1159855.9181
 10
-590454.9577
 20
-1159878.9564
 10
-590451.985
 20
-1159885.8927
 10
-590450.4986
 20
-1159912.6468
 10
-590441.5806
 20
-1159939.4009
 10
-590430.6808
 20
-1159958.7233
 10
-590412.3493
 20
-1159976.5594
 10
-590376.68
 20
-1160004.7191
 10
-590367.56
 20
-1159993.7298
 97
0
 75
0
 76
1
 98
0
  0
HATCH
  5
20004
100
AcDbEntity
  8
plocha AZZU
100
AcDbHatch
 10
0
 20
0
 30
0
210
0
220
0
230
1
  2
SOLID
 70
1
 71
0
 91
1
 92
2
 72
0
 73
1
 93
55
 10
-597395.3132
 20
-1164050.1486
 10
-597447.8256
 20
-1164048.5349
 10
-597452.0941
 20
-1164063.4747
 10
-597456.33
 20
-1164076.92
 10
-597457.1482
 20
-1164087.6825
 10
-597458.1828
 20
-1164101.2921
 10
-597459.1183
 20
-1164113.5973
 10
-597459.4398
 20
-1164117.8256
 10
-597459.3414
 20
-1164119.567
 10
-597458.8936
 20
-1164127.4991
 10
-597458.274
 20
-1164138.4736
 10
-597467.799
 20
-1164139.2672
 10
-597500.7397
 20
-1164138.4736
 10
-597496.7709
 20
-1164181.733
 10
-597493.0924
 20
-1164191.5464
 10
-597493.3975
 20
-1164225.3762
 10
-597487.5508
 20
-1164309.7645
 10
-597474.8766
 20
-1164331.8712
 10
-597438.8271
 20
-1164367.5899
 10
-597425.5979
 20
-1164393.0562
 10
-597415.3453
 20
-1164428.4442
 10
-597390.8712
 20
-1164494.5903
 10
-597379.4922
 20
-1164555.4363
 10
-597378.5686
 20
-1164644.0998
 10
-597379.4922
 20
-1164733.6869
 10
-597392.4222
 20
-1164798.3375
 10
-597399.8995
 20
-1164826.5211
 10
-597395.1828
 20
-1164827.5959
 10
-597394.9736
 20
-1164828.9466
 10
-597293.9727
 20
-1164836.8919
 10
-597255.7326
 20
-1164820.5033
 10
-597194.7764
 20
-1164741.9992
 10
-597192.9293
 20
-1164700.4382
 10
-597176.3049
 20
-1164657.03
 10
-597175.3814
 20
-1164630.2463
 10
-597190.1585
 20
-1164591.4559
 10
-597218.8917
 20
-1164554.7831
 10
-597256.6562
 20
-1164526.8054
 10
-597270.1746
 20
-1164458.3556
 10
-597271.5726
 20
-1164441.5795
 10
-597306.4679
 20
-1164340.771
 10
-597310.3642
 20
-1164317.3347
 10
-597322.4792
 20
-1164278.3042
 10
-597324.412
 20
-1164272.0899
 10
-597325.0075
 20
-1164270.4578
 10
-597331.5301
 20
-1164252.5814
 10
-597340.0233
 20
-1164230.9161
 10
-597344.8884
 20
-1164217.078
 10
-597357.8628
 20
-1164180.1743
 10
-597365.2645
 20
-1164155.2145
 10
-597370.953
 20
-1164130.8729
 10
-597372.2759
 20
-1164100.578
 10
-597367.5346
 20
-1164055.793
 10
-597395.0201
 20
-1164054.0929
 10
-597395.3132
 20
-1164050.1486
 97
0
 75
0
 76
1
 98
0
  0
HATCH
  5
20005
100
AcDbEntity
  8
plocha AZZU
100
AcDbHatch
 10
0
 20
0
 30
0
210
0
220
0
230
1
  2
SOLID
 70
1
 71
0
 91
1
 92
2
 72
0
 73
1
 93
116
 10
-597406.0781
 20
-1165392.4801
 10
-597450.8687
 20
-1165406.4066
 10
-597486.4152
 20
-1165409.5429
 10
-597524.0526
 20
-1165411.6339
 10
-597565.872
 20
-1165404.3155
 10
-597621.2828
 20
-1165414.7705
 10
-597652.6473
 20
-1165421.0432
 10
-597655.7837
 20
-1165421.0432
 10
-597669.123
 20
-1165412.4681
 10
-597665.4845
 20
-1165379.6493
 10
-597634.8336
 20
-1165253.0127
 10
-597616.0554
 20
-1165130.3984
 10
-597621.2828
 20
-1165070.8056
 10
-597651.6018
 20
-1164956.8478
 10
-597712.24
 20
-1164888.8913
 10
-597758.2412
 20
-1164889.9368
 10
-597780.1964
 20
-1164928.6197
 10
-597811.5609
 20
-1165053.0324
 10
-597839.7892
 20
-1165126.2165
 10
-597869.3146
 20
-1165160.9217
 10
-597870.1083
 20
-1165158.6264
 10
-597919.2461
 20
-1165210.9007
 10
-598012.2943
 20
-1165268.4025
 10
-598011.7665
 20
-1165268.6602
 10
-598046.7953
 20
-1165277.8118
 10
-598046.1166
 20
-1165278.2429
 10
-598047.8408
 20
-1165277.8118
 10
-598069.796
 20
-1165283.0392
 10
-598074.5026
 20
-1165283.1343
 10
-598149.2528
 20
-1165269.4479
 10
-598180.98
 20
-1165256.4131
 10
-598197.0158
 20
-1165249.825
 10
-598196.4225
 20
-1165250.7573
 10
-598199.7306
 20
-1165249.5458
 10
-598220.9166
 20
-1165234.6784
 10
-598234.6689
 20
-1165225.3863
 10
-598253.6248
 20
-1165208.6605
 10
-598272.9524
 20
-1165187.1029
 10
-598282.9878
 20
-1165174.0939
 10
-598294.51
 20
-1165156.2531
 10
-598303.4304
 20
-1165141.014
 10
-598319.0412
 20
-1165121.6865
 10
-598335.7669
 20
-1165102.3589
 10
-598353.9795
 20
-1165087.1199
 10
-598371.4486
 20
-1165074.8543
 10
-598397.0948
 20
-1165061.102
 10
-598414.1922
 20
-1165050.6948
 10
-598422.741
 20
-1165045.4913
 10
-598446.1571
 20
-1165032.4823
 10
-598461.3961
 20
-1165022.8186
 10
-598484.8122
 20
-1165008.6946
 10
-598512.3168
 20
-1164995.6856
 10
-598528.2992
 20
-1164990.1104
 10
-598536.4763
 20
-1164984.9068
 10
-598551.3436
 20
-1164965.5792
 10
-598568.4411
 20
-1164931.3843
 10
-598583.6801
 20
-1164896.446
 10
-598598.9192
 20
-1164867.083
 10
-598607.8396
 20
-1164855.9325
 10
-598618.2467
 20
-1164844.7819
 10
-598627.9105
 20
-1164840.6934
 10
-598642.0345
 20
-1164835.8615
 10
-598642.7779
 20
-1164842.9235
 10
-598636.8309
 20
-1164848.4988
 10
-598632.7424
 20
-1164855.1891
 10
-598623.4503
 20
-1164862.6228
 10
-598609.3263
 20
-1164885.2955
 10
-598594.0873
 20
-1164918.0037
 10
-598582.1934
 20
-1164939.1897
 10
-598568.4411
 20
-1164960.3757
 10
-598563.6092
 20
-1164966.6943
 10
-598558.4056
 20
-1164973.7563
 10
-598549.1135
 20
-1164985.6502
 10
-598542.7949
 20
-1164991.5971
 10
-598532.3877
 20
-1165000.5175
 10
-598516.0336
 20
-1165007.9512
 10
-598508.2283
 20
-1165010.1813
 10
-598500.0512
 20
-1165013.8981
 10
-598481.0954
 20
-1165024.677
 10
-598454.7058
 20
-1165041.0311
 10
-598429.0596
 20
-1165057.0135
 10
-598419.0241
 20
-1165062.9604
 10
-598403.0417
 20
-1165070.7658
 10
-598384.8292
 20
-1165080.8012
 10
-598369.2185
 20
-1165088.6066
 10
-598359.9264
 20
-1165096.412
 10
-598346.1741
 20
-1165108.3059
 10
-598331.3067
 20
-1165124.2883
 10
-598320.8996
 20
-1165139.5273
 10
-598301.572
 20
-1165174.0939
 10
-598297.1118
 20
-1165186.7312
 10
-598267.7488
 20
-1165223.8996
 10
-598238.7574
 20
-1165248.059
 10
-598216.0847
 20
-1165261.4396
 10
-598172.7424
 20
-1165281.6747
 10
-598107.4334
 20
-1165353.0868
 10
-598048.8863
 20
-1165453.4533
 10
-597957.9291
 20
-1165547.5471
 10
-597886.8361
 20
-1165575.7752
 10
-597751.9684
 20
-1165564.2748
 10
-597706.8145
 20
-1165520.3083
 10
-597690.9503
 20
-1165498.8918
 10
-597679.8299
 20
-1165470.1812
 10
-597669.0522
 20
-1165440.4016
 10
-597647.4199
 20
-1165455.5443
 10
-597596.191
 20
-1165474.3631
 10
-597553.3261
 20
-1165472.2721
 10
-597506.2793
 20
-1165463.9082
 10
-597472.8238
 20
-1165463.9082
 10
-597454.0728
 20
-1165460.8879
 10
-597416.7614
 20
-1165454.878
 10
-597313.8101
 20
-1165439.7284
 10
-597325.1535
 20
-1165374.504
 10
-597357.3041
 20
-1165377.315
 10
-597400.6791
 20
-1165390.8014
 10
-597406.0781
 20
-1165392.4801
 97
0
 75
0
 76
1
 98
0
  0
HATCH
  5
20006
100
AcDbEntity
  8
plocha AZZU
100
AcDbHatch
 10
0
 20
0
 30
0
210
0
220
0
230
1
  2
SOLID
 70
1
 71
0
 91
1
 92
2
 72
0
 73
1
 93
96
 10
-602472.713
 20
-1163710.1827
 10
-602498.51
 20
-1163685.1795
 10
-602553.2788
 20
-1163647.8732
 10
-602604.0789
 20
-1163612.1544
 10
-602630.6696
 20
-1163595.4856
 10
-602662.4197
 20
-1163581.5949
 10
-602691.7885
 20
-1163565.323
 10
-602699.726
 20
-1163558.5761
 10
-602704.8854
 20
-1163551.8293
 10
-602722.7448
 20
-1163538.7324
 10
-602742.1917
 20
-1163520.4761
 10
-602756.4792
 20
-1163507.3792
 10
-602797.3574
 20
-1163483.1697
 10
-602831.8856
 20
-1163463.326
 10
-602885.4639
 20
-1163431.5759
 10
-602920.7858
 20
-1163412.129
 10
-602951.7421
 20
-1163395.8571
 10
-602964.4422
 20
-1163388.7133
 10
-602995.0016
 20
-1163371.6476
 10
-603027.5454
 20
-1163354.9789
 10
-603043.0236
 20
-1163347.0413
 10
-603050.5642
 20
-1163341.4851
 10
-603068.4236
 20
-1163348.6289
 10
-603024.3704
 20
-1163370.457
 10
-602969.6015
 20
-1163401.0165
 10
-602932.2952
 20
-1163420.4634
 10
-602900.942
 20
-1163437.529
 10
-602873.5576
 20
-1163452.2134
 10
-602850.9357
 20
-1163464.9135
 10
-602828.3138
 20
-1163478.8041
 10
-602813.6294
 20
-1163490.7104
 10
-602810.0575
 20
-1163504.9979
 10
-602809.6606
 20
-1163522.8573
 10
-602809.6606
 20
-1163536.748
 10
-602811.645
 20
-1163560.9574
 10
-602811.645
 20
-1163576.8324
 10
-602810.0575
 20
-1163601.4387
 10
-602808.47
 20
-1163622.4731
 10
-602804.8981
 20
-1163645.8888
 10
-602801.3262
 20
-1163665.3357
 10
-602799.7387
 20
-1163680.0201
 10
-602800.5325
 20
-1163693.5139
 10
-602802.12
 20
-1163708.1983
 10
-602805.295
 20
-1163723.6765
 10
-602808.8668
 20
-1163730.0265
 10
-602829.1075
 20
-1163741.139
 10
-602845.3794
 20
-1163750.2672
 10
-602854.1107
 20
-1163757.014
 10
-602859.6669
 20
-1163764.9516
 10
-602849.7451
 20
-1163769.3172
 10
-602825.1388
 20
-1163757.014
 10
-602778.7043
 20
-1163733.5984
 10
-602765.6074
 20
-1163729.2327
 10
-602757.6699
 20
-1163732.4077
 10
-602754.098
 20
-1163737.5671
 10
-602746.9542
 20
-1163749.4734
 10
-602741.398
 20
-1163758.2047
 10
-602728.3011
 20
-1163764.1578
 10
-602714.0135
 20
-1163768.5234
 10
-602697.7416
 20
-1163769.3172
 10
-602680.2791
 20
-1163774.0797
 10
-602658.8478
 20
-1163781.2235
 10
-602644.1634
 20
-1163787.5735
 10
-602632.2571
 20
-1163798.686
 10
-602612.4133
 20
-1163817.736
 10
-602593.7602
 20
-1163836.7861
 10
-602581.457
 20
-1163857.8205
 10
-602564.3914
 20
-1163894.3331
 10
-602548.5163
 20
-1163928.0675
 10
-602539.3882
 20
-1163936.4019
 10
-602525.1007
 20
-1163936.4019
 10
-602505.2569
 20
-1163936.4019
 10
-602484.2224
 20
-1163934.8144
 10
-602473.5068
 20
-1163928.8613
 10
-602461.9974
 20
-1163910.2081
 10
-602438.1849
 20
-1163877.2674
 10
-602417.5473
 20
-1163855.4392
 10
-602403.6567
 20
-1163842.7392
 10
-602400.4817
 20
-1163833.2142
 10
-602398.8941
 20
-1163820.1173
 10
-602398.4973
 20
-1163812.5767
 10
-602392.1473
 20
-1163810.9892
 10
-602384.2097
 20
-1163813.3704
 10
-602371.5097
 20
-1163818.1329
 10
-602354.0472
 20
-1163816.1485
 10
-602332.6159
 20
-1163808.211
 10
-602316.344
 20
-1163802.2579
 10
-602303.2471
 20
-1163799.8766
 10
-602315.5502
 20
-1163789.9547
 10
-602344.5222
 20
-1163796.3047
 10
-602361.5878
 20
-1163799.4798
 10
-602370.716
 20
-1163799.4798
 10
-602379.4472
 20
-1163788.3672
 10
-602393.7348
 20
-1163773.286
 10
-602438.1849
 20
-1163740.3453
 10
-602472.713
 20
-1163710.1827
 97
0
 75
0
 76
1
 98
0
  0
HATCH
  5
20007
100
AcDbEntity
  8
plocha AZZU
100
AcDbHatch
 10
0
 20
0
 30
0
210
0
220
0
230
1
  2
SOLID
 70
1
 71
0
 91
1
 92
2
 72
0
 73
1
 93
89
 10
-601547.5956
 20
-1163961.802
 10
-601559.5018
 20
-1163958.6269
 10
-601568.2331
 20
-1163954.6582
 10
-601619.0332
 20
-1163931.2425
 10
-601642.4489
 20
-1163920.13
 10
-601655.9427
 20
-1163911.7956
 10
-601661.4989
 20
-1163920.13
 10
-601659.9114
 20
-1163925.6863
 10
-601652.3708
 20
-1163929.655
 10
-601643.6395
 20
-1163940.3707
 10
-601614.2707
 20
-1163956.6426
 10
-601578.5519
 20
-1163976.8832
 10
-601542.8331
 20
-1163998.3145
 10
-601521.7986
 20
-1164011.4114
 10
-601503.1455
 20
-1164019.7458
 10
-601491.2392
 20
-1164024.9052
 10
-601466.236
 20
-1164036.8115
 10
-601445.5985
 20
-1164043.1615
 10
-601420.5953
 20
-1164051.099
 10
-601395.1953
 20
-1164061.4178
 10
-601363.0483
 20
-1164069.3553
 10
-601330.9014
 20
-1164075.7053
 10
-601305.1045
 20
-1164080.8647
 10
-601275.3388
 20
-1164082.8491
 10
-601230.8887
 20
-1164086.0241
 10
-601180.0886
 20
-1164089.1991
 10
-601130.0822
 20
-1164093.1678
 10
-601083.6478
 20
-1164097.5335
 10
-601014.1945
 20
-1164102.296
 10
-600966.9663
 20
-1164106.2647
 10
-600883.2255
 20
-1164110.2335
 10
-600830.441
 20
-1164113.8054
 10
-600788.3722
 20
-1164117.3773
 10
-600748.6846
 20
-1164120.5523
 10
-600701.0595
 20
-1164121.346
 10
-600694.7095
 20
-1164117.7741
 10
-600689.947
 20
-1164116.5835
 10
-600689.5501
 20
-1164107.4554
 10
-600707.4095
 20
-1164105.471
 10
-600714.5533
 20
-1164105.0741
 10
-600736.3814
 20
-1164103.0897
 10
-600746.3033
 20
-1164103.8835
 10
-600752.6534
 20
-1164098.3272
 10
-600762.9721
 20
-1164086.421
 10
-600770.5128
 20
-1164070.149
 10
-600777.6565
 20
-1164049.9084
 10
-600785.594
 20
-1164021.7302
 10
-600790.7534
 20
-1164001.0927
 10
-600799.8816
 20
-1163981.2489
 10
-600813.7722
 20
-1163959.8176
 10
-600831.2348
 20
-1163945.9269
 10
-600838.7754
 20
-1163943.5457
 10
-600848.6973
 20
-1163942.7519
 10
-600869.7317
 20
-1163947.9113
 10
-600881.2411
 20
-1163952.6738
 10
-600895.5286
 20
-1163959.0238
 10
-600910.6099
 20
-1163958.2301
 10
-600922.1193
 20
-1163953.4676
 10
-600944.3444
 20
-1163947.5144
 10
-600960.2194
 20
-1163947.5144
 10
-600994.7476
 20
-1163950.2926
 10
-601032.8477
 20
-1163955.8488
 10
-601069.7571
 20
-1163966.1676
 10
-601091.9822
 20
-1163978.0739
 10
-601116.1916
 20
-1163989.5833
 10
-601152.7042
 20
-1164006.6489
 10
-601180.0886
 20
-1164027.6833
 10
-601188.423
 20
-1164035.224
 10
-601195.9636
 20
-1164049.5115
 10
-601203.1074
 20
-1164059.4334
 10
-601215.0137
 20
-1164061.0209
 10
-601222.9512
 20
-1164061.0209
 10
-601224.1418
 20
-1164036.8115
 10
-601225.3324
 20
-1164005.4583
 10
-601231.6824
 20
-1163992.7583
 10
-601242.795
 20
-1163977.677
 10
-601290.0232
 20
-1163964.5801
 10
-601323.3607
 20
-1163959.0238
 10
-601343.2045
 20
-1163949.4988
 10
-601370.589
 20
-1163941.1644
 10
-601386.464
 20
-1163937.9894
 10
-601423.3734
 20
-1163939.5769
 10
-601449.5672
 20
-1163941.9582
 10
-601461.4735
 20
-1163945.53
 10
-601479.7298
 20
-1163955.4519
 10
-601495.6048
 20
-1163963.3895
 10
-601508.7017
 20
-1163968.5488
 10
-601524.1799
 20
-1163968.5488
 10
-601547.5956
 20
-1163961.802
 97
0
 75
0
 76
1
 98
0
  0
HATCH
  5
20008
100
AcDbEntity
  8
plocha AZZU
100
AcDbHatch
 10
0
 20
0
 30
0
210
0
220
0
230
1
  2
SOLID
 70
1
 71
0
 91
3
 92
2
 72
0
 73
1
 93
126
 10
-605030.1807
 20
-1161391.6343
 10
-605030.1807
 20
-1161386.4749
 10
-605036.1338
 20
-1161377.3468
 10
-605044.0713
 20
-1161370.9968
 10
-605051.2151
 20
-1161367.4249
 10
-605066.6932
 20
-1161363.0593
 10
-605062.3276
 20
-1161372.1874
 10
-605061.9307
 20
-1161380.5218
 10
-605068.2807
 20
-1161391.6343
 10
-605083.362
 20
-1161403.1437
 10
-605090.9027
 20
-1161411.0812
 10
-605092.4902
 20
-1161430.5281
 10
-605081.7745
 20
-1161437.275
 10
-605076.6151
 20
-1161449.5782
 10
-605062.7245
 20
-1161471.8032
 10
-605050.4213
 20
-1161492.0439
 10
-605034.9432
 20
-1161507.9189
 10
-605021.4494
 20
-1161520.2221
 10
-605005.5744
 20
-1161532.5252
 10
-604994.4618
 20
-1161540.4627
 10
-604983.7462
 20
-1161553.5596
 10
-604972.2368
 20
-1161574.1972
 10
-604962.3149
 20
-1161589.6753
 10
-604948.0274
 20
-1161600.7879
 10
-604927.7867
 20
-1161616.266
 10
-604907.1492
 20
-1161630.5535
 10
-604882.5429
 20
-1161650.7942
 10
-604870.2397
 20
-1161661.9067
 10
-604851.5866
 20
-1161688.1005
 10
-604836.9021
 20
-1161703.1818
 10
-604816.6615
 20
-1161713.8975
 10
-604798.0083
 20
-1161725.01
 10
-604784.1177
 20
-1161733.7412
 10
-604768.6395
 20
-1161757.9507
 10
-604756.7332
 20
-1161773.8257
 10
-604738.8738
 20
-1161794.8601
 10
-604728.5551
 20
-1161803.1945
 10
-604722.9988
 20
-1161816.6883
 10
-604712.2832
 20
-1161829.3883
 10
-604700.3769
 20
-1161842.8821
 10
-604694.0269
 20
-1161851.6134
 10
-604686.8831
 20
-1161862.7259
 10
-604676.9612
 20
-1161880.9822
 10
-604667.0393
 20
-1161893.6822
 10
-604657.5143
 20
-1161907.9697
 10
-604647.5924
 20
-1161923.051
 10
-604632.908
 20
-1161942.8948
 10
-604621.7955
 20
-1161959.5636
 10
-604615.0486
 20
-1161974.6449
 10
-604605.1267
 20
-1161986.5511
 10
-604597.1892
 20
-1161995.2824
 10
-604588.061
 20
-1162004.8074
 10
-604582.1079
 20
-1162013.5387
 10
-604574.9641
 20
-1162021.4762
 10
-604568.2172
 20
-1162030.6043
 10
-604556.7078
 20
-1162044.8919
 10
-604551.9453
 20
-1162050.4481
 10
-604541.6266
 20
-1162061.1638
 10
-604508.289
 20
-1162089.342
 10
-604474.1577
 20
-1162111.9639
 10
-604440.4232
 20
-1162133.3952
 10
-604400.7357
 20
-1162163.1609
 10
-604370.97
 20
-1162187.7672
 10
-604365.8106
 20
-1162190.1484
 10
-604354.6981
 20
-1162198.0859
 10
-604345.9668
 20
-1162206.8172
 10
-604329.6949
 20
-1162223.8829
 10
-604314.2167
 20
-1162238.9641
 10
-604303.898
 20
-1162255.6329
 10
-604297.1511
 20
-1162263.5704
 10
-604290.0073
 20
-1162277.858
 10
-604276.1167
 20
-1162309.2111
 10
-604269.7666
 20
-1162325.4831
 10
-604261.4322
 20
-1162323.8956
 10
-604257.8604
 20
-1162310.7987
 10
-604273.7354
 20
-1162276.2705
 10
-604291.9917
 20
-1162240.9485
 10
-604311.3792
 20
-1162217.6117
 10
-604323.7417
 20
-1162192.9265
 10
-604341.998
 20
-1162176.2578
 10
-604343.9824
 20
-1162166.7327
 10
-604343.5855
 20
-1162154.0327
 10
-604347.5543
 20
-1162145.3014
 10
-604368.9856
 20
-1162132.9983
 10
-604379.3044
 20
-1162123.8702
 10
-604385.6544
 20
-1162111.1701
 10
-604413.8326
 20
-1162096.4857
 10
-604472.967
 20
-1162063.9419
 10
-604488.8421
 20
-1162052.0356
 10
-604529.7203
 20
-1162025.0481
 10
-604559.486
 20
-1162004.8074
 10
-604583.2985
 20
-1161987.3449
 10
-604605.1267
 20
-1161970.2792
 10
-604612.6673
 20
-1161953.6104
 10
-604619.4142
 20
-1161936.5448
 10
-604627.7486
 20
-1161924.2416
 10
-604642.433
 20
-1161909.9541
 10
-604649.5768
 20
-1161904.7947
 10
-604667.4362
 20
-1161880.1884
 10
-604686.0893
 20
-1161851.2165
 10
-604698.3925
 20
-1161836.1352
 10
-604707.9175
 20
-1161827.0071
 10
-604713.0769
 20
-1161820.657
 10
-604715.855
 20
-1161808.7508
 10
-604728.9519
 20
-1161793.6695
 10
-604749.9864
 20
-1161766.6819
 10
-604766.2583
 20
-1161740.885
 10
-604780.9427
 20
-1161722.2318
 10
-604796.8177
 20
-1161705.1662
 10
-604823.4084
 20
-1161691.2755
 10
-604832.9334
 20
-1161686.513
 10
-604838.4897
 20
-1161679.3693
 10
-604841.2678
 20
-1161673.813
 10
-604864.2866
 20
-1161651.588
 10
-604890.4804
 20
-1161628.5692
 10
-604919.4523
 20
-1161604.7566
 10
-604929.9167
 20
-1161595.2021
 10
-604940.8836
 20
-1161579.7534
 10
-604951.2024
 20
-1161554.7503
 10
-604956.7586
 20
-1161539.669
 10
-604974.618
 20
-1161504.347
 10
-604978.9837
 20
-1161478.5501
 10
-604988.9056
 20
-1161452.7532
 10
-605007.5587
 20
-1161431.3219
 10
-605020.2588
 20
-1161409.0968
 10
-605030.1807
 20
-1161391.6343
 97
0
 92
2
 72
0
 73
1
 93
20
 10
-604358.2699
 20
-1162179.4328
 10
-604378.9075
 20
-1162155.2233
 10
-604433.6763
 20
-1162118.7108
 10
-604480.9046
 20
-1162088.9451
 10
-604504.7171
 20
-1162072.6732
 10
-604532.8953
 20
-1162053.2263
 10
-604537.6578
 20
-1162046.8762
 10
-604541.6266
 20
-1162042.9075
 10
-604549.5641
 20
-1162031.3981
 10
-604544.8016
 20
-1162030.2075
 10
-604530.1172
 20
-1162033.3825
 10
-604512.6546
 20
-1162045.2887
 10
-604478.9202
 20
-1162068.7044
 10
-604434.0732
 20
-1162095.692
 10
-604395.5763
 20
-1162123.0764
 10
-604370.5731
 20
-1162140.1421
 10
-604356.2856
 20
-1162156.0171
 10
-604349.9356
 20
-1162172.6859
 10
-604348.6899
 20
-1162186.1388
 10
-604358.2699
 20
-1162179.4328
 97
0
 92
2
 72
0
 73
1
 93
28
 10
-604957.1555
 20
-1161568.6409
 10
-604967.8712
 20
-1161549.9878
 10
-604981.7618
 20
-1161535.7002
 10
-605011.1306
 20
-1161511.0939
 10
-605034.5463
 20
-1161491.647
 10
-605049.6276
 20
-1161469.422
 10
-605066.2964
 20
-1161443.2282
 10
-605073.837
 20
-1161424.9719
 10
-605073.0432
 20
-1161419.8125
 10
-605059.9463
 20
-1161413.0656
 10
-605039.7057
 20
-1161403.5406
 10
-605036.5307
 20
-1161401.9531
 10
-605033.7525
 20
-1161407.5093
 10
-605041.6901
 20
-1161416.2406
 10
-605053.1995
 20
-1161422.9875
 10
-605055.5807
 20
-1161432.1156
 10
-605052.8026
 20
-1161445.6094
 10
-605042.0869
 20
-1161462.2782
 10
-605031.3713
 20
-1161477.7564
 10
-605012.3213
 20
-1161494.0283
 10
-605000.0181
 20
-1161503.1564
 10
-604988.5087
 20
-1161514.6658
 10
-604979.7774
 20
-1161525.7783
 10
-604966.2837
 20
-1161534.1127
 10
-604961.1243
 20
-1161544.8284
 10
-604957.1555
 20
-1161559.1159
 10
-604954.3774
 20
-1161571.419
 10
-604957.1555
 20
-1161568.6409
 97
0
 75
0
 76
1
 98
0
  0
HATCH
  5
20009
100
AcDbEntity
  8
plocha AZZU
100
AcDbHatch
 10
0
 20
0
 30
0
210
0
220
0
230
1
  2
SOLID
 70
1
 71
0
 91
1
 92
2
 72
0
 73
1
 93
94
 10
-603194.2332
 20
-1163106.5346
 10
-603210.5051
 20
-1163103.3596
 10
-603223.9989
 20
-1163095.0252
 10
-603243.8427
 20
-1163087.4846
 10
-603260.9084
 20
-1163086.294
 10
-603281.149
 20
-1163068.4345
 10
-603312.1053
 20
-1163037.8751
 10
-603327.5835
 20
-1163023.1907
 10
-603347.0304
 20
-1163009.3
 10
-603370.0492
 20
-1162988.2656
 10
-603392.2743
 20
-1162968.8187
 10
-603409.3399
 20
-1162951.7531
 10
-603424.8181
 20
-1162941.4343
 10
-603442.6775
 20
-1162928.7343
 10
-603470.4588
 20
-1162914.4467
 10
-603496.6526
 20
-1162903.7311
 10
-603515.7026
 20
-1162894.9998
 10
-603529.5933
 20
-1162887.8561
 10
-603544.2777
 20
-1162881.1092
 10
-603579.2028
 20
-1162865.2341
 10
-603585.5528
 20
-1162863.2498
 10
-603595.0778
 20
-1162857.2966
 10
-603607.7778
 20
-1162851.3435
 10
-603622.4622
 20
-1162842.2153
 10
-603631.1935
 20
-1162829.1184
 10
-603658.181
 20
-1162788.6371
 10
-603677.628
 20
-1162761.6496
 10
-603692.7092
 20
-1162741.012
 10
-603701.8374
 20
-1162729.8995
 10
-603707.7905
 20
-1162722.7557
 10
-603715.728
 20
-1162718.787
 10
-603720.8874
 20
-1162716.8026
 10
-603722.8718
 20
-1162722.3588
 10
-603712.553
 20
-1162731.0901
 10
-603703.8218
 20
-1162737.837
 10
-603695.8842
 20
-1162747.362
 10
-603687.9467
 20
-1162757.6808
 10
-603674.0561
 20
-1162778.3183
 10
-603660.1654
 20
-1162796.9715
 10
-603649.0529
 20
-1162813.2434
 10
-603638.7341
 20
-1162831.1028
 10
-603630.0029
 20
-1162842.6122
 10
-603622.0653
 20
-1162848.9622
 10
-603610.9528
 20
-1162856.5029
 10
-603597.8559
 20
-1162862.8529
 10
-603578.8059
 20
-1162871.981
 10
-603559.359
 20
-1162880.7123
 10
-603543.8808
 20
-1162887.8561
 10
-603530.7839
 20
-1162894.2061
 10
-603513.7183
 20
-1162901.3498
 10
-603497.0495
 20
-1162909.6842
 10
-603476.8088
 20
-1162920.3999
 10
-603458.9494
 20
-1162930.7186
 10
-603445.8525
 20
-1162937.8624
 10
-603428.39
 20
-1162946.1968
 10
-603408.5462
 20
-1162962.4687
 10
-603388.3055
 20
-1162979.9312
 10
-603360.9211
 20
-1163004.1407
 10
-603333.5366
 20
-1163029.5407
 10
-603314.4866
 20
-1163046.6064
 10
-603299.0084
 20
-1163059.3064
 10
-603289.4834
 20
-1163066.847
 10
-603280.7522
 20
-1163077.1658
 10
-603273.6084
 20
-1163086.294
 10
-603268.0521
 20
-1163093.8346
 10
-603262.099
 20
-1163100.5815
 10
-603257.7334
 20
-1163106.5346
 10
-603250.9865
 20
-1163127.9659
 10
-603245.0333
 20
-1163148.2066
 10
-603233.5239
 20
-1163190.6723
 10
-603225.9833
 20
-1163220.0411
 10
-603224.3958
 20
-1163226.788
 10
-603208.5208
 20
-1163232.3442
 10
-603195.8207
 20
-1163228.7724
 10
-603187.0895
 20
-1163220.0411
 10
-603175.1832
 20
-1163219.2473
 10
-603107.3174
 20
-1163240.6786
 10
-603073.583
 20
-1163241.4724
 10
-603031.911
 20
-1163241.8693
 10
-602997.7797
 20
-1163247.4255
 10
-602964.4422
 20
-1163242.663
 10
-602946.5827
 20
-1163232.7411
 10
-602934.6765
 20
-1163216.0723
 10
-602921.9764
 20
-1163196.2285
 10
-602939.0421
 20
-1163190.6723
 10
-602958.8859
 20
-1163184.7191
 10
-603000.9547
 20
-1163181.941
 10
-603035.8798
 20
-1163178.3691
 10
-603041.8329
 20
-1163175.1941
 10
-603053.3423
 20
-1163158.9222
 10
-603110.8893
 20
-1163126.3784
 10
-603128.7487
 20
-1163113.2815
 10
-603150.5769
 20
-1163114.0753
 10
-603194.2332
 20
-1163106.5346
 97
0
 75
0
 76
1
 98
0
  0
HATCH
  5
2000A
100
AcDbEntity
  8
plocha AZZU
100
AcDbHatch
 10
0
 20
0
 30
0
210
0
220
0
230
1
  2
SOLID
 70
1
 71
0
 91
1
 92
2
 72
0
 73
1
 93
55
 10
-599641.4926
 20
-1164285.3976
 10
-599681.6345
 20
-1164276.1055
 10
-599701.3337
 20
-1164271.6453
 10
-599740.3606
 20
-1164259.3797
 10
-599767.1218
 20
-1164250.831
 10
-599789.0512
 20
-1164238.1938
 10
-599809.4938
 20
-1164227.4149
 10
-599829.9364
 20
-1164216.2644
 10
-599858.9277
 20
-1164203.2555
 10
-599894.6094
 20
-1164189.1315
 10
-599941.0699
 20
-1164168.3172
 10
-599965.2293
 20
-1164156.4233
 10
-599999.7959
 20
-1164136.724
 10
-600035.8493
 20
-1164118.5115
 10
-600056.6636
 20
-1164109.2194
 10
-600068.1858
 20
-1164105.1309
 10
-600089.0001
 20
-1164099.9273
 10
-600091.9736
 20
-1164107.361
 10
-600088.6284
 20
-1164110.3345
 10
-600074.1327
 20
-1164113.6796
 10
-600072.2743
 20
-1164119.6266
 10
-600070.7876
 20
-1164137.4674
 10
-600049.9733
 20
-1164155.3082
 10
-600039.1944
 20
-1164163.857
 10
-600020.2386
 20
-1164175.0075
 10
-599984.1852
 20
-1164195.4501
 10
-599920.999
 20
-1164221.0963
 10
-599853.7242
 20
-1164240.4239
 10
-599785.3343
 20
-1164257.5213
 10
-599712.8559
 20
-1164280.5657
 10
-599651.5281
 20
-1164297.2915
 10
-599622.1651
 20
-1164306.2119
 10
-599587.5985
 20
-1164314.7606
 10
-599531.8459
 20
-1164328.1413
 10
-599466.0578
 20
-1164346.3538
 10
-599390.9777
 20
-1164367.1681
 10
-599322.9595
 20
-1164384.6372
 10
-599295.4549
 20
-1164392.4426
 10
-599291.738
 20
-1164398.3895
 10
-599283.9327
 20
-1164399.1329
 10
-599284.3044
 20
-1164391.3275
 10
-599289.5079
 20
-1164381.6638
 10
-599296.1982
 20
-1164374.2301
 10
-599311.4373
 20
-1164357.1326
 10
-599326.3046
 20
-1164349.3273
 10
-599334.4817
 20
-1164343.3803
 10
-599348.9774
 20
-1164332.2298
 10
-599386.1458
 20
-1164323.3094
 10
-599412.1636
 20
-1164320.7076
 10
-599460.4825
 20
-1164315.1323
 10
-599536.6778
 20
-1164291.3446
 10
-599588.7135
 20
-1164274.6188
 10
-599605.0676
 20
-1164280.9374
 10
-599615.8464
 20
-1164290.6012
 10
-599641.4926
 20
-1164285.3976
 97
0
 75
0
 76
1
 98
0
  0
HATCH
  5
2000B
100
AcDbEntity
  8
plocha AZZU
100
AcDbHatch
 10
0
 20
0
 30
0
210
0
220
0
230
1
  2
SOLID
 70
1
 71
0
 91
1
 92
2
 72
0
 73
1
 93
48
 10
-605068.6776
 20
-1161353.9311
 10
-605058.7557
 20
-1161346.7873
 10
-605044.4682
 20
-1161327.7373
 10
-605072.6464
 20
-1161292.4154
 10
-605085.7433
 20
-1161272.9685
 10
-605119.8746
 20
-1161231.2965
 10
-605139.7184
 20
-1161208.6746
 10
-605153.609
 20
-1161190.0214
 10
-605160.7528
 20
-1161186.8464
 10
-605171.8653
 20
-1161184.862
 10
-605182.1841
 20
-1161178.9089
 10
-605200.4404
 20
-1161151.5245
 10
-605217.1092
 20
-1161131.6807
 10
-605230.2061
 20
-1161116.5994
 10
-605272.2749
 20
-1161085.6431
 10
-605283.3874
 20
-1161095.9618
 10
-605251.6374
 20
-1161129.6963
 10
-605229.4123
 20
-1161151.1276
 10
-605211.5529
 20
-1161173.3526
 10
-605196.0747
 20
-1161190.8152
 10
-605177.4216
 20
-1161218.9933
 10
-605166.7059
 20
-1161244.3934
 10
-605155.5934
 20
-1161265.0309
 10
-605138.1309
 20
-1161294.0029
 10
-605127.0184
 20
-1161317.0217
 10
-605117.4933
 20
-1161338.8498
 10
-605115.509
 20
-1161358.6936
 10
-605121.859
 20
-1161374.1718
 10
-605142.0996
 20
-1161384.4905
 10
-605182.581
 20
-1161394.4124
 10
-605207.1873
 20
-1161395.9999
 10
-605232.5873
 20
-1161397.9843
 10
-605246.8748
 20
-1161415.8437
 10
-605282.9905
 20
-1161420.6062
 10
-605276.2437
 20
-1161432.1156
 10
-605254.0186
 20
-1161438.0688
 10
-605225.4436
 20
-1161446.0063
 10
-605216.7123
 20
-1161449.1813
 10
-605190.5185
 20
-1161429.3375
 10
-605160.3559
 20
-1161414.6531
 10
-605140.1153
 20
-1161406.3187
 10
-605109.1589
 20
-1161396.7937
 10
-605089.3152
 20
-1161382.1093
 10
-605081.7745
 20
-1161361.8686
 10
-605077.8058
 20
-1161355.1217
 10
-605071.4557
 20
-1161356.3124
 10
-605069.4714
 20
-1161358.2967
 10
-605068.6776
 20
-1161353.9311
 97
0
 75
0
 76
1
 98
0
  0
HATCH
  5
2000C
100
AcDbEntity
  8
plocha AZZU
100
AcDbHatch
 10
0
 20
0
 30
0
210
0
220
0
230
1
  2
SOLID
 70
1
 71
0
 91
1
 92
2
 72
0
 73
1
 93
34
 10
-598803.3453
 20
-1164731.79
 10
-598818.9561
 20
-1164727.3298
 10
-598828.6198
 20
-1164721.3829
 10
-598833.0801
 20
-1164716.9227
 10
-598840.142
 20
-1164712.0908
 10
-598847.9474
 20
-1164711.7191
 10
-598853.5227
 20
-1164720.2678
 10
-598847.5757
 20
-1164731.79
 10
-598841.2571
 20
-1164748.1441
 10
-598836.7969
 20
-1164764.4982
 10
-598830.8499
 20
-1164785.6842
 10
-598821.1862
 20
-1164812.0738
 10
-598813.3808
 20
-1164828.0562
 10
-598810.0356
 20
-1164833.2597
 10
-598804.8321
 20
-1164840.3217
 10
-598779.5576
 20
-1164859.2776
 10
-598753.5397
 20
-1164875.26
 10
-598743.5042
 20
-1164877.8618
 10
-598732.7254
 20
-1164877.8618
 10
-598724.92
 20
-1164870.7998
 10
-598719.7164
 20
-1164859.6493
 10
-598712.6545
 20
-1164850.7289
 10
-598708.1942
 20
-1164841.0651
 10
-598703.734
 20
-1164836.6049
 10
-598700.7606
 20
-1164801.6666
 10
-598697.7871
 20
-1164764.4982
 10
-598695.557
 20
-1164741.0821
 10
-598704.8491
 20
-1164734.7635
 10
-598747.9644
 20
-1164726.9581
 10
-598761.7167
 20
-1164723.2413
 10
-598769.5221
 20
-1164721.3829
 10
-598776.9558
 20
-1164723.2413
 10
-598788.1063
 20
-1164732.5334
 10
-598803.3453
 20
-1164731.79
 97
0
 75
0
 76
1
 98
0
  0
HATCH
  5
2000D
100
AcDbEntity
  8
plocha AZZU
100
AcDbHatch
 10
0
 20
0
 30
0
210
0
220
0
230
1
  2
SOLID
 70
1
 71
0
 91
1
 92
2
 72
0
 73
1
 93
36
 10
-598879.1689
 20
-1164640.3558
 10
-598876.5671
 20
-1164629.2053
 10
-598884.7441
 20
-1164622.8866
 10
-598901.4699
 20
-1164612.1078
 10
-598913.7355
 20
-1164606.5325
 10
-598941.6118
 20
-1164598.3555
 10
-598962.7977
 20
-1164592.4085
 10
-598983.2404
 20
-1164584.9749
 10
-599001.8246
 20
-1164573.4527
 10
-599027.0991
 20
-1164544.0896
 10
-599056.4621
 20
-1164506.1779
 10
-599065.3825
 20
-1164491.6822
 10
-599079.1348
 20
-1164476.0715
 10
-599094.0022
 20
-1164470.1245
 10
-599146.0379
 20
-1164458.974
 10
-599167.9673
 20
-1164454.1421
 10
-599168.7107
 20
-1164461.9475
 10
-599143.8078
 20
-1164468.6378
 10
-599122.6218
 20
-1164473.098
 10
-599100.6925
 20
-1164479.0449
 10
-599083.2233
 20
-1164491.3105
 10
-599070.2144
 20
-1164506.9212
 10
-599055.7187
 20
-1164533.6825
 10
-599043.4532
 20
-1164552.2667
 10
-599031.931
 20
-1164567.8774
 10
-599021.1521
 20
-1164578.6562
 10
-599009.2582
 20
-1164587.5767
 10
-598988.8156
 20
-1164599.8422
 10
-598971.3465
 20
-1164606.9042
 10
-598949.7888
 20
-1164612.1078
 10
-598930.0896
 20
-1164617.3114
 10
-598914.8505
 20
-1164623.63
 10
-598900.3548
 20
-1164633.2938
 10
-598897.0097
 20
-1164639.6124
 10
-598889.9477
 20
-1164650.7629
 10
-598879.1689
 20
-1164640.3558
 97
0
 75
0
 76
1
 98
0
  0
HATCH
  5
2000E
100
AcDbEntity
  8
plocha AZZU
100
AcDbHatch
 10
0
 20
0
 30
0
210
0
220
0
230
1
  2
SOLID
 70
1
 71
0
 91
1
 92
2
 72
0
 73
1
 93
39
 10
-600225.4081
 20
-1164080.9714
 10
-600267.7801
 20
-1164076.8829
 10
-600291.9395
 20
-1164074.6528
 10
-600318.3291
 20
-1164072.4227
 10
-600335.0549
 20
-1164072.051
 10
-600350.2939
 20
-1164072.7944
 10
-600366.648
 20
-1164078.3697
 10
-600382.6304
 20
-1164088.4051
 10
-600400.4712
 20
-1164099.184
 10
-600412.7368
 20
-1164104.0158
 10
-600432.4361
 20
-1164106.246
 10
-600478.8966
 20
-1164107.7327
 10
-600525.7287
 20
-1164104.7592
 10
-600543.5696
 20
-1164105.5026
 10
-600539.1093
 20
-1164115.1664
 10
-600527.9588
 20
-1164116.6531
 10
-600502.3126
 20
-1164117.0248
 10
-600471.8346
 20
-1164118.8832
 10
-600432.4361
 20
-1164118.8832
 10
-600414.9669
 20
-1164117.3965
 10
-600396.3827
 20
-1164110.7062
 10
-600388.949
 20
-1164104.7592
 10
-600369.6215
 20
-1164095.0954
 10
-600344.7186
 20
-1164083.5732
 10
-600333.1964
 20
-1164081.3431
 10
-600314.2406
 20
-1164081.7148
 10
-600270.0102
 20
-1164086.5467
 10
-600229.1249
 20
-1164090.6352
 10
-600197.9035
 20
-1164090.2635
 10
-600180.806
 20
-1164092.8653
 10
-600162.5935
 20
-1164098.8123
 10
-600149.9563
 20
-1164100.299
 10
-600130.257
 20
-1164102.9008
 10
-600095.6904
 20
-1164107.361
 10
-600095.3187
 20
-1164098.4406
 10
-600125.0534
 20
-1164094.3521
 10
-600152.9297
 20
-1164088.7768
 10
-600186.0096
 20
-1164083.9449
 10
-600225.4081
 20
-1164080.9714
 97
0
 75
0
 76
1
 98
0
  0
HATCH
  5
2000F
100
AcDbEntity
  8
plocha AZZU
100
AcDbHatch
 10
0
 20
0
 30
0
210
0
220
0
230
1
  2
SOLID
 70
1
 71
0
 91
1
 92
2
 72
0
 73
1
 93
31
 10
-603730.8093
 20
-1162712.437
 10
-603746.2875
 20
-1162707.2776
 10
-603779.625
 20
-1162699.3401
 10
-603814.1532
 20
-1162694.9744
 10
-603837.172
 20
-1162688.2275
 10
-603864.1596
 20
-1162680.6869
 10
-603888.369
 20
-1162664.8119
 10
-603914.5628
 20
-1162639.4118
 10
-603943.1379
 20
-1162612.0274
 10
-603955.0441
 20
-1162601.7086
 10
-603968.5379
 20
-1162584.6429
 10
-603981.2379
 20
-1162568.371
 10
-603995.9223
 20
-1162549.321
 10
-604000.6849
 20
-1162544.5585
 10
-604008.2255
 20
-1162544.9554
 10
-604005.4474
 20
-1162550.5116
 10
-603997.9067
 20
-1162566.7835
 10
-603978.0629
 20
-1162592.5805
 10
-603966.1567
 20
-1162609.2492
 10
-603951.4723
 20
-1162623.5368
 10
-603926.0722
 20
-1162646.1587
 10
-603908.2128
 20
-1162662.0337
 10
-603889.5596
 20
-1162679.0994
 10
-603878.844
 20
-1162686.2432
 10
-603857.8096
 20
-1162694.9744
 10
-603840.347
 20
-1162698.5463
 10
-603810.1845
 20
-1162704.8963
 10
-603777.2438
 20
-1162712.8338
 10
-603758.1937
 20
-1162717.1995
 10
-603730.8093
 20
-1162721.962
 10
-603730.8093
 20
-1162712.437
 97
0
 75
0
 76
1
 98
0
  0
HATCH
  5
20010
100
AcDbEntity
  8
plocha AZZU
100
AcDbHatch
 10
0
 20
0
 30
0
210
0
220
0
230
1
  2
SOLID
 70
1
 71
0
 91
1
 92
2
 72
0
 73
1
 93
18
 10
-601878.59
 20
-1163778.4453
 10
-601898.8306
 20
-1163770.5078
 10
-601920.2619
 20
-1163759.7922
 10
-601950.8214
 20
-1163752.2515
 10
-601982.1746
 20
-1163740.7421
 10
-602019.4809
 20
-1163730.4234
 10
-602046.4684
 20
-1163723.6765
 10
-602058.3747
 20
-1163721.2952
 10
-602071.4716
 20
-1163720.8983
 10
-602079.0123
 20
-1163729.6296
 10
-602079.0123
 20
-1163736.7734
 10
-602050.0403
 20
-1163743.1234
 10
-601974.6339
 20
-1163762.9672
 10
-601944.8682
 20
-1163768.5234
 10
-601913.9119
 20
-1163774.0797
 10
-601897.64
 20
-1163780.4297
 10
-601882.9556
 20
-1163791.1454
 10
-601878.59
 20
-1163778.4453
 97
0
 75
0
 76
1
 98
0
  0
HATCH
  5
20011
100
AcDbEntity
  8
plocha AZZU
100
AcDbHatch
 10
0
 20
0
 30
0
210
0
220
0
230
1
  2
SOLID
 70
1
 71
0
 91
1
 92
2
 72
0
 73
1
 93
15
 10
-601747.2241
 20
-1163862.583
 10
-601782.5009
 20
-1163842.0889
 10
-601787.7054
 20
-1163832.0236
 10
-601796.4367
 20
-1163820.5142
 10
-601812.3117
 20
-1163809.0048
 10
-601828.1868
 20
-1163798.686
 10
-601839.2993
 20
-1163793.1297
 10
-601850.0149
 20
-1163791.1454
 10
-601858.7462
 20
-1163791.5422
 10
-601865.4931
 20
-1163794.7172
 10
-601869.8587
 20
-1163809.0048
 10
-601838.9024
 20
-1163829.6423
 10
-601774.2116
 20
-1163866.1549
 10
-601750.796
 20
-1163876.8705
 10
-601747.2241
 20
-1163862.583
 97
0
 75
0
 76
1
 98
0
  0
HATCH
  5
20012
100
AcDbEntity
  8
plocha AZZU
100
AcDbHatch
 10
0
 20
0
 30
0
210
0
220
0
230
1
  2
SOLID
 70
1
 71
0
 91
1
 92
2
 72
0
 73
1
 93
24
 10
-602254.0345
 20
-1163788.7641
 10
-602221.4907
 20
-1163782.4141
 10
-602194.9
 20
-1163775.6672
 10
-602181.0093
 20
-1163767.3328
 10
-602165.9281
 20
-1163753.4422
 10
-602144.8936
 20
-1163740.7421
 10
-602129.4155
 20
-1163730.8202
 10
-602113.9373
 20
-1163725.6609
 10
-602089.331
 20
-1163724.8671
 10
-602082.5841
 20
-1163715.3421
 10
-602082.5841
 20
-1163710.1827
 10
-602113.9373
 20
-1163709.7858
 10
-602131.7967
 20
-1163712.564
 10
-602148.0686
 20
-1163722.089
 10
-602162.3562
 20
-1163734.3921
 10
-602178.2312
 20
-1163751.4578
 10
-602192.1219
 20
-1163760.9828
 10
-602215.9344
 20
-1163770.1109
 10
-602237.3657
 20
-1163774.0797
 10
-602264.7501
 20
-1163776.8578
 10
-602275.8627
 20
-1163778.8422
 10
-602283.8002
 20
-1163782.0172
 10
-602269.1158
 20
-1163792.336
 10
-602254.0345
 20
-1163788.7641
 97
0
 75
0
 76
1
 98
0
  0
HATCH
  5
20013
100
AcDbEntity
  8
plocha AZZU
100
AcDbHatch
 10
0
 20
0
 30
0
210
0
220
0
230
1
  2
SOLID
 70
1
 71
0
 91
1
 92
2
 72
0
 73
1
 93
31
 10
-604229.6822
 20
-1162409.2238
 10
-604241.5885
 20
-1162383.03
 10
-604252.3041
 20
-1162356.4394
 10
-604256.2729
 20
-1162344.1362
 10
-604258.2572
 20
-1162334.6112
 10
-604267.3854
 20
-1162335.405
 10
-604266.9885
 20
-1162346.1206
 10
-604264.6073
 20
-1162356.8362
 10
-604254.6854
 20
-1162383.03
 10
-604246.7478
 20
-1162400.8895
 10
-604237.6197
 20
-1162422.7176
 10
-604232.4603
 20
-1162434.227
 10
-604223.3322
 20
-1162448.9114
 10
-604211.8228
 20
-1162462.4052
 10
-604203.4884
 20
-1162471.9302
 10
-604193.5665
 20
-1162477.4865
 10
-604187.2165
 20
-1162482.249
 10
-604173.3258
 20
-1162485.424
 10
-604152.6883
 20
-1162487.8053
 10
-604146.7351
 20
-1162487.8053
 10
-604146.7351
 20
-1162477.0896
 10
-604164.1977
 20
-1162474.7084
 10
-604178.8821
 20
-1162474.3115
 10
-604186.8196
 20
-1162471.9302
 10
-604195.9477
 20
-1162460.0239
 10
-604211.029
 20
-1162446.1333
 10
-604222.9353
 20
-1162426.2895
 10
-604224.5647
 20
-1162420.9358
 10
-604225.7134
 20
-1162417.1614
 10
-604226.1291
 20
-1162417.3554
 10
-604229.6822
 20
-1162409.2238
 97
0
 75
0
 76
1
 98
0
  0
HATCH
  5
20014
100
AcDbEntity
  8
plocha AZZU
100
AcDbHatch
 10
0
 20
0
 30
0
210
0
220
0
230
1
  2
SOLID
 70
1
 71
0
 91
1
 92
2
 72
0
 73
1
 93
14
 10
-600632.402
 20
-1164119.6266
 10
-600589.6584
 20
-1164118.5115
 10
-600545.0563
 20
-1164117.7682
 10
-600554.7201
 20
-1164105.8743
 10
-600575.5344
 20
-1164096.9539
 10
-600581.853
 20
-1164093.9804
 10
-600593.3752
 20
-1164100.299
 10
-600626.0834
 20
-1164103.2725
 10
-600663.9952
 20
-1164108.1044
 10
-600676.6324
 20
-1164108.1044
 10
-600681.0926
 20
-1164109.5911
 10
-600681.836
 20
-1164119.2549
 10
-600662.8801
 20
-1164121.485
 10
-600632.402
 20
-1164119.6266
 97
0
 75
0
 76
1
 98
0
  0
HATCH
  5
20015
100
AcDbEntity
  8
plocha AZZU
100
AcDbHatch
 10
0
 20
0
 30
0
210
0
220
0
230
1
  2
SOLID
 70
1
 71
0
 91
1
 92
2
 72
0
 73
1
 93
19
 10
-603071.9955
 20
-1163326.0069
 10
-603099.3799
 20
-1163314.4975
 10
-603130.3362
 20
-1163309.3381
 10
-603164.0707
 20
-1163302.1944
 10
-603182.327
 20
-1163293.86
 10
-603189.8676
 20
-1163287.51
 10
-603197.8051
 20
-1163278.3818
 10
-603199.7895
 20
-1163273.2225
 10
-603202.9645
 20
-1163264.8881
 10
-603215.6645
 20
-1163260.1255
 10
-603213.2833
 20
-1163272.0318
 10
-603208.9176
 20
-1163282.7475
 10
-603200.1864
 20
-1163295.4475
 10
-603193.0426
 20
-1163302.1944
 10
-603181.1363
 20
-1163307.7506
 10
-603162.0863
 20
-1163313.7038
 10
-603129.9394
 20
-1163320.0538
 10
-603087.4737
 20
-1163331.5632
 10
-603071.9955
 20
-1163326.0069
 97
0
 75
0
 76
1
 98
0
  0
HATCH
  5
20016
100
AcDbEntity
  8
plocha AZZU
100
AcDbHatch
 10
0
 20
0
 30
0
210
0
220
0
230
1
  2
SOLID
 70
1
 71
0
 91
1
 92
2
 72
0
 73
1
 93
13
 10
-601671.8177
 20
-1163905.4456
 10
-601674.9616
 20
-1163900.2673
 10
-601680.549
 20
-1163888.3799
 10
-601697.2177
 20
-1163879.2518
 10
-601713.4897
 20
-1163870.1236
 10
-601724.2053
 20
-1163866.5518
 10
-601734.5241
 20
-1163867.7424
 10
-601738.096
 20
-1163874.8862
 10
-601734.1272
 20
-1163884.808
 10
-601726.5866
 20
-1163892.7456
 10
-601692.8521
 20
-1163910.605
 10
-601675.7865
 20
-1163919.3362
 10
-601671.8177
 20
-1163905.4456
 97
0
 75
0
 76
1
 98
0
  0
HATCH
  5
20017
100
AcDbEntity
  8
plocha AZZU
100
AcDbHatch
 10
0
 20
0
 30
0
210
0
220
0
230
1
  2
SOLID
 70
1
 71
0
 91
1
 92
2
 72
0
 73
1
 93
19
 10
-604123.7163
 20
-1162477.4865
 10
-604134.8289
 20
-1162477.8834
 10
-604134.432
 20
-1162485.8209
 10
-604118.557
 20
-1162487.8053
 10
-604102.2851
 20
-1162488.9959
 10
-604089.9819
 20
-1162492.5678
 10
-604070.535
 20
-1162504.474
 10
-604051.485
 20
-1162514.3959
 10
-604039.5787
 20
-1162519.9522
 10
-604026.8787
 20
-1162523.921
 10
-604003.463
 20
-1162527.096
 10
-604019.7349
 20
-1162517.5709
 10
-604047.5162
 20
-1162504.474
 10
-604068.1537
 20
-1162490.9803
 10
-604084.8225
 20
-1162483.0427
 10
-604097.9194
 20
-1162479.074
 10
-604109.0319
 20
-1162479.4709
 10
-604117.3663
 20
-1162479.4709
 10
-604123.7163
 20
-1162477.4865
 97
0
 75
0
 76
1
 98
0
  0
HATCH
  5
20018
100
AcDbEntity
  8
plocha AZZU
100
AcDbHatch
 10
0
 20
0
 30
0
210
0
220
0
230
1
  2
SOLID
 70
1
 71
0
 91
1
 92
2
 72
0
 73
1
 93
10
 10
-599218.888
 20
-1164434.4429
 10
-599235.6138
 20
-1164429.611
 10
-599249.3661
 20
-1164427.7526
 10
-599270.1804
 20
-1164424.7791
 10
-599278.7291
 20
-1164432.9561
 10
-599264.2334
 20
-1164436.3013
 10
-599248.9944
 20
-1164438.1597
 10
-599233.3837
 20
-1164441.5049
 10
-599220.3747
 20
-1164445.9651
 10
-599218.888
 20
-1164434.4429
 97
0
 75
0
 76
1
 98
0
  0
HATCH
  5
20019
100
AcDbEntity
  8
plocha AZZU
100
AcDbHatch
 10
0
 20
0
 30
0
210
0
220
0
230
1
  2
SOLID
 70
1
 71
0
 91
1
 92
2
 72
0
 73
1
 93
6
 10
-598674.7427
 20
-1164827.6845
 10
-598675.4861
 20
-1164842.9235
 10
-598655.0434
 20
-1164842.5518
 10
-598652.8133
 20
-1164828.0562
 10
-598660.9904
 20
-1164828.0562
 10
-598674.7427
 20
-1164827.6845
 97
0
 75
0
 76
1
 98
0
  0
HATCH
  5
2001A
100
AcDbEntity
  8
plocha AZZU
100
AcDbHatch
 10
0
 20
0
 30
0
210
0
220
0
230
1
  2
SOLID
 70
1
 71
0
 91
1
 92
2
 72
0
 73
1
 93
7
 10
-599282.4459
 20
-1164420.3189
 10
-599283.9327
 20
-1164417.3454
 10
-599285.4194
 20
-1164411.3985
 10
-599295.0832
 20
-1164410.2834
 10
-599298.4283
 20
-1164412.8852
 10
-599291.738
 20
-1164425.8941
 10
-599282.4459
 20
-1164420.3189
 97
0
 75
0
 76
1
 98
0
  0
HATCH
  5
2001B
100
AcDbEntity
  8
plocha AZZU
100
AcDbHatch
 10
0
 20
0
 30
0
210
0
220
0
230
1
  2
SOLID
 70
1
 71
0
 91
7
 92
2
 72
0
 73
1
 93
1002
 10
-594796.9528
 20
-1157405.2874
 10
-594794.8911
 20
-1157413.3055
 10
-594790.7675
 20
-1157412.8473
 10
-594774.0441
 20
-1157406.4328
 10
-594743.5755
 20
-1157393.8331
 10
-594716.5433
 20
-1157385.1278
 10
-594704.4017
 20
-1157384.6697
 10
-594673.2459
 20
-1157386.5022
 10
-594634.301
 20
-1157389.0223
 10
-594621.4722
 20
-1157393.3749
 10
-594621.6825
 20
-1157394.672
 10
-594653.5444
 20
-1157415.1381
 10
-594671.8713
 20
-1157421.3235
 10
-594741.2846
 20
-1157445.8358
 10
-594753.1972
 20
-1157451.1048
 10
-594781.6039
 20
-1157454.0829
 10
-594788.4766
 20
-1157453.1666
 10
-594822.3815
 20
-1157446.7521
 10
-594839.3338
 20
-1157440.7959
 10
-594817.7997
 20
-1157427.9671
 10
-594808.4072
 20
-1157422.2399
 10
-594811.6143
 20
-1157404.8293
 10
-594838.4175
 20
-1157414.68
 10
-594855.3699
 20
-1157421.7817
 10
-594867.7407
 20
-1157426.1344
 10
-594879.195
 20
-1157426.5925
 10
-594886.2966
 20
-1157423.8435
 10
-594889.962
 20
-1157416.2836
 10
-594893.3984
 20
-1157415.5964
 10
-594898.2092
 20
-1157419.0326
 10
-594910.5799
 20
-1157415.8254
 10
-594938.5285
 20
-1157395.2076
 10
-594974.4952
 20
-1157386.9605
 10
-595010.2327
 20
-1157392.4585
 10
-595031.9959
 20
-1157398.4148
 10
-595045.7411
 20
-1157408.4947
 10
-595080.1042
 20
-1157430.0288
 10
-595098.2021
 20
-1157434.1524
 10
-595150.4339
 20
-1157436.2142
 10
-595207.7056
 20
-1157437.1305
 10
-595232.6761
 20
-1157440.3377
 10
-595268.8718
 20
-1157454.5411
 10
-595286.6954
 20
-1157460.8227
 10
-595286.8339
 20
-1157460.6528
 10
-595288.923
 20
-1157461.6078
 10
-595296.0944
 20
-1157464.8862
 10
-595336.311
 20
-1157490.5508
 10
-595354.832
 20
-1157491.8738
 10
-595374.6757
 20
-1157490.5508
 10
-595406.955
 20
-1157490.2862
 10
-595415.2499
 20
-1157494.1661
 10
-595445.8488
 20
-1157485.2591
 10
-595474.6884
 20
-1157482.0841
 10
-595494.7968
 20
-1157482.6133
 10
-595520.9906
 20
-1157491.08
 10
-595533.9552
 20
-1157495.3133
 10
-595557.2387
 20
-1157507.7488
 10
-595583.697
 20
-1157526.5342
 10
-595600.6304
 20
-1157539.7634
 10
-595612.5367
 20
-1157553.7863
 10
-595624.9721
 20
-1157569.6614
 10
-595634.7617
 20
-1157583.4197
 10
-595649.843
 20
-1157603.7927
 10
-595660.6909
 20
-1157617.5511
 10
-595667.0248
 20
-1157626.8145
 10
-595672.0647
 20
-1157635.978
 10
-595675.7301
 20
-1157643.3087
 10
-595678.7083
 20
-1157653.8467
 10
-595681.2282
 20
-1157663.6974
 10
-595684.2063
 20
-1157674.2354
 10
-595685.3518
 20
-1157678.359
 10
-595683.0609
 20
-1157688.8969
 10
-595677.7919
 20
-1157700.3513
 10
-595673.6683
 20
-1157709.973
 10
-595668.1703
 20
-1157721.6564
 10
-595663.1304
 20
-1157734.0271
 10
-595659.465
 20
-1157743.8779
 10
-595656.4868
 20
-1157759.2267
 10
-595657.1741
 20
-1157771.8265
 10
-595658.8389
 20
-1157774.7139
 10
-595659.368
 20
-1157778.6826
 10
-595665.4534
 20
-1157789.5306
 10
-595676.5659
 20
-1157801.966
 10
-595694.8223
 20
-1157818.8994
 10
-595715.9889
 20
-1157834.7745
 10
-595736.0974
 20
-1157844.8286
 10
-595750.6415
 20
-1157847.6543
 10
-595762.554
 20
-1157855.4432
 10
-595773.5502
 20
-1157863.2322
 10
-595780.1937
 20
-1157870.1047
 10
-595785.2337
 20
-1157876.7483
 10
-595787.0664
 20
-1157884.5372
 10
-595788.899
 20
-1157891.868
 10
-595788.2117
 20
-1157898.9697
 10
-595787.2954
 20
-1157903.7806
 10
-595786.7731
 20
-1157906.0181
 10
-595778.9597
 20
-1157915.6174
 10
-595766.9046
 20
-1157924.1006
 10
-595760.8771
 20
-1157933.7001
 10
-595751.0544
 20
-1157943.5228
 10
-595742.7945
 20
-1157948.8805
 10
-595737.8832
 20
-1157968.0794
 10
-595728.7302
 20
-1157967.6329
 10
-595735.2043
 20
-1157943.0763
 10
-595749.715
 20
-1157928.7887
 10
-595763.7792
 20
-1157914.7245
 10
-595768.2441
 20
-1157906.4646
 10
-595769.5836
 20
-1157902.6694
 10
-595770.2532
 20
-1157897.3116
 10
-595770.114
 20
-1157886.1409
 10
-595765.9903
 20
-1157873.9993
 10
-595759.3469
 20
-1157867.5848
 10
-595746.9761
 20
-1157860.7121
 10
-595728.8464
 20
-1157852.1122
 10
-595723.1328
 20
-1157850.3848
 10
-595708.8451
 20
-1157844.564
 10
-595698.5264
 20
-1157834.7745
 10
-595685.2972
 20
-1157819.6932
 10
-595671.0097
 20
-1157807.7869
 10
-595658.0451
 20
-1157797.2035
 10
-595650.9013
 20
-1157786.6201
 10
-595649.3962
 20
-1157777.59
 10
-595649.0492
 20
-1157775.5077
 10
-595649.3934
 20
-1157775.4797
 10
-595649.3851
 20
-1157769.3066
 10
-595652.8214
 20
-1157747.0851
 10
-595658.7777
 20
-1157726.6964
 10
-595670.4611
 20
-1157701.955
 10
-595675.0429
 20
-1157688.8969
 10
-595678.4791
 20
-1157679.0463
 10
-595678.021
 20
-1157675.61
 10
-595671.3774
 20
-1157648.8068
 10
-595667.941
 20
-1157639.8724
 10
-595660.8394
 20
-1157627.0436
 10
-595656.7159
 20
-1157621.5455
 10
-595656.1929
 20
-1157619.9324
 10
-595637.4075
 20
-1157596.1198
 10
-595617.8283
 20
-1157571.5135
 10
-595604.3346
 20
-1157555.6385
 10
-595594.0158
 20
-1157545.055
 10
-595577.6116
 20
-1157534.2072
 10
-595564.9115
 20
-1157534.2072
 10
-595541.6281
 20
-1157535.53
 10
-595509.6135
 20
-1157538.176
 10
-595486.0656
 20
-1157546.6426
 10
-595481.6013
 20
-1157549.6188
 10
-595503.2636
 20
-1157584.7427
 10
-595524.3897
 20
-1157626.6996
 10
-595562.7949
 20
-1157651.4178
 10
-595583.1679
 20
-1157674.9658
 10
-595599.3075
 20
-1157699.5721
 10
-595607.5095
 20
-1157718.3575
 10
-595612.0075
 20
-1157735.0264
 10
-595613.0659
 20
-1157754.0763
 10
-595611.7429
 20
-1157775.5077
 10
-595608.3032
 20
-1157793.2347
 10
-595602.4824
 20
-1157810.9619
 10
-595598.3502
 20
-1157820.4839
 10
-595597.72
 20
-1157855.1474
 10
-595587.9303
 20
-1157894.835
 10
-595578.6699
 20
-1157918.912
 10
-595556.7095
 20
-1157957.806
 10
-595536.023
 20
-1157979.1758
 10
-595535.0136
 20
-1157981.3539
 10
-595518.874
 20
-1158029.7727
 10
-595513.3178
 20
-1158055.7019
 10
-595509.6135
 20
-1158086.3937
 10
-595509.3489
 20
-1158108.0896
 10
-595510.4073
 20
-1158116.5562
 10
-595513.0531
 20
-1158132.6958
 10
-595519.1386
 20
-1158141.1625
 10
-595528.1343
 20
-1158153.3334
 10
-595548.5073
 20
-1158166.5625
 10
-595566.2345
 20
-1158168.9438
 10
-595588.4595
 20
-1158168.9438
 10
-595607.7741
 20
-1158166.0334
 10
-595624.7075
 20
-1158162.5939
 10
-595643.493
 20
-1158152.8042
 10
-595655.9283
 20
-1158134.5479
 10
-595668.0993
 20
-1158104.3854
 10
-595674.364
 20
-1158065.9535
 10
-595673.7187
 20
-1158044.6543
 10
-595665.5526
 20
-1158024.7829
 10
-595674.364
 20
-1157998.6206
 10
-595696.8066
 20
-1157997.9939
 10
-595714.8892
 20
-1157997.7706
 10
-595722.7026
 20
-1157994.6452
 10
-595724.9351
 20
-1157987.055
 10
-595728.0604
 20
-1157976.1161
 10
-595734.7578
 20
-1157976.5626
 10
-595735.6508
 20
-1157981.2507
 10
-595735.6508
 20
-1157985.0458
 10
-595738.3296
 20
-1157992.4128
 10
-595741.2318
 20
-1158005.5842
 10
-595742.6793
 20
-1158042.2013
 10
-595744.134
 20
-1158072.3335
 10
-595732.7486
 20
-1158116.089
 10
-595728.9535
 20
-1158149.3522
 10
-595726.4977
 20
-1158175.025
 10
-595723.8189
 20
-1158182.6152
 10
-595694.5741
 20
-1158234.4075
 10
-595676.9381
 20
-1158267.6705
 10
-595658.4089
 20
-1158303.166
 10
-595655.9533
 20
-1158310.0865
 10
-595649.0328
 20
-1158334.1967
 10
-595649.7025
 20
-1158390.0072
 10
-595651.4883
 20
-1158416.7964
 10
-595647.0236
 20
-1158445.5946
 10
-595640.996
 20
-1158460.3285
 10
-595625.1458
 20
-1158483.3225
 10
-595618.6533
 20
-1158492.8483
 10
-595597.9103
 20
-1158523.2828
 10
-595543.2159
 20
-1158575.5215
 10
-595500.7999
 20
-1158617.0447
 10
-595480.7081
 20
-1158636.69
 10
-595469.7692
 20
-1158645.8429
 10
-595462.6255
 20
-1158652.5401
 10
-595456.1514
 20
-1158667.0509
 10
-595453.919
 20
-1158687.1427
 10
-595456.1514
 20
-1158714.6014
 10
-595458.6937
 20
-1158734.4428
 10
-595467.6401
 20
-1158762.9085
 10
-595611.7562
 20
-1158962.5447
 10
-595659.0074
 20
-1159021.6087
 10
-595689.7207
 20
-1159065.3161
 10
-595786.5856
 20
-1159199.9819
 10
-595879.9067
 20
-1159337.0104
 10
-595918.889
 20
-1159398.4369
 10
-595946.0584
 20
-1159426.7876
 10
-595990.947
 20
-1159419.7
 10
-596028.7479
 20
-1159405.5246
 10
-596072.4553
 20
-1159405.5246
 10
-596119.7064
 20
-1159412.6123
 10
-596163.4138
 20
-1159420.8812
 10
-596209.4838
 20
-1159450.4133
 10
-596241.3783
 20
-1159483.4891
 10
-596257.9161
 20
-1159511.8398
 10
-596299.2609
 20
-1159576.8102
 10
-596361.8688
 20
-1159665.4061
 10
-596433.9269
 20
-1159778.809
 10
-596527.2479
 20
-1159922.925
 10
-596554.4174
 20
-1159961.9073
 10
-596601.6685
 20
-1160032.784
 10
-596617.0252
 20
-1160055.2284
 10
-596625.2941
 20
-1160097.7544
 10
-596624.1129
 20
-1160130.8303
 10
-596618.2065
 20
-1160146.1869
 10
-596601.6685
 20
-1160212.3385
 10
-596589.8558
 20
-1160257.2272
 10
-596580.4055
 20
-1160303.2971
 10
-596570.9553
 20
-1160329.2853
 10
-596566.2302
 20
-1160359.9986
 10
-596566.2302
 20
-1160401.3433
 10
-596567.4114
 20
-1160468.6763
 10
-596567.8978
 20
-1160499.4233
 10
-596572.1366
 20
-1160527.7402
 10
-596585.1307
 20
-1160597.4357
 10
-596592.2183
 20
-1160674.2188
 10
-596613.4813
 20
-1160762.8149
 10
-596624.3295
 20
-1160830.3477
 10
-596630.7722
 20
-1160846.5902
 10
-596644.1946
 20
-1160901.0246
 10
-596649.2485
 20
-1160928.6781
 10
-596660.0161
 20
-1160978.209
 10
-596680.4744
 20
-1161074.0404
 10
-596704.1632
 20
-1161180.6393
 10
-596723.7209
 20
-1161288.1381
 10
-596729.8531
 20
-1161322.371
 10
-596731.9809
 20
-1161334.126
 10
-596733.2103
 20
-1161346.7867
 10
-596731.0878
 20
-1161439.7195
 10
-596728.9285
 20
-1161593.0372
 10
-596727.8518
 20
-1161616.7259
 10
-596726.8899
 20
-1161635.9629
 10
-596726.7931
 20
-1161651.0339
 10
-596723.6724
 20
-1161745.9019
 10
-596721.1758
 20
-1161814.5564
 10
-596718.0552
 20
-1161946.2485
 10
-596716.807
 20
-1162017.3995
 10
-596712.438
 20
-1162087.3023
 10
-596707.445
 20
-1162217.746
 10
-596703.7001
 20
-1162321.3519
 10
-596699.9553
 20
-1162412.4752
 10
-596699.1317
 20
-1162445.4195
 10
-596696.4854
 20
-1162473.3312
 10
-596697.4589
 20
-1162512.3364
 10
-596694.3381
 20
-1162564.1393
 10
-596690.6811
 20
-1162594.1052
 10
-596688.7157
 20
-1162661.0805
 10
-596687.1494
 20
-1162688.0862
 10
-596683.9838
 20
-1162758.4115
 10
-596683.0908
 20
-1162832.528
 10
-596682.1979
 20
-1162914.4579
 10
-596682.4796
 20
-1162967.3287
 10
-596682.1242
 20
-1162997.5945
 10
-596680.3453
 20
-1163012.2847
 10
-596675.5424
 20
-1163070.3202
 10
-596672.3403
 20
-1163094.7352
 10
-596672.2401
 20
-1163115.0651
 10
-596675.4009
 20
-1163216.2121
 10
-596677.4252
 20
-1163288.0794
 10
-596681.7226
 20
-1163316.3053
 10
-596678.5617
 20
-1163379.5223
 10
-596672.2401
 20
-1163531.2426
 10
-596672.0048
 20
-1163551.4687
 10
-596679.0221
 20
-1163549.0489
 10
-596759.158
 20
-1163531.5192
 10
-596901.3757
 20
-1163484.9146
 10
-596944.2382
 20
-1163494.4397
 10
-596956.9383
 20
-1163531.7461
 10
-596929.1569
 20
-1163611.1212
 10
-596774.1834
 20
-1163694.2951
 10
-596741.6282
 20
-1163771.9266
 10
-596719.09
 20
-1163809.4903
 10
-596691.5434
 20
-1163932.1982
 10
-596696.5519
 20
-1164034.8722
 10
-596691.5434
 20
-1164197.6481
 10
-596719.09
 20
-1164330.373
 10
-596723.9748
 20
-1164364.209
 10
-596722.2814
 20
-1164385.1641
 10
-596643.5007
 20
-1164352.8894
 10
-596644.1621
 20
-1164478.236
 10
-596638.3196
 20
-1164505.9989
 10
-596637.9193
 20
-1164519.2072
 10
-596642.7223
 20
-1164524.0101
 10
-596653.9797
 20
-1164523.1998
 10
-596663.9966
 20
-1164595.8229
 10
-596676.5179
 20
-1164693.4885
 10
-596691.1519
 20
-1164803.3812
 10
-596692.0129
 20
-1164813.1737
 10
-596693.4898
 20
-1164821.0459
 10
-596704.0286
 20
-1164869.2233
 10
-596719.8368
 20
-1164946.0062
 10
-596751.4533
 20
-1165112.369
 10
-596786.8336
 20
-1165292.2817
 10
-596789.6121
 20
-1165323.2994
 10
-596806.0222
 20
-1165412.554
 10
-596813.6269
 20
-1165460.5834
 10
-596828.9888
 20
-1165539.1911
 10
-596851.572
 20
-1165655.1181
 10
-596866.6275
 20
-1165733.4064
 10
-596897.4912
 20
-1165798.1449
 10
-596950.1104
 20
-1165917.6633
 10
-596997.6099
 20
-1166021.7184
 10
-597056.3262
 20
-1166137.6454
 10
-597051.8096
 20
-1166199.3728
 10
-597039.384
 20
-1166240.1445
 10
-597031.7604
 20
-1166253.4687
 10
-597026.5572
 20
-1166269.8788
 10
-597025.9282
 20
-1166284.296
 10
-597013.1475
 20
-1166345.8193
 10
-596944.9072
 20
-1166340.1218
 10
-596904.4825
 20
-1166347.9266
 10
-596891.6746
 20
-1166351.5288
 10
-596879.6672
 20
-1166358.3329
 10
-596872.4242
 20
-1166362.402
 10
-596854.6278
 20
-1166374.02
 10
-596858.2261
 20
-1166378.0416
 10
-596870.382
 20
-1166378.48
 10
-596869.9337
 20
-1166382.0101
 10
-596874.9999
 20
-1166394.3599
 10
-596905.1973
 20
-1166406.9383
 10
-596927.1494
 20
-1166417.7933
 10
-596952.4975
 20
-1166427.2453
 10
-596968.6974
 20
-1166466.4697
 10
-596971.8724
 20
-1166491.076
 10
-596963.1412
 20
-1166522.0323
 10
-596966.9446
 20
-1166596.5425
 10
-596949.5856
 20
-1166676.9951
 10
-596894.1423
 20
-1166662.125
 10
-596807.5727
 20
-1166675.063
 10
-596742.7881
 20
-1166685.5716
 10
-596719.7803
 20
-1166691.0649
 10
-596634.1971
 20
-1166726.0265
 10
-596594.4214
 20
-1166743.4064
 10
-596533.4246
 20
-1166769.0889
 10
-596488.53
 20
-1166787.6299
 10
-596479.66
 20
-1166793.07
 10
-596469.57
 20
-1166804.9899
 10
-596465.4299
 20
-1166815.7999
 10
-596465.6947
 20
-1166826.0304
 10
-596468.3141
 20
-1166842.8245
 10
-596481.5134
 20
-1166931.957
 10
-596490.8987
 20
-1166985.6675
 10
-596512.9618
 20
-1167128.356
 10
-596520.419
 20
-1167206.7221
 10
-596530.9358
 20
-1167274.8656
 10
-596547.2721
 20
-1167390.4816
 10
-596558.6254
 20
-1167486.7204
 10
-596543.75
 20
-1167505.0599
 10
-596533.1798
 20
-1167525.4995
 10
-596534.9002
 20
-1167571.6059
 10
-596513.6613
 20
-1167611.8874
 10
-596511.7003
 20
-1167626.3968
 10
-596506.9098
 20
-1167661.8472
 10
-596502.7764
 20
-1167695.0692
 10
-596500.8731
 20
-1167732.4133
 10
-596491.8643
 20
-1167806.3799
 10
-596457.6984
 20
-1167865.8538
 10
-596360.2625
 20
-1167949.3703
 10
-596337.7355
 20
-1167964.5162
 10
-596350.9348
 20
-1167979.7995
 10
-596368.4824
 20
-1167989.9639
 10
-596409.8236
 20
-1168006.8311
 10
-596443.2141
 20
-1168027.5348
 10
-596470.3868
 20
-1168068.9158
 10
-596511.0799
 20
-1168120.6683
 10
-596554.8925
 20
-1168177.9092
 10
-596540.17
 20
-1168231.8918
 10
-596561.0723
 20
-1168240.6852
 10
-596563.0735
 20
-1168243.8871
 10
-596591.4909
 20
-1168247.4894
 10
-596601.7218
 20
-1168204.9737
 10
-596710.364
 20
-1168246.3613
 10
-596793.0112
 20
-1168314.6351
 10
-596846.9116
 20
-1168445.7927
 10
-596865.3324
 20
-1168546.27
 10
-596884.1386
 20
-1168647.8717
 10
-596891.8286
 20
-1168700.9213
 10
-596920.5755
 20
-1168769.1952
 10
-596961.8992
 20
-1168826.689
 10
-597168.5175
 20
-1168842.8592
 10
-597173.6486
 20
-1168840.5134
 10
-597227.1017
 20
-1168808.5151
 10
-597609.4631
 20
-1168734.6288
 10
-597605.1108
 20
-1168706.3113
 10
-597588.9407
 20
-1168571.5604
 10
-597587.9376
 20
-1168556.4942
 10
-597519.3699
 20
-1168168.2846
 10
-597496.5926
 20
-1167973.4129
 10
-597502.0273
 20
-1167939.8995
 10
-597501.6481
 20
-1167937.6998
 10
-597499.3909
 20
-1167912.8714
 10
-597492.4424
 20
-1167856.8503
 10
-597491.6419
 20
-1167848.8454
 10
-597489.6407
 20
-1167835.6373
 10
-597472.0299
 20
-1167717.9653
 10
-597454.4191
 20
-1167602.2944
 10
-597435.6076
 20
-1167515.4413
 10
-597420.8468
 20
-1167483.2829
 10
-597404.3685
 20
-1167387.3209
 10
-597343.3018
 20
-1167316.5611
 10
-597291.9282
 20
-1166953.0688
 10
-597265.7568
 20
-1166939.4985
 10
-597229.8921
 20
-1166922.0508
 10
-597106.7894
 20
-1166885.217
 10
-597062.6779
 20
-1166869.2878
 10
-597050.6982
 20
-1166773.8718
 10
-596995.7094
 20
-1166659.3442
 10
-597000.5413
 20
-1166637.5039
 10
-597001.7421
 20
-1166633.9015
 10
-597001.7421
 20
-1166631.0999
 10
-597029.7592
 20
-1166509.0253
 10
-597052.5079
 20
-1166473.2591
 10
-597137.4251
 20
-1166430.177
 10
-597143.6234
 20
-1166418.0082
 10
-597122.6853
 20
-1166369.6319
 10
-597094.9039
 20
-1166358.5194
 10
-597052.0413
 20
-1166355.3443
 10
-597065.109
 20
-1166281.3351
 10
-597077.71
 20
-1166187.3118
 10
-597083.5259
 20
-1166128.1836
 10
-597091.2804
 20
-1166069.0556
 10
-597096.127
 20
-1165965.3391
 10
-597102.9122
 20
-1165911.0577
 10
-597120.3598
 20
-1165877.1316
 10
-597153.3165
 20
-1165858.7147
 10
-597179.4879
 20
-1165834.4819
 10
-597187.2424
 20
-1165791.8321
 10
-597201.8645
 20
-1165730.9489
 10
-597198.1718
 20
-1165714.7494
 10
-597192.7301
 20
-1165702.7775
 10
-597216.9423
 20
-1165634.176
 10
-597230.796
 20
-1165575.9906
 10
-597249.8351
 20
-1165487.8807
 10
-597261.0662
 20
-1165404.7703
 10
-597275.3707
 20
-1165331.2048
 10
-597288.051
 20
-1165259.6794
 10
-597294.6459
 20
-1165235.4978
 10
-597301.4982
 20
-1165200.3638
 10
-597323.9605
 20
-1165115.0071
 10
-597330.6992
 20
-1165038.6355
 10
-597310.4832
 20
-1164942.0478
 10
-597297.0058
 20
-1164861.1838
 10
-597390.7802
 20
-1164856.0133
 10
-597389.101
 20
-1164865.6761
 10
-597395.8397
 20
-1164944.2941
 10
-597398.0859
 20
-1165034.1431
 10
-597398.0859
 20
-1165097.0374
 10
-597389.101
 20
-1165168.9167
 10
-597384.6085
 20
-1165195.8714
 10
-597368.3833
 20
-1165251.8823
 10
-597380.4158
 20
-1165264.7446
 10
-597398.8873
 20
-1165286.9105
 10
-597408.1231
 20
-1165312.7707
 10
-597408.1231
 20
-1165342.3252
 10
-597406.0781
 20
-1165392.4801
 10
-597357.3041
 20
-1165377.315
 10
-597325.1535
 20
-1165374.504
 10
-597313.8101
 20
-1165439.7284
 10
-597347.1737
 20
-1165443.6693
 10
-597454.0728
 20
-1165460.8879
 10
-597454.9791
 20
-1165461.6343
 10
-597416.4987
 20
-1165491.369
 10
-597377.645
 20
-1165535.3531
 10
-597350.8613
 20
-1165544.5889
 10
-597314.5465
 20
-1165547.941
 10
-597306.8966
 20
-1165552.2399
 10
-597288.0209
 20
-1165636.1316
 10
-597272.2973
 20
-1165728.2269
 10
-597274.8696
 20
-1165735.2772
 10
-597297.2937
 20
-1165743.1583
 10
-597307.4531
 20
-1165754.2412
 10
-597319.4596
 20
-1165778.2542
 10
-597324.8848
 20
-1165834.4819
 10
-597328.762
 20
-1166004.1117
 10
-597337.4858
 20
-1166012.8355
 10
-597341.541
 20
-1166015.3816
 10
-597410.8939
 20
-1166027.6203
 10
-597473.6971
 20
-1166044.2449
 10
-597523.5703
 20
-1166064.5635
 10
-597560.5136
 20
-1166105.201
 10
-597568.8257
 20
-1166150.4563
 10
-597562.3607
 20
-1166215.1069
 10
-597545.7363
 20
-1166267.7508
 10
-597527.9364
 20
-1166314.6238
 10
-597470.0028
 20
-1166478.3266
 10
-597541.0416
 20
-1166490.7067
 10
-597569.1517
 20
-1166496.5225
 10
-597608.8934
 20
-1166508.1543
 10
-597625.3718
 20
-1166532.3871
 10
-597625.3718
 20
-1166544.9882
 10
-597634.0955
 20
-1166574.0676
 10
-597644.7581
 20
-1166595.3925
 10
-597643.7888
 20
-1166670.0295
 10
-597643.7888
 20
-1166680.692
 10
-597614.7094
 20
-1166677.784
 10
-597617.6173
 20
-1166618.6559
 10
-597623.4331
 20
-1166576.9755
 10
-597618.5866
 20
-1166556.6199
 10
-597612.7706
 20
-1166545.9575
 10
-597608.8934
 20
-1166534.3258
 10
-597596.2924
 20
-1166524.6326
 10
-597511.9622
 20
-1166509.1236
 10
-597446.0489
 20
-1166496.5225
 10
-597368.5039
 20
-1166481.9828
 10
-597366.5653
 20
-1166513.9701
 10
-597370.4425
 20
-1166564.3744
 10
-597376.2584
 20
-1166624.4718
 10
-597376.2584
 20
-1166695.2317
 10
-597381.105
 20
-1166710.7407
 10
-597402.4298
 20
-1166752.4211
 10
-597419.8774
 20
-1166777.6232
 10
-597429.5706
 20
-1166815.4265
 10
-597421.8161
 20
-1166838.6899
 10
-597382.0742
 20
-1166846.4445
 10
-597378.603
 20
-1166846.657
 10
-597380.2794
 20
-1166862.7926
 10
-597386.9208
 20
-1166862.9227
 10
-597423.7548
 20
-1166850.3217
 10
-597451.8648
 20
-1166827.0582
 10
-597474.1589
 20
-1166804.764
 10
-597555.5812
 20
-1166795.0708
 10
-597580.7834
 20
-1166777.6232
 10
-597605.9855
 20
-1166725.2804
 10
-597620.5252
 20
-1166691.3544
 10
-597641.8501
 20
-1166690.3851
 10
-597636.0342
 20
-1166714.618
 10
-597633.1262
 20
-1166732.0655
 10
-597617.6173
 20
-1166767.9302
 10
-597597.2617
 20
-1166806.7026
 10
-597597.5358
 20
-1166808.4159
 10
-597648.2534
 20
-1166821.8979
 10
-597699.9739
 20
-1166831.1337
 10
-597760.9301
 20
-1166845.9109
 10
-597877.3009
 20
-1166901.3256
 10
-597989.0539
 20
-1167012.155
 10
-598029.6914
 20
-1167127.6023
 10
-598076.7938
 20
-1167340.949
 10
-598063.8638
 20
-1167464.7084
 10
-598050.5407
 20
-1167491.3547
 10
-598077.0715
 20
-1167510.4236
 10
-598103.2429
 20
-1167519.1475
 10
-598142.9848
 20
-1167534.6565
 10
-598202.1128
 20
-1167572.4597
 10
-598223.9623
 20
-1167595.014
 10
-598227.325
 20
-1167598.4853
 10
-598233.148
 20
-1167615.3147
 10
-598235.072
 20
-1167638.402
 10
-598233.2959
 20
-1167672.1372
 10
-598233.6962
 20
-1167694.5509
 10
-598261.3131
 20
-1167719.7664
 10
-598286.3734
 20
-1167749.9136
 10
-598292.9323
 20
-1167766.9952
 10
-598295.7341
 20
-1167788.2083
 10
-598296.4456
 20
-1167803.0023
 10
-598293.3327
 20
-1167817.0259
 10
-598290.1522
 20
-1167830.0538
 10
-598273.0956
 20
-1167862.7454
 10
-598261.3131
 20
-1167878.6636
 10
-598255.7096
 20
-1167896.2744
 10
-598253.3081
 20
-1167909.0823
 10
-598264.1148
 20
-1167924.2915
 10
-598284.3041
 20
-1167948.6282
 10
-598307.5433
 20
-1167973.5273
 10
-598330.7824
 20
-1168001.7463
 10
-598358.9728
 20
-1168021.9513
 10
-598368.9789
 20
-1168033.9587
 10
-598373.3817
 20
-1168058.7739
 10
-598371.3804
 20
-1168092.7947
 10
-598362.9753
 20
-1168126.4153
 10
-598354.9704
 20
-1168145.2267
 10
-598347.3658
 20
-1168156.4336
 10
-598330.9557
 20
-1168169.2415
 10
-598312.9447
 20
-1168178.8473
 10
-598291.7316
 20
-1168176.8461
 10
-598265.3155
 20
-1168161.2366
 10
-598245.7036
 20
-1168150.4299
 10
-598231.695
 20
-1168146.0272
 10
-598217.8856
 20
-1168142.4048
 10
-598204.0543
 20
-1168162.1802
 10
-598185.6667
 20
-1168193.2562
 10
-598166.8552
 20
-1168220.0726
 10
-598151.509
 20
-1168234.1377
 10
-598141.2396
 20
-1168243.2869
 10
-598117.2248
 20
-1168253.6932
 10
-598095.8672
 20
-1168252.5932
 10
-598082.8037
 20
-1168253.2929
 10
-598077.9836
 20
-1168252.6151
 10
-598057.1881
 20
-1168249.6907
 10
-598031.5724
 20
-1168238.0837
 10
-597990.7474
 20
-1168206.0641
 10
-597957.3953
 20
-1168184.8146
 10
-597925.7573
 20
-1168179.3597
 10
-597917.1295
 20
-1168180.2976
 10
-597911.8991
 20
-1168196.8584
 10
-597883.882
 20
-1168214.4692
 10
-597867.0718
 20
-1168214.8694
 10
-597846.259
 20
-1168213.6686
 10
-597836.6531
 20
-1168209.266
 10
-597825.4495
 20
-1168215.8935
 10
-597827.1052
 20
-1168217.0699
 10
-597842.4943
 20
-1168253.6189
 10
-597855.9596
 20
-1168301.7098
 10
-597866.218
 20
-1168378.1276
 10
-597868.9888
 20
-1168492.6513
 10
-597864.3709
 20
-1168555.4546
 10
-597857.9058
 20
-1168621.0287
 10
-597857.9058
 20
-1168666.284
 10
-597860.6765
 20
-1168712.4629
 10
-597886.0043
 20
-1168733.8628
 10
-597892.5796
 20
-1168735.0583
 10
-598011.1606
 20
-1168738.6517
 10
-598052.4842
 20
-1168742.245
 10
-598097.4013
 20
-1168753.0251
 10
-598167.4718
 20
-1168770.9919
 10
-598224.9656
 20
-1168805.1288
 10
-598291.4427
 20
-1168862.6226
 10
-598339.9531
 20
-1168912.9297
 10
-598408.2269
 20
-1169017.1371
 10
-598573.5215
 20
-1169209.3819
 10
-598674.1356
 20
-1169304.6059
 10
-598744.2062
 20
-1169380.0666
 10
-598758.5797
 20
-1169423.1869
 10
-598761.8262
 20
-1169442.6667
 10
-596433.4049
 20
-1169438.9921
 10
-596362.9124
 20
-1169438.881
 10
-596291.5947
 20
-1169438.7684
 10
-596297.3538
 20
-1169399.937
 10
-596319.0975
 20
-1169317.6562
 10
-596311.9959
 20
-1169306.6649
 10
-596319.5789
 20
-1169290.3992
 10
-596338.1651
 20
-1169286.6635
 10
-596401.3353
 20
-1169296.3524
 10
-596428.6961
 20
-1169299.2979
 10
-596432.7307
 20
-1169296.0973
 10
-596434.906
 20
-1169291.4322
 10
-596432.7307
 20
-1169283.7143
 10
-596427.8673
 20
-1169280.5511
 10
-596343.6306
 20
-1169255.191
 10
-596338.8668
 20
-1169239.027
 10
-596342.572
 20
-1169216.3313
 10
-596350.8767
 20
-1169178.4364
 10
-596369.9821
 20
-1169155.0647
 10
-596393.8724
 20
-1169167.4297
 10
-596401.8099
 20
-1169121.3921
 10
-596409.2712
 20
-1169035.6752
 10
-596413.9116
 20
-1168965.0334
 10
-596417.505
 20
-1168945.2699
 10
-596487.5756
 20
-1168664.9877
 10
-596586.688
 20
-1168276.7073
 10
-596581.4725
 20
-1168261.7607
 10
-596560.2718
 20
-1168254.6938
 10
-596551.4664
 20
-1168257.8957
 10
-596532.8321
 20
-1168258.7974
 10
-596521.449
 20
-1168300.5353
 10
-596494.89
 20
-1168401.7915
 10
-596383.6741
 20
-1168332.0741
 10
-596303.997
 20
-1168245.7573
 10
-596262.4986
 20
-1168126.2417
 10
-596262.4986
 20
-1168056.5243
 10
-596295.6974
 20
-1168010.0459
 10
-596332.7083
 20
-1167989.8581
 10
-596316.9229
 20
-1167973.7219
 10
-596261.5613
 20
-1167997.4555
 10
-596210.9453
 20
-1168008.8441
 10
-596171.7177
 20
-1167917.7352
 10
-596024.9313
 20
-1167834.2188
 10
-595984.2857
 20
-1167787.7558
 10
-595927.3286
 20
-1167723.3407
 10
-595925.2879
 20
-1167715.2486
 10
-595923.6502
 20
-1167698.6207
 10
-595923.8911
 20
-1167686.9852
 10
-595921.513
 20
-1167676.8232
 10
-595916.1797
 20
-1167667.8522
 10
-595908.3884
 20
-1167660.9086
 10
-595897.5514
 20
-1167656.0749
 10
-595877.3095
 20
-1167648.6333
 10
-595860.4291
 20
-1167633.0199
 10
-595852.8367
 20
-1167559.6268
 10
-595852.2586
 20
-1167544.8838
 10
-595740.8686
 20
-1167449.0884
 10
-595721.2349
 20
-1167429.2904
 10
-595700.9885
 20
-1167400.1861
 10
-595690.8654
 20
-1167347.0394
 10
-595692.1308
 20
-1167271.1152
 10
-595694.6616
 20
-1167201.5182
 10
-595716.1734
 20
-1167148.3714
 10
-595832.5903
 20
-1167016.7695
 10
-595967.9882
 20
-1166918.0683
 10
-596090.7321
 20
-1166862.3907
 10
-596115.0028
 20
-1166838.8939
 10
-596109.596
 20
-1166828.6209
 10
-596082.1818
 20
-1166766.4621
 10
-596061.015
 20
-1166679.1493
 10
-596061.015
 20
-1166578.6075
 10
-596092.7651
 20
-1166512.4615
 10
-596103.3485
 20
-1166448.9615
 10
-596153.6194
 20
-1166382.8154
 10
-596180.0778
 20
-1166329.8986
 10
-596174.7861
 20
-1166269.0443
 10
-596176.8371
 20
-1166224.651
 10
-596156.3286
 20
-1166182.0961
 10
-596118.0828
 20
-1166106.7294
 10
-596084.3364
 20
-1166039.2367
 10
-596061.8389
 20
-1166002.1158
 10
-596030.3423
 20
-1165932.3733
 10
-596030.3423
 20
-1165889.628
 10
-596022.4681
 20
-1165819.8855
 10
-596001.0955
 20
-1165781.6398
 10
-595979.7228
 20
-1165708.5227
 10
-595969.599
 20
-1165648.9042
 10
-595995.4711
 20
-1165575.7871
 10
-596005.595
 20
-1165520.6682
 10
-596015.7189
 20
-1165480.1726
 10
-596044.6901
 20
-1165463.9828
 10
-596050.2392
 20
-1165445.1415
 10
-596070.4857
 20
-1165385.6676
 10
-596084.4051
 20
-1165271.7815
 10
-596091.0856
 20
-1165125.8362
 10
-596116.4805
 20
-1165120.0078
 10
-596113.9986
 20
-1165111.2128
 10
-596086.5862
 20
-1165111.2128
 10
-596078.712
 20
-1165093.2147
 10
-596074.2126
 20
-1165071.842
 10
-596118.0828
 20
-1165031.3465
 10
-596131.5814
 20
-1165036.9708
 10
-596175.4515
 20
-1165094.3395
 10
-596136.0809
 20
-1165104.4635
 10
-596130.9002
 20
-1165106.2919
 10
-596130.9157
 20
-1165116.6948
 10
-596159.7032
 20
-1165110.0878
 10
-596183.3257
 20
-1165148.3337
 10
-596196.8242
 20
-1165171.9561
 10
-596226.0709
 20
-1165203.4527
 10
-596217.072
 20
-1165318.1902
 10
-596211.4476
 20
-1165459.9247
 10
-596201.3237
 20
-1165629.7812
 10
-596188.9501
 20
-1165707.3978
 10
-596199.0739
 20
-1165764.7665
 10
-596214.8222
 20
-1165828.8846
 10
-596228.8115
 20
-1165776.4249
 10
-596221.0684
 20
-1165761.4917
 10
-596221.0684
 20
-1165718.4682
 10
-596233.7224
 20
-1165651.4018
 10
-596274.2153
 20
-1165599.5204
 10
-596434.9212
 20
-1165483.1035
 10
-596537.4186
 20
-1165433.7529
 10
-596685.5024
 20
-1165393.8579
 10
-596695.2139
 20
-1165372.784
 10
-596672.4122
 20
-1165210.2294
 10
-596679.1871
 20
-1165087.5275
 10
-596675.4232
 20
-1164933.209
 10
-596679.1445
 20
-1164901.441
 10
-596677.5436
 20
-1164885.0311
 10
-596675.4232
 20
-1164870.7288
 10
-596665.6372
 20
-1164837.6069
 10
-596659.8456
 20
-1164827.2468
 10
-596659.1323
 20
-1164820.9919
 10
-596655.3256
 20
-1164819.161
 10
-596646.4669
 20
-1164746.0776
 10
-596633.9457
 20
-1164643.4036
 10
-596618.9203
 20
-1164555.755
 10
-596611.9034
 20
-1164536.0174
 10
-596608.9033
 20
-1164528.2082
 10
-596608.6273
 20
-1164519.8342
 10
-596590.4016
 20
-1164486.4203
 10
-596565.9918
 20
-1164435.567
 10
-596544.6336
 20
-1164405.0549
 10
-596527.3433
 20
-1164390.8161
 10
-596520.9313
 20
-1164384.4039
 10
-596519.8411
 20
-1164385.1856
 10
-596516.1556
 20
-1164382.6796
 10
-596493.7802
 20
-1164372.5089
 10
-596474.4559
 20
-1164371.4918
 10
-596454.1146
 20
-1164372.5089
 10
-596431.7391
 20
-1164381.6625
 10
-596398.1759
 20
-1164411.1575
 10
-596315.7934
 20
-1164489.4715
 10
-596315.6572
 20
-1164490.9705
 10
-596287.5374
 20
-1164502.4267
 10
-596150.6267
 20
-1164620.8653
 10
-595987.8508
 20
-1164746.0776
 10
-595981.9137
 20
-1164749.7417
 10
-595977.515
 20
-1164748.9478
 10
-595975.5138
 20
-1164746.5463
 10
-595968.7096
 20
-1164780.1669
 10
-595963.1062
 20
-1164803.3812
 10
-595966.2244
 20
-1164808.6207
 10
-595997.7209
 20
-1164836.7427
 10
-596039.3414
 20
-1164940.2313
 10
-596079.3435
 20
-1164959.2275
 10
-596095.7937
 20
-1164978.2085
 10
-596108.4477
 20
-1164992.1279
 10
-596104.6515
 20
-1165014.9051
 10
-596095.6777
 20
-1165021.3151
 10
-596100.0847
 20
-1165025.7221
 10
-596070.8379
 20
-1165056.0937
 10
-596028.0926
 20
-1165014.4733
 10
-596002.2203
 20
-1164982.9767
 10
-595981.9725
 20
-1164943.606
 10
-595941.4771
 20
-1164824.3689
 10
-595958.7519
 20
-1164810.0056
 10
-595962.3057
 20
-1164779.7666
 10
-595971.1112
 20
-1164750.949
 10
-595965.3126
 20
-1164746.0776
 10
-595887.6811
 20
-1164703.5054
 10
-595810.0495
 20
-1164655.9247
 10
-595749.9476
 20
-1164490.6446
 10
-595749.9476
 20
-1164340.3899
 10
-595785.0071
 20
-1164155.0759
 10
-595832.5877
 20
-1164047.3934
 10
-595932.7575
 20
-1163957.2407
 10
-596037.9357
 20
-1163884.6176
 10
-596230.7625
 20
-1163751.8926
 10
-596386.0256
 20
-1163666.7483
 10
-596606.3991
 20
-1163574.0914
 10
-596631.5742
 20
-1163565.4103
 10
-596627.9882
 20
-1163545.9932
 10
-596639.5781
 20
-1163368.9861
 10
-596642.8907
 20
-1163292.7942
 10
-596643.7925
 20
-1163272.0536
 10
-596644.4081
 20
-1163272.7718
 10
-596645.8997
 20
-1163253.0885
 10
-596651.9279
 20
-1163087.931
 10
-596653.5288
 20
-1163045.1048
 10
-596654.7296
 20
-1163014.2859
 10
-596656.7307
 20
-1163002.2786
 10
-596658.7626
 20
-1162970.4493
 10
-596670.6212
 20
-1162745.1376
 10
-596669.3729
 20
-1162608.4527
 10
-596661.8833
 20
-1162565.3876
 10
-596674.9901
 20
-1162322.6001
 10
-596686.2244
 20
-1162181.5463
 10
-596691.2175
 20
-1162086.0541
 10
-596695.5864
 20
-1161956.2345
 10
-596699.9553
 20
-1161794.5843
 10
-596706.8209
 20
-1161659.7717
 10
-596708.0681
 20
-1161644.2247
 10
-596708.0494
 20
-1161634.3189
 10
-596708.0179
 20
-1161608.7924
 10
-596709.5469
 20
-1161585.4999
 10
-596712.7771
 20
-1161435.8307
 10
-596712.7771
 20
-1161389.5302
 10
-596713.8538
 20
-1161349.6902
 10
-596712.5588
 20
-1161331.6703
 10
-596711.7004
 20
-1161326.0016
 10
-596689.0885
 20
-1161212.942
 10
-596657.8625
 20
-1161072.9636
 10
-596629.8668
 20
-1160956.6738
 10
-596616.9458
 20
-1160917.9106
 10
-596607.255
 20
-1160879.1473
 10
-596606.3937
 20
-1160862.0423
 10
-596604.4428
 20
-1160841.0315
 10
-596602.4445
 20
-1160825.4968
 10
-596569.7741
 20
-1160714.3824
 10
-596537.8795
 20
-1160563.1786
 10
-596537.9834
 20
-1160530.454
 10
-596533.2953
 20
-1160495.4049
 10
-596527.0444
 20
-1160455.6677
 10
-596530.1699
 20
-1160437.8083
 10
-596536.8672
 20
-1160383.3372
 10
-596537.5369
 20
-1160371.2822
 10
-596536.6439
 20
-1160363.6919
 10
-596540.242
 20
-1160303.2971
 10
-596554.4174
 20
-1160241.8706
 10
-596583.9494
 20
-1160165.0874
 10
-596589.8558
 20
-1160103.6609
 10
-596585.1307
 20
-1160071.7663
 10
-596568.5928
 20
-1160049.322
 10
-596535.5169
 20
-1160000.8895
 10
-596509.5287
 20
-1159970.1763
 10
-596475.2716
 20
-1159940.6443
 10
-596396.1259
 20
-1159822.5163
 10
-596260.2788
 20
-1159620.5174
 10
-596188.2206
 20
-1159510.6585
 10
-596152.7823
 20
-1159488.2142
 10
-596116.1627
 20
-1159481.1265
 10
-595970.8653
 20
-1159475.2201
 10
-595941.3333
 20
-1159463.4073
 10
-595912.9962
 20
-1159448.8558
 10
-595892.59
 20
-1159422.7259
 10
-595886.3391
 20
-1159414.2427
 10
-595871.6052
 20
-1159396.3833
 10
-595786.5856
 20
-1159275.5838
 10
-595670.8203
 20
-1159111.386
 10
-595612.9375
 20
-1159044.0531
 10
-595446.3771
 20
-1158813.7035
 10
-595426.2954
 20
-1158774.7213
 10
-595418.0264
 20
-1158732.1952
 10
-595416.845
 20
-1158673.1312
 10
-595428.6579
 20
-1158643.5993
 10
-595447.5584
 20
-1158616.4299
 10
-595465.2776
 20
-1158580.9914
 10
-595472.3653
 20
-1158534.9215
 10
-595492.447
 20
-1158501.8456
 10
-595552.6923
 20
-1158465.2261
 10
-595585.7681
 20
-1158433.3315
 10
-595594.037
 20
-1158391.9867
 10
-595594.037
 20
-1158338.8292
 10
-595576.3179
 20
-1158272.6774
 10
-595575.1365
 20
-1158259.6833
 10
-595543.2421
 20
-1158225.4263
 10
-595517.1256
 20
-1158200.3544
 10
-595513.71
 20
-1158197.0755
 10
-595513.9388
 20
-1158196.7831
 10
-595503.2636
 20
-1158184.8189
 10
-595484.2135
 20
-1158156.5084
 10
-595473.6301
 20
-1158131.6374
 10
-595467.2802
 20
-1158093.0083
 10
-595468.3384
 20
-1158054.9081
 10
-595473.8947
 20
-1158015.4852
 10
-595479.451
 20
-1157995.3769
 10
-595485.0073
 20
-1157980.2956
 10
-595489.1399
 20
-1157964.8519
 10
-595490.8281
 20
-1157952.5142
 10
-595494.2676
 20
-1157934.2579
 10
-595501.9406
 20
-1157899.862
 10
-595507.4969
 20
-1157873.1391
 10
-595511.7302
 20
-1157828.4244
 10
-595512.7886
 20
-1157792.9702
 10
-595513.0531
 20
-1157776.0368
 10
-595502.7343
 20
-1157757.2513
 10
-595467.8093
 20
-1157719.6805
 10
-595416.2733
 20
-1157664.1902
 10
-595401.6779
 20
-1157633.4629
 10
-595341.8674
 20
-1157601.676
 10
-595314.3507
 20
-1157578.3926
 10
-595275.8138
 20
-1157550.3041
 10
-595206.2168
 20
-1157518.6691
 10
-595113.0389
 20
-1157492.9046
 10
-595103.2419
 20
-1157491.195
 10
-595075.9807
 20
-1157476.9917
 10
-595057.8827
 20
-1157474.0135
 10
-595041.165
 20
-1157469.4825
 10
-594998.7784
 20
-1157475.388
 10
-594944.7138
 20
-1157471.2645
 10
-594889.962
 20
-1157474.4717
 10
-594866.8243
 20
-1157478.5953
 10
-594848.9555
 20
-1157484.3224
 10
-594837.9594
 20
-1157487.0714
 10
-594826.4847
 20
-1157488.2477
 10
-594818.4753
 20
-1157489.0688
 10
-594818.5169
 20
-1157488.6189
 10
-594797.6401
 20
-1157489.5914
 10
-594779.0841
 20
-1157489.1332
 10
-594761.4443
 20
-1157489.8205
 10
-594709.2125
 20
-1157475.159
 10
-594676.9112
 20
-1157465.0791
 10
-594637.7374
 20
-1157457.7483
 10
-594606.5816
 20
-1157449.0431
 10
-594598.3345
 20
-1157440.1087
 10
-594570.8441
 20
-1157420.1781
 10
-594572.4476
 20
-1157411.931
 10
-594572.2186
 20
-1157377.797
 10
-594609.7888
 20
-1157379.4006
 10
-594644.8391
 20
-1157377.1098
 10
-594691.1146
 20
-1157375.048
 10
-594723.1868
 20
-1157375.5061
 10
-594760.528
 20
-1157388.7931
 10
-594794.4328
 20
-1157402.9966
 10
-594796.9528
 20
-1157405.2874
 97
0
 92
2
 72
0
 73
1
 93
4
 10
-596603.9747
 20
-1163734.0986
 10
-596602.9808
 20
-1163774.407
 10
-596603.8948
 20
-1163739.3714
 10
-596603.9747
 20
-1163734.0986
 97
0
 92
2
 72
0
 73
1
 93
14
 10
-598314.1455
 20
-1168090.3932
 10
-598260.5125
 20
-1168107.2035
 10
-598237.5275
 20
-1168123.6137
 10
-598237.886
 20
-1168137.613
 10
-598244.903
 20
-1168140.8241
 10
-598261.3131
 20
-1168150.4299
 10
-598279.7244
 20
-1168158.0347
 10
-598306.941
 20
-1168162.8375
 10
-598326.1527
 20
-1168154.4325
 10
-598342.5627
 20
-1168128.4164
 10
-598346.165
 20
-1168098.7984
 10
-598334.9581
 20
-1168075.5842
 10
-598331.4969
 20
-1168073.6062
 10
-598314.1455
 20
-1168090.3932
 97
0
 92
2
 72
0
 73
1
 93
37
 10
-597048.6735
 20
-1166192.7258
 10
-596975.2226
 20
-1166030.3753
 10
-596958.7291
 20
-1165994.9516
 10
-596902.0479
 20
-1165872.0136
 10
-596869.4094
 20
-1165802.7966
 10
-596842.4719
 20
-1165741.9398
 10
-596833.1567
 20
-1165699.5995
 10
-596819.921
 20
-1165636.2646
 10
-596808.9267
 20
-1165576.8359
 10
-596798.8624
 20
-1165524.8558
 10
-596777.1631
 20
-1165413.0635
 10
-596755.3341
 20
-1165303.9649
 10
-596738.7622
 20
-1165208.0828
 10
-596726.0346
 20
-1165131.2243
 10
-596709.5185
 20
-1165038.2369
 10
-596696.1801
 20
-1164963.1397
 10
-596691.7259
 20
-1164938.062
 10
-596687.6127
 20
-1164969.3448
 10
-596693.1309
 20
-1164996.5116
 10
-596709.8315
 20
-1165086.1423
 10
-596723.6793
 20
-1165171.1695
 10
-596734.1299
 20
-1165235.3376
 10
-596739.3411
 20
-1165267.3354
 10
-596763.8705
 20
-1165384.1645
 10
-596789.0355
 20
-1165507.4091
 10
-596807.4869
 20
-1165602.0207
 10
-596820.0504
 20
-1165663.8126
 10
-596830.0689
 20
-1165723.9232
 10
-596841.5242
 20
-1165756.8448
 10
-596853.7148
 20
-1165785.8765
 10
-596886.1794
 20
-1165850.4518
 10
-596930.5886
 20
-1165942.1109
 10
-596964.4114
 20
-1166016.4258
 10
-596997.5378
 20
-1166089.2106
 10
-597023.0007
 20
-1166148.6438
 10
-597041.1068
 20
-1166193.3057
 10
-597048.6735
 20
-1166192.7258
 97
0
 92
2
 72
0
 73
1
 93
8
 10
-596605.6576
 20
-1164155.8736
 10
-596556.526
 20
-1164104.11
 10
-596504.968
 20
-1164261.6485
 10
-596509.0361
 20
-1164270.8022
 10
-596528.3605
 20
-1164289.1094
 10
-596543.6165
 20
-1164298.263
 10
-596600.5721
 20
-1164246.3926
 10
-596605.6576
 20
-1164155.8736
 97
0
 92
2
 72
0
 73
1
 93
27
 10
-597832.9014
 20
-1168172.2605
 10
-597824.501
 20
-1168164.4203
 10
-597776.3629
 20
-1168071.4637
 10
-597731.5444
 20
-1168006.7261
 10
-597709.9653
 20
-1167993.4465
 10
-597681.7583
 20
-1167969.9195
 10
-597600.7617
 20
-1167921.1281
 10
-597554.6896
 20
-1167896.3947
 10
-597550.7347
 20
-1167894.2716
 10
-597541.6726
 20
-1167889.054
 10
-597541.6726
 20
-1167895.674
 10
-597539.5223
 20
-1167931.4107
 10
-597555.8731
 20
-1167968.9215
 10
-597558.7586
 20
-1168003.5467
 10
-597565.5903
 20
-1168009.0746
 10
-597570.4901
 20
-1168003.54
 10
-597602.91
 20
-1167999.1374
 10
-597642.9346
 20
-1168010.7444
 10
-597703.7717
 20
-1168047.1668
 10
-597762.6078
 20
-1168116.8094
 10
-597788.1047
 20
-1168189.1174
 10
-597787.4759
 20
-1168189.066
 10
-597788.6237
 20
-1168194.8572
 10
-597797.2748
 20
-1168195.8747
 10
-597802.1254
 20
-1168199.3211
 10
-597830.6344
 20
-1168187.8061
 10
-597832.9014
 20
-1168172.2605
 97
0
 92
2
 72
0
 73
1
 93
10
 10
-596456.407
 20
-1163770.3511
 10
-596456.332
 20
-1163770.2479
 10
-596408.5638
 20
-1163781.9435
 10
-596305.8898
 20
-1163839.5412
 10
-596125.5842
 20
-1164122.5208
 10
-596240.7794
 20
-1164267.767
 10
-596396.0425
 20
-1164187.6311
 10
-596441.119
 20
-1164074.9402
 10
-596466.1614
 20
-1163862.0794
 10
-596456.407
 20
-1163770.3511
 97
0
 75
0
 76
1
 98
0
  0
HATCH
  5
2001C
100
AcDbEntity
  8
plocha AZZU
100
AcDbHatch
 10
0
 20
0
 30
0
210
0
220
0
230
1
  2
SOLID
 70
1
 71
0
 91
1
 92
2
 72
0
 73
1
 93
645
 10
-599219.5621
 20
-1161580.5089
 10
-599287.9066
 20
-1161583.3566
 10
-599353.7911
 20
-1161587.8487
 10
-599418.1782
 20
-1161593.8382
 10
-599484.0627
 20
-1161604.3198
 10
-599540.9628
 20
-1161617.7961
 10
-599594.8683
 20
-1161635.7646
 10
-599662.2501
 20
-1161661.2201
 10
-599725.1399
 20
-1161683.6807
 10
-599797.0138
 20
-1161718.1202
 10
-599859.9035
 20
-1161751.0625
 10
-599931.7774
 20
-1161791.4915
 10
-600003.6514
 20
-1161831.9207
 10
-600090.499
 20
-1161867.8576
 10
-600141.4098
 20
-1161881.334
 10
-600184.8336
 20
-1161893.313
 10
-600252.2155
 20
-1161909.7841
 10
-600297.1366
 20
-1161915.7736
 10
-600319.5744
 20
-1161919.1393
 10
-600399.0217
 20
-1161926.2198
 10
-600442.6483
 20
-1161922.6177
 10
-600502.2849
 20
-1161917.8147
 10
-600545.5113
 20
-1161913.8123
 10
-600577.9125
 20
-1161898.1135
 10
-600636.7672
 20
-1161863.7817
 10
-600707.6106
 20
-1161828.5601
 10
-600739.2299
 20
-1161806.9469
 10
-600773.651
 20
-1161772.1256
 10
-600792.8627
 20
-1161743.7082
 10
-600806.471
 20
-1161724.0962
 10
-600822.5469
 20
-1161700.9395
 10
-600836.1912
 20
-1161671.7016
 10
-600879.6151
 20
-1161611.8068
 10
-600932.0231
 20
-1161544.4249
 10
-600958.9759
 20
-1161493.5142
 10
-600968.307
 20
-1161475.5985
 10
-600986.9816
 20
-1161421.9111
 10
-601006.1933
 20
-1161382.2869
 10
-601014.5985
 20
-1161362.2747
 10
-601023.0036
 20
-1161340.6614
 10
-601033.8102
 20
-1161324.2513
 10
-601060.2264
 20
-1161292.2318
 10
-601068.221
 20
-1161282.9289
 10
-601085.4418
 20
-1161241.0005
 10
-601107.0551
 20
-1161206.5794
 10
-601139.0747
 20
-1161180.5634
 10
-601161.5463
 20
-1161167.3323
 10
-601189.5714
 20
-1161129.6523
 10
-601194.8154
 20
-1161118.4151
 10
-601200.0531
 20
-1161107.1918
 10
-601188.0741
 20
-1161063.7678
 10
-601155.1318
 20
-1160985.9045
 10
-601127.8678
 20
-1160921.2046
 10
-601100.6512
 20
-1160862.7689
 10
-601090.645
 20
-1160835.9524
 10
-601084.241
 20
-1160817.1409
 10
-601075.8359
 20
-1160796.7285
 10
-601071.4333
 20
-1160773.9145
 10
-601067.831
 20
-1160746.6979
 10
-601065.4296
 20
-1160722.6832
 10
-601064.629
 20
-1160709.0748
 10
-601065.8298
 20
-1160686.6611
 10
-601069.8322
 20
-1160668.65
 10
-601081.0391
 20
-1160634.6291
 10
-601098.2496
 20
-1160605.4114
 10
-601121.4639
 20
-1160565.3869
 10
-601137.0735
 20
-1160516.557
 10
-601141.0759
 20
-1160498.5459
 10
-601133.8715
 20
-1160456.9204
 10
-601121.4639
 20
-1160396.8837
 10
-601118.262
 20
-1160384.8763
 10
-601112.6585
 20
-1160357.6597
 10
-601111.0575
 20
-1160299.2239
 10
-601112.2582
 20
-1160178.7502
 10
-601113.0587
 20
-1160135.5236
 10
-601109.8568
 20
-1160112.3095
 10
-601109.0563
 20
-1160107.1063
 10
-601102.5123
 20
-1160099.0665
 10
-601095.0477
 20
-1160089.8958
 10
-601076.2362
 20
-1160029.859
 10
-601062.2276
 20
-1160005.4441
 10
-601052.2214
 20
-1159985.8321
 10
-601041.0147
 20
-1159944.6068
 10
-601036.2117
 20
-1159917.3902
 10
-601028.607
 20
-1159878.5665
 10
-601027.4063
 20
-1159874.9642
 10
-601009.3953
 20
-1159786.1098
 10
-601006.1933
 20
-1159767.6985
 10
-601006.5936
 20
-1159726.4733
 10
-601007.394
 20
-1159680.0448
 10
-601006.5936
 20
-1159661.2334
 10
-601020.6022
 20
-1159638.8197
 10
-601032.6094
 20
-1159621.6091
 10
-601045.8176
 20
-1159610.4023
 10
-601056.2239
 20
-1159600.3962
 10
-601070.7008
 20
-1159583.8135
 10
-601079.3475
 20
-1159583.8135
 10
-601100.5898
 20
-1159562.5712
 10
-601110.8869
 20
-1159533.1238
 10
-601149.0808
 20
-1159483.9249
 10
-601198.3109
 20
-1159424.6885
 10
-601208.5147
 20
-1159416.7356
 10
-601202.1834
 20
-1159385.2442
 10
-601192.024
 20
-1159336.2945
 10
-601187.4061
 20
-1159284.5741
 10
-601186.4824
 20
-1159242.0895
 10
-601191.1004
 20
-1159206.9936
 10
-601207.7249
 20
-1159170.0504
 10
-601235.4322
 20
-1159122.9479
 10
-601256.6745
 20
-1159093.3934
 10
-601288.0761
 20
-1159060.1446
 10
-601320.4014
 20
-1159025.0486
 10
-601394.2877
 20
-1158957.6273
 10
-601450.0651
 20
-1158916.7777
 10
-601485.2866
 20
-1158841.9318
 10
-601494.8925
 20
-1158823.9208
 10
-601512.9034
 20
-1158789.0995
 10
-601528.513
 20
-1158765.0848
 10
-601558.5314
 20
-1158736.6673
 10
-601594.9537
 20
-1158713.4532
 10
-601628.5743
 20
-1158693.8412
 10
-601649.1989
 20
-1158681.9882
 10
-601657.5137
 20
-1158675.7583
 10
-601674.7381
 20
-1158660.3595
 10
-601686.7238
 20
-1158647.5802
 10
-601695.6138
 20
-1158637.5789
 10
-601701.7069
 20
-1158636.6911
 10
-601709.2663
 20
-1158630.5938
 10
-601715.6164
 20
-1158618.37
 10
-601727.9194
 20
-1158602.892
 10
-601736.6404
 20
-1158597.3821
 10
-601767.3794
 20
-1158582.3734
 10
-601771.0615
 20
-1158576.9697
 10
-601777.4655
 20
-1158526.939
 10
-601775.8645
 20
-1158471.7052
 10
-601778.2659
 20
-1158439.6856
 10
-601785.4703
 20
-1158401.6623
 10
-601789.0725
 20
-1158384.0516
 10
-601808.6845
 20
-1158316.0099
 10
-601826.2953
 20
-1158253.1715
 10
-601835.501
 20
-1158226.7553
 10
-601848.3088
 20
-1158206.3428
 10
-601857.5144
 20
-1158175.1237
 10
-601864.7189
 20
-1158147.907
 10
-601870.3223
 20
-1158124.6928
 10
-601877.9269
 20
-1158101.0783
 10
-601882.3297
 20
-1158087.0698
 10
-601883.5304
 20
-1158037.8396
 10
-601875.5254
 20
-1158007.0207
 10
-601864.3187
 20
-1157968.9975
 10
-601858.3149
 20
-1157935.7771
 10
-601856.7139
 20
-1157919.3671
 10
-601857.9146
 20
-1157909.3609
 10
-601861.9172
 20
-1157894.9522
 10
-601870.7225
 20
-1157860.5311
 10
-601879.1276
 20
-1157830.913
 10
-601876.3259
 20
-1157821.3071
 10
-601868.7213
 20
-1157806.8983
 10
-601868.7213
 20
-1157797.2924
 10
-601891.135
 20
-1157772.8774
 10
-601902.3419
 20
-1157783.684
 10
-601910.3467
 20
-1157776.4797
 10
-601917.151
 20
-1157764.8725
 10
-601927.5574
 20
-1157749.263
 10
-601953.173
 20
-1157733.6534
 10
-601983.1914
 20
-1157714.4416
 10
-602005.6051
 20
-1157701.6338
 10
-602034.0225
 20
-1157687.225
 10
-602065.6418
 20
-1157679.2201
 10
-602108.0678
 20
-1157673.6167
 10
-602147.2918
 20
-1157671.6155
 10
-602215.3335
 20
-1157672.4158
 10
-602299.7852
 20
-1157681.6216
 10
-602371.429
 20
-1157691.2275
 10
-602439.4706
 20
-1157702.8345
 10
-602494.3042
 20
-1157700.8333
 10
-602520.7205
 20
-1157697.2311
 10
-602589.9628
 20
-1157686.0242
 10
-602647.9983
 20
-1157674.4172
 10
-602696.428
 20
-1157662.4098
 10
-602738.4537
 20
-1157643.9985
 10
-602780.4794
 20
-1157622.3854
 10
-602827.7084
 20
-1157591.9667
 10
-602865.7316
 20
-1157564.3497
 10
-602902.1539
 20
-1157532.3301
 10
-602957.788
 20
-1157477.8968
 10
-602982.2029
 20
-1157446.2775
 10
-603013.422
 20
-1157399.4488
 10
-603027.4305
 20
-1157355.0216
 10
-603033.8344
 20
-1157333.4084
 10
-603053.4465
 20
-1157293.384
 10
-603066.2543
 20
-1157248.9567
 10
-603102.6767
 20
-1157159.3019
 10
-603119.8872
 20
-1157116.4756
 10
-603131.8945
 20
-1157048.0337
 10
-603129.493
 20
-1156939.5673
 10
-603125.0904
 20
-1156891.1376
 10
-603123.4894
 20
-1156872.7264
 10
-603115.8847
 20
-1156820.2943
 10
-603119.487
 20
-1156784.6725
 10
-603140.4048
 20
-1156768.4658
 10
-603153.908
 20
-1156758.2563
 10
-603157.5103
 20
-1156772.6652
 10
-603166.3156
 20
-1156823.4963
 10
-603168.3169
 20
-1156865.522
 10
-603169.9178
 20
-1156895.1402
 10
-603177.5225
 20
-1156959.9798
 10
-603181.1247
 20
-1157008.8097
 10
-603181.1247
 20
-1157038.8281
 10
-603178.7232
 20
-1157063.6432
 10
-603170.3181
 20
-1157096.0631
 10
-603162.3132
 20
-1157127.6825
 10
-603144.7024
 20
-1157171.7095
 10
-603121.4882
 20
-1157232.1464
 10
-603102.2764
 20
-1157283.3778
 10
-603091.8701
 20
-1157304.1905
 10
-603077.061
 20
-1157350.2187
 10
-603074.2593
 20
-1157385.4403
 10
-603061.8516
 20
-1157428.2665
 10
-603038.2372
 20
-1157472.6937
 10
-603013.8223
 20
-1157506.3143
 10
-602981.0021
 20
-1157538.3338
 10
-602945.7806
 20
-1157569.1528
 10
-602937.7757
 20
-1157577.9581
 10
-602909.3583
 20
-1157604.3743
 10
-602856.9262
 20
-1157653.6044
 10
-602800.0914
 20
-1157684.8235
 10
-602738.0534
 20
-1157706.837
 10
-602686.0217
 20
-1157717.2433
 10
-602633.9898
 20
-1157723.247
 10
-602597.1672
 20
-1157728.4502
 10
-602556.3422
 20
-1157738.0561
 10
-602493.904
 20
-1157746.4613
 10
-602461.4841
 20
-1157746.4613
 10
-602425.0618
 20
-1157748.0622
 10
-602381.0348
 20
-1157742.8591
 10
-602367.5268
 20
-1157741.4786
 10
-602309.7913
 20
-1157752.0647
 10
-602162.5012
 20
-1157754.066
 10
-602088.4558
 20
-1157748.8627
 10
-602078.4497
 20
-1157749.263
 10
-602054.0348
 20
-1157756.8677
 10
-602014.4104
 20
-1157784.0843
 10
-601959.1766
 20
-1157838.5176
 10
-601933.9612
 20
-1157865.334
 10
-601921.1534
 20
-1157906.9595
 10
-601919.9527
 20
-1157952.1872
 10
-601919.5524
 20
-1157999.8164
 10
-601922.3541
 20
-1158034.2375
 10
-601924.7556
 20
-1158072.2607
 10
-601924.7556
 20
-1158096.2754
 10
-601921.5537
 20
-1158119.8899
 10
-601914.3491
 20
-1158152.7099
 10
-601900.7409
 20
-1158211.5459
 10
-601887.933
 20
-1158252.3709
 10
-601877.9269
 20
-1158284.7908
 10
-601859.916
 20
-1158330.4187
 10
-601853.1118
 20
-1158348.4298
 10
-601849.1093
 20
-1158363.2388
 10
-601849.1093
 20
-1158379.6489
 10
-601849.1093
 20
-1158390.8557
 10
-601854.7127
 20
-1158415.2707
 10
-601848.7091
 20
-1158466.9023
 10
-601842.3052
 20
-1158495.3196
 10
-601839.5034
 20
-1158510.5289
 10
-601843.5059
 20
-1158540.5474
 10
-601840.1992
 20
-1158576.2424
 10
-601834.4014
 20
-1158590.1152
 10
-601824.5267
 20
-1158614.0223
 10
-601812.5732
 20
-1158644.6857
 10
-601784.6369
 20
-1158687.367
 10
-601753.9818
 20
-1158700.7786
 10
-601733.3854
 20
-1158711.7953
 10
-601723.0215
 20
-1158716.3172
 10
-601722.9257
 20
-1158716.3713
 10
-601673.4018
 20
-1158744.2721
 10
-601652.5891
 20
-1158774.2904
 10
-601612.1643
 20
-1158831.5255
 10
-601552.1274
 20
-1158862.3443
 10
-601549.3257
 20
-1158868.7483
 10
-601549.3257
 20
-1158893.1633
 10
-601549.3257
 20
-1158900.7679
 10
-601553.7285
 20
-1158916.3774
 10
-601548.9256
 20
-1158937.5904
 10
-601540.1202
 20
-1158960.0041
 10
-601527.7125
 20
-1158994.4252
 10
-601520.1079
 20
-1159034.4496
 10
-601501.6967
 20
-1159079.6774
 10
-601470.4775
 20
-1159113.6982
 10
-601436.4567
 20
-1159140.5146
 10
-601414.4432
 20
-1159160.9271
 10
-601414.8435
 20
-1159171.7338
 10
-601424.8496
 20
-1159188.1437
 10
-601440.0589
 20
-1159204.9541
 10
-601454.0675
 20
-1159222.5649
 10
-601464.0736
 20
-1159241.3764
 10
-601473.2792
 20
-1159266.5918
 10
-601476.4811
 20
-1159292.6078
 10
-601476.0809
 20
-1159312.62
 10
-601470.4775
 20
-1159329.8306
 10
-601464.8742
 20
-1159343.0386
 10
-601459.6709
 20
-1159351.0435
 10
-601452.0663
 20
-1159363.0509
 10
-601435.6563
 20
-1159375.8586
 10
-601411.6415
 20
-1159391.4682
 10
-601396.032
 20
-1159400.2737
 10
-601379.2217
 20
-1159414.6825
 10
-601345.2009
 20
-1159440.2981
 10
-601324.3881
 20
-1159456.7082
 10
-601293.9694
 20
-1159475.9199
 10
-601272.3562
 20
-1159489.128
 10
-601229.1298
 20
-1159518.3459
 10
-601206.716
 20
-1159537.5577
 10
-601173.0955
 20
-1159563.9738
 10
-601129.4688
 20
-1159599.1954
 10
-601099.0501
 20
-1159628.013
 10
-601093.847
 20
-1159633.6164
 10
-601077.0367
 20
-1159655.2297
 10
-601061.4271
 20
-1159670.0388
 10
-601053.022
 20
-1159685.6484
 10
-601048.6192
 20
-1159696.8552
 10
-601042.6156
 20
-1159711.6642
 10
-601042.6156
 20
-1159726.0731
 10
-601047.8189
 20
-1159768.0987
 10
-601049.0195
 20
-1159794.515
 10
-601058.6254
 20
-1159847.7475
 10
-601061.4271
 20
-1159871.362
 10
-601069.99
 20
-1159895.8483
 10
-601080.0487
 20
-1159918.8396
 10
-601087.7125
 20
-1159938.478
 10
-601101.4517
 20
-1159958.6154
 10
-601112.2582
 20
-1159976.2262
 10
-601119.4627
 20
-1159990.2347
 10
-601130.2692
 20
-1160022.2544
 10
-601135.8727
 20
-1160041.8664
 10
-601140.6757
 20
-1160069.8835
 10
-601144.2778
 20
-1160092.6975
 10
-601146.2791
 20
-1160108.3071
 10
-601148.2803
 20
-1160144.7294
 10
-601149.0808
 20
-1160190.3573
 10
-601148.6805
 20
-1160225.1786
 10
-601148.6805
 20
-1160252.3952
 10
-601149.0808
 20
-1160281.2129
 10
-601149.0808
 20
-1160310.0306
 10
-601149.8812
 20
-1160338.4479
 10
-601153.4835
 20
-1160357.2594
 10
-601159.0869
 20
-1160382.4749
 10
-601165.0906
 20
-1160404.0881
 10
-601172.6953
 20
-1160460.1224
 10
-601177.098
 20
-1160490.541
 10
-601175.497
 20
-1160515.7565
 10
-601172.6953
 20
-1160529.3647
 10
-601169.0931
 20
-1160546.9755
 10
-601156.6855
 20
-1160574.5925
 10
-601145.0783
 20
-1160592.6035
 10
-601134.6719
 20
-1160613.4162
 10
-601131.0697
 20
-1160625.8238
 10
-601125.0661
 20
-1160638.6317
 10
-601115.0599
 20
-1160660.6451
 10
-601107.4553
 20
-1160677.4554
 10
-601103.0526
 20
-1160706.6734
 10
-601102.2521
 20
-1160743.8962
 10
-601107.4553
 20
-1160776.7162
 10
-601112.2582
 20
-1160794.7273
 10
-601135.0721
 20
-1160851.1618
 10
-601148.2803
 20
-1160876.3772
 10
-601156.76
 20
-1160897.0676
 10
-601165.4908
 20
-1160923.6061
 10
-601201.9131
 20
-1161015.2623
 10
-601233.9327
 20
-1161079.3014
 10
-601240.4822
 20
-1161095.2128
 10
-601240.4822
 20
-1161099.3136
 10
-601242.7382
 20
-1161112.1215
 10
-601235.9339
 20
-1161125.7298
 10
-601215.0269
 20
-1161155.1077
 10
-601193.868
 20
-1161186.4059
 10
-601194.0636
 20
-1161186.5525
 10
-601190.1306
 20
-1161191.9346
 10
-601171.4945
 20
-1161228.1926
 10
-601156.2852
 20
-1161250.6062
 10
-601145.5162
 20
-1161264.3391
 10
-601143.1528
 20
-1161268.9081
 10
-601140.3144
 20
-1161270.9724
 10
-601120.6843
 20
-1161291.6195
 10
-601119.6099
 20
-1161291.8835
 10
-601095.4479
 20
-1161329.4546
 10
-601061.0269
 20
-1161391.0923
 10
-601038.3367
 20
-1161441.1061
 10
-601032.3472
 20
-1161478.5405
 10
-601024.8603
 20
-1161498.0063
 10
-601006.8919
 20
-1161527.9537
 10
-600972.4522
 20
-1161559.3987
 10
-600941.0074
 20
-1161599.8277
 10
-600902.0757
 20
-1161650.7384
 10
-600857.1545
 20
-1161715.1255
 10
-600852.2855
 20
-1161722.6163
 10
-600837.2899
 20
-1161753.7142
 10
-600826.4833
 20
-1161779.7302
 10
-600811.6743
 20
-1161802.1439
 10
-600792.0622
 20
-1161822.5564
 10
-600766.8468
 20
-1161839.7669
 10
-600747.2348
 20
-1161851.7743
 10
-600705.6093
 20
-1161871.7865
 10
-600679.1932
 20
-1161884.9946
 10
-600656.7795
 20
-1161899.8037
 10
-600624.7598
 20
-1161921.8171
 10
-600602.4949
 20
-1161931.4099
 10
-600601.1035
 20
-1161932.2447
 10
-600570.8024
 20
-1161945.0645
 10
-600562.1719
 20
-1161948.7159
 10
-600560.5623
 20
-1161948.9635
 10
-600546.712
 20
-1161954.237
 10
-600519.4954
 20
-1161959.4402
 10
-600491.1146
 20
-1161960.0596
 10
-600478.3189
 20
-1161962.1922
 10
-600412.4344
 20
-1161959.1974
 10
-600316.6025
 20
-1161953.2079
 10
-600264.1945
 20
-1161947.2184
 10
-600193.8179
 20
-1161929.2499
 10
-600127.9334
 20
-1161914.2762
 10
-600088.8318
 20
-1161899.0032
 10
-600079.6261
 20
-1161896.2015
 10
-600074.8232
 20
-1161892.9994
 10
-600064.0165
 20
-1161888.5968
 10
-600047.0753
 20
-1161882.8313
 10
-600020.7902
 20
-1161870.1855
 10
-599985.5686
 20
-1161851.3741
 10
-599921.1291
 20
-1161814.1513
 10
-599865.8953
 20
-1161784.9333
 10
-599815.0642
 20
-1161757.3165
 10
-599729.632
 20
-1161718.1202
 10
-599660.7528
 20
-1161691.1675
 10
-599594.8683
 20
-1161664.2148
 10
-599534.9733
 20
-1161646.2463
 10
-599472.0837
 20
-1161631.2726
 10
-599422.6704
 20
-1161623.7856
 10
-599361.278
 20
-1161617.7961
 10
-599305.8751
 20
-1161616.2988
 10
-599238.3256
 20
-1161618.4779
 10
-599209.2468
 20
-1161621.3539
 10
-599154.9473
 20
-1161627.6645
 10
-599111.3283
 20
-1161640.2656
 10
-599057.0468
 20
-1161664.4984
 10
-598992.5607
 20
-1161696.4792
 10
-598946.545
 20
-1161727.5038
 10
-598908.109
 20
-1161754.1144
 10
-598857.3682
 20
-1161799.2329
 10
-598814.7185
 20
-1161842.852
 10
-598743.9587
 20
-1161919.4276
 10
-598720.7943
 20
-1161941.4291
 10
-598689.6772
 20
-1161972.7399
 10
-598659.6284
 20
-1161997.9419
 10
-598619.9326
 20
-1162022.2787
 10
-598582.0834
 20
-1162041.561
 10
-598496.7839
 20
-1162068.7019
 10
-598395.9755
 20
-1162090.0266
 10
-598370.7733
 20
-1162094.8733
 10
-598304.8601
 20
-1162118.1368
 10
-598276.7499
 20
-1162132.6764
 10
-598244.7626
 20
-1162153.032
 10
-598213.7446
 20
-1162187.9274
 10
-598178.8493
 20
-1162259.6565
 10
-598156.5552
 20
-1162301.3369
 10
-598151.7086
 20
-1162315.8766
 10
-598153.6472
 20
-1162336.2321
 10
-598163.3404
 20
-1162398.2681
 10
-598166.2483
 20
-1162446.7338
 10
-598117.7826
 20
-1162500.0461
 10
-598074.1635
 20
-1162551.4196
 10
-598002.4344
 20
-1162561.1127
 10
-597977.2323
 20
-1162561.1127
 10
-597970.4471
 20
-1162564.0207
 10
-597942.337
 20
-1162598.9159
 10
-597896.2896
 20
-1162655.066
 10
-597828.6929
 20
-1162727.6125
 10
-597793.2479
 20
-1162764.0154
 10
-597760.6769
 20
-1162803.7713
 10
-597731.4587
 20
-1162843.527
 10
-597710.8624
 20
-1162873.7032
 10
-597698.4088
 20
-1162904.3583
 10
-597677.8124
 20
-1162969.9793
 10
-597667.2747
 20
-1163039.4323
 10
-597663.9218
 20
-1163067.6925
 10
-597663.4428
 20
-1163090.6837
 10
-597656.258
 20
-1163151.9939
 10
-597651.5432
 20
-1163209.5829
 10
-597645.7203
 20
-1163245.3962
 10
-597638.932
 20
-1163281.4495
 10
-597623.687
 20
-1163325.8657
 10
-597606.4435
 20
-1163384.3021
 10
-597592.5529
 20
-1163417.3522
 10
-597584.4101
 20
-1163433.6376
 10
-597571.9565
 20
-1163456.629
 10
-597561.8978
 20
-1163473.3934
 10
-597542.9802
 20
-1163514.9164
 10
-597521.5272
 20
-1163552.582
 10
-597537.4022
 20
-1163565.1498
 10
-597547.135
 20
-1163587.779
 10
-597519.1502
 20
-1163662.8961
 10
-597506.0829
 20
-1163711.6011
 10
-597474.5635
 20
-1163692.15
 10
-597461.9958
 20
-1163737.7907
 10
-597469.9333
 20
-1163738.4521
 10
-597506.3136
 20
-1163729.5225
 10
-597517.5583
 20
-1163705.3792
 10
-597520.535
 20
-1163686.8583
 10
-597571.4673
 20
-1163699.0953
 10
-597580.397
 20
-1163713.6474
 10
-597578.0819
 20
-1163738.783
 10
-597569.9658
 20
-1163768.3777
 10
-597558.5233
 20
-1163802.2039
 10
-597553.7778
 20
-1163816.2326
 10
-597549.2246
 20
-1163827.6615
 10
-597541.3709
 20
-1163845.9393
 10
-597537.4022
 20
-1163858.1764
 10
-597532.6299
 20
-1163869.9815
 10
-597524.5037
 20
-1163892.903
 10
-597498.7068
 20
-1163947.8041
 10
-597497.0532
 20
-1163974.1703
 10
-597497.0532
 20
-1164007.3355
 10
-597494.4073
 20
-1164018.5804
 10
-597464.6417
 20
-1164017.2574
 10
-597461.3343
 20
-1164010.9735
 10
-597449.5179
 20
-1164024.1628
 10
-597447.5753
 20
-1164030.962
 10
-597396.5026
 20
-1164034.1381
 10
-597396.9685
 20
-1164027.8673
 10
-597395.519
 20
-1164007.9969
 10
-597385.6378
 20
-1164003.1445
 10
-597371.7065
 20
-1163961.0333
 10
-597373.0295
 20
-1163900.8405
 10
-597400.1493
 20
-1163867.7675
 10
-597403.1259
 20
-1163819.1503
 10
-597403.2351
 20
-1163801.8968
 10
-597403.4567
 20
-1163766.895
 10
-597408.4175
 20
-1163719.6006
 10
-597415.6495
 20
-1163688.5301
 10
-597417.1857
 20
-1163681.93
 10
-597426.9385
 20
-1163637.9103
 10
-597417.3472
 20
-1163637.5795
 10
-597407.1251
 20
-1163635.3642
 10
-597415.5954
 20
-1163606.4484
 10
-597433.144
 20
-1163577.6102
 10
-597433.8838
 20
-1163576.3945
 10
-597436.0129
 20
-1163573.2895
 10
-597438.1396
 20
-1163570.1882
 10
-597440.7439
 20
-1163566.3903
 10
-597448.7765
 20
-1163554.6761
 10
-597453.5375
 20
-1163547.733
 10
-597458.4342
 20
-1163540.6895
 10
-597472.9099
 20
-1163521.4935
 10
-597497.3839
 20
-1163471.2225
 10
-597529.134
 20
-1163414.3369
 10
-597532.1976
 20
-1163407.4574
 10
-597551.7245
 20
-1163363.6089
 10
-597571.4775
 20
-1163345.9833
 10
-597577.7044
 20
-1163321.076
 10
-597582.0153
 20
-1163309.5803
 10
-597582.4942
 20
-1163287.547
 10
-597586.5993
 20
-1163261.9259
 10
-597603.0906
 20
-1163210.4302
 10
-597607.4015
 20
-1163136.1874
 10
-597606.9225
 20
-1163116.0701
 10
-597605.9645
 20
-1163096.4316
 10
-597606.4435
 20
-1163082.5411
 10
-597605.1719
 20
-1163082.603
 10
-597605.9855
 20
-1163066.1247
 10
-597617.6173
 20
-1163013.7817
 10
-597653.4818
 20
-1162880.9859
 10
-597657.7436
 20
-1162855.1886
 10
-597661.746
 20
-1162834.776
 10
-597646.5367
 20
-1162790.3489
 10
-597605.7117
 20
-1162735.9156
 10
-597557.2821
 20
-1162693.4896
 10
-597526.4632
 20
-1162673.8776
 10
-597514.0556
 20
-1162663.8714
 10
-597482.0361
 20
-1162659.4687
 10
-597462.0237
 20
-1162657.4675
 10
-597444.0127
 20
-1162657.4675
 10
-597431.205
 20
-1162659.8689
 10
-597407.1902
 20
-1162665.0721
 10
-597389.1792
 20
-1162671.4761
 10
-597378.3726
 20
-1162672.6768
 10
-597377.1718
 20
-1162655.4663
 10
-597393.9822
 20
-1162651.8641
 10
-597429.6039
 20
-1162646.2606
 10
-597468.0275
 20
-1162641.0575
 10
-597488.8402
 20
-1162641.4577
 10
-597499.6469
 20
-1162642.2582
 10
-597517.2576
 20
-1162648.2618
 10
-597539.6713
 20
-1162659.4687
 10
-597572.0912
 20
-1162678.2802
 10
-597590.9027
 20
-1162689.8874
 10
-597611.3152
 20
-1162707.0979
 10
-597632.9283
 20
-1162727.1102
 10
-597643.3348
 20
-1162737.9168
 10
-597650.5391
 20
-1162749.1236
 10
-597654.5416
 20
-1162760.3305
 10
-597660.9456
 20
-1162776.7405
 10
-597668.9505
 20
-1162798.754
 10
-597678.1561
 20
-1162823.1689
 10
-597681.7583
 20
-1162834.3758
 10
-597696.1716
 20
-1162815.967
 10
-597703.8861
 20
-1162801.5023
 10
-597757.1983
 20
-1162746.2515
 10
-597817.0411
 20
-1162683.8837
 10
-597849.0607
 20
-1162651.4639
 10
-597873.5158
 20
-1162616.3636
 10
-597901.6259
 20
-1162582.4376
 10
-597921.9053
 20
-1162558.607
 10
-597952.9995
 20
-1162518.4629
 10
-597984.0175
 20
-1162480.6598
 10
-598008.2503
 20
-1162449.6418
 10
-598059.6238
 20
-1162363.373
 10
-598093.5498
 20
-1162305.2141
 10
-598100.335
 20
-1162292.613
 10
-598113.9054
 20
-1162270.3189
 10
-598117.7826
 20
-1162258.6872
 10
-598127.4758
 20
-1162238.3315
 10
-598162.371
 20
-1162177.2648
 10
-598201.2763
 20
-1162124.7414
 10
-598239.6998
 20
-1162089.5198
 10
-598277.7193
 20
-1162067.7325
 10
-598323.277
 20
-1162055.1314
 10
-598364.5763
 20
-1162048.6949
 10
-598457.0328
 20
-1162035.887
 10
-598517.8701
 20
-1162023.4794
 10
-598567.5004
 20
-1162011.472
 10
-598628.3377
 20
-1161977.051
 10
-598667.962
 20
-1161943.0301
 10
-598687.1737
 20
-1161924.2186
 10
-598698.401
 20
-1161913.6117
 10
-598800.8433
 20
-1161806.9469
 10
-598877.6903
 20
-1161735.7033
 10
-598955.2689
 20
-1161678.0688
 10
-599026.0288
 20
-1161639.2963
 10
-599097.4249
 20
-1161608.0251
 10
-599148.6562
 20
-1161587.2124
 10
-599174.3336
 20
-1161582.1069
 10
-599205.0411
 20
-1161580.8218
 10
-599216.0327
 20
-1161580.3618
 10
-599216.0156
 20
-1161580.5853
 10
-599216.1268
 20
-1161580.5829
 10
-599216.0327
 20
-1161580.3618
 10
-599219.5621
 20
-1161580.5089
 97
0
 75
0
 76
1
 98
0
  0
HATCH
  5
2001D
100
AcDbEntity
  8
plocha AZZU
100
AcDbHatch
 10
0
 20
0
 30
0
210
0
220
0
230
1
  2
SOLID
 70
1
 71
0
 91
1
 92
2
 72
0
 73
1
 93
256
 10
-593303.0764
 20
-1156225.3837
 10
-593337.2078
 20
-1156248.9318
 10
-593354.9349
 20
-1156264.013
 10
-593389.0662
 20
-1156290.2068
 10
-593414.7308
 20
-1156319.8402
 10
-593432.7225
 20
-1156334.1277
 10
-593449.3913
 20
-1156342.3297
 10
-593472.4101
 20
-1156347.0923
 10
-593507.5997
 20
-1156337.0381
 10
-593520.0353
 20
-1156335.7153
 10
-593508.3934
 20
-1156345.5048
 10
-593497.0164
 20
-1156353.9715
 10
-593488.2852
 20
-1156365.3486
 10
-593484.5811
 20
-1156377.5195
 10
-593483.5222
 20
-1156411.6508
 10
-593483.4463
 20
-1156414.0796
 10
-593482.1998
 20
-1156453.7197
 10
-593485.1102
 20
-1156486.528
 10
-593485.1102
 20
-1156505.3135
 10
-593486.9622
 20
-1156523.3052
 10
-593492.254
 20
-1156563.2573
 10
-593496.4872
 20
-1156596.5949
 10
-593498.8685
 20
-1156619.6137
 10
-593498.3394
 20
-1156643.1615
 10
-593495.6935
 20
-1156663.0054
 10
-593486.9622
 20
-1156682.8493
 10
-593484.0518
 20
-1156689.4639
 10
-593477.9664
 20
-1156709.0431
 10
-593474.2623
 20
-1156718.0389
 10
-593461.5623
 20
-1156738.941
 10
-593450.4497
 20
-1156751.1119
 10
-593443.0413
 20
-1156763.5473
 10
-593435.8976
 20
-1156773.8661
 10
-593431.9288
 20
-1156778.8932
 10
-593422.6683
 20
-1156785.5078
 10
-593402.2955
 20
-1156804.0286
 10
-593381.3933
 20
-1156832.3391
 10
-593367.3704
 20
-1156860.1205
 10
-593361.0204
 20
-1156874.9371
 10
-593347.262
 20
-1156887.6372
 10
-593335.3557
 20
-1156896.8976
 10
-593317.8932
 20
-1156906.9518
 10
-593295.1389
 20
-1156915.9477
 10
-593282.1743
 20
-1156924.6789
 10
-593261.5368
 20
-1156935.5268
 10
-593244.3389
 20
-1156940.5539
 10
-593229.5222
 20
-1156941.0831
 10
-593218.6742
 20
-1156940.2894
 10
-593214.1763
 20
-1156936.056
 10
-593203.5446
 20
-1156934.9742
 10
-593201.7409
 20
-1156938.7018
 10
-593165.2283
 20
-1156947.4331
 10
-593123.1594
 20
-1156949.8144
 10
-593093.7907
 20
-1156953.7831
 10
-593074.7405
 20
-1156956.1644
 10
-593057.278
 20
-1156964.631
 10
-593052.7802
 20
-1156969.9228
 10
-593028.4384
 20
-1157006.6999
 10
-593020.7655
 20
-1157024.1625
 10
-593018.6489
 20
-1157038.7146
 10
-593017.3259
 20
-1157051.15
 10
-593023.9406
 20
-1157067.8187
 10
-593039.2863
 20
-1157088.1917
 10
-593059.4276
 20
-1157122.0877
 10
-593066.5384
 20
-1157128.4085
 10
-593069.9781
 20
-1157132.1127
 10
-593079.7676
 20
-1157143.2251
 10
-593096.9656
 20
-1157166.7732
 10
-593114.1636
 20
-1157185.5586
 10
-593189.3054
 20
-1157219.1607
 10
-593235.8721
 20
-1157241.6503
 10
-593271.591
 20
-1157262.288
 10
-593312.589
 20
-1157285.0758
 10
-593312.6014
 20
-1157285.0421
 10
-593314.3325
 20
-1157286.0448
 10
-593350.9661
 20
-1157307.2672
 10
-593386.1558
 20
-1157327.3755
 10
-593403.0891
 20
-1157339.2818
 10
-593421.3455
 20
-1157356.7444
 10
-593436.4267
 20
-1157372.8838
 10
-593440.9247
 20
-1157382.6735
 10
-593452.0372
 20
-1157399.0778
 10
-593469.2352
 20
-1157419.7153
 10
-593482.1998
 20
-1157439.2945
 10
-593497.8102
 20
-1157458.8738
 10
-593502.5728
 20
-1157467.8696
 10
-593512.0977
 20
-1157489.0362
 10
-593521.0936
 20
-1157515.2301
 10
-593529.8248
 20
-1157546.7155
 10
-593535.9102
 20
-1157573.174
 10
-593542.5248
 20
-1157596.9865
 10
-593549.6686
 20
-1157620.0053
 10
-593557.3416
 20
-1157642.7594
 10
-593567.1311
 20
-1157668.9534
 10
-593581.9479
 20
-1157696.47
 10
-593616.3438
 20
-1157740.1264
 10
-593638.3042
 20
-1157767.1139
 10
-593662.3814
 20
-1157798.0702
 10
-593679.5794
 20
-1157816.3265
 10
-593690.1626
 20
-1157825.3224
 10
-593702.8627
 20
-1157840.6683
 10
-593724.294
 20
-1157873.2121
 10
-593762.1295
 20
-1157923.7475
 10
-593776.417
 20
-1157936.183
 10
-593790.9691
 20
-1157941.2101
 10
-593803.14
 20
-1157933.5372
 10
-593822.4545
 20
-1157904.1683
 10
-593851.5588
 20
-1157864.7454
 10
-593865.5818
 20
-1157846.7537
 10
-593875.1068
 20
-1157835.9057
 10
-593881.986
 20
-1157815.2682
 10
-593890.7172
 20
-1157791.4556
 10
-593899.4485
 20
-1157767.1139
 10
-593920.8798
 20
-1157737.2159
 10
-593959.509
 20
-1157700.9679
 10
-594009.8887
 20
-1157658.9728
 10
-594037.5297
 20
-1157633.458
 10
-594075.7872
 20
-1157593.5969
 10
-594112.2121
 20
-1157556.943
 10
-594145.4297
 20
-1157528.078
 10
-594182.0836
 20
-1157500.3585
 10
-594225.8392
 20
-1157475.388
 10
-594281.9655
 20
-1157450.4175
 10
-594366.2376
 20
-1157422.6056
 10
-594454.2388
 20
-1157392.2294
 10
-594510.1359
 20
-1157379.1716
 10
-594527.5466
 20
-1157377.797
 10
-594553.8916
 20
-1157378.4842
 10
-594563.9714
 20
-1157379.6297
 10
-594564.4296
 20
-1157418.3454
 10
-594511.0523
 20
-1157424.3017
 10
-594479.6675
 20
-1157430.2579
 10
-594435.9119
 20
-1157443.774
 10
-594377.9435
 20
-1157461.0078
 10
-594356.1896
 20
-1157471.0354
 10
-594318.1611
 20
-1157489.8205
 10
-594268.9075
 20
-1157519.1437
 10
-594193.3088
 20
-1157569.7718
 10
-594141.7643
 20
-1157608.0293
 10
-594049.6713
 20
-1157676.5263
 10
-594026.978
 20
-1157693.0304
 10
-593983.057
 20
-1157723.4576
 10
-593948.3965
 20
-1157753.3556
 10
-593927.2299
 20
-1157788.2806
 10
-593917.1757
 20
-1157820.8244
 10
-593904.4756
 20
-1157849.9286
 10
-593884.3673
 20
-1157881.1496
 10
-593863.2005
 20
-1157915.2809
 10
-593845.738
 20
-1157939.8872
 10
-593831.1858
 20
-1157958.1434
 10
-593824.3067
 20
-1157967.9331
 10
-593806.8442
 20
-1157977.1935
 10
-593786.4712
 20
-1157978.781
 10
-593762.3941
 20
-1157973.4893
 10
-593740.6981
 20
-1157963.6998
 10
-593722.7064
 20
-1157946.2372
 10
-593700.746
 20
-1157918.4559
 10
-593680.9022
 20
-1157883.5309
 10
-593668.1072
 20
-1157860.8301
 10
-593656.5606
 20
-1157845.1662
 10
-593596.7645
 20
-1157766.5847
 10
-593559.9874
 20
-1157721.3409
 10
-593543.0541
 20
-1157700.4388
 10
-593533.2644
 20
-1157680.8596
 10
-593529.5232
 20
-1157670.3839
 10
-593516.5956
 20
-1157634.822
 10
-593497.281
 20
-1157555.9759
 10
-593477.1727
 20
-1157501.2071
 10
-593459.181
 20
-1157472.103
 10
-593430.6059
 20
-1157421.5673
 10
-593407.5871
 20
-1157391.4048
 10
-593366.5766
 20
-1157351.4526
 10
-593326.889
 20
-1157326.0527
 10
-593306.2575
 20
-1157316.2798
 10
-593273.9723
 20
-1157304.6213
 10
-593224.4951
 20
-1157283.4546
 10
-593170.7845
 20
-1157257.79
 10
-593139.8282
 20
-1157245.8837
 10
-593115.4865
 20
-1157232.9191
 10
-593101.4635
 20
-1157220.7482
 10
-593060.1885
 20
-1157167.5668
 10
-593030.0259
 20
-1157135.2876
 10
-593002.2446
 20
-1157101.6855
 10
-592973.9341
 20
-1157060.4104
 10
-592965.7321
 20
-1157036.0687
 10
-592968.1133
 20
-1157013.3145
 10
-592981.0779
 20
-1156986.8561
 10
-593017.8551
 20
-1156947.4331
 10
-593033.2009
 20
-1156934.7331
 10
-593055.1614
 20
-1156923.6206
 10
-593085.8532
 20
-1156915.4184
 10
-593119.9844
 20
-1156914.3602
 10
-593142.7387
 20
-1156909.8622
 10
-593162.5825
 20
-1156902.7185
 10
-593180.8387
 20
-1156902.7185
 10
-593197.7721
 20
-1156901.9247
 10
-593209.6784
 20
-1156904.0414
 10
-593217.6159
 20
-1156905.8934
 10
-593206.4927
 20
-1156928.8815
 10
-593216.5576
 20
-1156931.2934
 10
-593229.7867
 20
-1156913.3017
 10
-593260.4785
 20
-1156906.158
 10
-593293.5513
 20
-1156885.2559
 10
-593322.3911
 20
-1156870.1747
 10
-593327.9473
 20
-1156865.4122
 10
-593345.4099
 20
-1156828.3704
 10
-593348.3203
 20
-1156813.0245
 10
-593355.1994
 20
-1156797.1495
 10
-593360.4912
 20
-1156785.7723
 10
-593379.0121
 20
-1156770.9557
 10
-593396.7391
 20
-1156759.314
 10
-593403.0551
 20
-1156756.3314
 10
-593406.2642
 20
-1156754.816
 10
-593407.0057
 20
-1156756.2034
 10
-593423.1975
 20
-1156747.9369
 10
-593436.4267
 20
-1156730.4744
 10
-593464.4726
 20
-1156689.4639
 10
-593469.7643
 20
-1156669.62
 10
-593471.881
 20
-1156639.9867
 10
-593467.383
 20
-1156606.3844
 10
-593467.1185
 20
-1156597.6532
 10
-593459.4455
 20
-1156541.8261
 10
-593449.656
 20
-1156489.1739
 10
-593448.0684
 20
-1156458.2175
 10
-593454.1539
 20
-1156420.9112
 10
-593454.1539
 20
-1156411.3862
 10
-593455.2122
 20
-1156402.6549
 10
-593455.2122
 20
-1156388.3674
 10
-593449.656
 20
-1156380.959
 10
-593436.6914
 20
-1156368.2591
 10
-593420.5517
 20
-1156360.0569
 10
-593408.3809
 20
-1156346.2986
 10
-593368.4287
 20
-1156318.2527
 10
-593321.8619
 20
-1156279.888
 10
-593278.9994
 20
-1156242.5817
 10
-593245.1326
 20
-1156212.4191
 10
-593234.5492
 20
-1156197.0732
 10
-593222.643
 20
-1156180.4045
 10
-593212.0596
 20
-1156168.4982
 10
-593184.8075
 20
-1156160.2961
 10
-593166.2866
 20
-1156161.8836
 10
-593144.8553
 20
-1156169.8211
 10
-593141.7862
 20
-1156171.3557
 10
-593136.5593
 20
-1156176.2369
 10
-593119.5952
 20
-1156171.2891
 10
-593122.8949
 20
-1156169.292
 10
-593119.7199
 20
-1156163.4711
 10
-593134.272
 20
-1156149.4481
 10
-593149.6179
 20
-1156141.246
 10
-593169.4616
 20
-1156135.9544
 10
-593184.8075
 20
-1156135.9544
 10
-593203.593
 20
-1156140.1877
 10
-593223.7013
 20
-1156153.417
 10
-593250.1597
 20
-1156179.0815
 10
-593273.4431
 20
-1156199.4545
 10
-593303.0764
 20
-1156225.3837
 97
0
 75
0
 76
1
 98
0
  0
HATCH
  5
2001E
100
AcDbEntity
  8
plocha AZZU
100
AcDbHatch
 10
0
 20
0
 30
0
210
0
220
0
230
1
  2
SOLID
 70
1
 71
0
 91
1
 92
2
 72
0
 73
1
 93
98
 10
-603709.9847
 20
-1156006.4048
 10
-603711.0491
 20
-1156004.9952
 10
-603727.4592
 20
-1155982.5814
 10
-603749.017
 20
-1155965.8266
 10
-603751.4738
 20
-1155963.3698
 10
-603753.5272
 20
-1155962.3212
 10
-603789.0968
 20
-1155944.1579
 10
-603830.3221
 20
-1155932.9512
 10
-603867.9451
 20
-1155927.3476
 10
-603911.5718
 20
-1155925.7467
 10
-603992.4213
 20
-1155931.7504
 10
-604042.8522
 20
-1155932.5508
 10
-604058.4617
 20
-1155931.3502
 10
-604084.8779
 20
-1155924.5459
 10
-604112.4948
 20
-1155923.7455
 10
-604116.097
 20
-1155932.1507
 10
-604124.1019
 20
-1155928.9487
 10
-604140.512
 20
-1155926.5472
 10
-604148.5169
 20
-1155953.3636
 10
-604122.501
 20
-1155963.3698
 10
-604100.4874
 20
-1155973.3759
 10
-604091.6821
 20
-1155974.9769
 10
-604079.2745
 20
-1155976.9781
 10
-604049.6563
 20
-1155974.5766
 10
-604028.0431
 20
-1155972.9756
 10
-603958.4388
 20
-1155970.3561
 10
-603875.9501
 20
-1155971.7749
 10
-603839.9279
 20
-1155975.7773
 10
-603827.9207
 20
-1155976.9781
 10
-603788.2963
 20
-1155994.5889
 10
-603759.4788
 20
-1156017.4029
 10
-603750.6733
 20
-1156031.0111
 10
-603733.0625
 20
-1156060.6293
 10
-603719.8544
 20
-1156079.4408
 10
-603705.4457
 20
-1156102.2548
 10
-603687.8349
 20
-1156131.4726
 10
-603665.0209
 20
-1156150.6844
 10
-603633.0012
 20
-1156177.9011
 10
-603599.3807
 20
-1156199.1141
 10
-603580.169
 20
-1156201.1153
 10
-603557.355
 20
-1156198.7138
 10
-603527.3366
 20
-1156187.507
 10
-603484.5104
 20
-1156167.0944
 10
-603466.4994
 20
-1156161.491
 10
-603460.3936
 20
-1156160.8232
 10
-603450.4193
 20
-1156159.7322
 10
-603426.4748
 20
-1156157.8888
 10
-603402.0599
 20
-1156159.0896
 10
-603388.0513
 20
-1156163.092
 10
-603370.4406
 20
-1156173.8987
 10
-603343.6242
 20
-1156195.1116
 10
-603330.0159
 20
-1156214.7236
 10
-603312.0048
 20
-1156259.1509
 10
-603300.7979
 20
-1156317.5866
 10
-603287.1896
 20
-1156400.0371
 10
-603268.7783
 20
-1156472.8816
 10
-603247.9656
 20
-1156528.1154
 10
-603232.7563
 20
-1156548.1277
 10
-603231.9558
 20
-1156555.3321
 10
-603221.5494
 20
-1156594.9563
 10
-603190.3302
 20
-1156659.7961
 10
-603173.5201
 20
-1156689.4142
 10
-603172.5018
 20
-1156691.9864
 10
-603124.9009
 20
-1156726.061
 10
-603125.0904
 20
-1156715.8304
 10
-603132.695
 20
-1156676.2062
 10
-603137.4979
 20
-1156662.5978
 10
-603145.9031
 20
-1156642.5856
 10
-603201.9374
 20
-1156547.3272
 10
-603204.7392
 20
-1156538.1216
 10
-603215.5457
 20
-1156504.9013
 10
-603230.3548
 20
-1156462.075
 10
-603240.361
 20
-1156413.6454
 10
-603243.5629
 20
-1156390.0309
 10
-603250.3671
 20
-1156349.206
 10
-603262.7747
 20
-1156294.3724
 10
-603273.5812
 20
-1156253.9476
 10
-603285.5886
 20
-1156209.9207
 10
-603304.4001
 20
-1156159.0896
 10
-603317.208
 20
-1156141.4788
 10
-603326.0134
 20
-1156134.6747
 10
-603352.8298
 20
-1156127.8705
 10
-603382.4479
 20
-1156121.4664
 10
-603420.4712
 20
-1156118.6648
 10
-603443.6069
 20
-1156119.396
 10
-603452.4435
 20
-1156119.6753
 10
-603503.322
 20
-1156127.8705
 10
-603552.9523
 20
-1156134.2743
 10
-603582.5704
 20
-1156135.8753
 10
-603619.393
 20
-1156123.4678
 10
-603644.2081
 20
-1156101.054
 10
-603675.4273
 20
-1156058.628
 10
-603687.7841
 20
-1156038.4294
 10
-603696.24
 20
-1156024.6072
 10
-603708.7289
 20
-1156008.0677
 10
-603703.7633
 20
-1156015.4656
 10
-603710.3435
 20
-1156006.0092
 10
-603709.9847
 20
-1156006.4048
 97
0
 75
0
 76
1
 98
0
  0
HATCH
  5
2001F
100
AcDbEntity
  8
plocha AZZU
100
AcDbHatch
 10
0
 20
0
 30
0
210
0
220
0
230
1
  2
SOLID
 70
1
 71
0
 91
1
 92
2
 72
0
 73
1
 93
4
 10
-603709.9847
 20
-1156006.4048
 10
-603708.7289
 20
-1156008.0677
 10
-603709.4481
 20
-1156006.9964
 10
-603709.9847
 20
-1156006.4048
 97
0
 75
0
 76
1
 98
0
  0
ENDSEC
  0
SECTION
  2
OBJECTS
  0
DICTIONARY
  5
C
330
0
100
AcDbDictionary
281
     1
  3
ACAD_GROUP
350
D
  3
ACAD_LAYOUT
350
1A
  3
ACAD_MLEADERSTYLE
350
43
  3
ACAD_PLOTSETTINGS
350
19
  3
ACAD_PLOTSTYLENAME
350
E
  3
ACAD_TABLESTYLE
350
42
  0
DICTIONARY
  5
D
102
{ACAD_REACTORS
330
C
102
}
330
C
100
AcDbDictionary
281
     1
  0
DICTIONARY
  5
1A
102
{ACAD_REACTORS
330
C
102
}
330
C
100
AcDbDictionary
281
     1
  3
Layout1
350
1E
  3
Model
350
22
  0
DICTIONARY
  5
43
102
{ACAD_REACTORS
330
C
102
}
330
C
100
AcDbDictionary
281
     1
  0
DICTIONARY
  5
19
102
{ACAD_REACTORS
330
C
102
}
330
C
100
AcDbDictionary
281
     1
  0
ACDBDICTIONARYWDFLT
  5
E
102
{ACAD_REACTORS
330
C
102
}
330
C
100
AcDbDictionary
281
     1
  3
Normal
350
F
100
AcDbDictionaryWithDefault
340
F
  0
DICTIONARY
  5
42
102
{ACAD_REACTORS
330
C
102
}
330
C
100
AcDbDictionary
281
     1
  0
LAYOUT
  5
1E
102
{ACAD_REACTORS
330
1A
102
}
330
1A
100
AcDbPlotSettings
  1

  2
none_device
  4

  6

 40
0.0
 41
0.0
 42
0.0
 43
0.0
 44
0.0
 45
0.0
 46
0.0
 47
0.0
 48
0.0
 49
0.0
140
0.0
141
0.0
142
1.0
143
1.0
 70
   688
 72
     0
 73
     0
 74
     5
  7

 75
    16
 76
     0
 77
     2
 78
   300
147
1.0
148
0.0
149
0.0
100
AcDbLayout
  1
Layout1
 70
     1
 71
     1
 10
0.0
 20
0.0
 11
12.0
 21
9.0
 12
0.0
 22
0.0
 32
0.0
 14
1.000000000000000E+20
 24
1.000000000000000E+20
 34
1.000000000000000E+20
 15
-1.000000000000000E+20
 25
-1.000000000000000E+20
 35
-1.000000000000000E+20
146
0.0
 13
0.0
 23
0.0
 33
0.0
 16
1.0
 26
0.0
 36
0.0
 17
0.0
 27
1.0
 37
0.0
 76
     0
330
1B
  0
LAYOUT
  5
22
102
{ACAD_REACTORS
330
1A
102
}
330
1A
100
AcDbPlotSettings
  1

  2
none_device
  4

  6

 40
0.0
 41
0.0
 42
0.0
 43
0.0
 44
0.0
 45
0.0
 46
0.0
 47
0.0
 48
0.0
 49
0.0
140
0.0
141
0.0
142
1.0
143
1.0
 70
  1712
 72
     0
 73
     0
 74
     0
  7

 75
     0
 76
     0
 77
     2
 78
   300
147
1.0
148
0.0
149
0.0
100
AcDbLayout
  1
Model
 70
     1
 71
     0
 10
0.0
 20
0.0
 11
12.0
 21
9.0
 12
0.0
 22
0.0
 32
0.0
 14
30.0
 24
49.75
 34
0.0
 15
130.5
 25
163.1318914119703
 35
0.0
146
0.0
 13
0.0
 23
0.0
 33
0.0
 16
1.0
 26
0.0
 36
0.0
 17
0.0
 27
1.0
 37
0.0
 76
     0
330
1F
331
29
  0
ENDSEC
  0
EOF
