  0
SECTION
  2
HEADER
  9
$ACADVER
  1
AC1018
  9
$ACADMAINTVER
 70
     0
  9
$DWGCODEPAGE
  3
ANSI_1252
  9
$EXTMIN
 10
16.5113712734916
 20
49.1168394253258
 30
0.0
  9
$EXTMAX
 10
16.7188587328467
 20
49.2411974670524
 30
0.0
  9
$LIMMIN
 10
0.0
 20
0.0
  9
$LIMMAX
 10
12.0
 20
9.0
  9
$ORTHOMODE
 70
     0
  9
$REGENMODE
 70
     1
  9
$FILLMODE
 70
     1
  9
$QTEXTMODE
 70
     0
  9
$MIRRTEXT
 70
     1
  9
$LTSCALE
 40
1.0
  9
$ATTMODE
 70
     1
  9
$TEXTSIZE
 40
0.2
  9
$TRACEWID
 40
0.05
  9
$TEXTSTYLE
  7
Standard
  9
$CLAYER
  8
0
  9
$CELTYPE
  6
ByLayer
  9
$CECOLOR
 62
   256
  9
$CELTSCALE
 40
1.0
  9
$DISPSILH
 70
     0
  9
$LUNITS
 70
     2
  9
$LUPREC
 70
     4
  9
$SKETCHINC
 40
0.1
  9
$FILLETRAD
 40
0.5
  9
$AUNITS
 70
     0
  9
$AUPREC
 70
     0
  9
$MENU
  1
.
  9
$ELEVATION
 40
0.0
  9
$PELEVATION
 40
0.0
  9
$THICKNESS
 40
0.0
  9
$LIMCHECK
 70
     0
  9
$CHAMFERA
 40
0.5
  9
$CHAMFERB
 40
0.5
  9
$CHAMFERC
 40
1.0
  9
$CHAMFERD
 40
0.0
  9
$SKPOLY
 70
     0
  9
$ANGBASE
 50
0.0
  9
$ANGDIR
 70
     0
  9
$PDMODE
 70
     0
  9
$PDSIZE
 40
0.0
  9
$PLINEWID
 40
0.0
  9
$SPLFRAME
 70
     0
  9
$SPLINETYPE
 70
     6
  9
$SPLINESEGS
 70
     8
  9
$HANDSEED
  5
00020021
  9
$SURFTAB1
 70
     6
  9
$SURFTAB2
 70
     6
  9
$SURFTYPE
 70
     6
  9
$SURFU
 70
     6
  9
$SURFV
 70
     6
  9
$UCSBASE
  2

  9
$UCSNAME
  2

  9
$UCSORG
 10
0.0
 20
0.0
 30
0.0
  9
$UCSXDIR
 10
1.0
 20
0.0
 30
0.0
  9
$UCSYDIR
 10
0.0
 20
1.0
 30
0.0
  9
$UCSORTHOREF
  2

  9
$UCSORTHOVIEW
 70
     0
  9
$UCSORGTOP
 10
0.0
 20
0.0
 30
0.0
  9
$UCSORGBOTTOM
 10
0.0
 20
0.0
 30
0.0
  9
$UCSORGLEFT
 10
0.0
 20
0.0
 30
0.0
  9
$UCSORGRIGHT
 10
0.0
 20
0.0
 30
0.0
  9
$UCSORGFRONT
 10
0.0
 20
0.0
 30
0.0
  9
$UCSORGBACK
 10
0.0
 20
0.0
 30
0.0
  9
$PUCSBASE
  2

  9
$PUCSNAME
  2

  9
$PUCSORG
 10
0.0
 20
0.0
 30
0.0
  9
$PUCSXDIR
 10
1.0
 20
0.0
 30
0.0
  9
$PUCSYDIR
 10
0.0
 20
1.0
 30
0.0
  9
$PUCSORTHOREF
  2

  9
$PUCSORTHOVIEW
 70
     0
  9
$PUCSORGTOP
 10
0.0
 20
0.0
 30
0.0
  9
$PUCSORGBOTTOM
 10
0.0
 20
0.0
 30
0.0
  9
$PUCSORGLEFT
 10
0.0
 20
0.0
 30
0.0
  9
$PUCSORGRIGHT
 10
0.0
 20
0.0
 30
0.0
  9
$PUCSORGFRONT
 10
0.0
 20
0.0
 30
0.0
  9
$PUCSORGBACK
 10
0.0
 20
0.0
 30
0.0
  9
$WORLDVIEW
 70
     1
  9
$SHADEDGE
 70
     3
  9
$SHADEDIF
 70
    70
  9
$TILEMODE
 70
     1
  9
$MAXACTVP
 70
    64
  9
$PINSBASE
 10
0.0
 20
0.0
 30
0.0
  9
$PLIMCHECK
 70
     0
  9
$PEXTMIN
 10
1.000000000000000E+20
 20
1.000000000000000E+20
 30
1.000000000000000E+20
  9
$PEXTMAX
 10
-1.000000000000000E+20
 20
-1.000000000000000E+20
 30
-1.000000000000000E+20
  9
$PLIMMIN
 10
0.0
 20
0.0
  9
$PLIMMAX
 10
12.0
 20
9.0
  9
$UNITMODE
 70
     0
  9
$VISRETAIN
 70
     1
  9
$PLINEGEN
 70
     0
  9
$PSLTSCALE
 70
     1
  9
$TREEDEPTH
 70
  3020
  9
$CMLSTYLE
  2
Standard
  9
$CMLJUST
 70
     0
  9
$CMLSCALE
 40
1.0
  9
$PROXYGRAPHICS
 70
     1
  9
$MEASUREMENT
 70
     0
  9
$CELWEIGHT
370
    -1
  9
$ENDCAPS
280
     0
  9
$JOINSTYLE
280
     0
  9
$LWDISPLAY
290
     0
  9
$INSUNITS
 70
     1
  9
$HYPERLINKBASE
  1

  9
$STYLESHEET
  1

  9
$XEDIT
290
     1
  9
$CEPSNTYPE
380
     0
  9
$PSTYLEMODE
290
     1
  9
$EXTNAMES
290
     1
  9
$PSVPSCALE
 40
0.0
  9
$OLESTARTUP
290
     0
  9
$SORTENTS
280
   127
  9
$INDEXCTL
280
     0
  9
$HIDETEXT
280
     1
  9
$XCLIPFRAME
290
     0
  9
$HALOGAP
280
     0
  9
$OBSCOLOR
 70
   257
  9
$OBSLTYPE
280
     0
  9
$INTERSECTIONDISPLAY
280
     0
  9
$INTERSECTIONCOLOR
 70
   257
  9
$DIMASSOC
280
     2
  9
$PROJECTNAME
  1

  0
ENDSEC
  0
SECTION
  2
CLASSES
  0
CLASS
  1
ACDBDICTIONARYWDFLT
  2
AcDbDictionaryWithDefault
  3
ObjectDBX Classes
 90
        0
 91
        4
280
     0
281
     0
  0
ENDSEC
  0
SECTION
  2
TABLES
  0
TABLE
  2
VPORT
  5
8
330
0
100
AcDbSymbolTable
 70
     1
  0
VPORT
  5
29
330
8
100
AcDbSymbolTableRecord
100
AcDbViewportTableRecord
  2
*Active
 70
     0
 10
0.0
 20
0.0
 11
1.0
 21
1.0
 12
80.25
 22
106.4409457059851
 13
0.0
 23
0.0
 14
0.5
 24
0.5
 15
0.5
 25
0.5
 16
0.0
 26
0.0
 36
1.0
 17
0.0
 27
0.0
 37
0.0
 40
113.3818914119703
 41
0.8863849310366128
 42
50.0
 43
0.0
 44
0.0
 50
0.0
 51
0.0
 71
     0
 72
  1000
 73
     1
 74
     3
 75
     0
 76
     0
 77
     0
 78
     0
281
     0
 65
     1
110
0.0
120
0.0
130
0.0
111
1.0
121
0.0
131
0.0
112
0.0
122
1.0
132
0.0
 79
     0
146
0.0
  0
ENDTAB
  0
TABLE
  2
LTYPE
  5
5
330
0
100
AcDbSymbolTable
 70
     1
  0
LTYPE
  5
14
330
5
100
AcDbSymbolTableRecord
100
AcDbLinetypeTableRecord
  2
ByBlock
 70
     0
  3

 72
    65
 73
     0
 40
0.0
  0
LTYPE
  5
15
330
5
100
AcDbSymbolTableRecord
100
AcDbLinetypeTableRecord
  2
ByLayer
 70
     0
  3

 72
    65
 73
     0
 40
0.0
  0
LTYPE
  5
16
330
5
100
AcDbSymbolTableRecord
100
AcDbLinetypeTableRecord
  2
Continuous
 70
     0
  3
Solid line
 72
    65
 73
     0
 40
0.0
  0
ENDTAB
  0
TABLE
  2
LAYER
  5
2
330
0
100
AcDbSymbolTable
 70
     1
  0
LAYER
  5
10
330
2
100
AcDbSymbolTableRecord
100
AcDbLayerTableRecord
  2
0
 70
     0
 62
     7
  6
Continuous
370
    -3
390
F
  0
LAYER
  5
20020
330
2
100
AcDbSymbolTableRecord
100
AcDbLayerTableRecord
  2
plocha AZZU
 70
     0
 62
     7
  6
Continuous
370
    -3
390
F
  0
ENDTAB
  0
TABLE
  2
STYLE
  5
3
330
0
100
AcDbSymbolTable
 70
     1
  0
STYLE
  5
11
330
3
100
AcDbSymbolTableRecord
100
AcDbTextStyleTableRecord
  2
Standard
 70
     0
 40
0.0
 41
1.0
 50
0.0
 71
     0
 42
0.2
  3
txt
  4

  0
ENDTAB
  0
TABLE
  2
VIEW
  5
6
330
0
100
AcDbSymbolTable
 70
     0
  0
ENDTAB
  0
TABLE
  2
UCS
  5
7
330
0
100
AcDbSymbolTable
 70
     0
  0
ENDTAB
  0
TABLE
  2
APPID
  5
9
330
0
100
AcDbSymbolTable
 70
     1
  0
APPID
  5
12
330
9
100
AcDbSymbolTableRecord
100
AcDbRegAppTableRecord
  2
ACAD
 70
     0
  0
ENDTAB
  0
TABLE
  2
DIMSTYLE
  5
A
330
0
100
AcDbSymbolTable
 70
     1
100
AcDbDimStyleTable
  0
DIMSTYLE
105
27
330
A
100
AcDbSymbolTableRecord
100
AcDbDimStyleTableRecord
  2
Standard
 70
     0
340
11
  0
ENDTAB
  0
TABLE
  2
BLOCK_RECORD
  5
1
330
0
100
AcDbSymbolTable
 70
     1
  0
BLOCK_RECORD
  5
1F
330
1
100
AcDbSymbolTableRecord
100
AcDbBlockTableRecord
  2
*Model_Space
340
22
  0
BLOCK_RECORD
  5
1B
330
1
100
AcDbSymbolTableRecord
100
AcDbBlockTableRecord
  2
*Paper_Space
340
1E
  0
ENDTAB
  0
ENDSEC
  0
SECTION
  2
BLOCKS
  0
BLOCK
  5
20
330
1F
100
AcDbEntity
  8
0
100
AcDbBlockBegin
  2
*Model_Space
 70
     0
 10
0.0
 20
0.0
 30
0.0
  3
*Model_Space
  1

  0
ENDBLK
  5
21
330
1F
100
AcDbEntity
  8
0
100
AcDbBlockEnd
  0
BLOCK
  5
1C
330
1B
100
AcDbEntity
 67
     1
  8
0
100
AcDbBlockBegin
  2
*Paper_Space
 70
     0
 10
0.0
 20
0.0
 30
0.0
  3
*Paper_Space
  1

  0
ENDBLK
  5
1D
330
1B
100
AcDbEntity
 67
     1
  8
0
100
AcDbBlockEnd
  0
ENDSEC
  0
SECTION
  2
ENTITIES
  0
HATCH
  5
20000
100
AcDbEntity
  8
plocha AZZU
100
AcDbHatch
 10
0
 20
0
 30
0
210
0
220
0
230
1
  2
SOLID
 70
1
 71
0
 91
1
 92
2
 72
0
 73
1
 93
44
 10
16.7183422274136
 20
49.2140843099978
 10
16.7186407242366
 20
49.214540648213
 10
16.7188587328467
 20
49.2149271074905
 10
16.7186192919713
 20
49.2149444749525
 10
16.7182398259179
 20
49.2149353426675
 10
16.7180475570211
 20
49.2146379892284
 10
16.7177238598941
 20
49.2139788956539
 10
16.7174069209373
 20
49.2137270453154
 10
16.7169580538782
 20
49.213657396852
 10
16.7164667738749
 20
49.2137638941772
 10
16.7157908888243
 20
49.2140382841405
 10
16.7152063946296
 20
49.2140518283003
 10
16.7144294216922
 20
49.213978381842
 10
16.7139506969734
 20
49.2140023465921
 10
16.7134303713034
 20
49.2141489725936
 10
16.7130605627527
 20
49.2140406194109
 10
16.712780046187
 20
49.2138343711708
 10
16.7125233409186
 20
49.213347436147
 10
16.7120407980114
 20
49.2130361346052
 10
16.7117600062087
 20
49.2127867927492
 10
16.7113671096449
 20
49.2126875364078
 10
16.7108413146105
 20
49.2123047006923
 10
16.7116564337687
 20
49.2121227791224
 10
16.7117927044803
 20
49.2122333890216
 10
16.7118621266571
 20
49.2123393020056
 10
16.7121915622028
 20
49.2124245488767
 10
16.7127333488156
 20
49.2124002389374
 10
16.7130582600225
 20
49.2124851433774
 10
16.7133000982557
 20
49.2126236450106
 10
16.7134652107261
 20
49.2129016754271
 10
16.7137453353078
 20
49.21333477156
 10
16.7139936659446
 20
49.2136186170915
 10
16.7142022542681
 20
49.2137136527552
 10
16.7146149135998
 20
49.2136467853244
 10
16.7150985622411
 20
49.2134661159154
 10
16.715482895509
 20
49.2132958909904
 10
16.7159223780128
 20
49.212972338166
 10
16.7162853703901
 20
49.2128966243108
 10
16.71672916918
 20
49.2129276367759
 10
16.7172039027834
 20
49.2129998120642
 10
16.7176618911023
 20
49.2130571333393
 10
16.7178277490403
 20
49.2132061093388
 10
16.7180278737461
 20
49.2135024389671
 10
16.7183422274136
 20
49.2140843099978
 97
0
 75
0
 76
1
 98
0
  0
HATCH
  5
20001
100
AcDbEntity
  8
plocha AZZU
100
AcDbHatch
 10
0
 20
0
 30
0
210
0
220
0
230
1
  2
SOLID
 70
1
 71
0
 91
1
 92
2
 72
0
 73
1
 93
85
 10
16.7180149616981
 20
49.1965947954907
 10
16.7179722465959
 20
49.1967083401525
 10
16.7179433644582
 20
49.1969019339902
 10
16.7179793994607
 20
49.1970828911129
 10
16.7180395189109
 20
49.1972447131328
 10
16.71795342431
 20
49.1976215808769
 10
16.7178149279368
 20
49.1978557170186
 10
16.7176194288797
 20
49.1980729702784
 10
16.717628940981
 20
49.1981639333395
 10
16.7178678844389
 20
49.198401227335
 10
16.7181585272971
 20
49.1986111721639
 10
16.7182852038505
 20
49.1987399968301
 10
16.7182921252885
 20
49.1988072337731
 10
16.7182269049455
 20
49.199134539378
 10
16.7181939748747
 20
49.1994298526875
 10
16.7180317311147
 20
49.1996500286827
 10
16.7178897478901
 20
49.1998635735066
 10
16.7175647723725
 20
49.2002937619594
 10
16.7174341019174
 20
49.2004814185618
 10
16.7173417485896
 20
49.2006326640269
 10
16.7171734018143
 20
49.2007748948822
 10
16.716950306811
 20
49.2009184340099
 10
16.7169301412674
 20
49.2010060359825
 10
16.7168430670352
 20
49.2012638344347
 10
16.7168473068249
 20
49.2013500971987
 10
16.7169069841356
 20
49.2014035547927
 10
16.7171632628953
 20
49.2015514035818
 10
16.7170612211485
 20
49.2016742099096
 10
16.7169631471658
 20
49.2019406721304
 10
16.7168228861997
 20
49.202298278784
 10
16.7167286867871
 20
49.2025829343131
 10
16.7166583743271
 20
49.2028468566001
 10
16.7166261926012
 20
49.2030865601
 10
16.7166512551772
 20
49.2033526672778
 10
16.7166352099451
 20
49.2035352507239
 10
16.7165405559071
 20
49.203528635148
 10
16.7164009171054
 20
49.2034203030439
 10
16.7164236338924
 20
49.2031127288164
 10
16.7164939479798
 20
49.202848806684
 10
16.716512698115
 20
49.2027336214388
 10
16.7164675354401
 20
49.2027170224551
 10
16.7163540417005
 20
49.2027001285393
 10
16.7163238419212
 20
49.2026756149499
 10
16.7165150430791
 20
49.2026352112315
 10
16.7165910338601
 20
49.2025464304117
 10
16.7167032623974
 20
49.2021510194967
 10
16.7167277808504
 20
49.2020003922996
 10
16.7167315661047
 20
49.2018931223985
 10
16.7167131775514
 20
49.2018380694751
 10
16.716644576262
 20
49.2017974304483
 10
16.7164112841793
 20
49.2017183954643
 10
16.7162569579603
 20
49.2016583219022
 10
16.7162266697167
 20
49.2015083449296
 10
16.7162917541042
 20
49.2013605532178
 10
16.7164932234279
 20
49.2011730077596
 10
16.7166840201245
 20
49.2009461054309
 10
16.7167846199811
 20
49.2007752704296
 10
16.7168921155868
 20
49.2005808460641
 10
16.7168583552923
 20
49.2005389397667
 10
16.7167943971446
 20
49.2004649776927
 10
16.7166271296268
 20
49.2003519449914
 10
16.7165525593985
 20
49.2002555734748
 10
16.7165455163206
 20
49.2001860786517
 10
16.7166847406773
 20
49.2000204648911
 10
16.7169818496842
 20
49.1996606676453
 10
16.7172182293383
 20
49.1993589455746
 10
16.7172400796378
 20
49.1992435854475
 10
16.7173839466623
 20
49.1990524075209
 10
16.7174993271933
 20
49.1988514873003
 10
16.7175247068755
 20
49.1987681194934
 10
16.7175381988386
 20
49.1986609076679
 10
16.7174086179484
 20
49.198574242757
 10
16.7173338642425
 20
49.1984941417695
 10
16.717223656549
 20
49.1982563704139
 10
16.7171398798308
 20
49.1979757709957
 10
16.7171322373191
 20
49.1978802792507
 10
16.717169136985
 20
49.1975823402692
 10
16.7171761722963
 20
49.1973237334902
 10
16.7171785081581
 20
49.1971999997324
 10
16.7171202426746
 20
49.196999229342
 10
16.7171360609839
 20
49.1968545524884
 10
16.7171929700022
 20
49.1966481765866
 10
16.7173659005826
 20
49.1963512998529
 10
16.7173987207579
 20
49.1962914065789
 10
16.7180149616981
 20
49.1965947954907
 97
0
 75
0
 76
1
 98
0
  0
HATCH
  5
20002
100
AcDbEntity
  8
plocha AZZU
100
AcDbHatch
 10
0
 20
0
 30
0
210
0
220
0
230
1
  2
SOLID
 70
1
 71
0
 91
2
 92
2
 72
0
 73
1
 93
69
 10
16.717995837814
 20
49.2074433275289
 10
16.7181756114066
 20
49.2075992681018
 10
16.7179808833298
 20
49.2077872887147
 10
16.7177074489205
 20
49.2079966923095
 10
16.7172862467145
 20
49.2082316155402
 10
16.7171583165104
 20
49.2083033262746
 10
16.7168239282477
 20
49.2083830127488
 10
16.7162121293463
 20
49.2085284416401
 10
16.7159796146578
 20
49.2085704391995
 10
16.7157456583057
 20
49.20862129684
 10
16.7150850771156
 20
49.2087722728641
 10
16.7145737022646
 20
49.208888868839
 10
16.714147343679
 20
49.2090293275757
 10
16.7136611157072
 20
49.2092014456015
 10
16.7134133700945
 20
49.2092817494406
 10
16.7133143693123
 20
49.209230971086
 10
16.7134840514896
 20
49.2091128953486
 10
16.713608299073
 20
49.2089378761143
 10
16.7137879972078
 20
49.2086323155127
 10
16.7139296411611
 20
49.2084764348643
 10
16.7141063510558
 20
49.2083991751955
 10
16.714556865565
 20
49.2082783281438
 10
16.7154861973029
 20
49.2081147761355
 10
16.7158903654337
 20
49.208026529105
 10
16.7161525385333
 20
49.2079283568517
 10
16.7164984631178
 20
49.2077777893962
 10
16.7168875702746
 20
49.2075719901042
 10
16.717300744063
 20
49.20726033813
 10
16.7174134351891
 20
49.2071561985523
 10
16.7175380270878
 20
49.2071469833182
 10
16.7175722849702
 20
49.2071045699928
 10
16.7176158410098
 20
49.2069560209645
 10
16.7177028614825
 20
49.2066454723479
 10
16.7177616348844
 20
49.2064524324619
 10
16.7177154731399
 20
49.2062879058695
 10
16.7175971895717
 20
49.2061183385034
 10
16.7172302040816
 20
49.205740219234
 10
16.7168133408266
 20
49.2053884825691
 10
16.7165523844333
 20
49.2051432274247
 10
16.7163623327461
 20
49.2048334788625
 10
16.7163350654507
 20
49.2046793271596
 10
16.7163053581869
 20
49.2045113726066
 10
16.7162088106471
 20
49.2042223463654
 10
16.7161778055535
 20
49.2040350942487
 10
16.7160984727287
 20
49.203555984759
 10
16.7161677067732
 20
49.2034667309037
 10
16.7162466749454
 20
49.2034856919054
 10
16.7162763052963
 20
49.2035008363219
 10
16.7164802463395
 20
49.2036050714739
 10
16.7166139378357
 20
49.2038339654893
 10
16.7167323918445
 20
49.204030429382
 10
16.7168385884387
 20
49.2043022077218
 10
16.7169084547757
 20
49.2044191060649
 10
16.717114359036
 20
49.204666486496
 10
16.7172987183089
 20
49.204836192231
 10
16.7177080062141
 20
49.2051784357255
 10
16.7179506079433
 20
49.2054104569201
 10
16.7181422774342
 20
49.2056613221263
 10
16.7182450704794
 20
49.2058350336762
 10
16.7183405195723
 20
49.2060328747048
 10
16.7183993081821
 20
49.2062878957316
 10
16.7184677111677
 20
49.2064838476695
 10
16.7184626687938
 20
49.2066268735767
 10
16.7184847998372
 20
49.2069390748115
 10
16.7184144903959
 20
49.2072029988742
 10
16.718351509157
 20
49.207365872297
 10
16.7182981428882
 20
49.2074696776461
 10
16.7180742706014
 20
49.2073815989704
 10
16.717995837814
 20
49.2074433275289
 97
0
 92
2
 72
0
 73
1
 93
7
 10
16.7178608037084
 20
49.2064593621118
 10
16.717954469012
 20
49.2065941474326
 10
16.7180836755477
 20
49.2065829435381
 10
16.718323109406
 20
49.2065505156358
 10
16.7182166024592
 20
49.2064010618628
 10
16.7181380681721
 20
49.206377656353
 10
16.7178608037084
 20
49.2064593621118
 97
0
 75
0
 76
1
 98
0
  0
HATCH
  5
20003
100
AcDbEntity
  8
plocha AZZU
100
AcDbHatch
 10
0
 20
0
 30
0
210
0
220
0
230
1
  2
SOLID
 70
1
 71
0
 91
1
 92
2
 72
0
 73
1
 93
33
 10
16.7132374885579
 20
49.2093839569757
 10
16.712900698015
 20
49.209587383394
 10
16.7125774664391
 20
49.2097664122972
 10
16.7123945227556
 20
49.2099238843547
 10
16.7122912765354
 20
49.2100958909434
 10
16.7122550067505
 20
49.2104025192933
 10
16.712215957242
 20
49.2105162843493
 10
16.7120926114162
 20
49.2106017533508
 10
16.711980356765
 20
49.2106611128829
 10
16.7119298766733
 20
49.2107120981562
 10
16.7118794851918
 20
49.2109654642521
 10
16.7117768679664
 20
49.2111978817212
 10
16.7116783416906
 20
49.211325853674
 10
16.711625595254
 20
49.2114112243527
 10
16.7115194766916
 20
49.211681160378
 10
16.7114295554701
 20
49.2118241558056
 10
16.7114473376628
 20
49.2119389085456
 10
16.7108395031527
 20
49.2120875782749
 10
16.7107950309605
 20
49.2120247260369
 10
16.7107524837143
 20
49.211950059932
 10
16.7106924078646
 20
49.2116471509335
 10
16.7107414907184
 20
49.2113458986659
 10
16.710913088158
 20
49.2111120338838
 10
16.7111707129847
 20
49.2108382386216
 10
16.7115791132098
 20
49.2105143206242
 10
16.7118775138791
 20
49.2103268364544
 10
16.7119281893436
 20
49.2102676505599
 10
16.711987446235
 20
49.2100298399273
 10
16.7121481291868
 20
49.20979912127
 10
16.7123250336928
 20
49.2096367461984
 10
16.7126011996886
 20
49.2094947527356
 10
16.7131290240354
 20
49.2092769908525
 10
16.7132374885579
 20
49.2093839569757
 97
0
 75
0
 76
1
 98
0
  0
HATCH
  5
20004
100
AcDbEntity
  8
plocha AZZU
100
AcDbHatch
 10
0
 20
0
 30
0
210
0
220
0
230
1
  2
SOLID
 70
1
 71
0
 91
1
 92
2
 72
0
 73
1
 93
55
 10
16.6233088495229
 20
49.1663714400256
 10
16.6225905034531
 20
49.1663352011886
 10
16.6225542883237
 20
49.1661975102978
 10
16.6225163188103
 20
49.166073212722
 10
16.6225209995921
 20
49.165976198977
 10
16.6225269192201
 20
49.1658535213638
 10
16.6225322706388
 20
49.1657426016168
 10
16.6225341088759
 20
49.1657044874456
 10
16.6225380128098
 20
49.1656890130582
 10
16.6225557896144
 20
49.1656185266187
 10
16.6225803853238
 20
49.1655210047593
 10
16.6224516882701
 20
49.165504718761
 10
16.6220014041883
 20
49.1654800285323
 10
16.6221191709157
 20
49.1650970892051
 10
16.6221837635942
 20
49.1650129001286
 10
16.6222293829567
 20
49.1647101437757
 10
16.6224332659845
 20
49.1639612950624
 10
16.6226385886049
 20
49.1637758749495
 10
16.6231826252962
 20
49.1634913069733
 10
16.623400452391
 20
49.1632763837533
 10
16.6235922926242
 20
49.1629698812762
 10
16.6240232641809
 20
49.1624020988608
 10
16.6242679023801
 20
49.1618690689431
 10
16.6244109152528
 20
49.1610772437199
 10
16.624530099751
 20
49.1602753786472
 10
16.624448924558
 20
49.1596848818631
 10
16.6243884455289
 20
49.1594256867149
 10
16.6244543266719
 20
49.1594206272933
 10
16.624459165311
 20
49.1594087528556
 10
16.6258477431285
 20
49.1594351401588
 10
16.6263449511026
 20
49.1596185482258
 10
16.6270605060956
 20
49.1603792209351
 10
16.6270245736469
 20
49.1607525892823
 10
16.6271873831142
 20
49.1611567235891
 10
16.6271605890141
 20
49.1613970809114
 10
16.6269020905148
 20
49.1617296461273
 10
16.6264564360479
 20
49.1620298182338
 10
16.6259004378849
 20
49.162243537293
 10
16.6256154645571
 20
49.1628424907522
 10
16.625571730922
 20
49.1629911331109
 10
16.6249477076851
 20
49.1638587762683
 10
16.6248601131683
 20
49.1640645555008
 10
16.6246375267646
 20
49.1644018300829
 10
16.624602033992
 20
49.1644555259692
 10
16.624591514194
 20
49.164469543679
 10
16.6244762892379
 20
49.164623079582
 10
16.6243286228044
 20
49.1648085898695
 10
16.6242419352785
 20
49.1649276191698
 10
16.624010752511
 20
49.1652450483115
 10
16.6238731173252
 20
49.165461066187
 10
16.6237597484896
 20
49.1656732095562
 10
16.6236971416423
 20
49.16594279132
 10
16.6236958970684
 20
49.1663477753732
 10
16.623318649002
 20
49.166336457975
 10
16.6233088495229
 20
49.1663714400256
 97
0
 75
0
 76
1
 98
0
  0
HATCH
  5
20005
100
AcDbEntity
  8
plocha AZZU
100
AcDbHatch
 10
0
 20
0
 30
0
210
0
220
0
230
1
  2
SOLID
 70
1
 71
0
 91
1
 92
2
 72
0
 73
1
 93
116
 10
16.6251366089638
 20
49.1543596348833
 10
16.6245465471044
 20
49.1541919155209
 10
16.6240666250805
 20
49.1541295834247
 10
16.6235566657436
 20
49.1540745778268
 10
16.6229758617448
 20
49.1540996618238
 10
16.6222359403068
 20
49.1539527214021
 10
16.6218176421556
 20
49.1538663736306
 10
16.6217748902588
 20
49.1538633470541
 10
16.6215804478628
 20
49.1539271420789
 10
16.6215817594477
 20
49.1542240763759
 10
16.6218132522318
 20
49.155385874534
 10
16.6218888295673
 20
49.1565002531159
 10
16.6217298932564
 20
49.157028010195
 10
16.6211489135604
 20
49.1580176135689
 10
16.6202222886538
 20
49.1585666683687
 10
16.6195967329931
 20
49.1585129202089
 10
16.6193543700261
 20
49.1581458767476
 10
16.6191099213522
 20
49.1570032684439
 10
16.6188328365809
 20
49.156321704627
 10
16.618481442979
 20
49.155982914674
 10
16.6184672453654
 20
49.1560026699504
 10
16.6178743750896
 20
49.1554878651572
 10
16.6166906663648
 20
49.1548839222665
 10
16.6166982402127
 20
49.1548821279011
 10
16.6162342341164
 20
49.1547664824735
 10
16.6162441201684
 20
49.1547632835475
 10
16.6162199828848
 20
49.1547654728943
 10
16.6159284074736
 20
49.1546975353708
 10
16.6158643918514
 20
49.1546921400399
 10
16.6148253209361
 20
49.1547423151876
 10
16.6143736535838
 20
49.1548282110312
 10
16.6141453679483
 20
49.1548716240637
 10
16.6141548281395
 20
49.1548638617985
 10
16.6141079513336
 20
49.1548714980802
 10
16.6137972701007
 20
49.1549839578013
 10
16.6135961275049
 20
49.1550537508269
 10
16.6133131056312
 20
49.1551849786167
 10
16.6130178991685
 20
49.1553590457837
 10
16.6128619450566
 20
49.1554656594015
 10
16.612678606706
 20
49.1556140355908
 10
16.6125345650881
 20
49.1557416643196
 10
16.6122933021282
 20
49.1558993819299
 10
16.6120368399583
 20
49.1560560227792
 10
16.6117661305787
 20
49.1561746720292
 10
16.611509935012
 20
49.1562674551215
 10
16.6111400833018
 20
49.1563656285645
 10
16.6108916902413
 20
49.1564421542866
 10
16.610767492208
 20
49.1564804159559
 10
16.6104291319655
 20
49.1565740965104
 10
16.6102071648502
 20
49.1566457692724
 10
16.6098671595392
 20
49.1567494168907
 10
16.6094730635442
 20
49.1568391435181
 10
16.6092469848551
 20
49.1568735425664
 10
16.6091278511446
 20
49.1569121625963
 10
16.6088967065422
 20
49.1570705925392
 10
16.6086132497618
 20
49.1573597880041
 10
16.608354028535
 20
49.1576574255256
 10
16.6081030196674
 20
49.1579052162512
 10
16.6079649854807
 20
49.1579962849963
 10
16.6078066842903
 20
49.1580859173703
 10
16.6076689237048
 20
49.1581131292088
 10
16.607469266815
 20
49.1581426757025
 10
16.6074695417197
 20
49.1580788191537
 10
16.6075588272029
 20
49.1580347218947
 10
16.6076244213185
 20
49.1579788593549
 10
16.6077620449767
 20
49.1579213804418
 10
16.607987994772
 20
49.1577323273677
 10
16.6082439319733
 20
49.157454628941
 10
16.6084372871082
 20
49.1572767112647
 10
16.6086559736595
 20
49.157100589475
 10
16.608731151204
 20
49.1570487680166
 10
16.6088124909164
 20
49.1569906593709
 10
16.6089566830424
 20
49.1568933024507
 10
16.6090515781025
 20
49.1568462408756
 10
16.6092065881213
 20
49.1567765460624
 10
16.6094404717266
 20
49.1567258903218
 10
16.6095501551522
 20
49.1567134953566
 10
16.6096670972985
 20
49.1566881676922
 10
16.6099413737505
 20
49.1566101173437
 10
16.6103251965831
 20
49.1564894045947
 10
16.6106983363839
 20
49.1563712954272
 10
16.6108438951323
 20
49.1563278239872
 10
16.611073255776
 20
49.1562734825575
 10
16.6113363002743
 20
49.1562013579785
 10
16.6115605930372
 20
49.1561466564337
 10
16.6116987545997
 20
49.156085849593
 10
16.6119037366287
 20
49.1559927983018
 10
16.612129940479
 20
49.1558642704203
 10
16.6122942488663
 20
49.1557380794075
 10
16.6126086211949
 20
49.1554477060368
 10
16.6126880321637
 20
49.1553390300202
 10
16.6131430244939
 20
49.1550350882775
 10
16.6135737874989
 20
49.1548470940198
 10
16.6139025440003
 20
49.154749363817
 10
16.6145231391039
 20
49.1546103132373
 10
16.6155185077232
 20
49.1540349194327
 10
16.6164643093059
 20
49.1531941168129
 10
16.6178426084891
 20
49.1524406795706
 10
16.6188531798512
 20
49.152256934257
 10
16.6206745617464
 20
49.1524899332758
 10
16.621225345305
 20
49.152926601691
 10
16.62141007523
 20
49.1531333897919
 10
16.6215194138819
 20
49.1534008141435
 10
16.6216225096856
 20
49.1536774652861
 10
16.6219396534491
 20
49.1535629537382
 10
16.6226656282781
 20
49.1534441322828
 10
16.6232468351992
 20
49.1535041854046
 10
16.6238758200402
 20
49.153624354364
 10
16.6243318474437
 20
49.1536566292682
 10
16.6245829981149
 20
49.1537017215041
 10
16.6250827479215
 20
49.1537914460015
 10
16.626463796854
 20
49.1540261928587
 10
16.6262132681478
 20
49.1545984086272
 10
16.6257791517376
 20
49.1545422672975
 10
16.6252077344873
 20
49.1543798515115
 10
16.6251366089638
 20
49.1543596348833
 97
0
 75
0
 76
1
 98
0
  0
HATCH
  5
20006
100
AcDbEntity
  8
plocha AZZU
100
AcDbHatch
 10
0
 20
0
 30
0
210
0
220
0
230
1
  2
SOLID
 70
1
 71
0
 91
1
 92
2
 72
0
 73
1
 93
96
 10
16.5535842704787
 20
49.1644911974096
 10
16.553195492149
 20
49.1646896189518
 10
16.5523934929382
 20
49.1649698320996
 10
16.5516479446431
 20
49.1652397104005
 10
16.5512607028896
 20
49.165362845149
 10
16.5508072464246
 20
49.1654561209867
 10
16.5503827170658
 20
49.1655730004422
 10
16.5502644921409
 20
49.1656255895408
 10
16.5501841401766
 20
49.1656808819709
 10
16.5499212255243
 20
49.1657805796728
 10
16.5496290083034
 20
49.1659248551157
 10
16.5494147862446
 20
49.1660280289478
 10
16.548821557951
 20
49.1662046578577
 10
16.5483213766421
 20
49.1663484374267
 10
16.547543803868
 20
49.1665801049125
 10
16.5470333838742
 20
49.1667195587227
 10
16.5465871924738
 20
49.1668348782291
 10
16.5464034426214
 20
49.166886373335
 10
16.5459614801906
 20
49.1670091733024
 10
16.5454930518762
 20
49.1671264896988
 10
16.5452702467618
 20
49.1671823734446
 10
16.5451591922245
 20
49.1672246993829
 10
16.5449263260883
 20
49.1671434398815
 10
16.5455593270173
 20
49.1669912125067
 10
16.5463513786171
 20
49.1667713615791
 10
16.5468888542231
 20
49.1666338432801
 10
16.5473416326564
 20
49.1665118136349
 10
16.5477367668241
 20
49.1664072049422
 10
16.5480640264529
 20
49.1663156967881
 10
16.5483930525339
 20
49.1662135449395
 10
16.5486109206237
 20
49.1661214031071
 10
16.5486808290248
 20
49.1659971541952
 10
16.5487127564362
 20
49.1658378821051
 10
16.5487333803924
 20
49.1657137027506
 10
16.5487422719803
 20
49.1654953447578
 10
16.548765841832
 20
49.1653534262483
 10
16.5488240165736
 20
49.1651349977051
 10
16.5488768876816
 20
49.1649485010218
 10
16.5489603460314
 20
49.1647426480824
 10
16.5490379114595
 20
49.1645722751698
 10
16.5490813537936
 20
49.1644425458123
 10
16.5490905656568
 20
49.1643211417286
 10
16.549090725109
 20
49.1641883212409
 10
16.549070421847
 20
49.1640468588147
 10
16.5490311575365
 20
49.1639866139283
 10
16.5487717300728
 20
49.1638675645531
 10
16.5485634610785
 20
49.1637701179348
 10
16.548454451682
 20
49.1637013020336
 10
16.5483904939555
 20
49.1636249320616
 10
16.5485322307746
 20
49.1635955650971
 10
16.5488494010078
 20
49.1637295099738
 10
16.5494476426763
 20
49.1639840470612
 10
16.5496197018669
 20
49.1640358255564
 10
16.5497326212143
 20
49.1640151690458
 10
16.5497889733275
 20
49.1639725224743
 10
16.5499040338458
 20
49.16387303737
 10
16.5499927383279
 20
49.1638003904269
 10
16.5501801147876
 20
49.1637599204208
 10
16.5503813663484
 20
49.1637348010576
 10
16.5506043663275
 20
49.1637435439503
 10
16.5508494875784
 20
49.163717966013
 10
16.5511522464282
 20
49.1636749622397
 10
16.5513618516345
 20
49.1636324872801
 10
16.5515406532395
 20
49.1635447323116
 10
16.551839439389
 20
49.1633937427397
 10
16.5521219921381
 20
49.1632415926827
 10
16.5523209256927
 20
49.1630655230135
 10
16.5526077476641
 20
49.1627557155816
 10
16.5528742147676
 20
49.1624695854778
 10
16.5530110151391
 20
49.162403960324
 10
16.5532057806349
 20
49.1624178635497
 10
16.5534762891314
 20
49.1624371730884
 10
16.5537606739392
 20
49.1624718325365
 10
16.5538979154592
 20
49.1625354786492
 10
16.5540271354975
 20
49.1627134335759
 10
16.5543028752852
 20
49.163031086637
 10
16.5545518244237
 20
49.1632463062413
 10
16.5547223416748
 20
49.1633733565406
 10
16.554751492815
 20
49.1634615974029
 10
16.5547537050743
 20
49.1635802260372
 10
16.5547479272696
 20
49.1636480237593
 10
16.554832136927
 20
49.1636683936867
 10
16.5549438769952
 20
49.1636548286041
 10
16.5551240719607
 20
49.1636246081844
 10
16.5553591814816
 20
49.1636593368196
 10
16.5556395641814
 20
49.1637511456134
 10
16.5558525569186
 20
49.1638201945611
 10
16.5560275658112
 20
49.1638542232738
 10
16.5558451278323
 20
49.1639309554237
 10
16.5554595915111
 20
49.1638460033814
 10
16.5552316580995
 20
49.1638010164161
 10
16.5551072197174
 20
49.1637921359512
 10
16.5549717073621
 20
49.1638829863553
 10
16.5547545599866
 20
49.1640039093552
 10
16.5540997267894
 20
49.1642551457616
 10
16.5535842704787
 20
49.1644911974096
 97
0
 75
0
 76
1
 98
0
  0
HATCH
  5
20007
100
AcDbEntity
  8
plocha AZZU
100
AcDbHatch
 10
0
 20
0
 30
0
210
0
220
0
230
1
  2
SOLID
 70
1
 71
0
 91
1
 92
2
 72
0
 73
1
 93
89
 10
16.5665689022708
 20
49.1631412201558
 10
16.5664018890623
 20
49.1631580383463
 10
16.5662769813809
 20
49.1631850356347
 10
16.565549764038
 20
49.1633450144864
 10
16.5652140871803
 20
49.1634216079252
 10
16.5650177851199
 20
49.1634830054345
 10
16.564954390109
 20
49.1634030972633
 10
16.5649842644508
 20
49.1633549667346
 10
16.5650929412008
 20
49.1633268138609
 10
16.5652278467858
 20
49.1632394999161
 10
16.5656523212114
 20
49.1631225657448
 10
16.5661692383919
 20
49.1629763193644
 10
16.5666879164325
 20
49.1628194258235
 10
16.5669940654197
 20
49.1627227743299
 10
16.567260694783
 20
49.1626663853726
 10
16.5674306466817
 20
49.1626318264036
 10
16.5677891316814
 20
49.1625496719788
 10
16.5680798717663
 20
49.1625129492394
 10
16.5684324767328
 20
49.1624662738936
 10
16.5687940170239
 20
49.1623986940114
 10
16.5692440060941
 20
49.1623589545552
 10
16.5696916422367
 20
49.1623334055325
 10
16.570050950517
 20
49.1623123323105
 10
16.5704596606812
 20
49.1623234964995
 10
16.5710703147127
 20
49.1623382736715
 10
16.5717675337883
 20
49.1623592128455
 10
16.572455108491
 20
49.1623722815418
 10
16.5730945767534
 20
49.1623783294534
 10
16.5740484326952
 20
49.1624031696249
 10
16.5746981353433
 20
49.1624135283395
 10
16.5758455903119
 20
49.1624593159874
 10
16.5765704524476
 20
49.1624786034834
 10
16.5771492346744
 20
49.1624874894793
 10
16.5776949684896
 20
49.1624976106768
 10
16.5783453871017
 20
49.1625367188138
 10
16.5784266690954
 20
49.162574812318
 10
16.5784898323064
 20
49.1625900765797
 10
16.5784817400885
 20
49.1626720680739
 10
16.5782353371961
 20
49.1626724831345
 10
16.5781373625817
 20
49.1626691009917
 10
16.5778368566409
 20
49.1626656649732
 10
16.5777027713386
 20
49.1626489421861
 10
16.5776079838959
 20
49.1626924553264
 10
16.5774497001178
 20
49.162788886852
 10
16.5773228276265
 20
49.1629270442747
 10
16.5771954949347
 20
49.1631010665038
 10
16.5770455957229
 20
49.1633452814592
 10
16.5769447250172
 20
49.1635247770445
 10
16.5767909224749
 20
49.1636933258373
 10
16.5765698453668
 20
49.1638714457635
 10
16.5763112282181
 20
49.1639786853691
 10
16.5762049054608
 20
49.1639926563982
 10
16.5760684678762
 20
49.1639901250239
 10
16.5757893457801
 20
49.1639235875511
 10
16.5756394887723
 20
49.1638698412445
 10
16.5754541083319
 20
49.1637992063047
 10
16.5752473349248
 20
49.1637916660403
 10
16.5750833826884
 20
49.1638230733972
 10
16.5747715840638
 20
49.1638547255297
 10
16.5745551649463
 20
49.1638393179565
 10
16.5740885648198
 20
49.1637809676843
 10
16.5735773833133
 20
49.1636943128262
 10
16.5730894858853
 20
49.1635662336097
 10
16.5728041254597
 20
49.1634382153169
 10
16.5724911279585
 20
49.1633118182451
 10
16.5720186347888
 20
49.1631238029241
 10
16.5716764602338
 20
49.1629091671245
 10
16.5715740067095
 20
49.1628336609132
 10
16.5714923637249
 20
49.1626986086337
 10
16.5714096670091
 20
49.1626029702246
 10
16.5712497072733
 20
49.1625772174831
 10
16.5711415010354
 20
49.162569510442
 10
16.5710894259446
 20
49.1627847874352
 10
16.5710267730993
 20
49.1630639302543
 10
16.5709214030614
 20
49.1631713029496
 10
16.5707475806233
 20
49.1632953399005
 10
16.5700843501821
 20
49.1633665652793
 10
16.5696216494712
 20
49.1633838638721
 10
16.5693370235183
 20
49.1634497458783
 10
16.5689513615394
 20
49.1634976594843
 10
16.5687302434487
 20
49.1635106255178
 10
16.568229428067
 20
49.1634605836433
 10
16.567875869326
 20
49.1634138518033
 10
16.5677188480288
 20
49.1633703545268
 10
16.567484667411
 20
49.16326391879
 10
16.567280011193
 20
49.1631775354678
 10
16.5671091121075
 20
49.1631186885402
 10
16.5668981079108
 20
49.1631036520667
 10
16.5665689022708
 20
49.1631412201558
 97
0
 75
0
 76
1
 98
0
  0
HATCH
  5
20008
100
AcDbEntity
  8
plocha AZZU
100
AcDbHatch
 10
0
 20
0
 30
0
210
0
220
0
230
1
  2
SOLID
 70
1
 71
0
 91
3
 92
2
 72
0
 73
1
 93
126
 10
16.5152652996272
 20
49.1827236517344
 10
16.515257605529
 20
49.1827697731158
 10
16.5151628120153
 20
49.1828455521996
 10
16.5150451004496
 20
49.1828945570121
 10
16.5149423552527
 20
49.1829195034048
 10
16.5147247733229
 20
49.1829433969135
 10
16.5147979193544
 20
49.1828660662006
 10
16.5148157613849
 20
49.1827919506406
 10
16.5147457410401
 20
49.1826864048484
 10
16.5145572471144
 20
49.1825687748153
 10
16.5144662552637
 20
49.1824904469698
 10
16.5144736104405
 20
49.1823150535963
 10
16.5146297982681
 20
49.1822652174829
 10
16.5147185033606
 20
49.1821602797511
 10
16.5149410678578
 20
49.1819751839577
 10
16.5151390250481
 20
49.1818062741367
 10
16.5153737649285
 20
49.1816794939265
 10
16.5155761186804
 20
49.1815827028873
 10
16.515810942462
 20
49.1814882400448
 10
16.5159743139337
 20
49.1814281469467
 10
16.5161399644387
 20
49.1813215441094
 10
16.5163276822236
 20
49.1811483082996
 10
16.5164860582993
 20
49.1810196428765
 10
16.5166974551368
 20
49.1809342687898
 10
16.5169965390488
 20
49.1808156882588
 10
16.5172992573708
 20
49.1807081379124
 10
16.5176649685659
 20
49.1805512478778
 10
16.517849303017
 20
49.1804639333182
 10
16.5181427063673
 20
49.1802480071243
 10
16.5183654264848
 20
49.1801275404021
 10
16.5186574014263
 20
49.1800515281402
 10
16.518928321074
 20
49.1799704168888
 10
16.5191307476366
 20
49.1799059386477
 10
16.5193778917889
 20
49.1797046453641
 10
16.5195639060297
 20
49.1795743665922
 10
16.5198387845335
 20
49.1794037822413
 10
16.5199919102345
 20
49.1793393597286
 10
16.5200877851576
 20
49.1792241623958
 10
16.5202528279618
 20
49.1791211016425
 10
16.5204352891746
 20
49.1790121078597
 10
16.5205348880188
 20
49.178940259288
 10
16.5206488590815
 20
49.1788478997064
 10
16.5208113565361
 20
49.1786943929443
 10
16.5209655734207
 20
49.178590555778
 10
16.5211167431845
 20
49.1784721394225
 10
16.5212745070194
 20
49.1783470145092
 10
16.5215043058162
 20
49.178183967811
 10
16.5216806675961
 20
49.1780458140967
 10
16.5217951358531
 20
49.1779175870523
 10
16.5219481655588
 20
49.1778208446409
 10
16.5220694061477
 20
49.1777505453785
 10
16.5222080646563
 20
49.1776743138211
 10
16.5223022463321
 20
49.1776020760321
 10
16.5224114808141
 20
49.1775380972511
 10
16.5225170768839
 20
49.1774630874646
 10
16.5226952977104
 20
49.1773466063251
 10
16.5227685136526
 20
49.1773015887652
 10
16.5229251765432
 20
49.1772158749495
 10
16.5234217222214
 20
49.1769965376314
 10
16.5239208095014
 20
49.1768276433124
 10
16.5244127095907
 20
49.1766690026258
 10
16.5249981895882
 20
49.1764416677911
 10
16.5254406955823
 20
49.1762507647732
 10
16.5255145908878
 20
49.1762345156821
 10
16.5256779319194
 20
49.1761744086837
 10
16.5258099867399
 20
49.176104880492
 10
16.5260572689537
 20
49.1759682092348
 10
16.5262907725937
 20
49.1758485029023
 10
16.5264562892513
 20
49.1757095668626
 10
16.5265601024721
 20
49.1756451966552
 10
16.5266787824578
 20
49.1755244474225
 10
16.5269148637927
 20
49.1752577281264
 10
16.5270256746186
 20
49.1751184642681
 10
16.5271369493718
 20
49.1751407915361
 10
16.5271661504105
 20
49.1752613573899
 10
16.5268982855772
 20
49.1755545236834
 10
16.5265967664383
 20
49.1758524607636
 10
16.5262976666314
 20
49.1760421516602
 10
16.5260923435047
 20
49.1762507542478
 10
16.525818593522
 20
49.1763819391908
 10
16.5257773511954
 20
49.1764651507853
 10
16.5257638502492
 20
49.1765790691338
 10
16.5256967319971
 20
49.1766532471271
 10
16.525386188277
 20
49.1767423051374
 10
16.5252318941868
 20
49.1768138299696
 10
16.5251263956055
 20
49.1769211614238
 10
16.5247203062431
 20
49.1770249173001
 10
16.5238655139898
 20
49.1772580945055
 10
16.5236313153068
 20
49.177349026565
 10
16.5230337213252
 20
49.1775503560763
 10
16.5225976983464
 20
49.1777022239975
 10
16.5222469868142
 20
49.1778350696904
 10
16.5219239216138
 20
49.1779663054148
 10
16.521796265713
 20
49.178107948566
 10
16.5216788404439
 20
49.1782539140213
 10
16.5215468639189
 20
49.17835575573
 10
16.521325343664
 20
49.1784691326542
 10
16.5212202453067
 20
49.1785082759199
 10
16.5209400539271
 20
49.1787107941278
 10
16.5206425319627
 20
49.1789515619491
 10
16.5204522936338
 20
49.1790743595441
 10
16.5203088092919
 20
49.1791466532734
 10
16.5202289931942
 20
49.1791983784487
 10
16.5201733678255
 20
49.1793020980735
 10
16.5199723041715
 20
49.179424119426
 10
16.5196452579268
 20
49.1796448195977
 10
16.5193849263241
 20
49.1798595282629
 10
16.5191568873654
 20
49.1800119275075
 10
16.5189149782615
 20
49.1801489708073
 10
16.518531679876
 20
49.1802471608877
 10
16.5183946968719
 20
49.1802804266495
 10
16.5183082817904
 20
49.1803388568881
 10
16.5182621167058
 20
49.1803858116927
 10
16.5179150979819
 20
49.1805619933456
 10
16.5175235983979
 20
49.1807421670304
 10
16.5170930296058
 20
49.1809267202088
 10
16.5169360893539
 20
49.1810019033089
 10
16.516763508393
 20
49.1811292851521
 10
16.5165855187063
 20
49.1813427099521
 10
16.5164872659154
 20
49.1814720955843
 10
16.516191060498
 20
49.1817703931037
 10
16.5160930620383
 20
49.1819967320817
 10
16.5159192950399
 20
49.1822176398049
 10
16.5156329721842
 20
49.1823909868709
 10
16.5154266427212
 20
49.1825772486676
 10
16.5152652996272
 20
49.1827236517344
 97
0
 92
2
 72
0
 73
1
 93
20
 10
16.5256014515318
 20
49.1763376695252
 10
16.525283999913
 20
49.1765339386767
 10
16.5244828337636
 20
49.1768068609237
 10
16.5237945258505
 20
49.1770268290574
 10
16.5234455958603
 20
49.1771490351503
 10
16.5230324063734
 20
49.1772953589935
 10
16.5229580079864
 20
49.1773474737098
 10
16.5228979795278
 20
49.1773790752838
 10
16.5227726023124
 20
49.1774742099584
 10
16.5228357673222
 20
49.177489504674
 10
16.5230407253169
 20
49.1774754639091
 10
16.5232965717425
 20
49.177386084345
 10
16.5237914339151
 20
49.1772097068747
 10
16.5244431367532
 20
49.1770122480479
 10
16.5250088399414
 20
49.1768050379955
 10
16.5253751813423
 20
49.1766768936239
 10
16.5255936366526
 20
49.1765489300169
 10
16.5257050436314
 20
49.1764061201911
 10
16.5257420629869
 20
49.1762870750826
 10
16.5256014515318
 20
49.1763376695252
 97
0
 92
2
 72
0
 73
1
 93
28
 10
16.5165250510561
 20
49.1812127188564
 10
16.516351115874
 20
49.1813689907326
 10
16.5161403946881
 20
49.1814831344303
 10
16.51570321847
 20
49.1816743895614
 10
16.5153549121066
 20
49.1818253412251
 10
16.5151161128242
 20
49.1820092738002
 10
16.5148497449119
 20
49.182227132138
 10
16.5147196902731
 20
49.1823829584734
 10
16.5147228204747
 20
49.1824298558731
 10
16.5148913561713
 20
49.1825029722915
 10
16.5151531657274
 20
49.182607906361
 10
16.5151940947874
 20
49.182625201329
 10
16.5152402660803
 20
49.1825782487615
 10
16.5151450445309
 20
49.1824924374397
 10
16.514998156645
 20
49.1824208733488
 10
16.514979298009
 20
49.1823369467425
 10
16.5150373052499
 20
49.1822190376585
 10
16.5152082884386
 20
49.1820805060226
 10
16.5153774938463
 20
49.181952617156
 10
16.5156615337998
 20
49.1818257801093
 10
16.5158429174976
 20
49.1817562079194
 10
16.5160170268524
 20
49.1816645723508
 10
16.516152660416
 20
49.1815737690168
 10
16.5163490932004
 20
49.1815124548344
 10
16.5164354263018
 20
49.1814217069194
 10
16.5165108492244
 20
49.1812978657834
 10
16.5165670762762
 20
49.1811905999467
 10
16.5165250510561
 20
49.1812127188564
 97
0
 75
0
 76
1
 98
0
  0
HATCH
  5
20009
100
AcDbEntity
  8
plocha AZZU
100
AcDbHatch
 10
0
 20
0
 30
0
210
0
220
0
230
1
  2
SOLID
 70
1
 71
0
 91
1
 92
2
 72
0
 73
1
 93
94
 10
16.5428514551311
 20
49.1691851229984
 10
16.5426248937548
 20
49.1691976522366
 10
16.542428540888
 20
49.1692590112124
 10
16.5421467940101
 20
49.1693070861445
 10
16.5419123585298
 20
49.1693011006458
 10
16.5416098659777
 20
49.1694410350152
 10
16.5411424032295
 20
49.1696840586481
 10
16.5409095542267
 20
49.1698002479328
 10
16.5406237757658
 20
49.1699054735511
 10
16.5402786795562
 20
49.1700710792817
 10
16.5399467619029
 20
49.1702232659031
 10
16.539688725631
 20
49.1703591925758
 10
16.5394623597017
 20
49.1704363520985
 10
16.5391999883126
 20
49.1705324771297
 10
16.5387999819033
 20
49.1706331223492
 10
16.5384269282789
 20
49.1707033814603
 10
16.5381542215755
 20
49.1707628648404
 10
16.5379542160511
 20
49.1708131848648
 10
16.5377439788814
 20
49.170859183515
 10
16.5372442083573
 20
49.1709670502637
 10
16.537154682376
 20
49.1709785979419
 10
16.5370159669005
 20
49.1710225302515
 10
16.5368339635714
 20
49.1710633657939
 10
16.536620183133
 20
49.1711306502306
 10
16.5364816646297
 20
49.1712392175016
 10
16.53605351484
 20
49.1715747879091
 10
16.5357482362881
 20
49.1717970811469
 10
16.535511923295
 20
49.1719668656822
 10
16.5353709400733
 20
49.1720573048737
 10
16.5352791491391
 20
49.172115361844
 10
16.5351650248069
 20
49.1721430994966
 10
16.535091728953
 20
49.1721558075662
 10
16.5350729374463
 20
49.1721042023108
 10
16.5352266125005
 20
49.1720362114716
 10
16.5353556900903
 20
49.1719844118733
 10
16.5354780792307
 20
49.1719070032063
 10
16.5356016472279
 20
49.1718224980802
 10
16.5358217263406
 20
49.1716515532413
 10
16.5360388542671
 20
49.1714983468759
 10
16.5362145615021
 20
49.1713637188971
 10
16.5363818073012
 20
49.1712141251411
 10
16.5365179638301
 20
49.1711197494798
 10
16.5366356275753
 20
49.1710707227484
 10
16.5367983480576
 20
49.1710141471696
 10
16.5369863527285
 20
49.1709701505418
 10
16.5372596519942
 20
49.1709071226962
 10
16.5375377718548
 20
49.1708480283895
 10
16.5377594218805
 20
49.1707992558794
 10
16.5379474248848
 20
49.1707552576826
 10
16.5381907163448
 20
49.1707080327849
 10
16.538430367681
 20
49.1706497761657
 10
16.5387222574181
 20
49.1705737130668
 10
16.5389810898402
 20
49.1704988770302
 10
16.5391702706815
 20
49.17044778057
 10
16.5394207407603
 20
49.1703902955494
 10
16.5397154754484
 20
49.1702641727403
 10
16.5400173896176
 20
49.1701277924916
 10
16.5404267257231
 20
49.169938058056
 10
16.5408378294671
 20
49.1697376796165
 10
16.5411229140605
 20
49.1696036833064
 10
16.5413528124803
 20
49.1695052334235
 10
16.5414938789782
 20
49.1694471050847
 10
16.5416282515521
 20
49.1693633669064
 10
16.5417392124374
 20
49.1692887252844
 10
16.5418261704644
 20
49.1692267292318
 10
16.5419173585671
 20
49.1691722151701
 10
16.5419857236562
 20
49.1691232504469
 10
16.5421095550146
 20
49.1689382362317
 10
16.5422207953877
 20
49.1687630920634
 10
16.5424408099037
 20
49.1683946775947
 10
16.5425872528835
 20
49.1681394776197
 10
16.5426189209046
 20
49.168080709365
 10
16.5428436042782
 20
49.1680465062888
 10
16.543011440586
 20
49.1680908108062
 10
16.5431175021074
 20
49.1681773724933
 10
16.5432786445173
 20
49.1681960688245
 10
16.5442357176784
 20
49.1680705953648
 10
16.5446968070938
 20
49.168096360587
 10
16.5452655230755
 20
49.1681334036531
 10
16.545739098465
 20
49.1681169768727
 10
16.5461865254844
 20
49.1681920212553
 10
16.5464152738785
 20
49.168298113721
 10
16.54655283903
 20
49.1684587233451
 10
16.5466965132234
 20
49.1686484895551
 10
16.5464555963955
 20
49.1686815405258
 10
16.5461762144288
 20
49.1687154344074
 10
16.5455985443394
 20
49.1686992965757
 10
16.5451170887216
 20
49.1686972105343
 10
16.5450312110185
 20
49.1687197954313
 10
16.5448501259598
 20
49.1688540502957
 10
16.5440172110792
 20
49.1690889234822
 10
16.5437542659598
 20
49.1691886070608
 10
16.5434578494396
 20
49.1691602451139
 10
16.5428514551311
 20
49.1691851229984
 97
0
 75
0
 76
1
 98
0
  0
HATCH
  5
2000A
100
AcDbEntity
  8
plocha AZZU
100
AcDbHatch
 10
0
 20
0
 30
0
210
0
220
0
230
1
  2
SOLID
 70
1
 71
0
 91
1
 92
2
 72
0
 73
1
 93
55
 10
16.5930323913934
 20
49.1620970475648
 10
16.5924714322004
 20
49.1621412478069
 10
16.5921962946028
 20
49.1621620453807
 10
16.5916461427429
 20
49.1622339054878
 10
16.5912686924111
 20
49.1622844133588
 10
16.5909510725554
 20
49.1623761526433
 10
16.590656465371
 20
49.1624527175172
 10
16.5903613083769
 20
49.162532603849
 10
16.5899468636633
 20
49.1626208225653
 10
16.5894395620717
 20
49.1627125274117
 10
16.588775430163
 20
49.1628535997675
 10
16.5884284992991
 20
49.1629365261683
 10
16.5879281555836
 20
49.163079149465
 10
16.5874097367904
 20
49.1632070374413
 10
16.5871122489983
 20
49.1632699406866
 10
16.5869491275031
 20
49.1632953267899
 10
16.5866576806637
 20
49.1633216766707
 10
16.5866281292587
 20
49.1632523358662
 10
16.5866781278876
 20
49.1632289940212
 10
16.586880687748
 20
49.1632131361381
 10
16.5869148111741
 20
49.1631617694987
 10
16.586961443392
 20
49.1630037091459
 10
16.5872715621616
 20
49.1628643787774
 10
16.5874311397355
 20
49.1627983957196
 10
16.5877060340064
 20
49.1627170761657
 10
16.5882277419166
 20
49.1625692491675
 10
16.589127024651
 20
49.162401186316
 10
16.5900727057303
 20
49.1622935673136
 10
16.5910302903882
 20
49.1622069593162
 10
16.5920523910497
 20
49.1620711350594
 10
16.592913144835
 20
49.1619809939549
 10
16.5933266091731
 20
49.1619296770345
 10
16.5938104621085
 20
49.1618867203804
 10
16.5945902669219
 20
49.1618210746152
 10
16.5955140115644
 20
49.1617219409237
 10
16.5965682660974
 20
49.1616085331891
 10
16.5975213075795
 20
49.1615181883408
 10
16.5979077832164
 20
49.1614750248523
 10
16.5979672298649
 20
49.1614254544874
 10
16.5980747326135
 20
49.1614263621283
 10
16.598058146934
 20
49.1614957857232
 10
16.5979729492024
 20
49.1615771470431
 10
16.5978707732256
 20
49.1616371322928
 10
16.5976377932211
 20
49.1617752417431
 10
16.5974235942859
 20
49.1618306347607
 10
16.597303342318
 20
49.1618758888166
 10
16.5970892712855
 20
49.1619615482345
 10
16.5965694024603
 20
49.1620053233342
 10
16.5962108713399
 20
49.1620033994834
 10
16.5955439287852
 20
49.1620064696696
 10
16.5944700705147
 20
49.1621453714935
 10
16.5937359924774
 20
49.1622445218378
 10
16.5935223727968
 20
49.1621721955559
 10
16.5933896989246
 20
49.162075360514
 10
16.5930323913934
 20
49.1620970475648
 97
0
 75
0
 76
1
 98
0
  0
HATCH
  5
2000B
100
AcDbEntity
  8
plocha AZZU
100
AcDbHatch
 10
0
 20
0
 30
0
210
0
220
0
230
1
  2
SOLID
 70
1
 71
0
 91
1
 92
2
 72
0
 73
1
 93
48
 10
16.5146840988353
 20
49.1830230564496
 10
16.5148087476884
 20
49.1830966169487
 10
16.5149751736635
 20
49.1832808781259
 10
16.5145382316237
 20
49.1835690825508
 10
16.5143306256025
 20
49.1837301193041
 10
16.5138030214779
 20
49.184069265918
 10
16.5134986668755
 20
49.1842520865182
 10
16.5132814147636
 20
49.1844052501989
 10
16.5131792576048
 20
49.1844266470201
 10
16.5130247546628
 20
49.1844335199149
 10
16.5128751551335
 20
49.1844766459653
 10
16.5125853388742
 20
49.1847035897111
 10
16.5123284187385
 20
49.184864677867
 10
16.512127313199
 20
49.1849866854265
 10
16.5115074222485
 20
49.1852222686654
 10
16.5113712734916
 20
49.1851191589823
 10
16.5118545887462
 20
49.1848486499523
 10
16.5121896510775
 20
49.1846788055566
 10
16.5124663594571
 20
49.1844975958559
 10
16.5127034886516
 20
49.1843566292774
 10
16.5129998975093
 20
49.1841229781406
 10
16.5131839173565
 20
49.1839063981814
 10
16.5133662426121
 20
49.1837327800602
 10
16.5136475926939
 20
49.1834908661793
 10
16.5138334666295
 20
49.1832959602242
 10
16.5139959161017
 20
49.183110145915
 10
16.5140525727669
 20
49.1829346968246
 10
16.5139890653303
 20
49.182790124379
 10
16.5137284411242
 20
49.18267809257
 10
16.5131912098279
 20
49.1825498156811
 10
16.5128580310725
 20
49.1825115635084
 10
16.5125146215482
 20
49.182468986221
 10
16.5123464313243
 20
49.1822953645521
 10
16.5118610434461
 20
49.1822174719586
 10
16.5119702166382
 20
49.1821211847618
 10
16.5122821700339
 20
49.1820897026235
 10
16.5126836733692
 20
49.1820466909641
 10
16.512807473743
 20
49.1820268469411
 10
16.5131350652981
 20
49.1822298494658
 10
16.5135244761568
 20
49.1823906104324
 10
16.5137880580451
 20
49.1824849045072
 10
16.5141959928948
 20
49.1826003180569
 10
16.5144446942344
 20
49.1827509869915
 10
16.5145173373591
 20
49.1829392966245
 10
16.5145613951915
 20
49.1830034891198
 10
16.5146497659346
 20
49.1829990533281
 10
16.5146797847683
 20
49.1829832550563
 10
16.5146840988353
 20
49.1830230564496
 97
0
 75
0
 76
1
 98
0
  0
HATCH
  5
2000C
100
AcDbEntity
  8
plocha AZZU
100
AcDbHatch
 10
0
 20
0
 30
0
210
0
220
0
230
1
  2
SOLID
 70
1
 71
0
 91
1
 92
2
 72
0
 73
1
 93
34
 10
16.6051168850618
 20
49.1589171689517
 10
16.604897503474
 20
49.1589419501375
 10
16.6047570002078
 20
49.1589857735794
 10
16.6046896213141
 20
49.1590213367838
 10
16.6045862293307
 20
49.1590577073343
 10
16.6044792782926
 20
49.1590534824939
 10
16.6044158809572
 20
49.1589716615413
 10
16.6045139392768
 20
49.1588743985347
 10
16.6046241871897
 20
49.1587342952902
 10
16.6047091010558
 20
49.1585923948597
 10
16.6048214063566
 20
49.1584087325783
 10
16.6049920479384
 20
49.1581821414362
 10
16.6051220125674
 20
49.1580467985685
 10
16.6051752849864
 20
49.1580035113986
 10
16.605256629066
 20
49.1579454051748
 10
16.6056291086281
 20
49.1578003684951
 10
16.6060073363362
 20
49.1576826339338
 10
16.6061479719099
 20
49.1576690752909
 10
16.6062949044522
 20
49.1576794965068
 10
16.6063908947198
 20
49.1577501806745
 10
16.6064453915819
 20
49.1578549025974
 10
16.6065285078141
 20
49.1579414828634
 10
16.6065750642104
 20
49.1580321942613
 10
16.6066292898478
 20
49.1580763827324
 10
16.6066183211923
 20
49.1583916233772
 10
16.6066040664019
 20
49.1587268023205
 10
16.6065999495939
 20
49.1589383100595
 10
16.6064639655573
 20
49.1589858180225
 10
16.6058647118562
 20
49.1590139169332
 10
16.6056717612288
 20
49.1590338501487
 10
16.6055626183332
 20
49.1590429181414
 10
16.6054640220887
 20
49.1590191154256
 10
16.6053257183191
 20
49.1589252578456
 10
16.6051168850618
 20
49.1589171689517
 97
0
 75
0
 76
1
 98
0
  0
HATCH
  5
2000D
100
AcDbEntity
  8
plocha AZZU
100
AcDbHatch
 10
0
 20
0
 30
0
210
0
220
0
230
1
  2
SOLID
 70
1
 71
0
 91
1
 92
2
 72
0
 73
1
 93
36
 10
16.6039484376476
 20
49.1596613109412
 10
16.6039674633094
 20
49.159763517815
 10
16.6038466755694
 20
49.1598121019807
 10
16.6036027717396
 20
49.1598922936052
 10
16.6034273430384
 20
49.1599302767501
 10
16.6030352691196
 20
49.1599764215186
 10
16.6027376881978
 20
49.1600090989859
 10
16.6024480457879
 20
49.160055785432
 10
16.6021777079219
 20
49.1601408227875
 10
16.6017898500742
 20
49.1603788932024
 10
16.6013336427237
 20
49.1606894352848
 10
16.6011906537805
 20
49.1608104034125
 10
16.6009801488605
 20
49.1609366653618
 10
16.6007686972863
 20
49.1609754505078
 10
16.600042874582
 20
49.161024795475
 10
16.5997367949065
 20
49.1610467763539
 10
16.5997381765918
 20
49.1609762735518
 10
16.600087533534
 20
49.1609405548169
 10
16.6003829297139
 20
49.1609211769104
 10
16.6006906518323
 20
49.1608892256453
 10
16.6009468928611
 20
49.1607964667692
 10
16.6011472629833
 20
49.1606694856946
 10
16.6013843486431
 20
49.1604442513952
 10
16.6015789680292
 20
49.1602899660181
 10
16.6017590674654
 20
49.160161545673
 10
16.6019219062632
 20
49.1600756053465
 10
16.6020972035032
 20
49.1600073573701
 10
16.6023939710755
 20
49.1599174723583
 10
16.6026425280982
 20
49.1598712321165
 10
16.6029440803397
 20
49.1598455608378
 10
16.603220296911
 20
49.1598180912691
 10
16.6034373566999
 20
49.1597763388343
 10
16.6036492149848
 20
49.1597039593854
 10
16.6037041334735
 20
49.1596507032982
 10
16.603816846202
 20
49.1595578424069
 10
16.6039484376476
 20
49.1596613109412
 97
0
 75
0
 76
1
 98
0
  0
HATCH
  5
2000E
100
AcDbEntity
  8
plocha AZZU
100
AcDbHatch
 10
0
 20
0
 30
0
210
0
220
0
230
1
  2
SOLID
 70
1
 71
0
 91
1
 92
2
 72
0
 73
1
 93
39
 10
16.584770044022
 20
49.1633589333811
 10
16.5841863531055
 20
49.1633544102159
 10
16.5838536973374
 20
49.1633509264496
 10
16.5834906378878
 20
49.1633452795215
 10
16.583262070014
 20
49.1633323864997
 10
16.5830554200278
 20
49.1633109653632
 10
16.5828407123794
 20
49.1632452645551
 10
16.5826376669969
 20
49.163140049614
 10
16.5824103869186
 20
49.163026385309
 10
16.5822503189262
 20
49.1629712947884
 10
16.5819850638641
 20
49.1629322544825
 10
16.5813538858354
 20
49.1628739090944
 10
16.5807110473646
 20
49.1628550747828
 10
16.580468929978
 20
49.1628311255764
 10
16.5805440270332
 20
49.1627490555245
 10
16.5806982350607
 20
49.1627465785118
 10
16.5810484071566
 20
49.1627681276923
 10
16.5814666477217
 20
49.1627810701171
 10
16.5820037498076
 20
49.1628192756218
 10
16.5822397016089
 20
49.1628495064226
 10
16.5824831602105
 20
49.1629273390403
 10
16.5825757079993
 20
49.1629877142475
 10
16.5828249046277
 20
49.1630928505123
 10
16.5831473624587
 20
49.1632200063654
 10
16.5833011441038
 20
49.1632511151751
 10
16.5835601125677
 20
49.1632661701174
 10
16.5841702363915
 20
49.1632658518962
 10
16.5847336584698
 20
49.163268933989
 10
16.585158742536
 20
49.1633025212251
 10
16.5853956742574
 20
49.1632958331766
 10
16.5856527506475
 20
49.1632603185133
 10
16.5858272278365
 20
49.163259275634
 10
16.5860996289819
 20
49.1632551078917
 10
16.586577458975
 20
49.1632487337506
 10
16.5865693434202
 20
49.1633288444989
 10
16.5861579342499
 20
49.1633365786024
 10
16.5857696626522
 20
49.1633594048144
 10
16.5853115499462
 20
49.1633705397441
 10
16.584770044022
 20
49.1633589333811
 97
0
 75
0
 76
1
 98
0
  0
HATCH
  5
2000F
100
AcDbEntity
  8
plocha AZZU
100
AcDbHatch
 10
0
 20
0
 30
0
210
0
220
0
230
1
  2
SOLID
 70
1
 71
0
 91
1
 92
2
 72
0
 73
1
 93
31
 10
16.5349499583465
 20
49.1721851578605
 10
16.5347312510572
 20
49.1722161852978
 10
16.5342649134785
 20
49.172254628813
 10
16.5337876544007
 20
49.1722599787779
 10
16.5334637742477
 20
49.1722978402792
 10
16.5330846013062
 20
49.1723389247434
 10
16.5327309062891
 20
49.1724572237685
 10
16.5323359814383
 20
49.1726587356968
 10
16.5319056333425
 20
49.1728756617399
 10
16.5317279457414
 20
49.1729562909121
 10
16.5315185718871
 20
49.1730956848776
 10
16.531321201112
 20
49.1732287567698
 10
16.5310926388624
 20
49.1733847269841
 10
16.5310206160487
 20
49.173422654474
 10
16.5309183946195
 20
49.1734117488589
 10
16.5309645410691
 20
49.1733647898283
 10
16.5310915692752
 20
49.1732266846065
 10
16.5314005160728
 20
49.1730154333924
 10
16.5315876533028
 20
49.1728780396906
 10
16.5318091252525
 20
49.1727646420504
 10
16.532189097845
 20
49.1725871934037
 10
16.532456217669
 20
49.1724627013616
 10
16.5327359305232
 20
49.1723283387596
 10
16.5328926576688
 20
49.1722749296253
 10
16.5331924345176
 20
49.1722173953051
 10
16.5334358367458
 20
49.1722024979544
 10
16.533856524374
 20
49.1721751524999
 10
16.5343174514761
 20
49.1721363236266
 10
16.5345836779936
 20
49.1721158759624
 10
16.5349641258818
 20
49.1721000085404
 10
16.5349499583465
 20
49.1721851578605
 97
0
 75
0
 76
1
 98
0
  0
HATCH
  5
20010
100
AcDbEntity
  8
plocha AZZU
100
AcDbHatch
 10
0
 20
0
 30
0
210
0
220
0
230
1
  2
SOLID
 70
1
 71
0
 91
1
 92
2
 72
0
 73
1
 93
18
 10
16.5617849137736
 20
49.164458761048
 10
16.5614972151248
 20
49.1645100458433
 10
16.5611891651209
 20
49.1645850083501
 10
16.5607613795065
 20
49.1646227123606
 10
16.5603168889913
 20
49.1646951228864
 10
16.5597930060455
 20
49.1647510987137
 10
16.5594150908245
 20
49.1647851743351
 10
16.5592492453488
 20
49.1647948855779
 10
16.5590701113084
 20
49.1647856985406
 10
16.558980258816
 20
49.164700309134
 10
16.5589908519834
 20
49.1646364444049
 10
16.5593952317578
 20
49.1646078480673
 10
16.5604526393193
 20
49.1645037641099
 10
16.5608666605581
 20
49.1644830307674
 10
16.5612969125812
 20
49.1644634524703
 10
16.5615281541979
 20
49.164422502296
 10
16.5617442251512
 20
49.1643409794762
 10
16.5617849137736
 20
49.164458761048
 97
0
 75
0
 76
1
 98
0
  0
HATCH
  5
20011
100
AcDbEntity
  8
plocha AZZU
100
AcDbHatch
 10
0
 20
0
 30
0
210
0
220
0
230
1
  2
SOLID
 70
1
 71
0
 91
1
 92
2
 72
0
 73
1
 93
15
 10
16.5637004707779
 20
49.1638342588631
 10
16.5631891872459
 20
49.1639831900104
 10
16.5631033192197
 20
49.1640681148105
 10
16.5629672312861
 20
49.1641625218825
 10
16.5627337557864
 20
49.164249985399
 10
16.5625020428119
 20
49.1643268044659
 10
16.5623423149334
 20
49.1643656759984
 10
16.5621932922246
 20
49.1643729997005
 10
16.5620748501
 20
49.164360965192
 10
16.561987578659
 20
49.1643260226216
 10
16.5619492428143
 20
49.1641940489944
 10
16.5624018455159
 20
49.1640396418323
 10
16.5633378580831
 20
49.1637760978544
 10
16.5636729506755
 20
49.1637030580504
 10
16.5637004707779
 20
49.1638342588631
 97
0
 75
0
 76
1
 98
0
  0
HATCH
  5
20012
100
AcDbEntity
  8
plocha AZZU
100
AcDbHatch
 10
0
 20
0
 30
0
210
0
220
0
230
1
  2
SOLID
 70
1
 71
0
 91
1
 92
2
 72
0
 73
1
 93
24
 10
16.5566819666112
 20
49.164001437441
 10
16.5571161985179
 20
49.1640898594466
 10
16.5574686879761
 20
49.1641760381596
 10
16.5576456917898
 20
49.1642640563544
 10
16.5578306856299
 20
49.1644029037842
 10
16.5580986047709
 20
49.1645368976969
 10
16.5582948971511
 20
49.1646406507034
 10
16.5584982543558
 20
49.1647018264203
 10
16.5588325256705
 20
49.1647328512208
 10
16.5589103794137
 20
49.1648245644206
 10
16.558902728708
 20
49.1648706888414
 10
16.5584747125222
 20
49.1648437478365
 10
16.558235361598
 20
49.1648015431023
 10
16.5580276585318
 20
49.164700566243
 10
16.5578511274938
 20
49.1645766829848
 10
16.5576600203744
 20
49.1644086786024
 10
16.5574847818074
 20
49.1643100166302
 10
16.5571736967704
 20
49.1642052525251
 10
16.5568874222469
 20
49.1641489270707
 10
16.5565182271367
 20
49.1640974550293
 10
16.5563696790962
 20
49.1640689054566
 10
16.5562661814712
 20
49.1640328004362
 10
16.5564816706546
 20
49.1639548357023
 10
16.5566819666112
 20
49.164001437441
 97
0
 75
0
 76
1
 98
0
  0
HATCH
  5
20013
100
AcDbEntity
  8
plocha AZZU
100
AcDbHatch
 10
0
 20
0
 30
0
210
0
220
0
230
1
  2
SOLID
 70
1
 71
0
 91
1
 92
2
 72
0
 73
1
 93
31
 10
16.5276968938197
 20
49.1744089960001
 10
16.5274955574726
 20
49.1746315325155
 10
16.5273098634822
 20
49.1748587781562
 10
16.5272374317386
 20
49.1749648879174
 10
16.527196194487
 20
49.1750480992414
 10
16.5270729148321
 20
49.1750320923832
 10
16.5270942810671
 20
49.1749366882019
 10
16.5271427027244
 20
49.1748432210402
 10
16.5273169847611
 20
49.1746187480735
 10
16.5274518016175
 20
49.1744668420413
 10
16.5276087581336
 20
49.1742806207665
 10
16.5276962396613
 20
49.1741827690633
 10
16.5278425592171
 20
49.174060408314
 10
16.5280195735561
 20
49.1739510150281
 10
16.5281473891885
 20
49.1738740014751
 10
16.5282909411917
 20
49.1738340153255
 10
16.5283846101315
 20
49.1737976388911
 10
16.5285787295756
 20
49.1737828135962
 10
16.528863656848
 20
49.173781667952
 10
16.5289448259302
 20
49.1737874780699
 10
16.5289288751609
 20
49.173883270865
 10
16.5286872357966
 20
49.1738875144586
 10
16.5284864297791
 20
49.1738767305177
 10
16.5283746606722
 20
49.1738902709168
 10
16.5282324786181
 20
49.1739877975992
 10
16.5280061724738
 20
49.1740972519727
 10
16.5278142924021
 20
49.1742630234323
 10
16.5277841057319
 20
49.1743092921977
 10
16.5277628244018
 20
49.1743419120697
 10
16.5277574452949
 20
49.1743397720484
 10
16.5276968938197
 20
49.1744089960001
 97
0
 75
0
 76
1
 98
0
  0
HATCH
  5
20014
100
AcDbEntity
  8
plocha AZZU
100
AcDbHatch
 10
0
 20
0
 30
0
210
0
220
0
230
1
  2
SOLID
 70
1
 71
0
 91
1
 92
2
 72
0
 73
1
 93
14
 10
16.5792788125162
 20
49.1626186927543
 10
16.5798598638822
 20
49.1626701221752
 10
16.5804668023279
 20
49.1627200272218
 10
16.5803174701514
 20
49.1628169878891
 10
16.5800205254659
 20
49.1628765497815
 10
16.5799299890565
 20
49.1628970047475
 10
16.5797822577012
 20
49.1628293396264
 10
16.5793407609244
 20
49.1627710298962
 10
16.5788310762299
 20
49.1626910563174
 10
16.5786588000918
 20
49.1626787973072
 10
16.5786001958124
 20
49.1626611792218
 10
16.5786043566292
 20
49.162574062351
 10
16.5788660704325
 20
49.1625725135795
 10
16.5792788125162
 20
49.1626186927543
 97
0
 75
0
 76
1
 98
0
  0
HATCH
  5
20015
100
AcDbEntity
  8
plocha AZZU
100
AcDbHatch
 10
0
 20
0
 30
0
210
0
220
0
230
1
  2
SOLID
 70
1
 71
0
 91
1
 92
2
 72
0
 73
1
 93
19
 10
16.5448440259654
 20
49.1673421943855
 10
16.5444535948757
 20
49.1674184096285
 10
16.5440239002727
 20
49.1674343768901
 10
16.5435533818766
 20
49.1674653749457
 10
16.5432921094129
 20
49.1675220956042
 10
16.5431798730117
 20
49.1675715159471
 10
16.5430580975312
 20
49.167645385681
 10
16.5430233782001
 20
49.1676895747397
 10
16.5429677095339
 20
49.1677609881329
 10
16.5427874919942
 20
49.1677911904201
 10
16.5428376462803
 20
49.1676870720967
 10
16.5429130862121
 20
49.1675955308409
 10
16.543050989371
 20
49.1674905038366
 10
16.543158405824
 20
49.1674371488678
 10
16.5433289803841
 20
49.167399078202
 10
16.543597534953
 20
49.1673644178685
 10
16.5440452293874
 20
49.1673389684612
 10
16.5446412645558
 20
49.1672774455545
 10
16.5448440259654
 20
49.1673421943855
 97
0
 75
0
 76
1
 98
0
  0
HATCH
  5
20016
100
AcDbEntity
  8
plocha AZZU
100
AcDbHatch
 10
0
 20
0
 30
0
210
0
220
0
230
1
  2
SOLID
 70
1
 71
0
 91
1
 92
2
 72
0
 73
1
 93
13
 10
16.5647919614672
 20
49.1635243482926
 10
16.5647414294351
 20
49.1635675870693
 10
16.5646476449406
 20
49.1636684304476
 10
16.5644068833475
 20
49.1637338373719
 10
16.5641715289765
 20
49.1637996301982
 10
16.5640201556983
 20
49.1638211484337
 10
16.5638812492519
 20
49.1638004764927
 10
16.5638431421412
 20
49.1637331400155
 10
16.5639119500649
 20
49.1636482966568
 10
16.564026509608
 20
49.1635846630338
 10
16.5645128571514
 20
49.1634577835257
 10
16.564758439842
 20
49.1633963103248
 10
16.5647919614672
 20
49.1635243482926
 97
0
 75
0
 76
1
 98
0
  0
HATCH
  5
20017
100
AcDbEntity
  8
plocha AZZU
100
AcDbHatch
 10
0
 20
0
 30
0
210
0
220
0
230
1
  2
SOLID
 70
1
 71
0
 91
1
 92
2
 72
0
 73
1
 93
19
 10
16.529243317233
 20
49.1739021878443
 10
16.5290923925493
 20
49.1738877945952
 10
16.5291096191742
 20
49.1738172248006
 10
16.5293290213303
 20
49.1738149781486
 10
16.5295526535039
 20
49.1738202145758
 10
16.5297257185835
 20
49.1738002900413
 10
16.5300085889927
 20
49.1737128319392
 10
16.5302830936464
 20
49.173642724493
 10
16.5304536995814
 20
49.1736046720279
 10
16.5306327643986
 20
49.1735815852333
 10
16.5309567510392
 20
49.1735760499859
 10
16.5307207163108
 20
49.1736453225813
 10
16.5303224396965
 20
49.1737352940615
 10
16.5300209736529
 20
49.1738357825559
 10
16.5297818876383
 20
49.1738904744696
 10
16.5295974098946
 20
49.1739131717192
 10
16.5294464864377
 20
49.1738987790311
 10
16.5293328504808
 20
49.1738906454224
 10
16.529243317233
 20
49.1739021878443
 97
0
 75
0
 76
1
 98
0
  0
HATCH
  5
20018
100
AcDbEntity
  8
plocha AZZU
100
AcDbHatch
 10
0
 20
0
 30
0
210
0
220
0
230
1
  2
SOLID
 70
1
 71
0
 91
1
 92
2
 72
0
 73
1
 93
10
 10
16.5990135564711
 20
49.1611736226065
 10
16.5987784132154
 20
49.1612006363237
 10
16.5985881935072
 20
49.1612039428362
 10
16.5983000559844
 20
49.1612103841774
 10
16.5981955829608
 20
49.1611290054281
 10
16.5983981307234
 20
49.1611131264098
 10
16.598608617412
 20
49.1611112589293
 10
16.5988263651174
 20
49.1610964581711
 10
16.59901029044
 20
49.1610691708507
 10
16.5990135564711
 20
49.1611736226065
 97
0
 75
0
 76
1
 98
0
  0
HATCH
  5
20019
100
AcDbEntity
  8
plocha AZZU
100
AcDbHatch
 10
0
 20
0
 30
0
210
0
220
0
230
1
  2
SOLID
 70
1
 71
0
 91
1
 92
2
 72
0
 73
1
 93
6
 10
16.6070113433783
 20
49.1581841631001
 10
16.6070236717039
 20
49.1580472000047
 10
16.6073017935558
 20
49.1580702854362
 10
16.6073108281054
 20
49.1582020393731
 10
16.6071993596149
 20
49.1581941345457
 10
16.6070113433783
 20
49.1581841631001
 97
0
 75
0
 76
1
 98
0
  0
HATCH
  5
2001A
100
AcDbEntity
  8
plocha AZZU
100
AcDbHatch
 10
0
 20
0
 30
0
210
0
220
0
230
1
  2
SOLID
 70
1
 71
0
 91
1
 92
2
 72
0
 73
1
 93
7
 10
16.5981262654703
 20
49.1612383899105
 10
16.5981016087791
 20
49.161263535263
 10
16.5980725655796
 20
49.1613152640642
 10
16.5979391786154
 20
49.1613158809026
 10
16.5978974162305
 20
49.1612893823895
 10
16.598007818836
 20
49.1611795526518
 10
16.5981262654703
 20
49.1612383899105
 97
0
 75
0
 76
1
 98
0
  0
HATCH
  5
2001B
100
AcDbEntity
  8
plocha AZZU
100
AcDbHatch
 10
0
 20
0
 30
0
210
0
220
0
230
1
  2
SOLID
 70
1
 71
0
 91
7
 92
2
 72
0
 73
1
 93
1002
 10
16.6489912418521
 20
49.2282849721284
 10
16.6490311625749
 20
49.2282152655648
 10
16.649086784583
 20
49.2282233282017
 10
16.6493056710638
 20
49.2282967634815
 10
16.6497031244372
 20
49.2284387185667
 10
16.6500593846301
 20
49.2285425480358
 10
16.6502244689713
 20
49.2285583195829
 10
16.6506524984619
 20
49.2285718944302
 10
16.6511878746011
 20
49.2285868091718
 10
16.6513694036707
 20
49.2285602274699
 10
16.6513684369125
 20
49.2285484279264
 10
16.6509635057301
 20
49.2283348055978
 10
16.6507223894054
 20
49.2282618799804
 10
16.6498107588025
 20
49.2279759676594
 10
16.6496558670388
 20
49.227917401691
 10
16.6492724377449
 20
49.2278634556996
 10
16.6491772676038
 20
49.2278650385741
 10
16.6487049856567
 20
49.2278897816042
 10
16.6484648094592
 20
49.2279267307441
 10
16.6487399487529
 20
49.2280621440283
 10
16.6488597629921
 20
49.2281223841928
 10
16.6487904119496
 20
49.2282749669116
 10
16.6484389647597
 20
49.2281611128268
 10
16.6482179631496
 20
49.2280813114244
 10
16.6480554719401
 20
49.2280304951714
 10
16.6478997729294
 20
49.2280153816313
 10
16.6477987858358
 20
49.2280331292448
 10
16.6477376430788
 20
49.2280971960332
 10
16.6476897206624
 20
49.2281000347202
 10
16.6476290914375
 20
49.2280646842805
 10
16.6474554984164
 20
49.2280814598308
 10
16.647043665165
 20
49.2282389163862
 10
16.6465405392243
 20
49.2282780522569
 10
16.646060733615
 20
49.2281945127272
 10
16.645772377
 20
49.2281203190287
 10
16.6455995391139
 20
49.2280169705789
 10
16.6451620606632
 20
49.2277913724328
 10
16.6449210525018
 20
49.2277370893937
 10
16.6442110318647
 20
49.2276683931069
 10
16.6434305272175
 20
49.2276050837482
 10
16.6430943533465
 20
49.227552375945
 10
16.6426210992271
 20
49.2273905472201
 10
16.6423870119695
 20
49.227317228511
 10
16.6423848715393
 20
49.2273186142518
 10
16.6423577557421
 20
49.2273080648699
 10
16.6422646736859
 20
49.2272718502838
 10
16.6417533794134
 20
49.2270036745942
 10
16.6415024865362
 20
49.226974016898
 10
16.6412296480066
 20
49.2269667428151
 10
16.6407886024129
 20
49.2269380330541
 10
16.6406810690962
 20
49.2268953576387
 10
16.6402502594164
 20
49.2269455339788
 10
16.6398518924457
 20
49.2269461537836
 10
16.6395781638544
 20
49.2269220607198
 10
16.6392330317527
 20
49.2268211394813
 10
16.6390622722203
 20
49.2267708063183
 10
16.6387627068176
 20
49.2266372017534
 10
16.6384291398877
 20
49.2264437657483
 10
16.6382174313186
 20
49.2263091786252
 10
16.6380755164072
 20
49.2261723361777
 10
16.6379291030577
 20
49.2260184238211
 10
16.6378156957905
 20
49.2258859853162
 10
16.6376397790932
 20
49.225689309485
 10
16.6375119267347
 20
49.2255558505251
 10
16.6374390851794
 20
49.2254669279225
 10
16.6373837612
 20
49.2253801447582
 10
16.637344505317
 20
49.2253110721112
 10
16.6373193468161
 20
49.2252139854802
 10
16.6372994338777
 20
49.225123485267
 10
16.6372742769254
 20
49.2250263987195
 10
16.637264703857
 20
49.2249884271307
 10
16.6373114725882
 20
49.2248964162982
 10
16.6374002420307
 20
49.2247990795133
 10
16.6374706806776
 20
49.2247170253135
 10
16.6375629122233
 20
49.2246178615114
 10
16.6376499006827
 20
49.2245121114171
 10
16.6377144206743
 20
49.2244275674304
 10
16.6377776441236
 20
49.2242932049876
 10
16.6377867890253
 20
49.2241798906122
 10
16.63776830928
 20
49.2241524715599
 10
16.6377669224177
 20
49.2241164785878
 10
16.6376998047023
 20
49.2240136278457
 10
16.6375663991994
 20
49.2238917427677
 10
16.6373420913299
 20
49.2237227612353
 10
16.6370765034706
 20
49.2235604382987
 10
16.6368168005906
 20
49.2234511783149
 10
16.636622424459
 20
49.2234119052074
 10
16.6364712697599
 20
49.2233307916914
 10
16.6363326234344
 20
49.2232505597185
 10
16.6362520450752
 20
49.2231827146556
 10
16.6361930184256
 20
49.2231184606999
 10
16.6361794565764
 20
49.2230470563549
 10
16.6361652224178
 20
49.2229797478813
 10
16.6361850484126
 20
49.2229169151098
 10
16.6362046312566
 20
49.2228747844953
 10
16.6362150513263
 20
49.2228552825872
 10
16.6363358224669
 20
49.2227769836062
 10
16.6365128515615
 20
49.2227127491078
 10
16.6366092444752
 20
49.2226327277993
 10
16.6367577700659
 20
49.2225543664095
 10
16.6368783969839
 20
49.2225144202341
 10
16.6369736687247
 20
49.2223474971523
 10
16.6370979508272
 20
49.2223603051843
 10
16.6369734685987
 20
49.222573625254
 10
16.636754385743
 20
49.2226873911951
 10
16.636541725199
 20
49.2227995894286
 10
16.6364686316205
 20
49.2228691387544
 10
16.6364447659578
 20
49.2229017806001
 10
16.6364277465232
 20
49.2229490386105
 10
16.6364132187343
 20
49.2230490476508
 10
16.6364516524113
 20
49.2231615753743
 10
16.636532903184
 20
49.2232253253165
 10
16.6366916609348
 20
49.2232986886357
 10
16.6369264899652
 20
49.2233930412307
 10
16.6370019421856
 20
49.2234139888315
 10
16.6371884143915
 20
49.2234797929534
 10
16.6373148729313
 20
49.2235772574509
 10
16.6374732801035
 20
49.2237248379623
 10
16.6376508031039
 20
49.2238450504331
 10
16.6378122139343
 20
49.2239521607629
 10
16.637894168565
 20
49.2240536650216
 10
16.6379014362
 20
49.2241358509887
 10
16.6379031111422
 20
49.2241548026322
 10
16.6378983714561
 20
49.2241547214846
 10
16.6378894078733
 20
49.2242099220146
 10
16.6378098257925
 20
49.2244052908526
 10
16.6376985384516
 20
49.2245818459073
 10
16.6375026708514
 20
49.2247918016392
 10
16.6374209241659
 20
49.2249041387387
 10
16.6373595321
 20
49.2249889015178
 10
16.6373607323878
 20
49.2250200660219
 10
16.6374120083894
 20
49.2252661069134
 10
16.6374457800315
 20
49.2253492973525
 10
16.6375238582998
 20
49.2254708368927
 10
16.6375720628653
 20
49.2255239657558
 10
16.6375768302433
 20
49.2255388918807
 10
16.6377982529392
 20
49.2257698880017
 10
16.6380293468289
 20
49.2260087444896
 10
16.6381902075644
 20
49.226163675012
 10
16.6383155088113
 20
49.2262682374746
 10
16.6385234947532
 20
49.2263810231338
 10
16.6386968659403
 20
49.2263932532125
 10
16.6390166566022
 20
49.2264038473122
 10
16.6394575840192
 20
49.2264110172731
 10
16.6397914879228
 20
49.2263579924068
 10
16.6398568062218
 20
49.2263356811324
 10
16.6396127277127
 20
49.2260007864523
 10
16.6393860178165
 20
49.2256053148511
 10
16.6388980921045
 20
49.2253473322442
 10
16.6386546050919
 20
49.2251171751235
 10
16.6384704654597
 20
49.2248816322222
 10
16.6383861226661
 20
49.224705776723
 10
16.6383492305449
 20
49.2245524114429
 10
16.6383627921244
 20
49.224381070472
 10
16.6384123625807
 20
49.2241907302594
 10
16.6384853801758
 20
49.2240355487951
 10
16.6385909007554
 20
49.2238826584804
 10
16.638661306937
 20
49.2238015032233
 10
16.638720872851
 20
49.223492189822
 10
16.6389128541782
 20
49.2231467770252
 10
16.6390746580359
 20
49.2229404259412
 10
16.639431599845
 20
49.2226138271844
 10
16.6397453875214
 20
49.2224426817969
 10
16.6397623677503
 20
49.2224241796604
 10
16.6400538482025
 20
49.2220068146276
 10
16.6401678040692
 20
49.2217803352494
 10
16.6402634811881
 20
49.2215094910687
 10
16.6402989832936
 20
49.2213157660771
 10
16.6402969811769
 20
49.2212390484701
 10
16.640284589762
 20
49.221092199393
 10
16.6402139693262
 20
49.2210106408084
 10
16.6401090705788
 20
49.2208931615185
 10
16.6398504317135
 20
49.2207552664588
 10
16.639611962377
 20
49.2207169068394
 10
16.6393085996151
 20
49.2206955065886
 10
16.6390406843891
 20
49.2207029294897
 10
16.6388044936826
 20
49.2207173753871
 10
16.6385336864975
 20
49.2207868132716
 10
16.6383371087681
 20
49.2209380643179
 10
16.6381266322571
 20
49.2211960207635
 10
16.6379846148797
 20
49.2215336001933
 10
16.6379621068547
 20
49.2217246539386
 10
16.6380443562945
 20
49.2219101849879
 10
16.6378856142659
 20
49.2221356113688
 10
16.6375783518371
 20
49.2221196002195
 10
16.6373311966127
 20
49.2221041808468
 10
16.6372199482649
 20
49.2221245989817
 10
16.6371783136274
 20
49.22219031125
 10
16.6371195679789
 20
49.2222851036666
 10
16.637028805005
 20
49.222274660843
 10
16.6370235093719
 20
49.222231885335
 10
16.6370290900321
 20
49.2221979540844
 10
16.6370033575959
 20
49.2221295070054
 10
16.6369831111699
 20
49.2220089487357
 10
16.6370171978469
 20
49.2216801681565
 10
16.6370416499902
 20
49.2214093608534
 10
16.6372613972317
 20
49.2210291173136
 10
16.6373621091249
 20
49.22073537256
 10
16.6374333783837
 20
49.2205082021356
 10
16.6374811030433
 20
49.2204429195999
 10
16.6379564290989
 20
49.2200080196906
 10
16.6382460533873
 20
49.2197276054893
 10
16.6385511479825
 20
49.2194280902989
 10
16.6385948390783
 20
49.2193685800228
 10
16.6387247430091
 20
49.2191596791523
 10
16.6387976480737
 20
49.218660041923
 10
16.6388126554214
 20
49.2184188044773
 10
16.6389159284291
 20
49.2181656238693
 10
16.6390198575867
 20
49.2180396947569
 10
16.639269995361
 20
49.2178493717219
 10
16.6393726127167
 20
49.2177704547356
 10
16.6397004650073
 20
49.217518317682
 10
16.6405237520331
 20
49.2171039197472
 10
16.6411636957129
 20
49.2167735016159
 10
16.6414667894364
 20
49.2166171973929
 10
16.6416295395105
 20
49.2165458927642
 10
16.6417368817646
 20
49.2164928906786
 10
16.6418465664492
 20
49.2163693835054
 10
16.641906558916
 20
49.216191894135
 10
16.6419164387954
 20
49.2159442403718
 10
16.6419108959928
 20
49.2157643936323
 10
16.6418306212289
 20
49.2155012734519
 10
16.6401571067586
 20
49.2135776106392
 10
16.6395990490748
 20
49.2130040325348
 10
16.6392441314286
 20
49.212583677516
 10
16.6381201414954
 20
49.2112863726064
 10
16.6370480447607
 20
49.2099713453289
 10
16.6366063780968
 20
49.2093845941
 10
16.6362772950455
 20
49.2091049447884
 10
16.6356543083453
 20
49.2091250722516
 10
16.6351176201344
 20
49.2092153953159
 10
16.6345211733788
 20
49.2091732858211
 10
16.633886792827
 20
49.2090643891171
 10
16.6333025105919
 20
49.2089483428711
 10
16.6327172659572
 20
49.2086399074749
 10
16.632330680995
 20
49.2083134473056
 10
16.632146707843
 20
49.2080440321318
 10
16.6316780912942
 20
49.207423299826
 10
16.6309540943902
 20
49.206570840684
 10
16.630137668634
 20
49.2054874740128
 10
16.6290763390069
 20
49.2041090041278
 10
16.6287629758284
 20
49.2037342788078
 10
16.6282225447671
 20
49.2030550308221
 10
16.6280460376178
 20
49.2028395543179
 10
16.6279957917067
 20
49.2024513680748
 10
16.6280605803022
 20
49.2021567847097
 10
16.628163766061
 20
49.2020251807965
 10
16.6284867523259
 20
49.2014496837132
 10
16.6287139740565
 20
49.2010597355931
 10
16.6289106977915
 20
49.2006569485267
 10
16.6290778713267
 20
49.2004337061699
 10
16.6291875269711
 20
49.2001636621966
 10
16.6292483548722
 20
49.1997940100832
 10
16.6293313001106
 20
49.1991908645016
 10
16.6293698985098
 20
49.1989154946182
 10
16.6293537260972
 20
49.1986582339741
 10
16.62927897825
 20
49.1980225770352
 10
16.6292952415823
 20
49.1973292460436
 10
16.6291354912187
 20
49.1965166314298
 10
16.6290868433619
 20
49.1959023791881
 10
16.6290228434748
 20
49.1957509476378
 10
16.6289198098879
 20
49.1952513227956
 10
16.6288915451731
 20
49.1949992073571
 10
16.6288175179931
 20
49.1945459828929
 10
16.6286794063161
 20
49.1936694542055
 10
16.6285130705682
 20
49.1926935410253
 10
16.6284044193061
 20
49.1917135649132
 10
16.6283711289546
 20
49.1914015848131
 10
16.6283593961512
 20
49.1912944347926
 10
16.6283612511211
 20
49.1911800533854
 10
16.6285269182358
 20
49.1903512118369
 10
16.6287819082975
 20
49.1889825193462
 10
16.6288314408258
 20
49.1887717627573
 10
16.6288728587217
 20
49.1886006969893
 10
16.6288963479267
 20
49.1884660442859
 10
16.6290784592321
 20
49.1876208618601
 10
16.6292134955318
 20
49.1870094458483
 10
16.6294497550313
 20
49.1858350272055
 10
16.6295714258176
 20
49.1852000864394
 10
16.6297338238531
 20
49.1845793139426
 10
16.6299937614759
 20
49.1834178604708
 10
16.63019719836
 20
49.1824951537823
 10
16.6303822708826
 20
49.1816840506633
 10
16.6304419474046
 20
49.1813902968965
 10
16.6305190820402
 20
49.1811432954528
 10
16.6305631595057
 20
49.1807936201017
 10
16.6306818935351
 20
49.180333469903
 10
16.6307758299463
 20
49.1800690763342
 10
16.6309011111635
 20
49.1794721589641
 10
16.6309621793494
 20
49.1792322164844
 10
16.6311087497534
 20
49.1786065040371
 10
16.6312298973252
 20
49.1779447045227
 10
16.6313625273627
 20
49.177213046699
 10
16.6314364142234
 20
49.1767400680765
 10
16.6314857558176
 20
49.1764698102031
 10
16.6315316115543
 20
49.1763401826365
 10
16.6316824273111
 20
49.1758259279169
 10
16.631761986229
 20
49.1756107244233
 10
16.6317932385924
 20
49.1754290553426
 10
16.6318988232176
 20
49.1745216733006
 10
16.6319768620018
 20
49.1738771705836
 10
16.6319597512839
 20
49.1736206664522
 10
16.6320957797725
 20
49.1730585016415
 10
16.6324049912763
 20
49.1717080910225
 10
16.6324379284641
 20
49.171527479916
 10
16.6323386842755
 20
49.1715423521141
 10
16.6312201879899
 20
49.1716218465797
 10
16.6292123934526
 20
49.1719014323228
 10
16.6286419282732
 20
49.1717749451004
 10
16.628523610456
 20
49.1714291520168
 10
16.6290191485007
 20
49.1707462630591
 10
16.6312545872916
 20
49.1701520167561
 10
16.6318126046221
 20
49.1694893061239
 10
16.6321751325277
 20
49.169175177845
 10
16.6327310810183
 20
49.1681046156619
 10
16.6328136839455
 20
49.1671817985211
 10
16.6331211822228
 20
49.1657312731262
 10
16.632940647428
 20
49.1645180563722
 10
16.6329237704105
 20
49.1642108269945
 10
16.6329776515481
 20
49.1640251027852
 10
16.6340043193332
 20
49.1643895789423
 10
16.6341794715205
 20
49.1632682365848
 10
16.6342999165221
 20
49.1630256419223
 10
16.6343247799294
 20
49.162907934139
 10
16.6342663542353
 20
49.1628603643939
 10
16.6341116848778
 20
49.1628567624486
 10
16.6340818204532
 20
49.1621977985337
 10
16.6340546067335
 20
49.1613125201807
 10
16.6340165556924
 20
49.1603158853328
 10
16.634019204829
 20
49.1602275024205
 10
16.634010636206
 20
49.1601556951837
 10
16.6339377446553
 20
49.1597147935258
 10
16.6338350457772
 20
49.1590130568575
 10
16.6336484564187
 20
49.1574951668551
 10
16.6334304785743
 20
49.1558525017489
 10
16.6334381730878
 20
49.1555724997059
 10
16.6333456078825
 20
49.1547586745514
 10
16.6333125080953
 20
49.1543219227499
 10
16.6332185935752
 20
49.1536042997846
 10
16.6330810766806
 20
49.1525460515637
 10
16.6329908760075
 20
49.1518315792016
 10
16.6326652999517
 20
49.1512230192819
 10
16.6321236853255
 20
49.1501037130091
 10
16.6316291552678
 20
49.1491275933599
 10
16.630999209627
 20
49.1480345150597
 10
16.6311514671581
 20
49.147486974249
 10
16.6313807248437
 20
49.1471344178122
 10
16.6315042051939
 20
49.1470226362683
 10
16.6315992308545
 20
49.1468809312127
 10
16.6316289856643
 20
49.1467526355796
 10
16.631893563654
 20
49.146214883578
 10
16.6328152408141
 20
49.1463315897339
 10
16.6333776549974
 20
49.1463007633221
 10
16.6335575054122
 20
49.1462808982946
 10
16.633731148679
 20
49.146231633881
 10
16.633835840385
 20
49.1462022317121
 10
16.6340954518457
 20
49.1461155043224
 10
16.6340523174199
 20
49.1460760806284
 10
16.6338872888431
 20
49.1460604481881
 10
16.6338985836838
 20
49.1460293179838
 10
16.6338476759748
 20
49.1459140184552
 10
16.633454593836
 20
49.1457724589437
 10
16.633171356316
 20
49.1456542523227
 10
16.6328397757529
 20
49.1455453163833
 10
16.6326766108122
 20
49.1451790049898
 10
16.632669485928
 20
49.1449559438656
 10
16.6328339535851
 20
49.1446875821754
 10
16.632891568879
 20
49.144017731724
 10
16.6332463167222
 20
49.1433151441097
 10
16.6339800706947
 20
49.1435015202224
 10
16.6351788660607
 20
49.143469250601
 10
16.6360772003173
 20
49.143437704518
 10
16.6363988231696
 20
49.1434107523467
 10
16.6376165033345
 20
49.1431805962802
 10
16.6381840896768
 20
49.1430635111118
 10
16.6390530654352
 20
49.1428926252348
 10
16.6396921105006
 20
49.1427700805041
 10
16.6398209765306
 20
49.1427299814265
 10
16.6399759784289
 20
49.1426331212832
 10
16.6400482648717
 20
49.1425404557993
 10
16.6400596701598
 20
49.1424487304164
 10
16.6400486192821
 20
49.1422960531165
 10
16.639999547296
 20
49.1414864148484
 10
16.6399504694745
 20
49.1409971552225
 10
16.6398592046999
 20
49.139700140511
 10
16.6398725869427
 20
49.1389922925597
 10
16.6398292742116
 20
49.1383728984225
 10
16.6397763264199
 20
49.1373234513009
 10
16.6397628463016
 20
49.1364520526703
 10
16.6399924567369
 20
49.1363024026886
 10
16.6401664831279
 20
49.1361298302388
 10
16.6402106948301
 20
49.1357159381669
 10
16.6405592059573
 20
49.1353762311599
 10
16.6406072159748
 20
49.1352483910357
 10
16.6407245061422
 20
49.1349360421134
 10
16.6408295716991
 20
49.1346429845107
 10
16.6409102967559
 20
49.1343109242351
 10
16.6411415686039
 20
49.1336582634458
 10
16.6416943527375
 20
49.133159398663
 10
16.6431444734308
 20
49.1325064645827
 10
16.6434736275945
 20
49.1323927258953
 10
16.6433161975841
 20
49.1322433743414
 10
16.6430920135699
 20
49.1321356056062
 10
16.6425534675812
 20
49.1319450050521
 10
16.6421288833469
 20
49.1317277531073
 10
16.6418193533166
 20
49.131331609477
 10
16.6413408282008
 20
49.1308297179498
 10
16.6408278621087
 20
49.1302757494884
 10
16.6411076465214
 20
49.1298072657022
 10
16.6408357604721
 20
49.1297085210505
 10
16.6408131922528
 20
49.1296779663009
 10
16.6404313014694
 20
49.1296183990972
 10
16.6402295324228
 20
49.1299886805882
 10
16.638810052926
 20
49.1295140251223
 10
16.6377842239687
 20
49.1288240005317
 10
16.6372423649039
 20
49.1275994154706
 10
16.6371388665784
 20
49.1266833120457
 10
16.6370317717649
 20
49.125756784014
 10
16.6370048642735
 20
49.1252750640254
 10
16.6367134390696
 20
49.1246369423908
 10
16.636234865994
 20
49.1240830892609
 10
16.633443860359
 20
49.1237394479838
 10
16.6333705160769
 20
49.1237554771373
 10
16.6325953488324
 20
49.1239900595598
 10
16.6272779584375
 20
49.1242820606561
 10
16.6272956414903
 20
49.1245394392018
 10
16.6273179317256
 20
49.1257598150547
 10
16.6273094593872
 20
49.1258954864296
 10
16.6276731785122
 20
49.1294325158759
 10
16.6276971563552
 20
49.1311967907257
 10
16.6275738623595
 20
49.1314911869711
 10
16.6275757964564
 20
49.131511219729
 10
16.6275700652514
 20
49.1317353822963
 10
16.6275824149682
 20
49.1322429565933
 10
16.6275815585015
 20
49.1323152987805
 10
16.6275894154873
 20
49.1324353196078
 10
16.6276564446639
 20
49.1335043842086
 10
16.6277264174391
 20
49.1345555571663
 10
16.6278551035469
 20
49.1353502333737
 10
16.6280089752268
 20
49.1356519886693
 10
16.6280924900154
 20
49.1365258556121
 10
16.6288206246704
 20
49.1372173860494
 10
16.6289865449064
 20
49.140516835187
 10
16.6293232511991
 20
49.1406633969817
 10
16.6297863571101
 20
49.1408539697419
 10
16.6314098267058
 20
49.1413019587742
 10
16.6319875620369
 20
49.1414868946144
 10
16.6320106521341
 20
49.142351540652
 10
16.6325918044437
 20
49.143428510245
 10
16.6324938716224
 20
49.1436191246544
 10
16.6324722149599
 20
49.1436501759548
 10
16.6324680994798
 20
49.1436752246542
 10
16.6319069376282
 20
49.1447396737734
 10
16.6315443587211
 20
49.1450375283425
 10
16.6303237492407
 20
49.1453408661626
 10
16.6302213932408
 20
49.1454436902165
 10
16.6304356692272
 20
49.1458963980726
 10
16.6307979702003
 20
49.1460225326805
 10
16.6313774759134
 20
49.1460922353898
 10
16.6310906357613
 20
49.1467413439339
 10
16.6307807403563
 20
49.1475698442009
 10
16.6306145890759
 20
49.1480928930711
 10
16.6304220122231
 20
49.148614071134
 10
16.630203540394
 20
49.1495367097187
 10
16.6300312877479
 20
49.1500154888442
 10
16.6297436176455
 20
49.1503019958053
 10
16.6292673479853
 20
49.1504348851129
 10
16.6288750118131
 20
49.1506263133093
 10
16.6287066277399
 20
49.1510001600237
 10
16.6284178315872
 20
49.151530405839
 10
16.6284443522485
 20
49.1516788027166
 10
16.6285009270199
 20
49.1517910878611
 10
16.6280700593323
 20
49.1523810936816
 10
16.627795688199
 20
49.1528879582963
 10
16.6274066356652
 20
49.153657370178
 10
16.6271313535488
 20
49.1543896109926
 10
16.6268282029618
 20
49.1550335483826
 10
16.6265501844975
 20
49.1556608112781
 10
16.6264247291969
 20
49.1558706529077
 10
16.6262796589966
 20
49.1561781689199
 10
16.6258479414544
 20
49.1569196579341
 10
16.6256437687964
 20
49.1575959778168
 10
16.6257773115042
 20
49.1584790430335
 10
16.6258421190375
 20
49.1592150269183
 10
16.6245561432645
 20
49.1591708019467
 10
16.6245932473717
 20
49.1590860292743
 10
16.6246170181559
 20
49.1583766260971
 10
16.6247185483683
 20
49.1575711430833
 10
16.6248110513791
 20
49.1570088215883
 10
16.6250392455304
 20
49.1563748343157
 10
16.6251401272461
 20
49.1561381726828
 10
16.6254436726556
 20
49.1556530437434
 10
16.6252985679496
 20
49.1555264390657
 10
16.6250793740075
 20
49.1553104420763
 10
16.6249915094741
 20
49.1550703237631
 10
16.625034973933
 20
49.1548060845194
 10
16.6251366089638
 20
49.1543596348833
 10
16.6257791517376
 20
49.1545422672975
 10
16.6262132681478
 20
49.1545984086272
 10
16.626463796854
 20
49.1540261928587
 10
16.6260148122281
 20
49.1539587803857
 10
16.6245829981149
 20
49.1537017215041
 10
16.6245717421668
 20
49.1536941738678
 10
16.6251399923383
 20
49.1534654425715
 10
16.6257342790135
 20
49.1531096681088
 10
16.6261129414942
 20
49.1530529258286
 10
16.6266128681737
 20
49.1530579790984
 10
16.6267234627259
 20
49.153026921256
 10
16.6271040920813
 20
49.1522950680135
 10
16.6274538061692
 20
49.1514868272306
 10
16.6274291096109
 20
49.1514213115331
 10
16.6271350486104
 20
49.1513292239998
 10
16.6270128670053
 20
49.1512203369496
 10
16.6268845194236
 20
49.1509940633565
 10
16.6268932387633
 20
49.1504861122112
 10
16.6270897731338
 20
49.1489657509432
 10
16.626983695952
 20
49.1488793404522
 10
16.6269321682418
 20
49.1488526656077
 10
16.626004911362
 20
49.1486763560249
 10
16.6251733792181
 20
49.1484671435076
 10
16.6245235143502
 20
49.1482373710923
 10
16.6240797625125
 20
49.1478384028129
 10
16.624033027988
 20
49.147425768023
 10
16.6242162140104
 20
49.1468539804326
 10
16.6245202010833
 20
49.146399341857
 10
16.6248317175532
 20
49.1459974325639
 10
16.6258619645659
 20
49.1445896855652
 10
16.6249120230311
 20
49.1444104768344
 10
16.6245374807951
 20
49.1443313631123
 10
16.6240129735266
 20
49.1441890276263
 10
16.6238240370606
 20
49.1439564710775
 10
16.6238425674588
 20
49.1438438078685
 10
16.6237664420844
 20
49.1435754002372
 10
16.6236524907654
 20
49.1433744529555
 10
16.6237754565829
 20
49.1427080778195
 10
16.6237911358979
 20
49.1426127471268
 10
16.6241831491979
 20
49.1426668004616
 10
16.624056575197
 20
49.1431926446764
 10
16.6239160264059
 20
49.1435596879199
 10
16.6239521419134
 20
49.1437463577335
 10
16.6240157241398
 20
49.1438472983901
 10
16.6240514589119
 20
49.1439550348843
 10
16.6242089343604
 20
49.1440538556329
 10
16.625335405423
 20
49.1442738654851
 10
16.6262151687034
 20
49.1444501033119
 10
16.6272506106503
 20
49.1446548840484
 10
16.6273240499264
 20
49.1443707618572
 10
16.6273453002193
 20
49.143916368768
 10
16.6273543770558
 20
49.1433734421351
 10
16.6274583848557
 20
49.1427407926661
 10
16.627415131734
 20
49.1425974562638
 10
16.6271857854894
 20
49.1422042363169
 10
16.6269850585011
 20
49.1419620839271
 10
16.6269085304284
 20
49.1416147448016
 10
16.6270484004576
 20
49.1414142299114
 10
16.627601383773
 20
49.1413832219947
 10
16.6276490001121
 20
49.1413846693383
 10
16.6276498705674
 20
49.1412387876864
 10
16.6275595559359
 20
49.1412312202002
 10
16.6270390781246
 20
49.1413083628358
 10
16.6266218119682
 20
49.141489247813
 10
16.6262852245425
 20
49.1416670741735
 10
16.6251613830164
 20
49.1416752053884
 10
16.6247922845347
 20
49.141806889958
 10
16.6243718761602
 20
49.1422505628213
 10
16.6241238469238
 20
49.1425398603747
 10
16.6238318098766
 20
49.1425279539413
 10
16.62394670177
 20
49.1423169045383
 10
16.6240119871037
 20
49.1421637162627
 10
16.6242760736755
 20
49.1418580204778
 10
16.624610480933
 20
49.1415310024343
 10
16.6246092647344
 20
49.1415154198243
 10
16.6239379336434
 20
49.1413459537454
 10
16.623246695894
 20
49.1412134803152
 10
16.6224377531905
 20
49.1410225470318
 10
16.6209334426997
 20
49.1404148021372
 10
16.6195736209168
 20
49.139316049064
 10
16.6191897108948
 20
49.1382446439943
 10
16.6188617579997
 20
49.1362917086198
 10
16.6192200099297
 20
49.1351976953056
 10
16.619440745178
 20
49.1349723192726
 10
16.6191072987525
 20
49.1347762202916
 10
16.6187635326851
 20
49.1346729587314
 10
16.6182448457226
 20
49.1344959318203
 10
16.6174948220923
 20
49.1341008604634
 10
16.617230301899
 20
49.1338781139476
 10
16.6171895918923
 20
49.133843831417
 10
16.617135015356
 20
49.1336877429902
 10
16.6171427719295
 20
49.1334794693447
 10
16.6172166102634
 20
49.1331795688675
 10
16.6172441357732
 20
49.132978788808
 10
16.6169049577561
 20
49.1327266800134
 10
16.6166078736099
 20
49.1324329461882
 10
16.6165436450368
 20
49.1322738920324
 10
16.6165366861379
 20
49.1320815273735
 10
16.6165487614371
 20
49.1319485721411
 10
16.6166118094406
 20
49.1318261976372
 10
16.6166743130254
 20
49.131712790593
 10
16.6169548070084
 20
49.1314369752067
 10
16.617138760824
 20
49.1313060323385
 10
16.617241017907
 20
49.1311539902478
 10
16.6172925820079
 20
49.1310417976623
 10
16.6171677240152
 20
49.1308953830067
 10
16.6169284642184
 20
49.1306583028218
 10
16.616648481357
 20
49.1304132489458
 10
16.616373387764
 20
49.1301385123638
 10
16.6160190470076
 20
49.1299306442929
 10
16.6159003914651
 20
49.129813627568
 10
16.6158769238521
 20
49.1295875115958
 10
16.6159542524144
 20
49.1292852757866
 10
16.6161182361154
 20
49.1289928018662
 10
16.6162549746141
 20
49.1288323453611
 10
16.6163750691271
 20
49.128739491456
 10
16.6166174837286
 20
49.1286408260393
 10
16.6168769964016
 20
49.1285723348194
 10
16.6171630560587
 20
49.1286107091943
 10
16.6174999803071
 20
49.1287757738085
 10
16.6177512724841
 20
49.1288913279434
 10
16.6179356478732
 20
49.1289442157322
 10
16.6181184576761
 20
49.1289899344945
 10
16.6183359863391
 20
49.1288264815843
 10
16.6186322115562
 20
49.1285663915157
 10
16.618927943112
 20
49.1283447936841
 10
16.6191577055933
 20
49.1282338556581
 10
16.6193110712131
 20
49.1281619682867
 10
16.6196535494072
 20
49.1280921090816
 10
16.6199429025435
 20
49.1281225586675
 10
16.620121905862
 20
49.1281289116513
 10
16.6201865769991
 20
49.1281396239276
 10
16.6204655897023
 20
49.1281858411201
 10
16.6207975036896
 20
49.1283143383742
 10
16.6213066118445
 20
49.1286400159938
 10
16.6217297527027
 20
49.128862187472
 10
16.6221527686754
 20
49.1289414879527
 10
16.6222716932862
 20
49.128941427702
 10
16.6223673027846
 20
49.1287984087695
 10
16.6227749010125
 20
49.1286679885721
 10
16.6230045113238
 20
49.1286806298976
 10
16.6232862994038
 20
49.1287114466711
 10
16.6234106977056
 20
49.128760077032
 10
16.6235730791104
 20
49.1287116312112
 10
16.6235522513077
 20
49.128699515922
 10
16.6233963231916
 20
49.1283578929352
 10
16.6232835751918
 20
49.1279149325066
 10
16.6232561637819
 20
49.1272218020877
 10
16.6233867792525
 20
49.1261951999983
 10
16.6235420151645
 20
49.1256381459402
 10
16.6237264850859
 20
49.1250581006557
 10
16.623793009639
 20
49.1246534835633
 10
16.6238231460925
 20
49.1242379357022
 10
16.6235095691241
 20
49.1240221688464
 10
16.6234217530694
 20
49.1240051363958
 10
16.6218116451324
 20
49.1238585913323
 10
16.6212539925614
 20
49.1237865866407
 10
16.6206579571176
 20
49.1236468558724
 10
16.6197298419668
 20
49.1234185894562
 10
16.6189968430979
 20
49.1230578840715
 10
16.6181758383493
 20
49.122479674463
 10
16.6175890238361
 20
49.1219830598
 10
16.6168123007123
 20
49.1209854538021
 10
16.6148435875123
 20
49.1191070329147
 10
16.6136132403148
 20
49.1181584871789
 10
16.6127698758436
 20
49.1174161319093
 10
16.612637561717
 20
49.1170167234218
 10
16.6126220119916
 20
49.1168394253258
 10
16.6443324122922
 20
49.1191173317538
 10
16.6452924841851
 20
49.119186157519
 10
16.6462637973062
 20
49.1192557826173
 10
16.6461284290557
 20
49.119597435714
 10
16.6457116243917
 20
49.1203121927135
 10
16.6457922514329
 20
49.1204172993537
 10
16.6456651105635
 20
49.1205554358284
 10
16.645406449306
 20
49.1205709536672
 10
16.6445601381532
 20
49.1204235396293
 10
16.6441917441895
 20
49.120370874073
 10
16.6441320917176
 20
49.1203956080852
 10
16.6440956195867
 20
49.1204352255074
 10
16.6441139359448
 20
49.1205063249039
 10
16.6441755481434
 20
49.1205392874418
 10
16.645285859137
 20
49.1208470919185
 10
16.6453270568282
 20
49.1209961987771
 10
16.6452433115354
 20
49.1211955569377
 10
16.6450746265779
 20
49.1215263859947
 10
16.6447800989706
 20
49.1217169691715
 10
16.6444727824832
 20
49.1215834239226
 10
16.6442971544651
 20
49.1219874093542
 10
16.6440698308259
 20
49.1227466266002
 10
16.6439030341347
 20
49.1233737712091
 10
16.6438251017322
 20
49.1235470189835
 10
16.6424594772331
 20
49.1259855862533
 10
16.6405396046849
 20
49.1293617866782
 10
16.6405887354078
 20
49.1295004451899
 10
16.6408672182544
 20
49.1295840411026
 10
16.6409918854606
 20
49.1295638901371
 10
16.641247092892
 20
49.1295737673059
 10
16.6414634098269
 20
49.129211547487
 10
16.6419737889808
 20
49.1283317830595
 10
16.6433867826157
 20
49.1290621737776
 10
16.6443457690559
 20
49.1299106132588
 10
16.6447359219882
 20
49.1310191391511
 10
16.6446336878662
 20
49.131642484318
 10
16.6441131855994
 20
49.1320261010016
 10
16.6435792926552
 20
49.1321709819439
 10
16.6437707089948
 20
49.1323304477659
 10
16.6445598379737
 20
49.1321715219076
 10
16.6452661997383
 20
49.1321184014652
 10
16.6456671017167
 20
49.1329707536664
 10
16.6475447310957
 20
49.1338586940718
 10
16.6480304547595
 20
49.1343132202085
 10
16.6487121365549
 20
49.1349439439503
 10
16.6487280822714
 20
49.1350182587664
 10
16.6487260249539
 20
49.1351685051947
 10
16.6487056871003
 20
49.1352723073607
 10
16.6487231963746
 20
49.1353654538147
 10
16.6487827200716
 20
49.1354507937489
 10
16.6488787093226
 20
49.1355203705845
 10
16.6490192933432
 20
49.1355740118227
 10
16.6492842102681
 20
49.1356600154266
 10
16.6494913456277
 20
49.1358158503859
 10
16.6494872327088
 20
49.1364793658457
 10
16.6494735014885
 20
49.1366117401819
 10
16.6508509969764
 20
49.1375753716228
 10
16.6510895322295
 20
49.1377712660237
 10
16.6513227811487
 20
49.1380509576265
 10
16.651382848591
 20
49.1385358810462
 10
16.6512543424461
 20
49.1392135104184
 10
16.6511178609293
 20
49.1398333507562
 10
16.6507468166232
 20
49.1402878569253
 10
16.6489674085088
 20
49.141352565833
 10
16.6469774897203
 20
49.1421048208421
 10
16.6452230640203
 20
49.142484542663
 10
16.644857834983
 20
49.1426712737949
 10
16.6449164528105
 20
49.1427683275651
 10
16.6451988959762
 20
49.1433504693509
 10
16.6453593099838
 20
49.144151501626
 10
16.6452118459543
 20
49.1450504476584
 10
16.6446821027883
 20
49.1456113084106
 10
16.6444447144486
 20
49.1461688780196
 10
16.6436625240797
 20
49.1467119119067
 10
16.6432242779673
 20
49.1471595763133
 10
16.6432071189255
 20
49.1477087668735
 10
16.6431140317542
 20
49.1481037127626
 10
16.6433311224286
 20
49.1485039339974
 10
16.643741836879
 20
49.1492145952219
 10
16.6441027868802
 20
49.1498505235372
 10
16.6443549757254
 20
49.1502040714838
 10
16.6446819744527
 20
49.1508579483301
 10
16.6446192671057
 20
49.1512401341167
 10
16.6446242842597
 20
49.1518712790675
 10
16.6448595036253
 20
49.1522338001718
 10
16.6450435723175
 20
49.1529081062193
 10
16.6450941117197
 20
49.1534508969198
 10
16.644634175383
 20
49.1540797413316
 10
16.644415305912
 20
49.154562816964
 10
16.6442178874307
 20
49.1549151453581
 10
16.6437992088493
 20
49.1550320174855
 10
16.6436959199161
 20
49.1551951368622
 10
16.6433326567
 20
49.1557074063029
 10
16.6429757891637
 20
49.1567122622722
 10
16.6426705417191
 20
49.1580107248093
 10
16.642315793819
 20
49.1580383927841
 10
16.6423367203873
 20
49.1581194175194
 10
16.6427104188061
 20
49.1581458028835
 10
16.6427913505472
 20
49.1583143022861
 10
16.6428213232749
 20
49.15850972559
 10
16.6421638263105
 20
49.1588295676741
 10
16.6419880596017
 20
49.1587662874686
 10
16.6414742013923
 20
49.1582111259786
 10
16.6420257787991
 20
49.1581585068882
 10
16.642099087963
 20
49.1581471461205
 10
16.6421141446627
 20
49.1580541192921
 10
16.6417120039828
 20
49.1580854811739
 10
16.6414461088375
 20
49.1577207862812
 10
16.6412967659596
 20
49.1574965849619
 10
16.6409443001143
 20
49.1571868197083
 10
16.6412353861221
 20
49.156169620907
 10
16.6415200833902
 20
49.1549077937519
 10
16.641907370839
 20
49.1533988591891
 10
16.6421899406316
 20
49.1527168025549
 10
16.6421361321947
 20
49.152194125925
 10
16.6420155638607
 20
49.1516056889768
 10
16.6417478939209
 20
49.1520612630749
 10
16.6418315233548
 20
49.1522022339391
 10
16.6417683840658
 20
49.1525869054678
 10
16.6414974708912
 20
49.1531743622547
 10
16.6408693609289
 20
49.1535992492525
 10
16.6385078358152
 20
49.1544853863114
 10
16.6370381878296
 20
49.154827910724
 10
16.6349609976999
 20
49.1550419574575
 10
16.634797660456
 20
49.1552210200544
 10
16.6348697077632
 20
49.1566963676311
 10
16.6345971063407
 20
49.1577869016119
 10
16.6344217159697
 20
49.1591702684512
 10
16.6343243145886
 20
49.1594507161982
 10
16.6343220311486
 20
49.1595989772579
 10
16.6343299262188
 20
49.1597288951021
 10
16.6344146767326
 20
49.1600344621006
 10
16.6344784125736
 20
49.1601326704339
 10
16.6344789477932
 20
49.1601892818681
 10
16.6345281542648
 20
49.1602093193741
 10
16.6345415574055
 20
49.160871282947
 10
16.6345614201936
 20
49.1618013405433
 10
16.6346374994917
 20
49.1625994707669
 10
16.6347041674182
 20
49.1627827023691
 10
16.6347335967586
 20
49.1628554137888
 10
16.6347250570564
 20
49.1629305504544
 10
16.6349244509291
 20
49.1632468588862
 10
16.6351825403308
 20
49.1637250480424
 10
16.6354289115274
 20
49.1640184288157
 10
16.635643729559
 20
49.1641623928168
 10
16.6357217311456
 20
49.1642259004096
 10
16.6357377432496
 20
49.1642199615613
 10
16.6357843100711
 20
49.1642459177459
 10
16.6360744364464
 20
49.1643584071919
 10
16.6363364108952
 20
49.1643861156771
 10
16.636615239412
 20
49.1643966156354
 10
16.6369337532743
 20
49.1643363267449
 10
16.6374346752894
 20
49.1641049421302
 10
16.6386728817728
 20
49.1634840839274
 10
16.6386769399047
 20
49.1634708126645
 10
16.6390771432724
 20
49.1633954621722
 10
16.6411176353256
 20
49.1624683316621
 10
16.6435206226291
 20
49.161505495078
 10
16.6436069425922
 20
49.1614784483852
 10
16.643665746794
 20
49.1614897799435
 10
16.6436895058015
 20
49.1615131776449
 10
16.643831607107
 20
49.1612191249308
 10
16.643942065491
 20
49.1610169589358
 10
16.6439072428013
 20
49.16096711182
 10
16.6435191119032
 20
49.1606853616627
 10
16.643103568721
 20
49.1597200157045
 10
16.6425861036187
 20
49.1595116694516
 10
16.6423896983826
 20
49.1593261270949
 10
16.6422376184018
 20
49.1591894940693
 10
16.6423228002455
 20
49.1589894981041
 10
16.6424545448258
 20
49.1589408242668
 10
16.6424009334995
 20
49.1588971795079
 10
16.6428442177323
 20
49.1586537787798
 10
16.6433658719393
 20
49.1590670464442
 10
16.6436723636645
 20
49.1593735567137
 10
16.6438906264674
 20
49.1597450555
 10
16.644267737808
 20
49.1608501229968
 10
16.6440111496047
 20
49.1609619207229
 10
16.6439183262034
 20
49.1612288669512
 10
16.6437559891009
 20
49.1614780502379
 10
16.643827895181
 20
49.1615271857901
 10
16.6448238139822
 20
49.1619825295089
 10
16.6458124043204
 20
49.1624826457035
 10
16.6463893471274
 20
49.1640182403922
 10
16.6461689067001
 20
49.1653616682898
 10
16.6454189790759
 20
49.166984827628
 10
16.6446121988278
 20
49.1679018312709
 10
16.6431140438735
 20
49.1686114828082
 10
16.6415732890974
 20
49.1691595624253
 10
16.6387490951553
 20
49.1701605898748
 10
16.6365069021344
 20
49.1707723195902
 10
16.6333657726134
 20
49.1713884366203
 10
16.6330097283939
 20
49.1714417931872
 10
16.633030089516
 20
49.171618853761
 10
16.6326118881493
 20
49.1731902737242
 10
16.6324547250215
 20
49.1738682991211
 10
16.6324119412569
 20
49.174052867893
 10
16.6324046022185
 20
49.1740458533288
 10
16.6323553293275
 20
49.1742204005445
 10
16.6320303491259
 20
49.1756912327029
 10
16.6319455620239
 20
49.1760725905501
 10
16.6318838813083
 20
49.1763469790082
 10
16.6318389403186
 20
49.1764524052774
 10
16.6317644391529
 20
49.1767350264318
 10
16.6312714714286
 20
49.178738063063
 10
16.6310875321132
 20
49.1799613374269
 10
16.6311263585356
 20
49.1803535925018
 10
16.6305906073291
 20
49.1825116693786
 10
16.6302299589586
 20
49.1837619703783
 10
16.6300214249405
 20
49.1846109309485
 10
16.6297709121713
 20
49.1857674059958
 10
16.6294735711458
 20
49.1872084700198
 10
16.6291816319662
 20
49.1884071775073
 10
16.62914175131
 20
49.188544976953
 10
16.6291274358087
 20
49.1886335602873
 10
16.6290903179628
 20
49.1888618167595
 10
16.6290351995434
 20
49.1890685950573
 10
16.6287709748745
 20
49.1904036352662
 10
16.6287028647119
 20
49.1908175962083
 10
16.6286295697693
 20
49.1911727572913
 10
16.6286207264387
 20
49.1913351171781
 10
16.6286240969909
 20
49.1913866272103
 10
16.6287662356207
 20
49.1924192655828
 10
16.6289862930647
 20
49.1937008828602
 10
16.6291971411771
 20
49.1947675913922
 10
16.6293163898407
 20
49.195126620418
 10
16.6293915721575
 20
49.1954825360199
 10
16.6293781596768
 20
49.195636297845
 10
16.6293738662804
 20
49.1958260308968
 10
16.6293782753536
 20
49.1959668492257
 10
16.6296605313948
 20
49.1969917914009
 10
16.6298732407444
 20
49.1983744140956
 10
16.629823682666
 20
49.1986668963252
 10
16.6298360838072
 20
49.1989847809392
 10
16.6298629105526
 20
49.1993460872346
 10
16.6297939944092
 20
49.1995027505154
 10
16.6296224840031
 20
49.1999833061807
 10
16.6295956118485
 20
49.2000904412022
 10
16.6295966290693
 20
49.2001591650228
 10
16.6294586846044
 20
49.2006956704717
 10
16.6291749019772
 20
49.2012312022891
 10
16.628658989103
 20
49.2018892272997
 10
16.6284880162772
 20
49.2024327299893
 10
16.6285055563119
 20
49.2027224467167
 10
16.6286981820901
 20
49.2029390605014
 10
16.6290782256937
 20
49.2034039722381
 10
16.6293876371133
 20
49.2037036260226
 10
16.6298116178439
 20
49.2040006897155
 10
16.6307177721271
 20
49.2051331368352
 10
16.6322743232596
 20
49.2070700941877
 10
16.6330960356178
 20
49.208121759474
 10
16.6335466191164
 20
49.2083565779708
 10
16.6340359109171
 20
49.208455232839
 10
16.6360099808296
 20
49.2086480227424
 10
16.6363956142964
 20
49.2087820863021
 10
16.6367609175842
 20
49.2089394838587
 10
16.637000973714
 20
49.2091927618529
 10
16.6370738048849
 20
49.2092746293874
 10
16.6372486154629
 20
49.2094484983328
 10
16.6382312723874
 20
49.2106104283844
 10
16.639569783442
 20
49.2121899726074
 10
16.6402607736109
 20
49.2128477181581
 10
16.6421954597566
 20
49.2150675890416
 10
16.6424122604545
 20
49.215435454075
 10
16.6424626336739
 20
49.2158236342439
 10
16.6423919731555
 20
49.2163528557183
 10
16.6421873513879
 20
49.2166055263317
 10
16.6418894632634
 20
49.2168302512379
 10
16.6415955440424
 20
49.2171300454904
 10
16.6414311045761
 20
49.2175351275032
 10
16.6411084051019
 20
49.2178115225015
 10
16.6402323042498
 20
49.2180809312034
 10
16.6397339747478
 20
49.2183342496533
 10
16.6395603393354
 20
49.218695945203
 10
16.6394822008378
 20
49.2191712180142
 10
16.6396268137617
 20
49.2197797321506
 10
16.6396238384492
 20
49.2198970478828
 10
16.6400088242514
 20
49.2202340438693
 10
16.6403284499636
 20
49.2204833530767
 10
16.640370252005
 20
49.2205159577221
 10
16.6403666991999
 20
49.220518351742
 10
16.6404948261112
 20
49.220635599703
 10
16.6407132426298
 20
49.2209070603192
 10
16.640821148286
 20
49.2211396173454
 10
16.6408510470863
 20
49.2214911077684
 10
16.6407806034426
 20
49.2218307373545
 10
16.6406468154139
 20
49.2221778624128
 10
16.6405414153775
 20
49.2223522983593
 10
16.6404434037027
 20
49.2224817885589
 10
16.6403642925572
 20
49.2226158895524
 10
16.6403231130735
 20
49.2227245736657
 10
16.640249327866
 20
49.2228844889086
 10
16.6400940291465
 20
49.2231846296822
 10
16.6399789016108
 20
49.2234182051845
 10
16.639855384157
 20
49.2238139161981
 10
16.6397888173999
 20
49.2241298873969
 10
16.6397603138053
 20
49.224281031501
 10
16.6398735563248
 20
49.22445892505
 10
16.6402950780595
 20
49.2248284659666
 10
16.6409170214545
 20
49.2253742127792
 10
16.6410710976536
 20
49.2256629921191
 10
16.6418408546235
 20
49.2260047710729
 10
16.6421822697232
 20
49.2262394320318
 10
16.6426670662119
 20
49.2265276609057
 10
16.6435706702365
 20
49.2268774897003
 10
16.6448048272867
 20
49.2271975152564
 10
16.6449360594018
 20
49.2272222277841
 10
16.6452873496573
 20
49.2273754494097
 10
16.6455300405457
 20
49.2274194908697
 10
16.6457516073834
 20
49.2274760872141
 10
16.646338928022
 20
49.2274640672928
 10
16.6470709411252
 20
49.2275529471416
 10
16.6478231049234
 20
49.2275769400559
 10
16.6481450295116
 20
49.2275623269523
 10
16.6483973794817
 20
49.2275283083661
 10
16.6485515317612
 20
49.2275143060293
 10
16.6487099080718
 20
49.2275148252293
 10
16.648820455612
 20
49.2275151871783
 10
16.6488192270152
 20
49.2275191697006
 10
16.649105658564
 20
49.2275305532377
 10
16.6493583065187
 20
49.2275524959337
 10
16.6496001290323
 20
49.2275633151086
 10
16.650291656041
 20
49.2277446317561
 10
16.6507178270345
 20
49.227865816253
 10
16.6512418584234
 20
49.2279690274622
 10
16.651654413527
 20
49.2280768159402
 10
16.6517538862581
 20
49.2281646273782
 10
16.6520999259244
 20
49.2283692563161
 10
16.6520659285769
 20
49.2284414519389
 10
16.6520189472061
 20
49.2287468637649
 10
16.6515083904606
 20
49.2286964046849
 10
16.6510265189273
 20
49.228683186022
 10
16.6503917371679
 20
49.2286571238433
 10
16.6499545597095
 20
49.2286221866097
 10
16.6494642889687
 20
49.228467477884
 10
16.6490222805685
 20
49.2283078776934
 10
16.6489912418521
 20
49.2282849721284
 97
0
 92
2
 72
0
 73
1
 93
4
 10
16.6336339766088
 20
49.1699601751647
 10
16.6337067635688
 20
49.1696007420691
 10
16.6336428147124
 20
49.1699131089177
 10
16.6336339766088
 20
49.1699601751647
 97
0
 92
2
 72
0
 73
1
 93
14
 10
16.6167304890146
 20
49.1293620145002
 10
16.6174859207812
 20
49.129263503802
 10
16.6178232119476
 20
49.12913897683
 10
16.6178389231985
 20
49.129013467375
 10
16.6177480478872
 20
49.1289779833225
 10
16.6175386095924
 20
49.1288762573542
 10
16.6172989640014
 20
49.1287904891157
 10
16.616935234255
 20
49.1287212701755
 10
16.6166611295051
 20
49.128777866182
 10
16.6163992807501
 20
49.1289946219095
 10
16.6163066218224
 20
49.1292559480891
 10
16.6164251466228
 20
49.1294743201888
 10
16.6164693917878
 20
49.1294953470224
 10
16.6167304890146
 20
49.1293620145002
 97
0
 92
2
 72
0
 73
1
 93
37
 10
16.6311844434731
 20
49.1475494267819
 10
16.6319470081989
 20
49.1490717703613
 10
16.6321197662833
 20
49.1494043840852
 10
16.6327117151226
 20
49.1505581791504
 10
16.6330548992226
 20
49.1512084908988
 10
16.633332666179
 20
49.1517785606452
 10
16.6333974373443
 20
49.1521660954424
 10
16.6334848066139
 20
49.1527451176915
 10
16.6335473639528
 20
49.1532870552543
 10
16.6336081882612
 20
49.1537614997406
 10
16.6337397451717
 20
49.1547819276895
 10
16.6338770327701
 20
49.1557783963251
 10
16.6339620778193
 20
49.1566516323699
 10
16.6340226675862
 20
49.1573510768248
 10
16.6341112098295
 20
49.1581983776999
 10
16.6341827178665
 20
49.1588826629066
 10
16.6342065977337
 20
49.1591111707438
 10
16.63430862888
 20
49.1588354387846
 10
16.6342733128567
 20
49.1585872274382
 10
16.6341773207349
 20
49.1577697607452
 10
16.6341134581676
 20
49.1569962018767
 10
16.6340652641301
 20
49.1564124144769
 10
16.6340412330355
 20
49.1561213054859
 10
16.6338784873768
 20
49.1550531178056
 10
16.6337165094893
 20
49.1539269572118
 10
16.6336039877084
 20
49.1530632689416
 10
16.6335235123276
 20
49.152498690282
 10
16.6334752587002
 20
49.1519515961599
 10
16.6333674800984
 20
49.1516462104095
 10
16.633243965868
 20
49.1513748950203
 10
16.6328963292778
 20
49.1507662521812
 10
16.6324256863448
 20
49.1499039448743
 10
16.6320738676121
 20
49.1492069102235
 10
16.6317293023101
 20
49.1485242260089
 10
16.6314695782772
 20
49.1479683016036
 10
16.6312884245889
 20
49.1475515352962
 10
16.6311844434731
 20
49.1475494267819
 97
0
 92
2
 72
0
 73
1
 93
8
 10
16.6342308024624
 20
49.1661875300862
 10
16.6348246362051
 20
49.1666976779974
 10
16.6357590478198
 20
49.1653388184053
 10
16.6357170292011
 20
49.165253057431
 10
16.6354804495968
 20
49.1650707589896
 10
16.6352858934605
 20
49.1649742206045
 10
16.6344331395936
 20
49.165383113182
 10
16.6342308024624
 20
49.1661875300862
 97
0
 92
2
 72
0
 73
1
 93
27
 10
16.6234074067988
 20
49.1290945538493
 10
16.6235103284855
 20
49.1291727557858
 10
16.6240295167636
 20
49.1300502998517
 10
16.624544977631
 20
49.1306723396165
 10
16.6248194630546
 20
49.1308118856268
 10
16.6251691900998
 20
49.1310494439085
 10
16.6262010345043
 20
49.1315638005117
 10
16.6267924110373
 20
49.131829370011
 10
16.6268431760825
 20
49.1318521662889
 10
16.626958978756
 20
49.1319075551195
 10
16.626968707613
 20
49.1318483670277
 10
16.6270505239476
 20
49.1315309260149
 10
16.626882873418
 20
49.1311797811726
 10
16.6268944446533
 20
49.130867421476
 10
16.6268094889143
 20
49.1308114092283
 10
16.6267345970804
 20
49.1308561676197
 10
16.6262864167393
 20
49.1308642637199
 10
16.6257581558781
 20
49.1307218848514
 10
16.6249828141225
 20
49.1303375589931
 10
16.6242835817929
 20
49.1296581441888
 10
16.6240425031902
 20
49.1289870582493
 10
16.6240509944595
 20
49.1289881244198
 10
16.6240438701112
 20
49.128935239354
 10
16.6239275026592
 20
49.1289177961851
 10
16.6238664842427
 20
49.1288823031864
 10
16.6234611472387
 20
49.128957751589
 10
16.6234074067988
 20
49.1290945538493
 97
0
 92
2
 72
0
 73
1
 93
10
 10
16.6356994086223
 20
49.1697782229255
 10
16.6357002796685
 20
49.169779217873
 10
16.6363688063001
 20
49.1697206642005
 10
16.6378534214391
 20
49.1693045828853
 10
16.6407274621526
 20
49.166948106759
 10
16.6393700793039
 20
49.1655385588137
 10
16.6371354592929
 20
49.1661055215628
 10
16.6363553259159
 20
49.1670696589162
 10
16.6357011666902
 20
49.1689486959935
 10
16.6356994086223
 20
49.1697782229255
 97
0
 75
0
 76
1
 98
0
  0
HATCH
  5
2001C
100
AcDbEntity
  8
plocha AZZU
100
AcDbHatch
 10
0
 20
0
 30
0
210
0
220
0
230
1
  2
SOLID
 70
1
 71
0
 91
1
 92
2
 72
0
 73
1
 93
645
 10
16.594791132789
 20
49.1866881640671
 10
16.5938631642457
 20
49.1865965315597
 10
16.5929711811906
 20
49.1864925724179
 10
16.5921018377339
 20
49.1863766694266
 10
16.5912187129244
 20
49.1862191489229
 10
16.5904625586553
 20
49.1860435514008
 10
16.5897538924383
 20
49.1858306886146
 10
16.5888724959342
 20
49.1855378291744
 10
16.5880479484214
 20
49.1852760907222
 10
16.5871185870055
 20
49.1848985461045
 10
16.5863095581618
 20
49.1845430866138
 10
16.5853890802417
 20
49.184111980648
 10
16.5844686172678
 20
49.1836808654294
 10
16.5833373130759
 20
49.1832753876239
 10
16.5826629148022
 20
49.1831055448015
 10
16.5820884145781
 20
49.182956345039
 10
16.581193821772
 20
49.1827437486773
 10
16.5805900486245
 20
49.1826466363856
 10
16.5802890220396
 20
49.1825947847769
 10
16.5792160013523
 20
49.1824544240407
 10
16.5786156958065
 20
49.1824443071526
 10
16.5777952708313
 20
49.1824293908612
 10
16.5771998312724
 20
49.182423233595
 10
16.5767347115165
 20
49.1825321439719
 10
16.5758812365246
 20
49.1827819628027
 10
16.5748629338966
 20
49.1830280948829
 10
16.5743997098921
 20
49.1831906297961
 10
16.5738787142203
 20
49.1834685243682
 10
16.5735746236428
 20
49.1837039291366
 10
16.5733599898102
 20
49.1838660517509
 10
16.5731064516158
 20
49.1840574683283
 10
16.5728770684579
 20
49.1843056110043
 10
16.5721961336939
 20
49.1847989161688
 10
16.57138156529
 20
49.1853504290887
 10
16.5709385536996
 20
49.1857794010116
 10
16.5707847505355
 20
49.1859305069663
 10
16.5704505198906
 20
49.1863923388796
 10
16.5701297922369
 20
49.1867279232555
 10
16.5699855059288
 20
49.1868986699569
 10
16.5698388478586
 20
49.1870837303925
 10
16.5696671435927
 20
49.1872199418762
 10
16.5692594100258
 20
49.1874805411968
 10
16.5691365868104
 20
49.1875559446098
 10
16.5688395827167
 20
49.1879140584183
 10
16.5684937883524
 20
49.1882007900215
 10
16.5680185106584
 20
49.1884022712699
 10
16.5676924050115
 20
49.1884987288411
 10
16.5672543167815
 20
49.1888083628213
 10
16.5671661370397
 20
49.1889037286896
 10
16.5670780634886
 20
49.1889989763438
 10
16.5671770919274
 20
49.1893988218883
 10
16.5675110137397
 20
49.1901269172372
 10
16.5677870021626
 20
49.1907318155565
 10
16.5680716343866
 20
49.1912806653982
 10
16.568168378318
 20
49.1915301232631
 10
16.5682278516638
 20
49.1917045177473
 10
16.5683122484971
 20
49.1918951678705
 10
16.5683384913691
 20
49.192103400528
 10
16.5683472934345
 20
49.1923502149378
 10
16.5683444599423
 20
49.1925672380254
 10
16.5683352128589
 20
49.1926896742807
 10
16.5682856159501
 20
49.1928888856358
 10
16.5682043279158
 20
49.19304601664
 10
16.5680010375483
 20
49.1933392765951
 10
16.5677229701502
 20
49.1935837640571
 10
16.5673469853376
 20
49.1939190309394
 10
16.5670616784336
 20
49.1943404040321
 10
16.5669803841344
 20
49.1944975341376
 10
16.5670169579179
 20
49.1948766626379
 10
16.5670972191112
 20
49.1954254408912
 10
16.5671230983713
 20
49.1955358968765
 10
16.5671591940264
 20
49.1957846553011
 10
16.5670944132245
 20
49.1963086234537
 10
16.5668994471324
 20
49.197384485003
 10
16.5668244470372
 20
49.1977701505474
 10
16.5668337137571
 20
49.1979807937723
 10
16.5668369207328
 20
49.1980280877327
 10
16.5669142752993
 20
49.1981063203893
 10
16.5670025124751
 20
49.1981955574987
 10
16.5671701416992
 20
49.1987505574178
 10
16.5673250573734
 20
49.198982433622
 10
16.5674324922417
 20
49.1991674839907
 10
16.5675242670502
 20
49.1995469221536
 10
16.5675494468469
 20
49.1997949027011
 10
16.567595643265
 20
49.2001493716252
 10
16.5676066839714
 20
49.2001827423392
 10
16.567720687732
 20
49.2009945914477
 10
16.5677370797346
 20
49.2011622978213
 10
16.567670507179
 20
49.2015304600289
 10
16.5675907616083
 20
49.2019447507326
 10
16.5675737951233
 20
49.2021137010813
 10
16.5673494470901
 20
49.2023004702195
 10
16.5671601164808
 20
49.2024426677756
 10
16.5669633002168
 20
49.2025300247109
 10
16.5668064903078
 20
49.2026093691363
 10
16.5665843931747
 20
49.2027435530817
 10
16.5664664241638
 20
49.2027351526759
 10
16.5661451145626
 20
49.2029044194766
 10
16.5659609655901
 20
49.2031576725682
 10
16.5653669187155
 20
49.2035603967659
 10
16.5646074035837
 20
49.2040421279195
 10
16.5644563929329
 20
49.2041033105013
 10
16.5644960715291
 20
49.2043909929619
 10
16.5645620887355
 20
49.2048384708115
 10
16.5645483903133
 20
49.2053053334509
 10
16.5644979853448
 20
49.2056860390897
 10
16.5643829263257
 20
49.205995305238
 10
16.5641013072099
 20
49.2063094180973
 10
16.5636533990297
 20
49.2067035824826
 10
16.5633197242997
 20
49.2069471514207
 10
16.5628419485568
 20
49.2072138717121
 10
16.5623488239044
 20
49.2074962058936
 10
16.5612406512967
 20
49.208027119911
 10
16.5604189758429
 20
49.2083380829444
 10
16.5598273187836
 20
49.2089729482609
 10
16.5596695186399
 20
49.2091246236066
 10
16.5593720836512
 20
49.2094184072987
 10
16.5591234498198
 20
49.2096179161249
 10
16.5586716704875
 20
49.2098427730666
 10
16.558140228983
 20
49.2100148830139
 10
16.5576523604745
 20
49.2101575132828
 10
16.5573533397778
 20
49.2102434176387
 10
16.5572306347924
 20
49.2102910246603
 10
16.5569727447762
 20
49.2104119338392
 10
16.5567902255575
 20
49.210514520185
 10
16.5566540714365
 20
49.2105952826447
 10
16.5565696117314
 20
49.2105972927088
 10
16.5564574095849
 20
49.2106444482606
 10
16.5563526123462
 20
49.2107475496114
 10
16.5561617540782
 20
49.2108739521141
 10
16.5560345727052
 20
49.2109147260872
 10
16.5555928448508
 20
49.2110189982114
 10
16.5555345777129
 20
49.2110637240887
 10
16.5553729027952
 20
49.2115047572673
 10
16.5553127314191
 20
49.212000092347
 10
16.5552324154977
 20
49.212284004026
 10
16.5550776427951
 20
49.212616914653
 10
16.5550023360926
 20
49.2127708457169
 10
16.5546336679174
 20
49.2133600419016
 10
16.5543000273307
 20
49.2139046677175
 10
16.5541351722468
 20
49.2141318651784
 10
16.5539300777185
 20
49.2143018859675
 10
16.5537580872776
 20
49.2145720196956
 10
16.553619347476
 20
49.214808319876
 10
16.553508400677
 20
49.2150103965171
 10
16.5533695491636
 20
49.2152141043186
 10
16.5532886585543
 20
49.2153350524235
 10
16.5531991459542
 20
49.2157739891977
 10
16.5532626078166
 20
49.2160572916697
 10
16.5533590617433
 20
49.2164081141488
 10
16.553391648064
 20
49.2167109379913
 10
16.5533891208525
 20
49.2168591969987
 10
16.5533578715163
 20
49.2169474814519
 10
16.553281845067
 20
49.2170723966253
 10
16.5531105478094
 20
49.2173715438317
 10
16.5529518450489
 20
49.2176281426764
 10
16.5529758102554
 20
49.2177167432406
 10
16.5530581865457
 20
49.217852954196
 10
16.5530439167946
 20
49.217938828383
 10
16.5527017630178
 20
49.2181352805007
 10
16.5525648745752
 20
49.218027766362
 10
16.5524449287249
 20
49.2180843807827
 10
16.5523348248736
 20
49.2181815241067
 10
16.5521696156948
 20
49.2183109411786
 10
16.5517968413562
 20
49.2184255566466
 10
16.5513586266751
 20
49.2185680882733
 10
16.5510337091181
 20
49.2186607704139
 10
16.550624476757
 20
49.2187619201612
 10
16.5501810618632
 20
49.2188027026663
 10
16.5495937325354
 20
49.2188114943967
 10
16.5490554555764
 20
49.2187911980343
 10
16.5481280596649
 20
49.218717795835
 10
16.5469892112637
 20
49.2185532636532
 10
16.5460257566094
 20
49.2183976177193
 10
16.5451144431215
 20
49.2182275833662
 10
16.5443631491316
 20
49.2181920604513
 10
16.5439972874131
 20
49.2181985291312
 10
16.5430356667947
 20
49.2182312561652
 10
16.5422263893974
 20
49.2182784717857
 10
16.5415476055777
 20
49.218338621758
 10
16.5409466886144
 20
49.2184622568643
 10
16.5403410049037
 20
49.2186145115488
 10
16.5396512049588
 20
49.2188404096471
 10
16.5390912012327
 20
49.2190502311747
 10
16.5385464887731
 20
49.219300967809
 10
16.5377062223332
 20
49.2197333402392
 10
16.5373259611424
 20
49.2199921987491
 10
16.5368301963233
 20
49.2203803865273
 10
16.536572882234
 20
49.2207638854458
 10
16.5364533108308
 20
49.22095085278
 10
16.536126068598
 20
49.2212895278497
 10
16.535885131156
 20
49.2216741968839
 10
16.5352545618699
 20
49.2224401479349
 10
16.5349559071213
 20
49.2228062092443
 10
16.5346901210429
 20
49.2234063346978
 10
16.5345613884532
 20
49.2243783108183
 10
16.5345493631824
 20
49.2248155412292
 10
16.5345437991934
 20
49.2249816893146
 10
16.5345695187263
 20
49.2254578220633
 10
16.5344673069124
 20
49.2257727492273
 10
16.5341576664449
 20
49.2258972270941
 10
16.5339581574908
 20
49.2259753242971
 10
16.5339304476429
 20
49.2258430027291
 10
16.5338859630544
 20
49.2253800109365
 10
16.533921232241
 20
49.2250023711976
 10
16.5339434889031
 20
49.2247360385243
 10
16.5339362525369
 20
49.2241489890164
 10
16.5339598031715
 20
49.2237089617281
 10
16.5340045045576
 20
49.2234406128685
 10
16.5340742334276
 20
49.2232211210894
 10
16.5342372240061
 20
49.2229395018188
 10
16.5343935587932
 20
49.2226646480432
 10
16.5346994679392
 20
49.2222882449396
 10
16.5351062794615
 20
49.2217706094089
 10
16.5354447536717
 20
49.2213313619017
 10
16.5356177616076
 20
49.2211554547256
 10
16.5358883948166
 20
49.2207584265057
 10
16.5359790652563
 20
49.2204462947379
 10
16.536212152222
 20
49.2200755483498
 10
16.5366005603243
 20
49.2197014165281
 10
16.5369838019397
 20
49.219424669728
 10
16.537479364957
 20
49.2191704295174
 10
16.5380059070878
 20
49.2189292600822
 10
16.5381282555227
 20
49.218858348576
 10
16.5385553831316
 20
49.2186499024551
 10
16.5393441837993
 20
49.218260916992
 10
16.5401662576699
 20
49.2180372276664
 10
16.5410456365957
 20
49.2179008973342
 10
16.5417711894808
 20
49.217858573431
 10
16.5424901953275
 20
49.2178556026316
 10
16.5430004500709
 20
49.2178449653315
 10
16.5435718729568
 20
49.2177988666177
 10
16.544436463324
 20
49.2177845532394
 10
16.5448788963588
 20
49.2178161334712
 10
16.5453783310381
 20
49.2178372989576
 10
16.5459714313293
 20
49.2179266942045
 10
16.5461537228361
 20
49.2179521912837
 10
16.5469573793708
 20
49.2179137824647
 10
16.5489704328472
 20
49.2180393092426
 10
16.5499732074805
 20
49.2181579106053
 10
16.5501103572447
 20
49.2181640726193
 10
16.5504548521691
 20
49.2181198552218
 10
16.5510360540614
 20
49.217915116496
 10
16.5518707104025
 20
49.217482257277
 10
16.5522546652957
 20
49.2172670663766
 10
16.552491291816
 20
49.2169074102099
 10
16.5525748667797
 20
49.2165042553314
 10
16.5526510851225
 20
49.2160788526896
 10
16.5526639850601
 20
49.2157684108181
 10
16.5526876971144
 20
49.2154261565756
 10
16.5527233710532
 20
49.2152114715754
 10
16.5528021444322
 20
49.2150034801354
 10
16.5529492134304
 20
49.2147170890166
 10
16.553222309284
 20
49.2142043527337
 10
16.5534577264967
 20
49.2138518507692
 10
16.553642423202
 20
49.2135717615275
 10
16.5539559672696
 20
49.2131813844872
 10
16.5540755664633
 20
49.2130269901525
 10
16.5541521778451
 20
49.2128984956946
 10
16.5541765495661
 20
49.2127517934197
 10
16.5541931934403
 20
49.2126516073676
 10
16.5541529912199
 20
49.2124278912637
 10
16.5543115938589
 20
49.2119721586292
 10
16.5544411808254
 20
49.2117243454952
 10
16.554501999631
 20
49.2115911039773
 10
16.554491963313
 20
49.2113188515716
 10
16.55459009309
 20
49.2110029639524
 10
16.5546898070494
 20
49.2108845851949
 10
16.5548600514557
 20
49.2106804684601
 10
16.5550686926347
 20
49.210417974107
 10
16.5555132626547
 20
49.2100635906135
 10
16.5559514660322
 20
49.2099735148874
 10
16.5562488610834
 20
49.2098950630728
 10
16.5563969901762
 20
49.2098647194388
 10
16.5563983776884
 20
49.2098643289821
 10
16.5571155521589
 20
49.2096630720352
 10
16.5574441023348
 20
49.2094149570484
 10
16.5580806525103
 20
49.20894260152
 10
16.5589455848423
 20
49.2087254707397
 10
16.5589933179453
 20
49.2086709445117
 10
16.5590295537825
 20
49.2084526787188
 10
16.5590408401823
 20
49.2083846949325
 10
16.5590039325069
 20
49.2082408674548
 10
16.5591009492034
 20
49.2080558972887
 10
16.5592543592868
 20
49.2078640849296
 10
16.5594747392346
 20
49.2075684309479
 10
16.5596378967148
 20
49.207218013779
 10
16.5599562213613
 20
49.2068315860834
 10
16.5604326657778
 20
49.2065577988316
 10
16.5609366407514
 20
49.2063511395188
 10
16.5612672816596
 20
49.2061900553277
 10
16.5612778536439
 20
49.2060930558382
 10
16.5611656771931
 20
49.2059366263446
 10
16.5609831033815
 20
49.2057715579492
 10
16.5608181006307
 20
49.2056005011147
 10
16.560709490151
 20
49.2054226012197
 10
16.5606213042562
 20
49.2051882295776
 10
16.5606162199854
 20
49.2049525375296
 10
16.5606513734786
 20
49.20477402055
 10
16.5607533604812
 20
49.2046256080032
 10
16.5608494068168
 20
49.2045129779212
 10
16.5609322754869
 20
49.204446473842
 10
16.5610538446585
 20
49.2043465223905
 10
16.5612967376226
 20
49.2042479763318
 10
16.5616475427329
 20
49.2041317737749
 10
16.5618735745326
 20
49.20406822746
 10
16.5621243011654
 20
49.203955755151
 10
16.5626264613841
 20
49.2037598233628
 10
16.5629347610795
 20
49.2036333482332
 10
16.563378271641
 20
49.2034911622264
 10
16.5636927388048
 20
49.2033940884828
 10
16.5643258244773
 20
49.2031748915024
 10
16.5646601139615
 20
49.2030249206422
 10
16.5651579803789
 20
49.2028214324242
 10
16.5658054156556
 20
49.2025489437196
 10
16.5662631506488
 20
49.202320870619
 10
16.5663424450717
 20
49.2022758316669
 10
16.5666038338872
 20
49.2020989418832
 10
16.5668387520866
 20
49.2019817141476
 10
16.566976564878
 20
49.2018503306518
 10
16.5670532465005
 20
49.2017544197102
 10
16.5671571076789
 20
49.2016278603568
 10
16.5671784685961
 20
49.2014990456771
 10
16.5671697824787
 20
49.20111828469
 10
16.567192564109
 20
49.2008809582588
 10
16.5671404286287
 20
49.2003957313589
 10
16.567137213479
 20
49.2001818974556
 10
16.5670566936557
 20
49.1999546729959
 10
16.5669535519543
 20
49.1997393605642
 10
16.5668781126631
 20
49.1995563493374
 10
16.566720531156
 20
49.199362974849
 10
16.5665992138193
 20
49.1991950369237
 10
16.5665216960903
 20
49.1990628026005
 10
16.5664217418637
 20
49.1987660498656
 10
16.5663743736829
 20
49.1985852759339
 10
16.5663503871447
 20
49.1983301386701
 10
16.5663350697415
 20
49.1981226834755
 10
16.5663309097506
 20
49.1979811903636
 10
16.5663576062894
 20
49.1976536332004
 10
16.5664143293255
 20
49.1972449450715
 10
16.5664714118742
 20
49.196934033805
 10
16.566511759397
 20
49.1966907191351
 10
16.5665490193594
 20
49.1964327018111
 10
16.5665917395991
 20
49.1961750733599
 10
16.5666229472889
 20
49.1959202468425
 10
16.5666016934198
 20
49.1957485735204
 10
16.5665626355075
 20
49.19551770473
 10
16.5665127773036
 20
49.1953186513612
 10
16.5664921061831
 20
49.1948103200368
 10
16.5664771413113
 20
49.1945341022884
 10
16.5665363595657
 20
49.1943102326392
 10
16.5665947496726
 20
49.194191298022
 10
16.5666699922418
 20
49.1940373580462
 10
16.5668801793387
 20
49.193802517437
 10
16.5670652078244
 20
49.1936527760289
 10
16.5672380081773
 20
49.1934768207661
 10
16.5673055354353
 20
49.1933693967092
 10
16.5674064123748
 20
49.1932607267021
 10
16.5675755307995
 20
49.1930736479615
 10
16.5677041771621
 20
49.1929307516066
 10
16.5678075366556
 20
49.1926738205674
 10
16.5678736232791
 20
49.1923418278156
 10
16.5678512914079
 20
49.1920433641475
 10
16.5678124721721
 20
49.1918776802757
 10
16.5675849267777
 20
49.191350997246
 10
16.5674421376589
 20
49.1911127422102
 10
16.5673571399909
 20
49.190919533654
 10
16.5672773856708
 20
49.1906737993552
 10
16.5669164408852
 20
49.189819014823
 10
16.5665746246221
 20
49.1892154017619
 10
16.5665088769363
 20
49.1890667917475
 10
16.5665149552371
 20
49.1890301308124
 10
16.5665031687802
 20
49.1889134371172
 10
16.566616145825
 20
49.1887983900873
 10
16.5669448470873
 20
49.1885560639697
 10
16.5672798268757
 20
49.1882968142072
 10
16.5672773763029
 20
49.1882953135981
 10
16.5673389961425
 20
49.1882510184596
 10
16.5676469131826
 20
49.187944976505
 10
16.5678875714447
 20
49.1877593735654
 10
16.5680548022908
 20
49.1876470623065
 10
16.5680938077619
 20
49.1876085112374
 10
16.5681355800637
 20
49.187592813478
 10
16.5684339126846
 20
49.1874272958708
 10
16.5684489576964
 20
49.1874259792719
 10
16.5688341761125
 20
49.1871135622483
 10
16.569394969181
 20
49.1865959522652
 10
16.5697785361252
 20
49.1861708650761
 10
16.5699156853155
 20
49.185842018305
 10
16.570046634965
 20
49.1856752647167
 10
16.5703360641599
 20
49.1854249837998
 10
16.5708523525406
 20
49.1851773075341
 10
16.5713410973745
 20
49.1848464039645
 10
16.5719474690201
 20
49.184429060574
 10
16.572655474553
 20
49.1838970491085
 10
16.572732972308
 20
49.1838348078685
 10
16.5729835376246
 20
49.1835713487719
 10
16.5731694450667
 20
49.1833492551362
 10
16.5734046011915
 20
49.1831632510684
 10
16.5737022966884
 20
49.1829997995746
 10
16.5740716664138
 20
49.1828704120822
 10
16.5743569118482
 20
49.1827821008331
 10
16.5749542251241
 20
49.1826435904251
 10
16.5753340385963
 20
49.1825511459002
 10
16.5756616366484
 20
49.1824405029996
 10
16.5761309024909
 20
49.1822747737178
 10
16.5764487463445
 20
49.182210618324
 10
16.5764689576494
 20
49.1822045052763
 10
16.5769011729228
 20
49.182119296783
 10
16.5770242782197
 20
49.1820950269626
 10
16.5770465960435
 20
49.1820943751497
 10
16.5772432884355
 20
49.1820606679804
 10
16.5776221628831
 20
49.1820405571618
 10
16.5780101303677
 20
49.1820625542107
 10
16.5781877913488
 20
49.1820559022739
 10
16.5790818790989
 20
49.1821465897186
 10
16.5803799581708
 20
49.1822930893205
 10
16.5810858323898
 20
49.1823974635237
 10
16.5820190452138
 20
49.182626351644
 10
16.5828954325537
 20
49.182824102754
 10
16.5834061151369
 20
49.1829985569831
 10
16.5835275201393
 20
49.1830325297243
 10
16.5835882870339
 20
49.183065813486
 10
16.5837291594078
 20
49.1831156505087
 10
16.5839516799832
 20
49.1831836190917
 10
16.5842914605116
 20
49.1833221565847
 10
16.5847440040558
 20
49.183524477476
 10
16.5855678125938
 20
49.1839197186858
 10
16.5862779170249
 20
49.1842344674735
 10
16.5869303508799
 20
49.1845306301412
 10
16.5880375907244
 20
49.1849638409523
 10
16.588937181971
 20
49.1852715429047
 10
16.5897959397527
 20
49.1855763366753
 10
16.5905862935927
 20
49.1857950011017
 10
16.5914219233699
 20
49.1859897862799
 10
16.592084815737
 20
49.1861045806027
 10
16.5929133090327
 20
49.1862175836741
 10
16.5936667498517
 20
49.1862846195196
 10
16.5945912939347
 20
49.1863305427291
 10
16.594992155794
 20
49.186332983751
 10
16.5957420828294
 20
49.1863291326784
 10
16.5963556246644
 20
49.186258699014
 10
16.5971317691833
 20
49.1860945910014
 10
16.5980585309417
 20
49.1858710838669
 10
16.5987319517951
 20
49.1856382443573
 10
16.5992954699869
 20
49.1854375293295
 10
16.6000541285395
 20
49.1850832495147
 10
16.6007002090978
 20
49.184734542019
 10
16.601778305534
 20
49.1841183794309
 10
16.6021267070412
 20
49.1839440845829
 10
16.6025973072072
 20
49.1836942519689
 10
16.6030443191362
 20
49.1834979994353
 10
16.6036216228066
 20
49.1833188104144
 10
16.6041662806189
 20
49.1831830221702
 10
16.6053696820321
 20
49.1830228546344
 10
16.606776017153
 20
49.18292966766
 10
16.6071268870109
 20
49.1829106997719
 10
16.6080601537732
 20
49.1827664285881
 10
16.6084649747911
 20
49.182663608229
 10
16.608931247016
 20
49.1825125357364
 10
16.6094057324572
 20
49.1822305313759
 10
16.6099873916638
 20
49.1816229597425
 10
16.6103528858553
 20
49.1812718593917
 10
16.6104404172241
 20
49.1811465502953
 10
16.6104439835747
 20
49.1809626881571
 10
16.6104032317411
 20
49.1803986870383
 10
16.6104350144204
 20
49.1799625682945
 10
16.6111745590685
 20
49.1795327596461
 10
16.6118451374749
 20
49.1791155975839
 10
16.6128376371633
 20
49.1790982334716
 10
16.6131813345831
 20
49.1791225792479
 10
16.6132781537374
 20
49.1791031345687
 10
16.6137129247939
 20
49.1788183051098
 10
16.6144236252722
 20
49.1783607680648
 10
16.6154523412482
 20
49.1777774443948
 10
16.6159893369243
 20
49.177486210071
 10
16.6164920714848
 20
49.177162220222
 10
16.6169490767044
 20
49.1768349926447
 10
16.6172743912288
 20
49.1765850853572
 10
16.617489365934
 20
49.1763230338175
 10
16.6178668707922
 20
49.1757562264145
 10
16.6181128424572
 20
49.1751454464511
 10
16.6182001775434
 20
49.1748960193852
 10
16.6182405633342
 20
49.1746909259691
 10
16.6184288141508
 20
49.1741497100986
 10
16.6185779003388
 20
49.1736393793346
 10
16.6187100325505
 20
49.1733248067323
 10
16.6188556807152
 20
49.1730090201406
 10
16.6191289548595
 20
49.1726266269334
 10
16.6194501162725
 20
49.1721208124281
 10
16.61968818046
 20
49.1718387308241
 10
16.6198231875556
 20
49.1717009883094
 10
16.6200268462874
 20
49.1715074503472
 10
16.6201886811987
 20
49.1713672740309
 10
16.6205077553423
 20
49.1710142892672
 10
16.6208557187362
 20
49.1706982382489
 10
16.6206577540569
 20
49.1705705526387
 10
16.6205583514103
 20
49.1703588391192
 10
16.6210504948527
 20
49.1697142499971
 10
16.6213003527462
 20
49.1692914050406
 10
16.6217014977567
 20
49.1694957279184
 10
16.6219400274043
 20
49.1690997963855
 10
16.6218327723884
 20
49.1690862235433
 10
16.6213235829005
 20
49.169130952929
 10
16.6211347271428
 20
49.1693359586828
 10
16.6210668805128
 20
49.1694986753299
 10
16.620390422813
 20
49.1693401130819
 10
16.6202900851598
 20
49.1692013890653
 10
16.6203586492677
 20
49.1689788944958
 10
16.6205128723508
 20
49.1687221313228
 10
16.6207186769354
 20
49.1684307458365
 10
16.6208040288475
 20
49.1683098997328
 10
16.620882932001
 20
49.1682121119419
 10
16.6210169164331
 20
49.1680562755435
 10
16.6210890387251
 20
49.1679506976661
 10
16.621171481776
 20
49.1678497576355
 10
16.6213160139089
 20
49.1676526660281
 10
16.6217485397939
 20
49.167186707046
 10
16.6218098862958
 20
49.1669525707942
 10
16.6218586915819
 20
49.1666560510732
 10
16.6219113144169
 20
49.1665580671379
 10
16.6223152031478
 20
49.1665986178769
 10
16.6223510508908
 20
49.1666579916879
 10
16.622531567967
 20
49.1665514718917
 10
16.6225680587446
 20
49.1664925567021
 10
16.6232690764262
 20
49.1665134376827
 10
16.6232534978327
 20
49.1665690535636
 10
16.6232440251787
 20
49.1667481074787
 10
16.6233716105893
 20
49.1668010247983
 10
16.6234995990775
 20
49.1671909695491
 10
16.6233929981573
 20
49.1677278593975
 10
16.6229745637009
 20
49.167997389598
 10
16.6228624415163
 20
49.1684291894462
 10
16.6228355649362
 20
49.1685833424372
 10
16.622781039557
 20
49.1688960691596
 10
16.6226438053026
 20
49.1693141274901
 10
16.6224994745943
 20
49.169584941237
 10
16.6224688158008
 20
49.1696424684224
 10
16.6222710553307
 20
49.1700266243408
 10
16.6224013491276
 20
49.1700388367554
 10
16.6225374710261
 20
49.1700685064154
 10
16.6223794236278
 20
49.1703188606388
 10
16.6220977018652
 20
49.1705597608188
 10
16.6220858252578
 20
49.1705699161427
 10
16.6220522244749
 20
49.1705956224964
 10
16.6220186618276
 20
49.1706212980755
 10
16.6219775616664
 20
49.1706527408605
 10
16.6218507934672
 20
49.1707497226101
 10
16.6217756565204
 20
49.1708072043887
 10
16.6216985212935
 20
49.1708654528124
 10
16.6214728851416
 20
49.1710231089295
 10
16.6210651767161
 20
49.1714489470874
 10
16.6205485093325
 20
49.1719269003611
 10
16.6204966081788
 20
49.1719854508799
 10
16.6201657960853
 20
49.1723586389825
 10
16.6198704989507
 20
49.1724971579695
 10
16.6197489224644
 20
49.1727138352225
 10
16.6196732155797
 20
49.172812453281
 10
16.6196342487987
 20
49.1730089831046
 10
16.6195405523798
 20
49.1732340899984
 10
16.6192398603768
 20
49.1736785764176
 10
16.6190717692495
 20
49.1743381936063
 10
16.6190486822475
 20
49.1745185175796
 10
16.6190328319342
 20
49.1746950231476
 10
16.6190058486743
 20
49.1748187507474
 10
16.6190232800957
 20
49.1748194248126
 10
16.6189879238167
 20
49.1749659660046
 10
16.6187522365481
 20
49.1754227173683
 10
16.6180676177444
 20
49.1765753727838
 10
16.6179715110588
 20
49.1768019023351
 10
16.6178868704747
 20
49.1769805396564
 10
16.6180288601164
 20
49.1773924293094
 10
16.6185054493939
 20
49.1779185096713
 10
16.6191034369674
 20
49.1783445758987
 10
16.6194948560843
 20
49.1785496685499
 10
16.6196493339058
 20
49.1786511068037
 10
16.620079523144
 20
49.1787213753772
 10
16.6203494998076
 20
49.1787585827771
 10
16.6205951284513
 20
49.1787759659049
 10
16.6207733313198
 20
49.178766856706
 10
16.6211084977602
 20
49.1787435129608
 10
16.6213635534291
 20
49.1787036384451
 10
16.621512698069
 20
49.1787033320287
 10
16.6215037404438
 20
49.1788583641911
 10
16.6212691819499
 20
49.1788743476957
 10
16.6207751334816
 20
49.1788900690999
 10
16.6202434626116
 20
49.178899504257
 10
16.6199602138768
 20
49.1788758381384
 10
16.6198140137236
 20
49.1788582504296
 10
16.6195826834976
 20
49.17878757598
 10
16.6192935135383
 20
49.1786657440142
 10
16.6188790818577
 20
49.178466262174
 10
16.6186396301252
 20
49.1783443269214
 10
16.6183865970178
 20
49.1781707485611
 10
16.6181213184542
 20
49.1779709607167
 10
16.617995314364
 20
49.1778642962623
 10
16.617913569755
 20
49.1777571451783
 10
16.617875489693
 20
49.1776530843158
 10
16.6178123220044
 20
49.1775001859508
 10
16.6177355747278
 20
49.1772956431645
 10
16.6176459903207
 20
49.1770684710701
 10
16.6176133702993
 20
49.1769647965896
 10
16.6173897036542
 20
49.1771154667515
 10
16.6172631972436
 20
49.1772373416523
 10
16.616454791166
 20
49.1776798410411
 10
16.6155468263583
 20
49.1781796582283
 10
16.6150624022165
 20
49.1784385874022
 10
16.614677185423
 20
49.1787287857797
 10
16.6142438486251
 20
49.1790049536736
 10
16.6139321741968
 20
49.1791984251283
 10
16.6134489705172
 20
49.1795273009824
 10
16.6129702492558
 20
49.1798353185608
 10
16.6125940569316
 20
49.1800892266255
 10
16.6117662881859
 20
49.1808108838789
 10
16.6112178814106
 20
49.1812980763228
 10
16.6111067700319
 20
49.1814041807298
 10
16.6108888323771
 20
49.1815903892672
 10
16.610818808776
 20
49.1816906363564
 10
16.6106566047401
 20
49.1818632605784
 10
16.6100906704248
 20
49.1823755082967
 10
16.6094826274683
 20
49.1828074962423
 10
16.6089066548622
 20
49.1830852598649
 10
16.6083559948
 20
49.1832433018256
 10
16.6077160659521
 20
49.1833119253228
 10
16.607143305506
 20
49.1833295474784
 10
16.6058634306694
 20
49.1833546700409
 10
16.6050153888023
 20
49.1834067750573
 10
16.6043207841898
 20
49.18346613369
 10
16.6034402603011
 20
49.183715036627
 10
16.602849637501
 20
49.1839808738242
 10
16.6025598555749
 20
49.1841304742131
 10
16.602391076828
 20
49.184214444525
 10
16.6008364599411
 20
49.1850689715713
 10
16.5996831773693
 20
49.1856315652287
 10
16.5985399820376
 20
49.186071769008
 10
16.5975176200371
 20
49.1863499281037
 10
16.5964976466687
 20
49.1865603981523
 10
16.5957681467425
 20
49.1866968778564
 10
16.5954103820893
 20
49.1867176648888
 10
16.5949896524098
 20
49.1866994253421
 10
16.5948390543396
 20
49.1866928962545
 10
16.5948396176921
 20
49.1866909146498
 10
16.5948380974482
 20
49.1866908284461
 10
16.5948390543396
 20
49.1866928962545
 10
16.594791132789
 20
49.1866881640671
 97
0
 75
0
 76
1
 98
0
  0
HATCH
  5
2001D
100
AcDbEntity
  8
plocha AZZU
100
AcDbHatch
 10
0
 20
0
 30
0
210
0
220
0
230
1
  2
SOLID
 70
1
 71
0
 91
1
 92
2
 72
0
 73
1
 93
256
 10
16.6676572961072
 20
49.2402696663954
 10
16.6672257245549
 20
49.2400263671103
 10
16.6670057556293
 20
49.2398745123994
 10
16.6665780698188
 20
49.2396075551444
 10
16.6662710452336
 20
49.2393179680205
 10
16.6660463058402
 20
49.2391729541154
 10
16.6658307121367
 20
49.2390836208012
 10
16.6655233672822
 20
49.2390189445122
 10
16.6650281087561
 20
49.2390750642612
 10
16.664856359278
 20
49.2390749549631
 10
16.6650296822821
 20
49.2389986004921
 10
16.665197448411
 20
49.2389338188358
 10
16.6653333516475
 20
49.2388404751253
 10
16.6654017724409
 20
49.2387352086754
 10
16.66546626309
 20
49.2384310522012
 10
16.6654708597311
 20
49.2384094088019
 10
16.6655459860714
 20
49.2380561773531
 10
16.6655543356011
 20
49.2377600401637
 10
16.665581871339
 20
49.2375920762689
 10
16.6655829547806
 20
49.2374294322976
 10
16.6655692580383
 20
49.2370671356398
 10
16.6655603208509
 20
49.2367649962237
 10
16.6655615455705
 20
49.236556896164
 10
16.6656032855386
 20
49.2363468596331
 10
16.6656684998145
 20
49.2361719718897
 10
16.6658168057814
 20
49.2360029247364
 10
16.6658662403747
 20
49.2359465759079
 10
16.6659780291496
 20
49.2357773558104
 10
16.6660417907463
 20
49.2357004779845
 10
16.6662458344598
 20
49.2355257776684
 10
16.6664154058571
 20
49.2354276206168
 10
16.6665347864261
 20
49.2353235435114
 10
16.6666474503003
 20
49.2352381371211
 10
16.6667090082151
 20
49.2351969977405
 10
16.6668451460727
 20
49.2351467424377
 10
16.6671504601274
 20
49.2350006952751
 10
16.6674773463665
 20
49.2347676238886
 10
16.6677095244143
 20
49.2345326813555
 10
16.6678179379246
 20
49.2344062965872
 10
16.6680244033328
 20
49.2343059442181
 10
16.6682005396059
 20
49.2342345694003
 10
16.6684537021724
 20
49.2341614277836
 10
16.6687775670458
 20
49.2341028251715
 10
16.6689673760776
 20
49.2340371962172
 10
16.6692650502677
 20
49.233960002282
 10
16.6695072324831
 20
49.2339315528024
 10
16.6697103127448
 20
49.2339410351474
 10
16.6698572670803
 20
49.233958538314
 10
16.6699124792681
 20
49.2340007048171
 10
16.6700560584859
 20
49.234020576198
 10
16.6700861464569
 20
49.2339889771847
 10
16.6705974747035
 20
49.2339459330626
 10
16.671175366393
 20
49.2339649927273
 10
16.6715821761524
 20
49.2339576756668
 10
16.6718457732155
 20
49.2339546545073
 10
16.6720966039183
 20
49.2338956999999
 10
16.6721657661907
 20
49.2338526982834
 10
16.6725519835591
 20
49.2335472092592
 10
16.6726823198926
 20
49.2333984300079
 10
16.6727325292116
 20
49.2332703458771
 10
16.6727688030826
 20
49.23316042663
 10
16.6727028972134
 20
49.2330050445179
 10
16.6725232066838
 20
49.2328081685207
 10
16.6722978441992
 20
49.2324857808562
 10
16.6722100133455
 20
49.2324224457297
 10
16.6721684740773
 20
49.2323860268552
 10
16.6720510872085
 20
49.2322772798347
 10
16.6718507616758
 20
49.232050237022
 10
16.6716434628755
 20
49.2318657782581
 10
16.6706667464806
 20
49.2314932626059
 10
16.6700639054978
 20
49.2312475097815
 10
16.6696064631669
 20
49.2310287186858
 10
16.66908009925
 20
49.2307856366109
 10
16.6690798805841
 20
49.2307859260329
 10
16.6690577148442
 20
49.2307752998924
 10
16.6685886496227
 20
49.2305503992733
 10
16.6681376696919
 20
49.2303368435426
 10
16.6679239268727
 20
49.2302141393688
 10
16.6677002621775
 20
49.2300404853126
 10
16.6675180102946
 20
49.2298817086333
 10
16.6674709445829
 20
49.2297898609726
 10
16.6673432656509
 20
49.2296325237572
 10
16.6671387075832
 20
49.2294314968742
 10
16.666990396963
 20
49.2292439946025
 10
16.6668059659573
 20
49.2290539521857
 10
16.6667541265992
 20
49.2289689486935
 10
16.6666551049613
 20
49.2287705536996
 10
16.6665706729276
 20
49.2285277163331
 10
16.6664976093744
 20
49.228237820716
 10
16.6664533013392
 20
49.2279954105892
 10
16.666397891729
 20
49.2277761508991
 10
16.6663340948999
 20
49.2275634799021
 10
16.6662626861134
 20
49.2273526677057
 10
16.666167424416
 20
49.2271090674578
 10
16.6660054699386
 20
49.2268488165919
 10
16.6655998805195
 20
49.2264254651447
 10
16.6653396341109
 20
49.226163087617
 10
16.6650563093029
 20
49.2258631919894
 10
16.6648482862615
 20
49.2256834516094
 10
16.6647169942633
 20
49.2255928591053
 10
16.6645661107095
 20
49.2254434580817
 10
16.6643212414604
 20
49.225131906389
 10
16.6638788085137
 20
49.2246437407577
 10
16.663701994669
 20
49.2245188369752
 10
16.6635107105848
 20
49.2244599184299
 10
16.6633333172008
 20
49.2245168381249
 10
16.6630266016385
 20
49.2247608858398
 10
16.6625715012349
 20
49.225085427157
 10
16.6623536935596
 20
49.2252328287205
 10
16.6622077613012
 20
49.2253206761858
 10
16.662083595254
 20
49.225498593099
 10
16.6619294908661
 20
49.2257031204664
 10
16.6617746081091
 20
49.225912378269
 10
16.6614382028621
 20
49.2261591197848
 10
16.6608577042348
 20
49.2264461203868
 10
16.660108356923
 20
49.2267732177773
 10
16.6596935923951
 20
49.2269747994503
 10
16.659112849309
 20
49.2272944532972
 10
16.6585618213927
 20
49.2275871888575
 10
16.6580659981219
 20
49.2278133619461
 10
16.6575249383954
 20
49.2280259894836
 10
16.6568909543954
 20
49.2282072120486
 10
16.6560880802341
 20
49.228376543946
 10
16.6548967822787
 20
49.228544225992
 10
16.6536508026321
 20
49.2287312387246
 10
16.6528685237922
 20
49.2287942569876
 10
16.6526288133824
 20
49.2287898100461
 10
16.6522701577005
 20
49.228758338918
 10
16.6521342289722
 20
49.2287384064614
 10
16.6521848062452
 20
49.2283918093069
 10
16.6529222557313
 20
49.2283898679041
 10
16.653359463282
 20
49.2283667828572
 10
16.6539766516636
 20
49.2282879936235
 10
16.6547933265859
 20
49.2281896208194
 10
16.6551050250497
 20
49.2281208705738
 10
16.6556517526966
 20
49.2279894581143
 10
16.6563671827441
 20
49.2277746076745
 10
16.6574735195415
 20
49.2273945764351
 10
16.6582333128542
 20
49.2271020333072
 10
16.6595910006794
 20
49.2265780599826
 10
16.6599250043634
 20
49.2264522920599
 10
16.6605692142677
 20
49.2262224227336
 10
16.6610862225748
 20
49.2259883883386
 10
16.6614263854252
 20
49.2256964466862
 10
16.6616113538834
 20
49.2254151237805
 10
16.6618273973429
 20
49.2251670951504
 10
16.662147672915
 20
49.2249072530013
 10
16.6624866612767
 20
49.2246224049322
 10
16.6627611152917
 20
49.2244191635052
 10
16.662986530038
 20
49.2242699043131
 10
16.6630947872418
 20
49.2241889779377
 10
16.6633467424509
 20
49.2241229448619
 10
16.6636271817477
 20
49.2241283099007
 10
16.6639481031528
 20
49.2241987381127
 10
16.6642299287169
 20
49.2243070951722
 10
16.6644499419034
 20
49.2244805020164
 10
16.6647090113922
 20
49.2247499791093
 10
16.6649287199912
 20
49.2250812968758
 10
16.6650701203075
 20
49.2252965498497
 10
16.6652047919866
 20
49.2254476863252
 10
16.6659059434874
 20
49.2262076889688
 10
16.666341715277
 20
49.2266475178438
 10
16.6665422572552
 20
49.2268506580357
 10
16.6666472156243
 20
49.2270351140898
 10
16.666682940237
 20
49.2271323694956
 10
16.6668073193277
 20
49.2274627408727
 10
16.6669554737199
 20
49.2281862530542
 10
16.6671497476783
 20
49.22869524716
 10
16.6673527332837
 20
49.2289727370848
 10
16.6676688103477
 20
49.2294520059501
 10
16.6679388845431
 20
49.2297437819184
 10
16.6684402557223
 20
49.2301403514582
 10
16.668944892283
 20
49.2304055345818
 10
16.6692122549018
 20
49.230512709663
 10
16.6696359637781
 20
49.230647923424
 10
16.6702804701805
 20
49.2308846420645
 10
16.6709761940363
 20
49.231165634367
 10
16.6713814067148
 20
49.2313017827112
 10
16.6716947612628
 20
49.2314410482526
 10
16.6718683961932
 20
49.2315633201339
 10
16.6723540556878
 20
49.2320784116121
 10
16.6727186099405
 20
49.2323959530691
 10
16.6730487184752
 20
49.2327230382688
 10
16.6733748216987
 20
49.2331192361722
 10
16.6734511672702
 20
49.2333447461445
 10
16.6733853369195
 20
49.233545913906
 10
16.6731695776019
 20
49.2337700534279
 10
16.6726096953038
 20
49.2340872770884
 10
16.6723815659262
 20
49.234186114455
 10
16.6720654434942
 20
49.2342644134695
 10
16.6716343653124
 20
49.2343083159569
 10
16.6711667885474
 20
49.2342850418825
 10
16.6708495135861
 20
49.2343034344887
 10
16.6705681028754
 20
49.2343482737846
 10
16.6703188331253
 20
49.2343307619596
 10
16.6700864621914
 20
49.2343216160492
 10
16.6699269947905
 20
49.2342912687462
 10
16.6698213295918
 20
49.2342670952413
 10
16.6700068803562
 20
49.2340722242575
 10
16.6698729885126
 20
49.2340410038456
 10
16.669666003023
 20
49.2341891805621
 10
16.6692364741085
 20
49.2342236098363
 10
16.6687542768871
 20
49.234378769619
 10
16.668338402794
 20
49.2344859431125
 10
16.6682555604743
 20
49.2345231944451
 10
16.6679628501758
 20
49.2348376365421
 10
16.6679006251544
 20
49.2349720544009
 10
16.6677834353174
 20
49.2351073948847
 10
16.6676945089222
 20
49.2352040427215
 10
16.66741990954
 20
49.2353187484816
 10
16.6671608016041
 20
49.2354058281062
 10
16.6670701907585
 20
49.2354264350799
 10
16.6670241522594
 20
49.2354369049851
 10
16.6670160608524
 20
49.2354237884429
 10
16.6667828600333
 20
49.2354821622123
 10
16.666576633481
 20
49.2356256015946
 10
16.6661335813759
 20
49.2359653670702
 10
16.6660322422328
 20
49.2361377157884
 10
16.6659599070239
 20
49.2364006401625
 10
16.6659720743371
 20
49.2367054004325
 10
16.6659628886666
 20
49.2367837212767
 10
16.6659858346114
 20
49.2372902440541
 10
16.6660423350057
 20
49.2377704108284
 10
16.6660186400459
 20
49.2380487203806
 10
16.6658808612941
 20
49.2383764409988
 10
16.6658668998897
 20
49.238461605439
 10
16.6658396506843
 20
49.2385386575634
 10
16.6658187083846
 20
49.2386664042116
 10
16.6658837197445
 20
49.238737976477
 10
16.6660421379282
 20
49.2388639710197
 10
16.6662505058141
 20
49.2389527979425
 10
16.6663965348299
 20
49.2390874934829
 10
16.666900986809
 20
49.2393765973749
 10
16.6674806472986
 20
49.2397643083979
 10
16.6680112836838
 20
49.2401389988359
 10
16.6684295541747
 20
49.2404411827299
 10
16.6685515901299
 20
49.2405885474714
 10
16.6686897522501
 20
49.2407490086127
 10
16.6688168298057
 20
49.2408656189813
 10
16.6691769596973
 20
49.2409651010327
 10
16.6694322031285
 20
49.2409686751044
 10
16.669736494071
 20
49.2409182640142
 10
16.6697806534151
 20
49.2409074870644
 10
16.6698591823344
 20
49.2408688574634
 10
16.6700835912963
 20
49.2409293700565
 10
16.6700356053705
 20
49.2409440612177
 10
16.6700704344173
 20
49.2409991527223
 10
16.6698511683985
 20
49.2411105755489
 10
16.6696295899745
 20
49.241169190663
 10
16.6693508542385
 20
49.2411974670524
 10
16.6691412930287
 20
49.2411827447062
 10
16.668890964407
 20
49.2411268712959
 10
16.6686357546951
 20
49.2409892933444
 10
16.66831205363
 20
49.2407344367588
 10
16.6680239581425
 20
49.2405299379246
 10
16.6676572961072
 20
49.2402696663954
 97
0
 75
0
 76
1
 98
0
  0
HATCH
  5
2001E
100
AcDbEntity
  8
plocha AZZU
100
AcDbHatch
 10
0
 20
0
 30
0
210
0
220
0
230
1
  2
SOLID
 70
1
 71
0
 91
1
 92
2
 72
0
 73
1
 93
98
 10
16.5252475148276
 20
49.23215377284
 10
16.5252308835281
 20
49.2321653344782
 10
16.5249734575788
 20
49.2323496763157
 10
16.5246541984555
 20
49.2324784032877
 10
16.5246169983238
 20
49.232497966489
 10
16.5245874045881
 20
49.2325053352019
 10
16.5240747730587
 20
49.2326329693406
 10
16.5234953092275
 20
49.2326928905097
 10
16.5229733741882
 20
49.2327062390924
 10
16.5223754546217
 20
49.2326779399243
 10
16.521280766345
 20
49.2325452973315
 10
16.5205935509999
 20
49.2324888761806
 10
16.5203786819623
 20
49.232484358882
 10
16.5200079356128
 20
49.2325193760691
 10
16.5196297563382
 20
49.2324995483648
 10
16.5195931250143
 20
49.2324208923576
 10
16.5194790767539
 20
49.232441694587
 10
16.5192514876255
 20
49.232447128122
 10
16.5191822288243
 20
49.2321995872892
 10
16.5195522863249
 20
49.2321355589509
 10
16.5198677097135
 20
49.232067619964
 10
16.5199902941716
 20
49.2320619111496
 10
16.5201626485044
 20
49.2320561441432
 10
16.5205633665525
 20
49.2321065479937
 10
16.5208560077552
 20
49.2321419744044
 10
16.5218022312614
 20
49.2322333843889
 10
16.5229303598829
 20
49.2323012708717
 10
16.5234280510192
 20
49.2323006727835
 10
16.5235937464958
 20
49.2323016646597
 10
16.5241609020754
 20
49.2321829312519
 10
16.5245882938274
 20
49.2320071293008
 10
16.524728783755
 20
49.2318940791371
 10
16.5250133400303
 20
49.2316465075604
 10
16.5252216829244
 20
49.2314912414359
 10
16.5254523804301
 20
49.2313013673838
 10
16.5257363327439
 20
49.2310573733193
 10
16.5260763901349
 20
49.2309079057249
 10
16.5265540376992
 20
49.2306958653916
 10
16.5270445831841
 20
49.230539055099
 10
16.5273098082173
 20
49.2305399194192
 10
16.5276176429469
 20
49.2305836568318
 10
16.5280106958432
 20
49.2307131394618
 10
16.5285648606026
 20
49.2309374156172
 10
16.5288023648611
 20
49.2310050851696
 10
16.5288847155753
 20
49.2310170139737
 10
16.5290192418242
 20
49.2310365013424
 10
16.5293433445156
 20
49.2310763483771
 10
16.5296784051224
 20
49.2310894401912
 10
16.5298755911116
 20
49.2310673314931
 10
16.5301320855223
 20
49.2309879109753
 10
16.530529744614
 20
49.2308244471799
 10
16.5307447222628
 20
49.2306624055563
 10
16.5310567691347
 20
49.230282824736
 10
16.531296803517
 20
49.2297713771675
 10
16.5316053873626
 20
49.2290475931112
 10
16.5319652117657
 20
49.2284143662845
 10
16.5323315726336
 20
49.2279409109752
 10
16.5325689809159
 20
49.2277768492783
 10
16.5325906383489
 20
49.2277132267779
 10
16.5327916992149
 20
49.2273691595462
 10
16.5333143920037
 20
49.2268199800532
 10
16.5335879471511
 20
49.2265716069853
 10
16.5336056768435
 20
49.2265496061381
 10
16.5343061320832
 20
49.2262914253582
 10
16.5342883105841
 20
49.226382696771
 10
16.5341255064858
 20
49.2267294993936
 10
16.5340396848256
 20
49.2268464668491
 10
16.5338951571243
 20
49.2270171672692
 10
16.5329884505152
 20
49.2278140692731
 10
16.5329364961051
 20
49.2278936292587
 10
16.5327395115042
 20
49.2281800590277
 10
16.5324735818582
 20
49.2285484561532
 10
16.5322648600733
 20
49.2289716286134
 10
16.5321859781744
 20
49.2291796055471
 10
16.5320322869166
 20
49.2295379195025
 10
16.5317812377536
 20
49.2300159964304
 10
16.5315735049657
 20
49.2303668283128
 10
16.5313440101423
 20
49.2307486888555
 10
16.5310114957804
 20
49.231184735787
 10
16.5308104241991
 20
49.2313296692925
 10
16.5306800890049
 20
49.2313819022254
 10
16.530303895434
 20
49.2314165611002
 10
16.5298900531207
 20
49.2314449080693
 10
16.5293668442398
 20
49.2314328466942
 10
16.5290521221708
 20
49.2314037314768
 10
16.5289319153019
 20
49.2313926106093
 10
16.528249618541
 20
49.2312696930948
 10
16.5275816933625
 20
49.2311640039525
 10
16.5271797839364
 20
49.2311207805305
 10
16.5266586496811
 20
49.2311957497557
 10
16.5262865029922
 20
49.2313718893043
 10
16.5257971000696
 20
49.2317206714923
 10
16.5255983106287
 20
49.231889169604
 10
16.5254622758549
 20
49.2320044751875
 10
16.5252671364921
 20
49.2321401337425
 10
16.5253459494674
 20
49.2320788496383
 10
16.5252420271892
 20
49.2321569589181
 10
16.5252475148276
 20
49.23215377284
 97
0
 75
0
 76
1
 98
0
  0
HATCH
  5
2001F
100
AcDbEntity
  8
plocha AZZU
100
AcDbHatch
 10
0
 20
0
 30
0
210
0
220
0
230
1
  2
SOLID
 70
1
 71
0
 91
1
 92
2
 72
0
 73
1
 93
4
 10
16.5252475148276
 20
49.23215377284
 10
16.5252671364921
 20
49.2321401337425
 10
16.5252557217593
 20
49.2321490082511
 10
16.5252475148276
 20
49.23215377284
 97
0
 75
0
 76
1
 98
0
  0
ENDSEC
  0
SECTION
  2
OBJECTS
  0
DICTIONARY
  5
C
330
0
100
AcDbDictionary
281
     1
  3
ACAD_GROUP
350
D
  3
ACAD_LAYOUT
350
1A
  3
ACAD_MLEADERSTYLE
350
43
  3
ACAD_PLOTSETTINGS
350
19
  3
ACAD_PLOTSTYLENAME
350
E
  3
ACAD_TABLESTYLE
350
42
  0
DICTIONARY
  5
D
102
{ACAD_REACTORS
330
C
102
}
330
C
100
AcDbDictionary
281
     1
  0
DICTIONARY
  5
1A
102
{ACAD_REACTORS
330
C
102
}
330
C
100
AcDbDictionary
281
     1
  3
Layout1
350
1E
  3
Model
350
22
  0
DICTIONARY
  5
43
102
{ACAD_REACTORS
330
C
102
}
330
C
100
AcDbDictionary
281
     1
  0
DICTIONARY
  5
19
102
{ACAD_REACTORS
330
C
102
}
330
C
100
AcDbDictionary
281
     1
  0
ACDBDICTIONARYWDFLT
  5
E
102
{ACAD_REACTORS
330
C
102
}
330
C
100
AcDbDictionary
281
     1
  3
Normal
350
F
100
AcDbDictionaryWithDefault
340
F
  0
DICTIONARY
  5
42
102
{ACAD_REACTORS
330
C
102
}
330
C
100
AcDbDictionary
281
     1
  0
LAYOUT
  5
1E
102
{ACAD_REACTORS
330
1A
102
}
330
1A
100
AcDbPlotSettings
  1

  2
none_device
  4

  6

 40
0.0
 41
0.0
 42
0.0
 43
0.0
 44
0.0
 45
0.0
 46
0.0
 47
0.0
 48
0.0
 49
0.0
140
0.0
141
0.0
142
1.0
143
1.0
 70
   688
 72
     0
 73
     0
 74
     5
  7

 75
    16
 76
     0
 77
     2
 78
   300
147
1.0
148
0.0
149
0.0
100
AcDbLayout
  1
Layout1
 70
     1
 71
     1
 10
0.0
 20
0.0
 11
12.0
 21
9.0
 12
0.0
 22
0.0
 32
0.0
 14
1.000000000000000E+20
 24
1.000000000000000E+20
 34
1.000000000000000E+20
 15
-1.000000000000000E+20
 25
-1.000000000000000E+20
 35
-1.000000000000000E+20
146
0.0
 13
0.0
 23
0.0
 33
0.0
 16
1.0
 26
0.0
 36
0.0
 17
0.0
 27
1.0
 37
0.0
 76
     0
330
1B
  0
LAYOUT
  5
22
102
{ACAD_REACTORS
330
1A
102
}
330
1A
100
AcDbPlotSettings
  1

  2
none_device
  4

  6

 40
0.0
 41
0.0
 42
0.0
 43
0.0
 44
0.0
 45
0.0
 46
0.0
 47
0.0
 48
0.0
 49
0.0
140
0.0
141
0.0
142
1.0
143
1.0
 70
  1712
 72
     0
 73
     0
 74
     0
  7

 75
     0
 76
     0
 77
     2
 78
   300
147
1.0
148
0.0
149
0.0
100
AcDbLayout
  1
Model
 70
     1
 71
     0
 10
0.0
 20
0.0
 11
12.0
 21
9.0
 12
0.0
 22
0.0
 32
0.0
 14
30.0
 24
49.75
 34
0.0
 15
130.5
 25
163.1318914119703
 35
0.0
146
0.0
 13
0.0
 23
0.0
 33
0.0
 16
1.0
 26
0.0
 36
0.0
 17
0.0
 27
1.0
 37
0.0
 76
     0
330
1F
331
29
  0
ENDSEC
  0
EOF
