  0
SECTION
  2
HEADER
  9
$ACADVER
  1
AC1018
  9
$ACADMAINTVER
 70
     0
  9
$DWGCODEPAGE
  3
ANSI_1252
  9
$EXTMIN
 10
-608305.3765
 20
-1170444.6219
 30
0.0
  9
$EXTMAX
 10
-589895.6001
 20
-1150307.96
 30
0.0
  9
$LIMMIN
 10
0.0
 20
0.0
  9
$LIMMAX
 10
12.0
 20
9.0
  9
$ORTHOMODE
 70
     0
  9
$REGENMODE
 70
     1
  9
$FILLMODE
 70
     1
  9
$QTEXTMODE
 70
     0
  9
$MIRRTEXT
 70
     1
  9
$LTSCALE
 40
1.0
  9
$ATTMODE
 70
     1
  9
$TEXTSIZE
 40
0.2
  9
$TRACEWID
 40
0.05
  9
$TEXTSTYLE
  7
Standard
  9
$CLAYER
  8
0
  9
$CELTYPE
  6
ByLayer
  9
$CECOLOR
 62
   256
  9
$CELTSCALE
 40
1.0
  9
$DISPSILH
 70
     0
  9
$LUNITS
 70
     2
  9
$LUPREC
 70
     4
  9
$SKETCHINC
 40
0.1
  9
$FILLETRAD
 40
0.5
  9
$AUNITS
 70
     0
  9
$AUPREC
 70
     0
  9
$MENU
  1
.
  9
$ELEVATION
 40
0.0
  9
$PELEVATION
 40
0.0
  9
$THICKNESS
 40
0.0
  9
$LIMCHECK
 70
     0
  9
$CHAMFERA
 40
0.5
  9
$CHAMFERB
 40
0.5
  9
$CHAMFERC
 40
1.0
  9
$CHAMFERD
 40
0.0
  9
$SKPOLY
 70
     0
  9
$ANGBASE
 50
0.0
  9
$ANGDIR
 70
     0
  9
$PDMODE
 70
     0
  9
$PDSIZE
 40
0.0
  9
$PLINEWID
 40
0.0
  9
$SPLFRAME
 70
     0
  9
$SPLINETYPE
 70
     6
  9
$SPLINESEGS
 70
     8
  9
$HANDSEED
  5
00020049
  9
$SURFTAB1
 70
     6
  9
$SURFTAB2
 70
     6
  9
$SURFTYPE
 70
     6
  9
$SURFU
 70
     6
  9
$SURFV
 70
     6
  9
$UCSBASE
  2

  9
$UCSNAME
  2

  9
$UCSORG
 10
0.0
 20
0.0
 30
0.0
  9
$UCSXDIR
 10
1.0
 20
0.0
 30
0.0
  9
$UCSYDIR
 10
0.0
 20
1.0
 30
0.0
  9
$UCSORTHOREF
  2

  9
$UCSORTHOVIEW
 70
     0
  9
$UCSORGTOP
 10
0.0
 20
0.0
 30
0.0
  9
$UCSORGBOTTOM
 10
0.0
 20
0.0
 30
0.0
  9
$UCSORGLEFT
 10
0.0
 20
0.0
 30
0.0
  9
$UCSORGRIGHT
 10
0.0
 20
0.0
 30
0.0
  9
$UCSORGFRONT
 10
0.0
 20
0.0
 30
0.0
  9
$UCSORGBACK
 10
0.0
 20
0.0
 30
0.0
  9
$PUCSBASE
  2

  9
$PUCSNAME
  2

  9
$PUCSORG
 10
0.0
 20
0.0
 30
0.0
  9
$PUCSXDIR
 10
1.0
 20
0.0
 30
0.0
  9
$PUCSYDIR
 10
0.0
 20
1.0
 30
0.0
  9
$PUCSORTHOREF
  2

  9
$PUCSORTHOVIEW
 70
     0
  9
$PUCSORGTOP
 10
0.0
 20
0.0
 30
0.0
  9
$PUCSORGBOTTOM
 10
0.0
 20
0.0
 30
0.0
  9
$PUCSORGLEFT
 10
0.0
 20
0.0
 30
0.0
  9
$PUCSORGRIGHT
 10
0.0
 20
0.0
 30
0.0
  9
$PUCSORGFRONT
 10
0.0
 20
0.0
 30
0.0
  9
$PUCSORGBACK
 10
0.0
 20
0.0
 30
0.0
  9
$WORLDVIEW
 70
     1
  9
$SHADEDGE
 70
     3
  9
$SHADEDIF
 70
    70
  9
$TILEMODE
 70
     1
  9
$MAXACTVP
 70
    64
  9
$PINSBASE
 10
0.0
 20
0.0
 30
0.0
  9
$PLIMCHECK
 70
     0
  9
$PEXTMIN
 10
1.000000000000000E+20
 20
1.000000000000000E+20
 30
1.000000000000000E+20
  9
$PEXTMAX
 10
-1.000000000000000E+20
 20
-1.000000000000000E+20
 30
-1.000000000000000E+20
  9
$PLIMMIN
 10
0.0
 20
0.0
  9
$PLIMMAX
 10
12.0
 20
9.0
  9
$UNITMODE
 70
     0
  9
$VISRETAIN
 70
     1
  9
$PLINEGEN
 70
     0
  9
$PSLTSCALE
 70
     1
  9
$TREEDEPTH
 70
  3020
  9
$CMLSTYLE
  2
Standard
  9
$CMLJUST
 70
     0
  9
$CMLSCALE
 40
1.0
  9
$PROXYGRAPHICS
 70
     1
  9
$MEASUREMENT
 70
     0
  9
$CELWEIGHT
370
    -1
  9
$ENDCAPS
280
     0
  9
$JOINSTYLE
280
     0
  9
$LWDISPLAY
290
     0
  9
$INSUNITS
 70
     1
  9
$HYPERLINKBASE
  1

  9
$STYLESHEET
  1

  9
$XEDIT
290
     1
  9
$CEPSNTYPE
380
     0
  9
$PSTYLEMODE
290
     1
  9
$EXTNAMES
290
     1
  9
$PSVPSCALE
 40
0.0
  9
$OLESTARTUP
290
     0
  9
$SORTENTS
280
   127
  9
$INDEXCTL
280
     0
  9
$HIDETEXT
280
     1
  9
$XCLIPFRAME
290
     0
  9
$HALOGAP
280
     0
  9
$OBSCOLOR
 70
   257
  9
$OBSLTYPE
280
     0
  9
$INTERSECTIONDISPLAY
280
     0
  9
$INTERSECTIONCOLOR
 70
   257
  9
$DIMASSOC
280
     2
  9
$PROJECTNAME
  1

  0
ENDSEC
  0
SECTION
  2
CLASSES
  0
CLASS
  1
ACDBDICTIONARYWDFLT
  2
AcDbDictionaryWithDefault
  3
ObjectDBX Classes
 90
        0
 91
        4
280
     0
281
     0
  0
ENDSEC
  0
SECTION
  2
TABLES
  0
TABLE
  2
VPORT
  5
8
330
0
100
AcDbSymbolTable
 70
     1
  0
VPORT
  5
29
330
8
100
AcDbSymbolTableRecord
100
AcDbViewportTableRecord
  2
*Active
 70
     0
 10
0.0
 20
0.0
 11
1.0
 21
1.0
 12
80.25
 22
106.4409457059851
 13
0.0
 23
0.0
 14
0.5
 24
0.5
 15
0.5
 25
0.5
 16
0.0
 26
0.0
 36
1.0
 17
0.0
 27
0.0
 37
0.0
 40
113.3818914119703
 41
0.8863849310366128
 42
50.0
 43
0.0
 44
0.0
 50
0.0
 51
0.0
 71
     0
 72
  1000
 73
     1
 74
     3
 75
     0
 76
     0
 77
     0
 78
     0
281
     0
 65
     1
110
0.0
120
0.0
130
0.0
111
1.0
121
0.0
131
0.0
112
0.0
122
1.0
132
0.0
 79
     0
146
0.0
  0
ENDTAB
  0
TABLE
  2
LTYPE
  5
5
330
0
100
AcDbSymbolTable
 70
     1
  0
LTYPE
  5
14
330
5
100
AcDbSymbolTableRecord
100
AcDbLinetypeTableRecord
  2
ByBlock
 70
     0
  3

 72
    65
 73
     0
 40
0.0
  0
LTYPE
  5
15
330
5
100
AcDbSymbolTableRecord
100
AcDbLinetypeTableRecord
  2
ByLayer
 70
     0
  3

 72
    65
 73
     0
 40
0.0
  0
LTYPE
  5
16
330
5
100
AcDbSymbolTableRecord
100
AcDbLinetypeTableRecord
  2
Continuous
 70
     0
  3
Solid line
 72
    65
 73
     0
 40
0.0
  0
ENDTAB
  0
TABLE
  2
LAYER
  5
2
330
0
100
AcDbSymbolTable
 70
     1
  0
LAYER
  5
10
330
2
100
AcDbSymbolTableRecord
100
AcDbLayerTableRecord
  2
0
 70
     0
 62
     7
  6
Continuous
370
    -3
390
F
  0
LAYER
  5
20048
330
2
100
AcDbSymbolTableRecord
100
AcDbLayerTableRecord
  2
plocha Q20
 70
     0
 62
     7
  6
Continuous
370
    -3
390
F
  0
ENDTAB
  0
TABLE
  2
STYLE
  5
3
330
0
100
AcDbSymbolTable
 70
     1
  0
STYLE
  5
11
330
3
100
AcDbSymbolTableRecord
100
AcDbTextStyleTableRecord
  2
Standard
 70
     0
 40
0.0
 41
1.0
 50
0.0
 71
     0
 42
0.2
  3
txt
  4

  0
ENDTAB
  0
TABLE
  2
VIEW
  5
6
330
0
100
AcDbSymbolTable
 70
     0
  0
ENDTAB
  0
TABLE
  2
UCS
  5
7
330
0
100
AcDbSymbolTable
 70
     0
  0
ENDTAB
  0
TABLE
  2
APPID
  5
9
330
0
100
AcDbSymbolTable
 70
     1
  0
APPID
  5
12
330
9
100
AcDbSymbolTableRecord
100
AcDbRegAppTableRecord
  2
ACAD
 70
     0
  0
ENDTAB
  0
TABLE
  2
DIMSTYLE
  5
A
330
0
100
AcDbSymbolTable
 70
     1
100
AcDbDimStyleTable
  0
DIMSTYLE
105
27
330
A
100
AcDbSymbolTableRecord
100
AcDbDimStyleTableRecord
  2
Standard
 70
     0
340
11
  0
ENDTAB
  0
TABLE
  2
BLOCK_RECORD
  5
1
330
0
100
AcDbSymbolTable
 70
     1
  0
BLOCK_RECORD
  5
1F
330
1
100
AcDbSymbolTableRecord
100
AcDbBlockTableRecord
  2
*Model_Space
340
22
  0
BLOCK_RECORD
  5
1B
330
1
100
AcDbSymbolTableRecord
100
AcDbBlockTableRecord
  2
*Paper_Space
340
1E
  0
ENDTAB
  0
ENDSEC
  0
SECTION
  2
BLOCKS
  0
BLOCK
  5
20
330
1F
100
AcDbEntity
  8
0
100
AcDbBlockBegin
  2
*Model_Space
 70
     0
 10
0.0
 20
0.0
 30
0.0
  3
*Model_Space
  1

  0
ENDBLK
  5
21
330
1F
100
AcDbEntity
  8
0
100
AcDbBlockEnd
  0
BLOCK
  5
1C
330
1B
100
AcDbEntity
 67
     1
  8
0
100
AcDbBlockBegin
  2
*Paper_Space
 70
     0
 10
0.0
 20
0.0
 30
0.0
  3
*Paper_Space
  1

  0
ENDBLK
  5
1D
330
1B
100
AcDbEntity
 67
     1
  8
0
100
AcDbBlockEnd
  0
ENDSEC
  0
SECTION
  2
ENTITIES
  0
HATCH
  5
20000
100
AcDbEntity
  8
plocha Q20
100
AcDbHatch
 10
0
 20
0
 30
0
210
0
220
0
230
1
  2
SOLID
 70
1
 71
0
 91
1
 92
2
 72
0
 73
1
 93
83
 10
-600344.2809
 20
-1164071.762
 10
-600345.48
 20
-1164070.551
 10
-600350.622
 20
-1164073.122
 10
-600368.424
 20
-1164080.3141
 10
-600379.6249
 20
-1164085.875
 10
-600385.281
 20
-1164088.9601
 10
-600387.852
 20
-1164091.737
 10
-600392.3779
 20
-1164095.337
 10
-600401.222
 20
-1164099.554
 10
-600409.656
 20
-1164102.845
 10
-600417.472
 20
-1164104.902
 10
-600426.728
 20
-1164105.724
 10
-600434.2709
 20
-1164106.111
 10
-600449.073
 20
-1164106.172
 10
-600466.978
 20
-1164106.969
 10
-600482.802
 20
-1164107.8881
 10
-600494.3769
 20
-1164107.3011
 10
-600524.498
 20
-1164105.974
 10
-600538.961
 20
-1164105.059
 10
-600542.5429
 20
-1164106.248
 10
-600542.5429
 20
-1164107.8881
 10
-600538.8519
 20
-1164112.673
 10
-600537.655
 20
-1164113.647
 10
-600535.152
 20
-1164114.195
 10
-600532.8049
 20
-1164114.508
 10
-600529.523
 20
-1164115.135
 10
-600526.849
 20
-1164116.163
 10
-600500.52
 20
-1164118.22
 10
-600470.695
 20
-1164119.66
 10
-600450.126
 20
-1164119.454
 10
-600436.55
 20
-1164119.043
 10
-600419.7689
 20
-1164118.887
 10
-600410.016
 20
-1164115.958
 10
-600399.731
 20
-1164111.844
 10
-600395.411
 20
-1164106.907
 10
-600389.858
 20
-1164102.588
 10
-600372.168
 20
-1164094.771
 10
-600365.792
 20
-1164092.509
 10
-600355.3009
 20
-1164089.423
 10
-600349.424
 20
-1164087.138
 10
-600343.789
 20
-1164083.897
 10
-600333.9089
 20
-1164080.99
 10
-600310.2549
 20
-1164082.2241
 10
-600293.182
 20
-1164084.281
 10
-600278.422
 20
-1164084.908
 10
-600270.7829
 20
-1164084.382
 10
-600260.066
 20
-1164086.132
 10
-600249.164
 20
-1164087.778
 10
-600237.826
 20
-1164086.883
 10
-600235.1769
 20
-1164087.983
 10
-600224.6869
 20
-1164090.246
 10
-600209.8769
 20
-1164090.246
 10
-600192.9859
 20
-1164091.985
 10
-600181.9029
 20
-1164094.977
 10
-600170.795
 20
-1164098.679
 10
-600159.9449
 20
-1164100.068
 10
-600151.1
 20
-1164100.788
 10
-600132.4849
 20
-1164101.919
 10
-600122.097
 20
-1164104.799
 10
-600108.2129
 20
-1164107.3701
 10
-600097.003
 20
-1164108.707
 10
-600095.563
 20
-1164107.3701
 10
-600094.843
 20
-1164106.239
 10
-600093.746
 20
-1164100.8641
 10
-600094.535
 20
-1164097.805
 10
-600097.628
 20
-1164096.243
 10
-600099.985
 20
-1164096.262
 10
-600104.2019
 20
-1164096.571
 10
-600110.99
 20
-1164096.057
 10
-600121.5829
 20
-1164094.7201
 10
-600133.1289
 20
-1164092.52
 10
-600147.603
 20
-1164090.092
 10
-600164.162
 20
-1164086.903
 10
-600188.584
 20
-1164083.847
 10
-600211.8819
 20
-1164080.9381
 10
-600235.126
 20
-1164080.013
 10
-600255.798
 20
-1164078.573
 10
-600270.299
 20
-1164076.207
 10
-600284.183
 20
-1164074.7681
 10
-600310.859
 20
-1164071.943
 10
-600333.821
 20
-1164070.5541
 10
-600342.552
 20
-1164072.071
 10
-600344.2809
 20
-1164071.762
 97
0
 75
0
 76
1
 98
0
  0
HATCH
  5
20001
100
AcDbEntity
  8
plocha Q20
100
AcDbHatch
 10
0
 20
0
 30
0
210
0
220
0
230
1
  2
SOLID
 70
1
 71
0
 91
1
 92
2
 72
0
 73
1
 93
134
 10
-601228.352
 20
-1164071.923
 10
-601233.523
 20
-1164071.154
 10
-601244.9649
 20
-1164069.4501
 10
-601288.056
 20
-1164065.311
 10
-601312.401
 20
-1164062.633
 10
-601337.51
 20
-1164060.305
 10
-601377.623
 20
-1164050.236
 10
-601397.608
 20
-1164045.348
 10
-601426.579
 20
-1164036.584
 10
-601448.976
 20
-1164029.281
 10
-601464.664
 20
-1164024.163
 10
-601482.512
 20
-1164014.402
 10
-601504.445
 20
-1164004.625
 10
-601523.506
 20
-1163993.766
 10
-601548.0469
 20
-1163980.38
 10
-601567.2889
 20
-1163969.225
 10
-601596.102
 20
-1163952.185
 10
-601622.86
 20
-1163936.27
 10
-601642.305
 20
-1163922.375
 10
-601650.584
 20
-1163915.6641
 10
-601653.234
 20
-1163914.1651
 10
-601655.6039
 20
-1163913.294
 10
-601657.4169
 20
-1163913.0501
 10
-601658.428
 20
-1163913.7121
 10
-601659.8919
 20
-1163916.152
 10
-601661.0069
 20
-1163919.987
 10
-601661.286
 20
-1163921.486
 10
-601661.042
 20
-1163922.95
 10
-601660.136
 20
-1163923.682
 10
-601659.8919
 20
-1163925.111
 10
-601657.6949
 20
-1163927.586
 10
-601653.8609
 20
-1163929.9571
 10
-601651.595
 20
-1163931.455
 10
-601649.382
 20
-1163935.795
 10
-601644.711
 20
-1163938.793
 10
-601630.139
 20
-1163947.09
 10
-601615.847
 20
-1163955.735
 10
-601602.7399
 20
-1163961.661
 10
-601595.42
 20
-1163966.541
 10
-601589.843
 20
-1163969.887
 10
-601569.171
 20
-1163982.681
 10
-601559.411
 20
-1163988.119
 10
-601550.208
 20
-1163994.951
 10
-601535.985
 20
-1164003.038
 10
-601526.086
 20
-1164009.871
 10
-601515.2099
 20
-1164014.8901
 10
-601502.5209
 20
-1164020.328
 10
-601493.8759
 20
-1164024.372
 10
-601485.3699
 20
-1164028.694
 10
-601476.5859
 20
-1164032.599
 10
-601468.08
 20
-1164035.666
 10
-601462.0849
 20
-1164038.0371
 10
-601438.37
 20
-1164045.599
 10
-601422.384
 20
-1164050.8261
 10
-601403.632
 20
-1164058.05
 10
-601384.8789
 20
-1164062.969
 10
-601352.1379
 20
-1164069.271
 10
-601333.6209
 20
-1164073.587
 10
-601318.168
 20
-1164074.8051
 10
-601276.051
 20
-1164078.494
 10
-601250.9959
 20
-1164080.953
 10
-601217.794
 20
-1164084.642
 10
-601171.9879
 20
-1164087.87
 10
-601129.292
 20
-1164092.86
 10
-601081.299
 20
-1164094.019
 10
-601043.3319
 20
-1164098.015
 10
-600971.0869
 20
-1164107.699
 10
-600961.5569
 20
-1164107.545
 10
-600955.87
 20
-1164108.621
 10
-600954.806
 20
-1164110.553
 10
-600951.373
 20
-1164110.8481
 10
-600949.875
 20
-1164108.929
 10
-600942.2809
 20
-1164110.061
 10
-600910.679
 20
-1164110.927
 10
-600840.894
 20
-1164114.462
 10
-600817.222
 20
-1164115.0771
 10
-600797.7009
 20
-1164114.77
 10
-600740.9809
 20
-1164120.1491
 10
-600717.0019
 20
-1164121.9941
 10
-600705.9349
 20
-1164122.301
 10
-600700.094
 20
-1164121.225
 10
-600697.02
 20
-1164119.688
 10
-600694.1369
 20
-1164118.4741
 10
-600693.0229
 20
-1164117.229
 10
-600691.6039
 20
-1164117.049
 10
-600690.445
 20
-1164116.996
 10
-600689.8129
 20
-1164116.153
 10
-600689.286
 20
-1164113.414
 10
-600689.549
 20
-1164110.9381
 10
-600690.603
 20
-1164108.831
 10
-600693.026
 20
-1164106.776
 10
-600696.398
 20
-1164106.566
 10
-600701.9289
 20
-1164106.671
 10
-600708.567
 20
-1164107.0401
 10
-600730.732
 20
-1164106.527
 10
-600741.1299
 20
-1164103.108
 10
-600753.63
 20
-1164092.19
 10
-600766.952
 20
-1164077.118
 10
-600777.874
 20
-1164041.981
 10
-600784.967
 20
-1164025.02
 10
-600795.0809
 20
-1164012.575
 10
-600809.8499
 20
-1163995.54
 10
-600828.301
 20
-1163993.859
 10
-600843.8819
 20
-1164000.675
 10
-600867.2529
 20
-1164019.6641
 10
-600886.7289
 20
-1164017.7171
 10
-600896.467
 20
-1164010.9
 10
-600922.273
 20
-1164005.057
 10
-600945.1569
 20
-1164005.544
 10
-600969.015
 20
-1164002.136
 10
-600984.109
 20
-1163996.78
 10
-601001.864
 20
-1163987.295
 10
-601007.3699
 20
-1163983.17
 10
-601033.773
 20
-1163971.948
 10
-601049.0119
 20
-1163966.52
 10
-601045.811
 20
-1163984.902
 10
-601050.542
 20
-1163987.3
 10
-601049.245
 20
-1164000.061
 10
-601050.55
 20
-1164025.03
 10
-601035.72
 20
-1164038.166
 10
-601029.3909
 20
-1164053.26
 10
-601036.2069
 20
-1164071.762
 10
-601026.4689
 20
-1164077.6051
 10
-601007.48
 20
-1164079.0661
 10
-601008.454
 20
-1164084.422
 10
-601020.626
 20
-1164086.856
 10
-601051.3009
 20
-1164082.961
 10
-601117.014
 20
-1164077.135
 10
-601158.419
 20
-1164075.6581
 10
-601194.0839
 20
-1164071.884
 10
-601202.118
 20
-1164071.3971
 10
-601211.591
 20
-1164073.373
 10
-601219.203
 20
-1164074.825
 10
-601228.352
 20
-1164071.923
 97
0
 75
0
 76
1
 98
0
  0
HATCH
  5
20002
100
AcDbEntity
  8
plocha Q20
100
AcDbHatch
 10
0
 20
0
 30
0
210
0
220
0
230
1
  2
SOLID
 70
1
 71
0
 91
1
 92
2
 72
0
 73
1
 93
28
 10
-601720.183
 20
-1163878.678
 10
-601727.568
 20
-1163873.275
 10
-601731.8009
 20
-1163870.1221
 10
-601732.792
 20
-1163869.762
 10
-601735.1339
 20
-1163870.843
 10
-601736.5749
 20
-1163873.455
 10
-601737.746
 20
-1163877.147
 10
-601737.2949
 20
-1163878.1381
 10
-601734.503
 20
-1163882.911
 10
-601732.972
 20
-1163887.595
 10
-601727.6579
 20
-1163891.197
 10
-601719.9129
 20
-1163896.331
 10
-601711.8069
 20
-1163899.033
 10
-601704.512
 20
-1163903.6261
 10
-601694.9649
 20
-1163909.751
 10
-601684.8779
 20
-1163916.055
 10
-601680.5539
 20
-1163918.217
 10
-601678.663
 20
-1163918.307
 10
-601677.5819
 20
-1163917.857
 10
-601674.2499
 20
-1163913.263
 10
-601671.368
 20
-1163908.13
 10
-601670.647
 20
-1163906.0581
 10
-601672.449
 20
-1163902.8161
 10
-601681.275
 20
-1163898.222
 10
-601698.567
 20
-1163888.495
 10
-601713.068
 20
-1163879.759
 10
-601716.22
 20
-1163880.3
 10
-601720.183
 20
-1163878.678
 97
0
 75
0
 76
1
 98
0
  0
HATCH
  5
20003
100
AcDbEntity
  8
plocha Q20
100
AcDbHatch
 10
0
 20
0
 30
0
210
0
220
0
230
1
  2
SOLID
 70
1
 71
0
 91
1
 92
2
 72
0
 73
1
 93
25
 10
-601750.835
 20
-1163876.883
 10
-601750.284
 20
-1163874.156
 10
-601748.0419
 20
-1163867.766
 10
-601749.863
 20
-1163864.328
 10
-601749.4389
 20
-1163862.0161
 10
-601755.9
 20
-1163858.852
 10
-601773.8709
 20
-1163848.743
 10
-601811.7799
 20
-1163828.2451
 10
-601838.456
 20
-1163812.801
 10
-601845.616
 20
-1163807.606
 10
-601851.232
 20
-1163805.5
 10
-601855.8649
 20
-1163801.99
 10
-601859.656
 20
-1163798.059
 10
-601859.235
 20
-1163795.25
 10
-601861.622
 20
-1163794.548
 10
-601864.035
 20
-1163796.395
 10
-601866.957
 20
-1163799.603
 10
-601868.221
 20
-1163805.079
 10
-601867.799
 20
-1163810.273
 10
-601864.4299
 20
-1163816.311
 10
-601844.774
 20
-1163826.7
 10
-601820.4839
 20
-1163839.8981
 10
-601784.1209
 20
-1163860.2561
 10
-601754.637
 20
-1163876.964
 10
-601750.835
 20
-1163876.883
 97
0
 75
0
 76
1
 98
0
  0
HATCH
  5
20004
100
AcDbEntity
  8
plocha Q20
100
AcDbHatch
 10
0
 20
0
 30
0
210
0
220
0
230
1
  2
SOLID
 70
1
 71
0
 91
1
 92
2
 72
0
 73
1
 93
107
 10
-602126.7139
 20
-1163660.279
 10
-602135.831
 20
-1163649.6851
 10
-602135.4
 20
-1163637.43
 10
-602135.73
 20
-1163630.638
 10
-602135.697
 20
-1163624.66
 10
-602135.536
 20
-1163600.889
 10
-602138.048
 20
-1163595.48
 10
-602141.744
 20
-1163592.031
 10
-602184.368
 20
-1163585.625
 10
-602243.254
 20
-1163580.204
 10
-602286.411
 20
-1163577.219
 10
-602292.7769
 20
-1163592.2771
 10
-602297.9509
 20
-1163623.321
 10
-602300.7459
 20
-1163636.5281
 10
-602297.212
 20
-1163637.612
 10
-602305
 20
-1163655
 10
-602306.5749
 20
-1163657.3221
 10
-602311.969
 20
-1163663.255
 10
-602313.474
 20
-1163678.758
 10
-602312.488
 20
-1163692.555
 10
-602308.4529
 20
-1163698.331
 10
-602297.459
 20
-1163697.976
 10
-602290.067
 20
-1163700.193
 10
-602281.411
 20
-1163701.308
 10
-602270.594
 20
-1163700.814
 10
-602235.0699
 20
-1163700.7941
 10
-602225.0219
 20
-1163699.947
 10
-602221.08
 20
-1163695.019
 10
-602214.427
 20
-1163693.787
 10
-602208.072
 20
-1163698.815
 10
-602199.1509
 20
-1163698.4691
 10
-602190.035
 20
-1163702.904
 10
-602183.136
 20
-1163703.643
 10
-602177.223
 20
-1163704.135
 10
-602165.3969
 20
-1163710.541
 10
-602166.136
 20
-1163716.701
 10
-602166.136
 20
-1163723.6001
 10
-602165.5989
 20
-1163729.394
 10
-602159.149
 20
-1163726.041
 10
-602156.034
 20
-1163719.411
 10
-602147.164
 20
-1163716.701
 10
-602136.323
 20
-1163710.049
 10
-602128.9319
 20
-1163709.063
 10
-602126.961
 20
-1163712.02
 10
-602133.12
 20
-1163716.2081
 10
-602152.5849
 20
-1163728.281
 10
-602167.063
 20
-1163739.851
 10
-602175.944
 20
-1163747.926
 10
-602182.2169
 20
-1163753.24
 10
-602186.3559
 20
-1163755.865
 10
-602189.9979
 20
-1163758.185
 10
-602199.5399
 20
-1163762.856
 10
-602213.739
 20
-1163768.598
 10
-602222.5099
 20
-1163770.999
 10
-602233.2629
 20
-1163773.0881
 10
-602245.792
 20
-1163775.176
 10
-602257.259
 20
-1163775.153
 10
-602265.5249
 20
-1163777.368
 10
-602277.185
 20
-1163778.744
 10
-602282.0939
 20
-1163781.625
 10
-602281.8129
 20
-1163783.4241
 10
-602276.9049
 20
-1163786.8691
 10
-602271.372
 20
-1163790.001
 10
-602268.2769
 20
-1163790.001
 10
-602258.321
 20
-1163787.913
 10
-602247.3539
 20
-1163785.505
 10
-602239.298
 20
-1163784.2181
 10
-602229.6089
 20
-1163782.797
 10
-602211.4919
 20
-1163778.595
 10
-602194.8419
 20
-1163775.385
 10
-602190.076
 20
-1163773.275
 10
-602181.56
 20
-1163767.657
 10
-602172.3939
 20
-1163760.454
 10
-602163.645
 20
-1163753.106
 10
-602153.079
 20
-1163746.777
 10
-602144.205
 20
-1163741.139
 10
-602139.1929
 20
-1163736.441
 10
-602131.9889
 20
-1163732.056
 10
-602125.6049
 20
-1163729.57
 10
-602116.4679
 20
-1163726.675
 10
-602107.149
 20
-1163724.413
 10
-602097.74
 20
-1163724.504
 10
-602093.036
 20
-1163724.594
 10
-602089.5979
 20
-1163724.142
 10
-602087.1019
 20
-1163722.947
 10
-602082.6069
 20
-1163718.103
 10
-602081.1089
 20
-1163715.506
 10
-602080.9589
 20
-1163710.262
 10
-602081.8169
 20
-1163708.671
 10
-602081.152
 20
-1163706.886
 10
-602079.4649
 20
-1163706.5
 10
-602076.027
 20
-1163706.681
 10
-602074.579
 20
-1163705.9571
 10
-602073.7649
 20
-1163703.967
 10
-602072.7559
 20
-1163700.44
 10
-602069.8
 20
-1163694.526
 10
-602071.2779
 20
-1163692.555
 10
-602073.291
 20
-1163683.207
 10
-602073.7419
 20
-1163675.309
 10
-602074.481
 20
-1163670.381
 10
-602080.887
 20
-1163664.7141
 10
-602086.8
 20
-1163662.004
 10
-602092.7129
 20
-1163662.989
 10
-602098.8729
 20
-1163662.497
 10
-602106.7569
 20
-1163660.772
 10
-602118.584
 20
-1163661.0181
 10
-602126.7139
 20
-1163660.279
 97
0
 75
0
 76
1
 98
0
  0
HATCH
  5
20005
100
AcDbEntity
  8
plocha Q20
100
AcDbHatch
 10
0
 20
0
 30
0
210
0
220
0
230
1
  2
SOLID
 70
1
 71
0
 91
1
 92
2
 72
0
 73
1
 93
149
 10
-602500.467
 20
-1163727.121
 10
-602517.901
 20
-1163711.14
 10
-602523.4219
 20
-1163700.679
 10
-602525
 20
-1163695
 10
-602520.5169
 20
-1163687.604
 10
-602524.5849
 20
-1163682.9541
 10
-602543.265
 20
-1163670.451
 10
-602552.0259
 20
-1163660.68
 10
-602573.9819
 20
-1163650.701
 10
-602601.8769
 20
-1163630.361
 10
-602619.8709
 20
-1163617.9361
 10
-602632.3029
 20
-1163613.437
 10
-602645
 20
-1163605
 10
-602660.8569
 20
-1163591.517
 10
-602676.1809
 20
-1163577.117
 10
-602684.7889
 20
-1163571.238
 10
-602701.584
 20
-1163557.592
 10
-602716.4899
 20
-1163543.9461
 10
-602734.7029
 20
-1163526.836
 10
-602752.929
 20
-1163511.272
 10
-602776.9539
 20
-1163494.189
 10
-602807.2049
 20
-1163476.614
 10
-602822.9319
 20
-1163467.736
 10
-602843.297
 20
-1163455.979
 10
-602858.6229
 20
-1163446.531
 10
-602878.1479
 20
-1163435.404
 10
-602903.341
 20
-1163421.3381
 10
-602922.972
 20
-1163410.6661
 10
-602959.2209
 20
-1163389.5941
 10
-602987.4129
 20
-1163376.599
 10
-603011.5889
 20
-1163363.1681
 10
-603037.376
 20
-1163350.275
 10
-603047.046
 20
-1163345.708
 10
-603051.339
 20
-1163343.1251
 10
-603065.016
 20
-1163347.355
 10
-603065.1569
 20
-1163350.387
 10
-603060.209
 20
-1163352.424
 10
-603044.6289
 20
-1163359.676
 10
-603024.483
 20
-1163370.153
 10
-602987.9509
 20
-1163390.03
 10
-602961.6259
 20
-1163403.73
 10
-602929.9289
 20
-1163420.3841
 10
-602906.023
 20
-1163433.5461
 10
-602893.9349
 20
-1163439.187
 10
-602866.151
 20
-1163456.287
 10
-602805
 20
-1163495
 10
-602767.8129
 20
-1163518.347
 10
-602744.1219
 20
-1163540.143
 10
-602734.119
 20
-1163554.371
 10
-602725
 20
-1163565
 10
-602725
 20
-1163575
 10
-602735
 20
-1163595
 10
-602739.384
 20
-1163609.3221
 10
-602745
 20
-1163625
 10
-602748.386
 20
-1163640.12
 10
-602746.491
 20
-1163655.283
 10
-602752.253
 20
-1163678.568
 10
-602758.337
 20
-1163702.665
 10
-602768.2869
 20
-1163712.616
 10
-602818.512
 20
-1163734.8851
 10
-602840.7819
 20
-1163747.2051
 10
-602862.145
 20
-1163757.4
 10
-602860.209
 20
-1163764.263
 10
-602853.576
 20
-1163767.106
 10
-602834.6219
 20
-1163764.7361
 10
-602800.033
 20
-1163743.414
 10
-602771.6039
 20
-1163728.726
 10
-602761.6529
 20
-1163728.252
 10
-602755.645
 20
-1163745.807
 10
-602734.651
 20
-1163759.244
 10
-602695.181
 20
-1163767.641
 10
-602634.5959
 20
-1163791.906
 10
-602615.8229
 20
-1163812.594
 10
-602598.451
 20
-1163830.5121
 10
-602580.637
 20
-1163833.218
 10
-602574.3239
 20
-1163833.444
 10
-602561.72
 20
-1163830.51
 10
-602557.1769
 20
-1163829.6001
 10
-602550.422
 20
-1163818.3361
 10
-602550.1369
 20
-1163810.408
 10
-602544.3339
 20
-1163802.1011
 10
-602539.889
 20
-1163795.617
 10
-602536.774
 20
-1163795.841
 10
-602538.365
 20
-1163807.538
 10
-602533.51
 20
-1163812.248
 10
-602525.1669
 20
-1163817.209
 10
-602521.2939
 20
-1163820.308
 10
-602521.12
 20
-1163823.4501
 10
-602524.8089
 20
-1163830.563
 10
-602530.128
 20
-1163832.542
 10
-602532.864
 20
-1163837.371
 10
-602526.971
 20
-1163842.689
 10
-602518.664
 20
-1163845.98
 10
-602513.596
 20
-1163848.812
 10
-602508.0309
 20
-1163855.767
 10
-602497.884
 20
-1163861.179
 10
-602490.443
 20
-1163868.169
 10
-602483.921
 20
-1163872.6021
 10
-602476.913
 20
-1163878.767
 10
-602473.9819
 20
-1163884.178
 10
-602470.712
 20
-1163892.183
 10
-602457.1829
 20
-1163892.6341
 10
-602445.9089
 20
-1163885.869
 10
-602427.8699
 20
-1163865.1251
 10
-602426.599
 20
-1163860.316
 10
-602424.102
 20
-1163853.24
 10
-602413.489
 20
-1163846.9971
 10
-602403.82
 20
-1163840.591
 10
-602398.3079
 20
-1163831.081
 10
-602399.709
 20
-1163818.697
 10
-602399.75
 20
-1163813.308
 10
-602394.9579
 20
-1163810.76
 10
-602390.8249
 20
-1163811.2641
 10
-602385.6299
 20
-1163813.752
 10
-602384.963
 20
-1163817.497
 10
-602381.026
 20
-1163819.112
 10
-602369.164
 20
-1163820.985
 10
-602363.9619
 20
-1163819.945
 10
-602347.356
 20
-1163811.745
 10
-602336.2819
 20
-1163807.698
 10
-602333.3059
 20
-1163807.097
 10
-602329.8169
 20
-1163806.205
 10
-602323.4859
 20
-1163804.7
 10
-602312.316
 20
-1163802.071
 10
-602305.746
 20
-1163800.1761
 10
-602303.079
 20
-1163798.318
 10
-602303.174
 20
-1163797.556
 10
-602305.127
 20
-1163796.604
 10
-602307.6039
 20
-1163795.27
 10
-602311.137
 20
-1163794.18
 10
-602313.558
 20
-1163792.555
 10
-602314.8629
 20
-1163792.1331
 10
-602316.087
 20
-1163792.0581
 10
-602328.909
 20
-1163794.076
 10
-602339.2259
 20
-1163795.995
 10
-602348.3939
 20
-1163796.578
 10
-602363.184
 20
-1163802.313
 10
-602375.0599
 20
-1163803.3921
 10
-602388.224
 20
-1163801.1941
 10
-602404.588
 20
-1163798.356
 10
-602416.2009
 20
-1163792.011
 10
-602421.0489
 20
-1163790.658
 10
-602427.363
 20
-1163787.839
 10
-602434.9159
 20
-1163783.217
 10
-602444.274
 20
-1163776.001
 10
-602449.5729
 20
-1163772.281
 10
-602462.539
 20
-1163761.57
 10
-602490.161
 20
-1163736.9921
 10
-602500.467
 20
-1163727.121
 97
0
 75
0
 76
1
 98
0
  0
HATCH
  5
20006
100
AcDbEntity
  8
plocha Q20
100
AcDbHatch
 10
0
 20
0
 30
0
210
0
220
0
230
1
  2
SOLID
 70
1
 71
0
 91
1
 92
2
 72
0
 73
1
 93
155
 10
-603623.264
 20
-1162838.7781
 10
-603628.55
 20
-1162829.825
 10
-603638.9059
 20
-1162814.831
 10
-603646.241
 20
-1162805.015
 10
-603656.1649
 20
-1162789.0501
 10
-603666.952
 20
-1162774.703
 10
-603677.0919
 20
-1162761.004
 10
-603682.054
 20
-1162755.286
 10
-603689.928
 20
-1162743.96
 10
-603698.018
 20
-1162731.124
 10
-603701.4699
 20
-1162727.78
 10
-603704.059
 20
-1162726.4851
 10
-603706.747
 20
-1162724.135
 10
-603709.485
 20
-1162721.369
 10
-603715.767
 20
-1162718.1701
 10
-603719.399
 20
-1162716.7
 10
-603720.263
 20
-1162716.786
 10
-603722.4249
 20
-1162717.593
 10
-603723.347
 20
-1162718.487
 10
-603724.096
 20
-1162719.784
 10
-603724.211
 20
-1162722.118
 10
-603723.548
 20
-1162723.2421
 10
-603721.7909
 20
-1162725.115
 10
-603719.427
 20
-1162726.873
 10
-603715.249
 20
-1162729.668
 10
-603712.6549
 20
-1162731.3971
 10
-603710.119
 20
-1162734.856
 10
-603706.776
 20
-1162738.1121
 10
-603702.768
 20
-1162741.396
 10
-603698.929
 20
-1162744.479
 10
-603695.3419
 20
-1162748.507
 10
-603690.523
 20
-1162755.902
 10
-603686.343
 20
-1162762.414
 10
-603680.2389
 20
-1162771.79
 10
-603676.1489
 20
-1162777.076
 10
-603672.877
 20
-1162782.488
 10
-603668.786
 20
-1162788.718
 10
-603662.1159
 20
-1162796.962
 10
-603656.012
 20
-1162805.772
 10
-603649.8449
 20
-1162814.519
 10
-603642.23
 20
-1162826.475
 10
-603637.825
 20
-1162833.209
 10
-603633.043
 20
-1162839.3761
 10
-603629.078
 20
-1162845.291
 10
-603624.851
 20
-1162849.0131
 10
-603618.086
 20
-1162853.049
 10
-603609.4219
 20
-1162857.678
 10
-603601.9449
 20
-1162861.832
 10
-603590.669
 20
-1162866.935
 10
-603581.8859
 20
-1162871.089
 10
-603561.472
 20
-1162879.7541
 10
-603549.128
 20
-1162885.332
 10
-603539.752
 20
-1162889.961
 10
-603500.1099
 20
-1162908.239
 10
-603484.7989
 20
-1162916.6661
 10
-603468.8949
 20
-1162925.449
 10
-603456.3139
 20
-1162932.452
 10
-603434.475
 20
-1162944.083
 10
-603427.8279
 20
-1162947.644
 10
-603421.2999
 20
-1162952.51
 10
-603415.01
 20
-1162958.919
 10
-603400.6489
 20
-1162970.313
 10
-603386.7619
 20
-1162982.301
 10
-603375.843
 20
-1162992.745
 10
-603358.2769
 20
-1163007.819
 10
-603347.239
 20
-1163018.382
 10
-603323.501
 20
-1163038.559
 10
-603317.5659
 20
-1163044.612
 10
-603309.496
 20
-1163050.7841
 10
-603300.95
 20
-1163057.3121
 10
-603292.998
 20
-1163063.3651
 10
-603289.5559
 20
-1163067.044
 10
-603283.5029
 20
-1163075.234
 10
-603272.7019
 20
-1163088.29
 10
-603268.192
 20
-1163094.818
 10
-603259.6459
 20
-1163106.687
 10
-603257.8659
 20
-1163109.654
 10
-603254.6609
 20
-1163122.353
 10
-603249.9139
 20
-1163136.833
 10
-603246.235
 20
-1163149.2961
 10
-603241.368
 20
-1163165.319
 10
-603238.1639
 20
-1163177.188
 10
-603234.9589
 20
-1163189.294
 10
-603233.297
 20
-1163195.94
 10
-603230.093
 20
-1163204.961
 10
-603230.2119
 20
-1163209.115
 10
-603229.3809
 20
-1163213.625
 10
-603228.9059
 20
-1163217.779
 10
-603231.1609
 20
-1163219.559
 10
-603231.517
 20
-1163222.171
 10
-603226.651
 20
-1163225.375
 10
-603213.595
 20
-1163231.547
 10
-603206.236
 20
-1163233.921
 10
-603200.539
 20
-1163232.971
 10
-603200.5159
 20
-1163230.703
 10
-603206.541
 20
-1163223.533
 10
-603210.2549
 20
-1163213.046
 10
-603215.5459
 20
-1163204.7251
 10
-603218.995
 20
-1163187.0451
 10
-603223.3639
 20
-1163169.129
 10
-603228.608
 20
-1163156.019
 10
-603234.071
 20
-1163139.414
 10
-603240.625
 20
-1163121.279
 10
-603248.71
 20
-1163101.833
 10
-603252.205
 20
-1163093.531
 10
-603256.7939
 20
-1163088.505
 10
-603262.0369
 20
-1163085.228
 10
-603264.955
 20
-1163082.835
 10
-603270.776
 20
-1163076.406
 10
-603279.3749
 20
-1163067.7861
 10
-603288.328
 20
-1163058.833
 10
-603294.908
 20
-1163051.39
 10
-603300.4089
 20
-1163046.212
 10
-603307.745
 20
-1163039.848
 10
-603318.64
 20
-1163031.11
 10
-603328.779
 20
-1163021.294
 10
-603337.948
 20
-1163013.743
 10
-603350.353
 20
-1163003.927
 10
-603367.3969
 20
-1162988.717
 10
-603385.5189
 20
-1162972.2131
 10
-603396.5219
 20
-1162961.75
 10
-603406.23
 20
-1162952.796
 10
-603410.8679
 20
-1162948.05
 10
-603420.792
 20
-1162941.039
 10
-603431.256
 20
-1162934.459
 10
-603443.0599
 20
-1162928.2
 10
-603459.7329
 20
-1162919.357
 10
-603480.2439
 20
-1162909.692
 10
-603501.371
 20
-1162899.832
 10
-603513.504
 20
-1162895.209
 10
-603521.651
 20
-1162890.771
 10
-603528.8779
 20
-1162886.349
 10
-603536.968
 20
-1162882.3571
 10
-603541.5339
 20
-1162880.354
 10
-603545.1669
 20
-1162876.6401
 10
-603546.029
 20
-1162873.836
 10
-603546.5689
 20
-1162872.541
 10
-603547.5399
 20
-1162872.3251
 10
-603547.755
 20
-1162872.865
 10
-603547.755
 20
-1162874.914
 10
-603548.6179
 20
-1162875.993
 10
-603549.917
 20
-1162876.152
 10
-603552.8249
 20
-1162875.777
 10
-603564.691
 20
-1162870.815
 10
-603580.4139
 20
-1162863.675
 10
-603599.857
 20
-1162854.311
 10
-603610.428
 20
-1162848.702
 10
-603614.311
 20
-1162847.407
 10
-603614.743
 20
-1162844.926
 10
-603613.4649
 20
-1162844.284
 10
-603613.536
 20
-1162841.628
 10
-603614.209
 20
-1162840.977
 10
-603616.028
 20
-1162841.638
 10
-603619.393
 20
-1162842.472
 10
-603623.264
 20
-1162838.7781
 97
0
 75
0
 76
1
 98
0
  0
HATCH
  5
20007
100
AcDbEntity
  8
plocha Q20
100
AcDbHatch
 10
0
 20
0
 30
0
210
0
220
0
230
1
  2
SOLID
 70
1
 71
0
 91
1
 92
2
 72
0
 73
1
 93
92
 10
-603781.3639
 20
-1162700.66
 10
-603792.129
 20
-1162698.9011
 10
-603802.262
 20
-1162696.79
 10
-603813.0279
 20
-1162694.5381
 10
-603826.749
 20
-1162691.442
 10
-603836.108
 20
-1162688.7681
 10
-603847.5779
 20
-1162685.8131
 10
-603856.866
 20
-1162683.139
 10
-603867.702
 20
-1162678.846
 10
-603876.4309
 20
-1162672.79
 10
-603881.469
 20
-1162668.184
 10
-603887.968
 20
-1162663.788
 10
-603892.401
 20
-1162659.496
 10
-603913.853
 20
-1162639.9731
 10
-603926.088
 20
-1162629.1781
 10
-603935.587
 20
-1162619.103
 10
-603947.34
 20
-1162605.357
 10
-603958.904
 20
-1162596.6501
 10
-603965.384
 20
-1162587.4451
 10
-603973.153
 20
-1162574.772
 10
-603979.6299
 20
-1162565.561
 10
-603985.099
 20
-1162561.387
 10
-603989.1299
 20
-1162557.645
 10
-603995.704
 20
-1162551.222
 10
-603998.9169
 20
-1162546.994
 10
-604004.892
 20
-1162544.955
 10
-604010.616
 20
-1162544.493
 10
-604013.176
 20
-1162546.252
 10
-604012.696
 20
-1162550.411
 10
-604009.568
 20
-1162552.031
 10
-604001.2519
 20
-1162559.82
 10
-603995.904
 20
-1162566.3571
 10
-603990.886
 20
-1162577.022
 10
-603988.555
 20
-1162579.591
 10
-603982.086
 20
-1162588.866
 10
-603972.573
 20
-1162599.6161
 10
-603969.101
 20
-1162605.895
 10
-603963.0119
 20
-1162613.743
 10
-603953.452
 20
-1162621.3541
 10
-603943.415
 20
-1162629.82
 10
-603938.706
 20
-1162635.195
 10
-603934.4249
 20
-1162639.762
 10
-603928.717
 20
-1162643.71
 10
-603921.884
 20
-1162647.6741
 10
-603915.4809
 20
-1162652.248
 10
-603906.333
 20
-1162660.129
 10
-603900.6329
 20
-1162665.8291
 10
-603895.075
 20
-1162671.247
 10
-603892.471
 20
-1162674.413
 10
-603886.983
 20
-1162678.9171
 10
-603883.1829
 20
-1162681.8021
 10
-603878.257
 20
-1162685.1091
 10
-603870.7979
 20
-1162688.4161
 10
-603865.521
 20
-1162691.3011
 10
-603861.299
 20
-1162693.131
 10
-603858.0619
 20
-1162694.116
 10
-603853.6999
 20
-1162695.2421
 10
-603849.618
 20
-1162696.3681
 10
-603842.8629
 20
-1162697.704
 10
-603838.1959
 20
-1162698.988
 10
-603834.774
 20
-1162700.7891
 10
-603830.731
 20
-1162701.503
 10
-603826.8199
 20
-1162701.223
 10
-603823.1609
 20
-1162701.7861
 10
-603818.024
 20
-1162702.9121
 10
-603812.887
 20
-1162704.0371
 10
-603809.0169
 20
-1162704.952
 10
-603804.232
 20
-1162705.937
 10
-603796.774
 20
-1162707.9781
 10
-603790.37
 20
-1162709.315
 10
-603785.304
 20
-1162710.37
 10
-603782.8409
 20
-1162711.004
 10
-603778.4789
 20
-1162711.848
 10
-603770.246
 20
-1162713.959
 10
-603762.998
 20
-1162715.6481
 10
-603756.243
 20
-1162716.422
 10
-603748.784
 20
-1162718.462
 10
-603738.1589
 20
-1162721.699
 10
-603735.6459
 20
-1162723.193
 10
-603733.696
 20
-1162722.527
 10
-603732.317
 20
-1162721.718
 10
-603732.1259
 20
-1162720.719
 10
-603731.5079
 20
-1162717.294
 10
-603730.8899
 20
-1162714.441
 10
-603730.8899
 20
-1162713.537
 10
-603732.3889
 20
-1162713.044
 10
-603734.5699
 20
-1162712.129
 10
-603737.1029
 20
-1162710.722
 10
-603741.255
 20
-1162709.033
 10
-603750.898
 20
-1162706.371
 10
-603767.2899
 20
-1162702.067
 10
-603781.3639
 20
-1162700.66
 97
0
 75
0
 76
1
 98
0
  0
HATCH
  5
20008
100
AcDbEntity
  8
plocha Q20
100
AcDbHatch
 10
0
 20
0
 30
0
210
0
220
0
230
1
  2
SOLID
 70
1
 71
0
 91
1
 92
2
 72
0
 73
1
 93
56
 10
-604121.949
 20
-1162474.738
 10
-604126.6119
 20
-1162473.832
 10
-604130.8209
 20
-1162474.155
 10
-604133.6409
 20
-1162474.557
 10
-604135.4129
 20
-1162475.356
 10
-604136.316
 20
-1162476.155
 10
-604136.9059
 20
-1162479.385
 10
-604137.219
 20
-1162482.3041
 10
-604137.011
 20
-1162484.562
 10
-604136.316
 20
-1162487.202
 10
-604135.8289
 20
-1162488.279
 10
-604132.877
 20
-1162488.8001
 10
-604130.2709
 20
-1162489.251
 10
-604127.1449
 20
-1162489.0081
 10
-604123.184
 20
-1162489.078
 10
-604115.837
 20
-1162489.3381
 10
-604110.973
 20
-1162488.782
 10
-604103.592
 20
-1162489.495
 10
-604093.7429
 20
-1162492.2561
 10
-604087.073
 20
-1162495.452
 10
-604079.569
 20
-1162499.7601
 10
-604070.6379
 20
-1162505.41
 10
-604063.0329
 20
-1162509.9041
 10
-604054.9739
 20
-1162513.517
 10
-604044.2449
 20
-1162517.475
 10
-604037.6299
 20
-1162519.903
 10
-604031.165
 20
-1162522.7201
 10
-604026.05
 20
-1162524.404
 10
-604019.251
 20
-1162525.8931
 10
-604014.187
 20
-1162527.534
 10
-604012.5809
 20
-1162527.2531
 10
-604008.243
 20
-1162528.095
 10
-604002.609
 20
-1162528.6131
 10
-603999.6299
 20
-1162528.872
 10
-603996.3929
 20
-1162528.225
 10
-603995.1619
 20
-1162527.6421
 10
-603994.6439
 20
-1162526.929
 10
-603995.616
 20
-1162524.9221
 10
-603997.623
 20
-1162523.692
 10
-603999.2419
 20
-1162522.915
 10
-604001.0549
 20
-1162523.757
 10
-604004.875
 20
-1162523.303
 10
-604012.257
 20
-1162519.742
 10
-604022.2289
 20
-1162515.144
 10
-604039.4539
 20
-1162507.244
 10
-604057.3259
 20
-1162498.3731
 10
-604066.5849
 20
-1162492.481
 10
-604074.4849
 20
-1162488.401
 10
-604081.6729
 20
-1162483.998
 10
-604088.2129
 20
-1162479.401
 10
-604094.882
 20
-1162477.523
 10
-604100.9689
 20
-1162476.228
 10
-604107.8329
 20
-1162475.127
 10
-604113.078
 20
-1162475.3861
 10
-604119.2939
 20
-1162475.774
 10
-604121.949
 20
-1162474.738
 97
0
 75
0
 76
1
 98
0
  0
HATCH
  5
20009
100
AcDbEntity
  8
plocha Q20
100
AcDbHatch
 10
0
 20
0
 30
0
210
0
220
0
230
1
  2
SOLID
 70
1
 71
0
 91
1
 92
2
 72
0
 73
1
 93
56
 10
-604146.7779
 20
-1162486.988
 10
-604146.599
 20
-1162486.095
 10
-604146.528
 20
-1162484.31
 10
-604146.4209
 20
-1162480.632
 10
-604146.8139
 20
-1162479.132
 10
-604148.171
 20
-1162478.347
 10
-604149.5989
 20
-1162477.847
 10
-604151.867
 20
-1162477.041
 10
-604155.9889
 20
-1162476.566
 10
-604172.161
 20
-1162474.98
 10
-604182.3089
 20
-1162470.541
 10
-604189.9189
 20
-1162464.674
 10
-604198.065
 20
-1162457.826
 10
-604210.531
 20
-1162446.6
 10
-604215.6039
 20
-1162441.526
 10
-604221.4709
 20
-1162429.318
 10
-604225.3219
 20
-1162418.92
 10
-604228.4889
 20
-1162412.012
 10
-604230.936
 20
-1162403.8081
 10
-604235.5409
 20
-1162393.3011
 10
-604241.73
 20
-1162381.499
 10
-604248.4949
 20
-1162366.386
 10
-604251.517
 20
-1162358.326
 10
-604252.813
 20
-1162348.683
 10
-604255.456
 20
-1162341.641
 10
-604260.8569
 20
-1162336.1011
 10
-604261.5559
 20
-1162335.7061
 10
-604267.5979
 20
-1162336.395
 10
-604269.442
 20
-1162339.905
 10
-604268.5009
 20
-1162341.919
 10
-604266.63
 20
-1162353.001
 10
-604265.047
 20
-1162359.478
 10
-604261.592
 20
-1162366.386
 10
-604258.4259
 20
-1162375.166
 10
-604253.6149
 20
-1162385.604
 10
-604249.9339
 20
-1162394.308
 10
-604245.904
 20
-1162402.5121
 10
-604242.882
 20
-1162409.997
 10
-604240.579
 20
-1162417.481
 10
-604238.776
 20
-1162421.115
 10
-604234.387
 20
-1162428.919
 10
-604227.8019
 20
-1162439.975
 10
-604218.7779
 20
-1162453.795
 10
-604212.0309
 20
-1162462.737
 10
-604207.479
 20
-1162467.777
 10
-604203.041
 20
-1162471.814
 10
-604194.93
 20
-1162478.007
 10
-604183.361
 20
-1162485.292
 10
-604178.077
 20
-1162486.3141
 10
-604170.2379
 20
-1162486.988
 10
-604164.0249
 20
-1162487.238
 10
-604155.633
 20
-1162487.238
 10
-604151.884
 20
-1162487.773
 10
-604148.599
 20
-1162488.238
 10
-604147.2419
 20
-1162487.666
 10
-604146.7779
 20
-1162486.988
 97
0
 75
0
 76
1
 98
0
  0
HATCH
  5
2000A
100
AcDbEntity
  8
plocha Q20
100
AcDbHatch
 10
0
 20
0
 30
0
210
0
220
0
230
1
  2
SOLID
 70
1
 71
0
 91
1
 92
2
 72
0
 73
1
 93
21
 10
-604261.04
 20
-1162324.0481
 10
-604258.5209
 20
-1162317.295
 10
-604258.3509
 20
-1162314.063
 10
-604259.7109
 20
-1162305.901
 10
-604263.623
 20
-1162293.1461
 10
-604269.8289
 20
-1162284.38
 10
-604273.996
 20
-1162275.63
 10
-604278.248
 20
-1162273.079
 10
-604282.499
 20
-1162273.079
 10
-604287.062
 20
-1162274.5541
 10
-604289.8119
 20
-1162278.0101
 10
-604291.3429
 20
-1162279.5411
 10
-604292.023
 20
-1162282.4321
 10
-604291.3429
 20
-1162285.4931
 10
-604287.9409
 20
-1162289.234
 10
-604281.649
 20
-1162302.669
 10
-604275.187
 20
-1162317.1251
 10
-604273.073
 20
-1162324.326
 10
-604270.765
 20
-1162324.607
 10
-604264.093
 20
-1162324.935
 10
-604261.04
 20
-1162324.0481
 97
0
 75
0
 76
1
 98
0
  0
HATCH
  5
2000B
100
AcDbEntity
  8
plocha Q20
100
AcDbHatch
 10
0
 20
0
 30
0
210
0
220
0
230
1
  2
SOLID
 70
1
 71
0
 91
1
 92
2
 72
0
 73
1
 93
32
 10
-604286.851
 20
-1162261.807
 10
-604283.894
 20
-1162258.157
 10
-604283.725
 20
-1162256.075
 10
-604284.94
 20
-1162250.171
 10
-604290.5689
 20
-1162240.927
 10
-604295.83
 20
-1162233.62
 10
-604315.16
 20
-1162211.788
 10
-604327.3169
 20
-1162202.236
 10
-604342.427
 20
-1162190.7731
 10
-604348.699
 20
-1162184.6291
 10
-604353.6199
 20
-1162181.0501
 10
-604356.668
 20
-1162180.8741
 10
-604360.316
 20
-1162185.042
 10
-604363.094
 20
-1162187.821
 10
-604365.352
 20
-1162192.337
 10
-604366.915
 20
-1162195.463
 10
-604363.442
 20
-1162196.505
 10
-604357.7099
 20
-1162197.547
 10
-604351.985
 20
-1162198.7361
 10
-604349.667
 20
-1162202.228
 10
-604348.707
 20
-1162204.835
 10
-604347.985
 20
-1162209.357
 10
-604333.222
 20
-1162220.819
 10
-604320.891
 20
-1162232.2821
 10
-604314.118
 20
-1162239.924
 10
-604305.26
 20
-1162250.692
 10
-604303.003
 20
-1162259.202
 10
-604301.0919
 20
-1162262.5011
 10
-604298.487
 20
-1162264.065
 10
-604293.6359
 20
-1162264.3
 10
-604292.408
 20
-1162264.412
 10
-604286.851
 20
-1162261.807
 97
0
 75
0
 76
1
 98
0
  0
HATCH
  5
2000C
100
AcDbEntity
  8
plocha Q20
100
AcDbHatch
 10
0
 20
0
 30
0
210
0
220
0
230
1
  2
SOLID
 70
1
 71
0
 91
1
 92
2
 72
0
 73
1
 93
57
 10
-604374.29
 20
-1162186.23
 10
-604371.6
 20
-1162181.6901
 10
-604366.679
 20
-1162173.314
 10
-604365.779
 20
-1162169.789
 10
-604367.229
 20
-1162165.431
 10
-604366.312
 20
-1162161.7651
 10
-604371.2619
 20
-1162158.098
 10
-604377.6779
 20
-1162155.165
 10
-604388.128
 20
-1162150.9491
 10
-604398.3939
 20
-1162148.932
 10
-604413.0599
 20
-1162138.849
 10
-604426.8089
 20
-1162130.783
 10
-604432.1259
 20
-1162128.766
 10
-604441.292
 20
-1162122.9
 10
-604448.9909
 20
-1162117.0341
 10
-604450.214
 20
-1162116.292
 10
-604461.931
 20
-1162109.635
 10
-604470.96
 20
-1162103.409
 10
-604485.0859
 20
-1162093.151
 10
-604502.2819
 20
-1162083.187
 10
-604511.12
 20
-1162077.884
 10
-604527.351
 20
-1162065.671
 10
-604544.147
 20
-1162051.793
 10
-604550.667
 20
-1162045.273
 10
-604557.0389
 20
-1162037.789
 10
-604567.042
 20
-1162026.601
 10
-604573.7109
 20
-1162017.858
 10
-604576.23
 20
-1162016.1541
 10
-604577.564
 20
-1162016.45
 10
-604578.749
 20
-1162018.006
 10
-604573.9289
 20
-1162024.374
 10
-604569.191
 20
-1162030.454
 10
-604562.967
 20
-1162037.715
 10
-604558.892
 20
-1162044.161
 10
-604554.668
 20
-1162048.5331
 10
-604546.963
 20
-1162055.942
 10
-604544.592
 20
-1162058.313
 10
-604533.3369
 20
-1162068.107
 10
-604519.4769
 20
-1162079.652
 10
-604499.963
 20
-1162091.596
 10
-604484.765
 20
-1162101.8291
 10
-604469.3369
 20
-1162111.793
 10
-604459.5339
 20
-1162118.703
 10
-604451.923
 20
-1162123.02
 10
-604445.142
 20
-1162129.133
 10
-604436.95
 20
-1162134.765
 10
-604435.792
 20
-1162138.116
 10
-604431.2089
 20
-1162143.982
 10
-604423.5089
 20
-1162148.015
 10
-604416.726
 20
-1162152.9651
 10
-604407.1929
 20
-1162162.131
 10
-604401.6939
 20
-1162169.281
 10
-604398.7609
 20
-1162175.147
 10
-604395.644
 20
-1162180.831
 10
-604388.4939
 20
-1162184.497
 10
-604382.445
 20
-1162186.697
 10
-604374.29
 20
-1162186.23
 97
0
 75
0
 76
1
 98
0
  0
HATCH
  5
2000D
100
AcDbEntity
  8
plocha Q20
100
AcDbHatch
 10
0
 20
0
 30
0
210
0
220
0
230
1
  2
SOLID
 70
1
 71
0
 91
1
 92
2
 72
0
 73
1
 93
53
 10
-604955.8609
 20
-1161564.761
 10
-604954.587
 20
-1161562.3361
 10
-604957.2359
 20
-1161556.045
 10
-604961.7059
 20
-1161544.289
 10
-604965.1829
 20
-1161538.163
 10
-604968.9909
 20
-1161532.699
 10
-604974.455
 20
-1161529.884
 10
-604980.5809
 20
-1161523.427
 10
-604984.721
 20
-1161516.307
 10
-604987.867
 20
-1161509.188
 10
-604999.126
 20
-1161502.399
 10
-605011.047
 20
-1161488.657
 10
-605013.862
 20
-1161482.365
 10
-605017.67
 20
-1161469.947
 10
-605026.776
 20
-1161462.827
 10
-605031.0809
 20
-1161452.727
 10
-605029.1769
 20
-1161445.1941
 10
-605023.548
 20
-1161436.584
 10
-605023.043
 20
-1161433.1941
 10
-605024.6659
 20
-1161425.654
 10
-605027.816
 20
-1161420.308
 10
-605028.675
 20
-1161414.868
 10
-605029.5339
 20
-1161410.668
 10
-605033.1609
 20
-1161407.804
 10
-605034.3929
 20
-1161406.367
 10
-605035.7169
 20
-1161403.387
 10
-605042.5059
 20
-1161404.049
 10
-605049.1289
 20
-1161409.182
 10
-605059.228
 20
-1161414.4801
 10
-605064.3609
 20
-1161417.46
 10
-605068.0039
 20
-1161421.6001
 10
-605070.819
 20
-1161426.732
 10
-605070.984
 20
-1161434.018
 10
-605065.52
 20
-1161442.462
 10
-605060.2219
 20
-1161453.224
 10
-605055.9449
 20
-1161458.2081
 10
-605049.9559
 20
-1161468.291
 10
-605044.989
 20
-1161477.398
 10
-605041.843
 20
-1161482.365
 10
-605036.545
 20
-1161488.3251
 10
-605026.611
 20
-1161496.604
 10
-605017.67
 20
-1161502.7301
 10
-605011.212
 20
-1161509.519
 10
-605002.934
 20
-1161517.7971
 10
-604993.331
 20
-1161526.573
 10
-604980.2499
 20
-1161536.342
 10
-604973.959
 20
-1161541.805
 10
-604969.488
 20
-1161546.9381
 10
-604965.8449
 20
-1161554.3891
 10
-604962.7
 20
-1161561.012
 10
-604962.368
 20
-1161566.145
 10
-604958.891
 20
-1161566.807
 10
-604955.8609
 20
-1161564.761
 97
0
 75
0
 76
1
 98
0
  0
HATCH
  5
2000E
100
AcDbEntity
  8
plocha Q20
100
AcDbHatch
 10
0
 20
0
 30
0
210
0
220
0
230
1
  2
SOLID
 70
1
 71
0
 91
2
 92
2
 72
0
 73
1
 93
198
 10
-605057.5399
 20
-1161366.157
 10
-605060.1859
 20
-1161365.035
 10
-605062.3349
 20
-1161363.8081
 10
-605062.886
 20
-1161363.487
 10
-605063.377
 20
-1161363.497
 10
-605063.7479
 20
-1161363.748
 10
-605065.3899
 20
-1161365.423
 10
-605065.826
 20
-1161366.179
 10
-605065.3899
 20
-1161367.516
 10
-605064.576
 20
-1161369.783
 10
-605064.256
 20
-1161372.98
 10
-605064.8089
 20
-1161377.95
 10
-605066.349
 20
-1161381.6421
 10
-605068.006
 20
-1161383.821
 10
-605070.157
 20
-1161387.164
 10
-605072.758
 20
-1161389.8821
 10
-605078.571
 20
-1161393.2531
 10
-605083.687
 20
-1161396.625
 10
-605088.6859
 20
-1161400.8101
 10
-605094.15
 20
-1161404.763
 10
-605097.057
 20
-1161406.972
 10
-605099.6139
 20
-1161409.181
 10
-605103.6839
 20
-1161413.134
 10
-605106.5899
 20
-1161414.878
 10
-605109.827
 20
-1161416.783
 10
-605114.85
 20
-1161418.591
 10
-605121.949
 20
-1161421.069
 10
-605127.9089
 20
-1161423.279
 10
-605133.0659
 20
-1161425.489
 10
-605136.347
 20
-1161427.364
 10
-605140.097
 20
-1161429.708
 10
-605145.4549
 20
-1161433.257
 10
-605148
 20
-1161435.3331
 10
-605151.0129
 20
-1161438.079
 10
-605155.5669
 20
-1161440.289
 10
-605157.107
 20
-1161441.159
 10
-605157.643
 20
-1161442.164
 10
-605155.126
 20
-1161442.673
 10
-605147.33
 20
-1161440.423
 10
-605137.218
 20
-1161437.945
 10
-605121.949
 20
-1161434.998
 10
-605112.774
 20
-1161433.458
 10
-605103.666
 20
-1161432.52
 10
-605100.519
 20
-1161432.654
 10
-605098.108
 20
-1161432.118
 10
-605096.032
 20
-1161432.185
 10
-605091.612
 20
-1161433.793
 10
-605086.8569
 20
-1161436.07
 10
-605084.647
 20
-1161438.079
 10
-605081.901
 20
-1161441.293
 10
-605079.7579
 20
-1161446.718
 10
-605077.28
 20
-1161451.606
 10
-605076.008
 20
-1161454.084
 10
-605074.1329
 20
-1161456.294
 10
-605070.274
 20
-1161462.227
 10
-605064.5579
 20
-1161471.073
 10
-605057.7539
 20
-1161482.505
 10
-605052.7179
 20
-1161489.7171
 10
-605047.955
 20
-1161496.658
 10
-605041.559
 20
-1161502.646
 10
-605037.34
 20
-1161507.409
 10
-605034.0739
 20
-1161512.444
 10
-605027.6779
 20
-1161517.48
 10
-605020.465
 20
-1161521.699
 10
-605012.45
 20
-1161527.407
 10
-605001.585
 20
-1161536.3461
 10
-604993.4709
 20
-1161543.3601
 10
-604987.42
 20
-1161550.5121
 10
-604980.544
 20
-1161561.239
 10
-604973.667
 20
-1161573.617
 10
-604968.3029
 20
-1161582.556
 10
-604965.003
 20
-1161587.645
 10
-604960.327
 20
-1161593.558
 10
-604956.2009
 20
-1161596.859
 10
-604950.8369
 20
-1161600.435
 10
-604942.648
 20
-1161605.58
 10
-604934.1159
 20
-1161610.87
 10
-604922.512
 20
-1161620.9381
 10
-604910.738
 20
-1161630.152
 10
-604896.2339
 20
-1161641.073
 10
-604885.313
 20
-1161650.2881
 10
-604874.7339
 20
-1161659.161
 10
-604869.5939
 20
-1161663.5141
 10
-604864.496
 20
-1161669.399
 10
-604858.525
 20
-1161677.151
 10
-604855.933
 20
-1161684.025
 10
-604850.162
 20
-1161693.971
 10
-604843.778
 20
-1161701.773
 10
-604828.739
 20
-1161710.354
 10
-604822.423
 20
-1161712.7
 10
-604814.483
 20
-1161716.85
 10
-604799.6849
 20
-1161726.2341
 10
-604791.926
 20
-1161732.189
 10
-604783.067
 20
-1161741.55
 10
-604776.7569
 20
-1161746.381
 10
-604773.52
 20
-1161752.219
 10
-604769.5719
 20
-1161759.523
 10
-604764.6769
 20
-1161772.971
 10
-604759.986
 20
-1161779.287
 10
-604752.587
 20
-1161787.227
 10
-604745.704
 20
-1161791.31
 10
-604738.7829
 20
-1161795.16
 10
-604733.819
 20
-1161800.2501
 10
-604726.977
 20
-1161804.9
 10
-604722.0049
 20
-1161814.015
 10
-604718.0249
 20
-1161818.868
 10
-604715.211
 20
-1161825.7811
 10
-604710.9489
 20
-1161830.836
 10
-604709.387
 20
-1161832.993
 10
-604707.04
 20
-1161836.463
 10
-604702.675
 20
-1161841.843
 10
-604698.359
 20
-1161847.004
 10
-604692.9809
 20
-1161854.172
 10
-604690.744
 20
-1161858.7461
 10
-604688.208
 20
-1161863.519
 10
-604687.4129
 20
-1161864.7621
 10
-604685.424
 20
-1161866.402
 10
-604682.86
 20
-1161868.221
 10
-604680.24
 20
-1161865.476
 10
-604680.403
 20
-1161862.1761
 10
-604680.502
 20
-1161861.431
 10
-604680.1539
 20
-1161860.685
 10
-604680.552
 20
-1161858.945
 10
-604682.043
 20
-1161857.255
 10
-604686.418
 20
-1161851.736
 10
-604690.545
 20
-1161845.571
 10
-604692.731
 20
-1161843.0131
 10
-604694.92
 20
-1161841.644
 10
-604697.4059
 20
-1161838.462
 10
-604699.9409
 20
-1161834.684
 10
-604703.421
 20
-1161831.005
 10
-604706.6439
 20
-1161827.368
 10
-604709.1879
 20
-1161825.5361
 10
-604710.63
 20
-1161822.503
 10
-604713.116
 20
-1161817.283
 10
-604713.464
 20
-1161815.095
 10
-604713.985
 20
-1161812.402
 10
-604714.492
 20
-1161807.985
 10
-604717.027
 20
-1161802.481
 10
-604727.474
 20
-1161789.156
 10
-604734.099
 20
-1161780.6981
 10
-604744.5219
 20
-1161769.426
 10
-604751.0069
 20
-1161760.4851
 10
-604759.387
 20
-1161748.107
 10
-604762.262
 20
-1161743.353
 10
-604764.2969
 20
-1161739.017
 10
-604768.79
 20
-1161730.66
 10
-604772.824
 20
-1161726.087
 10
-604775.163
 20
-1161724.182
 10
-604778.912
 20
-1161721.286
 10
-604781.64
 20
-1161718.018
 10
-604786.752
 20
-1161712.601
 10
-604795.3259
 20
-1161704.646
 10
-604800.1319
 20
-1161700.258
 10
-604808.072
 20
-1161692.004
 10
-604812.2379
 20
-1161687.053
 10
-604817.57
 20
-1161681.1731
 10
-604826.443
 20
-1161672.3
 10
-604830.198
 20
-1161668.204
 10
-604832.5859
 20
-1161667.351
 10
-604835.4869
 20
-1161667.181
 10
-604840.4359
 20
-1161667.181
 10
-604846.237
 20
-1161667.181
 10
-604852.039
 20
-1161664.109
 10
-604857.841
 20
-1161657.796
 10
-604865.8609
 20
-1161649.2641
 10
-604875.075
 20
-1161639.537
 10
-604883.948
 20
-1161632.029
 10
-604896.7459
 20
-1161622.4741
 10
-604909.373
 20
-1161612.406
 10
-604925.755
 20
-1161599.438
 10
-604934.4569
 20
-1161590.223
 10
-604939.4059
 20
-1161584.763
 10
-604942.22
 20
-1161575.297
 10
-604945.661
 20
-1161568.187
 10
-604951.912
 20
-1161553.214
 10
-604961.59
 20
-1161530.854
 10
-604972.2179
 20
-1161508.974
 10
-604980.6129
 20
-1161495.812
 10
-604982.2819
 20
-1161483.7971
 10
-604985.953
 20
-1161460.77
 10
-604994.9639
 20
-1161445.4181
 10
-605009.314
 20
-1161427.73
 10
-605018.5809
 20
-1161411.4501
 10
-605023.872
 20
-1161404.556
 10
-605025.475
 20
-1161401.5091
 10
-605026.2769
 20
-1161396.459
 10
-605027.158
 20
-1161391.1681
 10
-605027.719
 20
-1161387.321
 10
-605029.0019
 20
-1161382.671
 10
-605032.85
 20
-1161376.659
 10
-605036.6979
 20
-1161372.4901
 10
-605040.465
 20
-1161370.887
 10
-605046.7029
 20
-1161365.96
 10
-605049.283
 20
-1161365.436
 10
-605051.608
 20
-1161365.837
 10
-605053.853
 20
-1161366.238
 10
-605057.5399
 20
-1161366.157
 97
0
 92
2
 72
0
 73
1
 93
53
 10
-604955.8609
 20
-1161564.761
 10
-604958.891
 20
-1161566.807
 10
-604962.368
 20
-1161566.145
 10
-604962.7
 20
-1161561.012
 10
-604965.8449
 20
-1161554.3891
 10
-604969.488
 20
-1161546.9381
 10
-604973.959
 20
-1161541.805
 10
-604980.2499
 20
-1161536.342
 10
-604993.331
 20
-1161526.573
 10
-605002.934
 20
-1161517.7971
 10
-605011.212
 20
-1161509.519
 10
-605017.67
 20
-1161502.7301
 10
-605026.611
 20
-1161496.604
 10
-605036.545
 20
-1161488.3251
 10
-605041.843
 20
-1161482.365
 10
-605044.989
 20
-1161477.398
 10
-605049.9559
 20
-1161468.291
 10
-605055.9449
 20
-1161458.2081
 10
-605060.2219
 20
-1161453.224
 10
-605065.52
 20
-1161442.462
 10
-605070.984
 20
-1161434.018
 10
-605070.819
 20
-1161426.732
 10
-605068.0039
 20
-1161421.6001
 10
-605064.3609
 20
-1161417.46
 10
-605059.228
 20
-1161414.4801
 10
-605049.1289
 20
-1161409.182
 10
-605042.5059
 20
-1161404.049
 10
-605035.7169
 20
-1161403.387
 10
-605034.3929
 20
-1161406.367
 10
-605033.1609
 20
-1161407.804
 10
-605029.5339
 20
-1161410.668
 10
-605028.675
 20
-1161414.868
 10
-605027.816
 20
-1161420.308
 10
-605024.6659
 20
-1161425.654
 10
-605023.043
 20
-1161433.1941
 10
-605023.548
 20
-1161436.584
 10
-605029.1769
 20
-1161445.1941
 10
-605031.0809
 20
-1161452.727
 10
-605026.776
 20
-1161462.827
 10
-605017.67
 20
-1161469.947
 10
-605013.862
 20
-1161482.365
 10
-605011.047
 20
-1161488.657
 10
-604999.126
 20
-1161502.399
 10
-604987.867
 20
-1161509.188
 10
-604984.721
 20
-1161516.307
 10
-604980.5809
 20
-1161523.427
 10
-604974.455
 20
-1161529.884
 10
-604968.9909
 20
-1161532.699
 10
-604965.1829
 20
-1161538.163
 10
-604961.7059
 20
-1161544.289
 10
-604957.2359
 20
-1161556.045
 10
-604954.587
 20
-1161562.3361
 10
-604955.8609
 20
-1161564.761
 97
0
 75
0
 76
1
 98
0
  0
HATCH
  5
2000F
100
AcDbEntity
  8
plocha Q20
100
AcDbHatch
 10
0
 20
0
 30
0
210
0
220
0
230
1
  2
SOLID
 70
1
 71
0
 91
1
 92
2
 72
0
 73
1
 93
46
 10
-608266.91
 20
-1150499.89
 10
-608302.69
 20
-1150541.16
 10
-608303.03
 20
-1150542.49
 10
-608304.8899
 20
-1150545.0299
 10
-608305.3765
 20
-1150545.4974
 10
-608301.7984
 20
-1150546.5459
 10
-608295.5884
 20
-1150548.9082
 10
-608290.9131
 20
-1150551.4563
 10
-608284.1194
 20
-1150556.7146
 10
-608277.8778
 20
-1150561.6948
 10
-608271.6364
 20
-1150566.6751
 10
-608264.3754
 20
-1150572.4687
 10
-608257.1311
 20
-1150578.2491
 10
-608248.1287
 20
-1150585.4323
 10
-608241.89
 20
-1150590.6399
 10
-608232.68
 20
-1150596.54
 10
-608227.49
 20
-1150599.2799
 10
-608224.9001
 20
-1150599.86
 10
-608221.59
 20
-1150600.29
 10
-608219.43
 20
-1150599.71
 10
-608217.56
 20
-1150598.27
 10
-608212.8101
 20
-1150592.51
 10
-608190.63
 20
-1150569.46
 10
-608181.42
 20
-1150559.08
 10
-608178.9701
 20
-1150555.05
 10
-608175.8
 20
-1150547.9899
 10
-608172.4901
 20
-1150542.2299
 10
-608169.75
 20
-1150536.61
 10
-608167.4501
 20
-1150531.71
 10
-608163.8967
 20
-1150523.5899
 10
-608163.2405
 20
-1150521.1771
 10
-608163.2409
 20
-1150519.6403
 10
-608164.3344
 20
-1150517.2691
 10
-608167.0187
 20
-1150514.4763
 10
-608169.9749
 20
-1150512.4368
 10
-608173.6797
 20
-1150510.7976
 10
-608179.3836
 20
-1150509.7841
 10
-608190.0001
 20
-1150508.681
 10
-608215.3547
 20
-1150506.0632
 10
-608237.2898
 20
-1150503.7914
 10
-608256.7659
 20
-1150501.6852
 10
-608261.4263
 20
-1150501.1547
 10
-608264.91
 20
-1150500.5133
 10
-608265.1877
 20
-1150500.4045
 10
-608265.6099
 20
-1150500.7201
 10
-608266.91
 20
-1150499.89
 97
0
 75
0
 76
1
 98
0
  0
HATCH
  5
20010
100
AcDbEntity
  8
plocha Q20
100
AcDbHatch
 10
0
 20
0
 30
0
210
0
220
0
230
1
  2
SOLID
 70
1
 71
0
 91
1
 92
2
 72
0
 73
1
 93
75
 10
-608048.31
 20
-1150343.23
 10
-608053.6
 20
-1150331.63
 10
-608061.92
 20
-1150316.5
 10
-608066.7891
 20
-1150308.5479
 10
-608069.58
 20
-1150307.96
 10
-608070.07
 20
-1150327.9099
 10
-608074.6601
 20
-1150331.5099
 10
-608082.55
 20
-1150337.6801
 10
-608083.5346
 20
-1150337.9327
 10
-608083.47
 20
-1150338.11
 10
-608083.2599
 20
-1150338.9702
 10
-608081.84
 20
-1150342.7899
 10
-608079.25
 20
-1150348.62
 10
-608077.84
 20
-1150350.36
 10
-608075.73
 20
-1150351.5899
 10
-608073.89
 20
-1150351.6799
 10
-608071.7801
 20
-1150351.3499
 10
-608068.2
 20
-1150350.65
 10
-608065.0501
 20
-1150349.85
 10
-608062.7
 20
-1150349.42
 10
-608060.8201
 20
-1150349.42
 10
-608059.84
 20
-1150349.5199
 10
-608059.27
 20
-1150349.9899
 10
-608059.18
 20
-1150350.5499
 10
-608059.3701
 20
-1150351.21
 10
-608059.84
 20
-1150351.5899
 10
-608061.39
 20
-1150352.1499
 10
-608064.91
 20
-1150352.9
 10
-608073.28
 20
-1150354.83
 10
-608075.59
 20
-1150355.45
 10
-608076.86
 20
-1150356.1499
 10
-608077.89
 20
-1150356.9499
 10
-608079.39
 20
-1150358.03
 10
-608080.29
 20
-1150359.16
 10
-608080.95
 20
-1150360.57
 10
-608081.3977
 20
-1150362.2685
 10
-608082.8901
 20
-1150369.73
 10
-608085.0501
 20
-1150375.64
 10
-608089.51
 20
-1150384.28
 10
-608091.52
 20
-1150388.3199
 10
-608092.67
 20
-1150391.95
 10
-608093.82
 20
-1150397.79
 10
-608094.8901
 20
-1150410.3899
 10
-608096.46
 20
-1150421.7499
 10
-608098.96
 20
-1150433.9
 10
-608101.7001
 20
-1150442.25
 10
-608106.59
 20
-1150460.12
 10
-608113.09
 20
-1150487.25
 10
-608120.9001
 20
-1150511.1999
 10
-608129.72
 20
-1150530.62
 10
-608140.56
 20
-1150548.27
 10
-608152.9001
 20
-1150563.4
 10
-608168.2
 20
-1150579.3499
 10
-608154.62
 20
-1150596.85
 10
-608115.5301
 20
-1150645.93
 10
-608113.47
 20
-1150653.1199
 10
-608111.98
 20
-1150658.2399
 10
-608113.55
 20
-1150672.94
 10
-608117.6713
 20
-1150696.9217
 10
-608117.28
 20
-1150695.58
 10
-608112.99
 20
-1150683.22
 10
-608105.18
 20
-1150667.09
 10
-608098.63
 20
-1150651.45
 10
-608093.09
 20
-1150638.6
 10
-608085.27
 20
-1150612.62
 10
-608077.71
 20
-1150584.3899
 10
-608068.39
 20
-1150543.29
 10
-608062.3401
 20
-1150512.27
 10
-608055.79
 20
-1150482.27
 10
-608051.3801
 20
-1150455.42
 10
-608046.0901
 20
-1150416.84
 10
-608044.83
 20
-1150390.36
 10
-608045.5401
 20
-1150364.91
 10
-608046.04
 20
-1150352.5599
 10
-608048.31
 20
-1150343.23
 97
0
 75
0
 76
1
 98
0
  0
HATCH
  5
20011
100
AcDbEntity
  8
plocha Q20
100
AcDbHatch
 10
0
 20
0
 30
0
210
0
220
0
230
1
  2
SOLID
 70
1
 71
0
 91
1
 92
2
 72
0
 73
1
 93
211
 10
-589912.1
 20
-1159420.46
 10
-589918.11
 20
-1159420.82
 10
-589922.22
 20
-1159421.08
 10
-589926.86
 20
-1159421.34
 10
-589931.19
 20
-1159422.11
 10
-589934.78
 20
-1159423.1301
 10
-589938.63
 20
-1159424.93
 10
-589941.71
 20
-1159427.49
 10
-589943.7601
 20
-1159430.06
 10
-589946.3201
 20
-1159433.65
 10
-589949.66
 20
-1159439.03
 10
-589954.02
 20
-1159447.75
 10
-589956.84
 20
-1159454.93
 10
-589961.71
 20
-1159466.7301
 10
-589967.35
 20
-1159479.55
 10
-589972.4801
 20
-1159491.6101
 10
-589977.87
 20
-1159502.8901
 10
-589983.25
 20
-1159512.6401
 10
-589992.74
 20
-1159526.23
 10
-589998.6401
 20
-1159534.44
 10
-590001.98
 20
-1159538.8001
 10
-590007.62
 20
-1159543.16
 10
-590011.47
 20
-1159545.2101
 10
-590015.31
 20
-1159546.75
 10
-590020.95
 20
-1159548.54
 10
-590026.0801
 20
-1159550.0801
 10
-590033.78
 20
-1159550.6
 10
-590040.9601
 20
-1159550.6
 10
-590048.6501
 20
-1159549.83
 10
-590052.2401
 20
-1159549.06
 10
-590060.19
 20
-1159546.4901
 10
-590067.1201
 20
-1159544.18
 10
-590072.76
 20
-1159541.88
 10
-590079.17
 20
-1159538.03
 10
-590085.58
 20
-1159533.9301
 10
-590095.59
 20
-1159527
 10
-590104.5601
 20
-1159520.85
 10
-590110.9701
 20
-1159516.23
 10
-590115.33
 20
-1159512.38
 10
-590122.51
 20
-1159506.74
 10
-590128.4101
 20
-1159503.15
 10
-590136.11
 20
-1159500.07
 10
-590146.36
 20
-1159497.25
 10
-590154.06
 20
-1159495.97
 10
-590163.03
 20
-1159495.46
 10
-590170.22
 20
-1159495.2001
 10
-590195.35
 20
-1159494.94
 10
-590207.66
 20
-1159494.94
 10
-590222.28
 20
-1159494.94
 10
-590232.54
 20
-1159495.2001
 10
-590239.97
 20
-1159494.1701
 10
-590247.67
 20
-1159492.63
 10
-590252.8001
 20
-1159491.1
 10
-590257.41
 20
-1159489.56
 10
-590261
 20
-1159487.7601
 10
-590265.3601
 20
-1159485.2001
 10
-590269.98
 20
-1159481.86
 10
-590275.3701
 20
-1159478.27
 10
-590280.2401
 20
-1159476.22
 10
-590285.3701
 20
-1159473.91
 10
-590291.5201
 20
-1159471.86
 10
-590295.11
 20
-1159471.35
 10
-590296.91
 20
-1159471.35
 10
-590299.73
 20
-1159471.6001
 10
-590304.0901
 20
-1159472.37
 10
-590310.5
 20
-1159474.1701
 10
-590318.2
 20
-1159476.22
 10
-590323.58
 20
-1159478.27
 10
-590328.45
 20
-1159480.58
 10
-590333.07
 20
-1159483.4
 10
-590336.92
 20
-1159486.22
 10
-590341.02
 20
-1159489.81
 10
-590344.87
 20
-1159493.9201
 10
-590348.2
 20
-1159498.28
 10
-590351.02
 20
-1159503.15
 10
-590353.33
 20
-1159508.02
 10
-590355.9
 20
-1159514.18
 10
-590358.84
 20
-1159520.92
 10
-590361.38
 20
-1159526.0901
 10
-590363.72
 20
-1159530.8901
 10
-590366.05
 20
-1159536.13
 10
-590368.31
 20
-1159541.57
 10
-590369.94
 20
-1159544.75
 10
-590371.42
 20
-1159547.16
 10
-590373.83
 20
-1159550.69
 10
-590375.88
 20
-1159553.4501
 10
-590377.4401
 20
-1159555.72
 10
-590379.75
 20
-1159558.03
 10
-590383.59
 20
-1159561.3701
 10
-590387.4401
 20
-1159564.9601
 10
-590390.26
 20
-1159567.27
 10
-590394.62
 20
-1159569.06
 10
-590398.98
 20
-1159571.11
 10
-590402.31
 20
-1159572.91
 10
-590406.1601
 20
-1159574.9601
 10
-590409.75
 20
-1159577.27
 10
-590414.63
 20
-1159580.86
 10
-590419.51
 20
-1159585.23
 10
-590422.7201
 20
-1159589.17
 10
-590424.63
 20
-1159592.14
 10
-590427.19
 20
-1159596.2501
 10
-590430.53
 20
-1159600.61
 10
-590434.63
 20
-1159604.45
 10
-590438.99
 20
-1159607.5301
 10
-590442.3201
 20
-1159608.5601
 10
-590446.94
 20
-1159609.33
 10
-590452.84
 20
-1159610.86
 10
-590458.4801
 20
-1159612.66
 10
-590462.07
 20
-1159614.45
 10
-590468.23
 20
-1159618.3
 10
-590474.6401
 20
-1159622.4001
 10
-590479.51
 20
-1159626.51
 10
-590489.51
 20
-1159634.9701
 10
-590500.54
 20
-1159646.0001
 10
-590504.9
 20
-1159650.87
 10
-590506.18
 20
-1159652.15
 10
-590505.41
 20
-1159652.67
 10
-590499
 20
-1159655.74
 10
-590482.59
 20
-1159664.21
 10
-590466.1701
 20
-1159672.67
 10
-590457.11
 20
-1159676.3
 10
-590450.3
 20
-1159679.03
 10
-590448.4801
 20
-1159676.53
 10
-590445.31
 20
-1159671.31
 10
-590441.22
 20
-1159665.41
 10
-590436.69
 20
-1159659.74
 10
-590432.38
 20
-1159656.11
 10
-590427.6101
 20
-1159653.16
 10
-590423.5301
 20
-1159651.8
 10
-590417.63
 20
-1159650.21
 10
-590410.82
 20
-1159649.3
 10
-590404.47
 20
-1159649.7601
 10
-590397.43
 20
-1159649.98
 10
-590390.63
 20
-1159650.21
 10
-590383.82
 20
-1159650.44
 10
-590372.02
 20
-1159652.03
 10
-590363.63
 20
-1159652.71
 10
-590358.4101
 20
-1159652.03
 10
-590352.9601
 20
-1159650.66
 10
-590345.9301
 20
-1159647.94
 10
-590342.98
 20
-1159646.58
 10
-590339.57
 20
-1159644.31
 10
-590335.94
 20
-1159641.59
 10
-590332.0901
 20
-1159637.73
 10
-590329.14
 20
-1159634.1
 10
-590323.01
 20
-1159626.1601
 10
-590315.07
 20
-1159612.55
 10
-590307.58
 20
-1159597.34
 10
-590298.28
 20
-1159579.42
 10
-590292.38
 20
-1159569.2101
 10
-590280.35
 20
-1159549.01
 10
-590275.14
 20
-1159540.39
 10
-590271.51
 20
-1159535.8501
 10
-590269.01
 20
-1159532.91
 10
-590265.83
 20
-1159529.96
 10
-590263.56
 20
-1159528.14
 10
-590260.1601
 20
-1159526.3301
 10
-590256.53
 20
-1159524.9601
 10
-590251.7701
 20
-1159523.6001
 10
-590247
 20
-1159523.38
 10
-590243.3701
 20
-1159523.38
 10
-590238.38
 20
-1159524.06
 10
-590233.6101
 20
-1159525.64
 10
-590227.49
 20
-1159528.14
 10
-590221.59
 20
-1159531.54
 10
-590212.29
 20
-1159536.54
 10
-590205.48
 20
-1159539.94
 10
-590197.99
 20
-1159543.8
 10
-590192.0901
 20
-1159547.65
 10
-590187.78
 20
-1159550.83
 10
-590182.11
 20
-1159554.69
 10
-590175.98
 20
-1159559.4501
 10
-590171.4401
 20
-1159563.7601
 10
-590165.09
 20
-1159570.34
 10
-590155.79
 20
-1159581.6901
 10
-590148.76
 20
-1159590.99
 10
-590143.08
 20
-1159598.71
 10
-590136.7301
 20
-1159606.6501
 10
-590131.06
 20
-1159611.87
 10
-590124.02
 20
-1159616.4001
 10
-590112.68
 20
-1159621.62
 10
-590104.06
 20
-1159624.34
 10
-590095.89
 20
-1159625.9301
 10
-590075.47
 20
-1159626.61
 10
-590051.87
 20
-1159625.9301
 10
-590031.9
 20
-1159623.66
 10
-590014.21
 20
-1159620.94
 10
-590004.45
 20
-1159616.86
 10
-589997.19
 20
-1159612.3201
 10
-589991.5201
 20
-1159607.33
 10
-589986.75
 20
-1159599.8401
 10
-589980.63
 20
-1159590.99
 10
-589976.54
 20
-1159584.86
 10
-589970.19
 20
-1159570.5701
 10
-589959.5201
 20
-1159546.9701
 10
-589950.68
 20
-1159529.27
 10
-589942.05
 20
-1159511.1201
 10
-589931.39
 20
-1159490.02
 10
-589918.91
 20
-1159467.33
 10
-589903.03
 20
-1159438.74
 10
-589898.04
 20
-1159428.99
 10
-589896.58
 20
-1159426.27
 10
-589895.6001
 20
-1159423.74
 10
-589895.74
 20
-1159422.61
 10
-589895.88
 20
-1159421.98
 10
-589897
 20
-1159421.1301
 10
-589898.06
 20
-1159420.78
 10
-589899.33
 20
-1159420.5701
 10
-589901.3701
 20
-1159420.5701
 10
-589906.58
 20
-1159420.6401
 10
-589912.1
 20
-1159420.46
 97
0
 75
0
 76
1
 98
0
  0
HATCH
  5
20012
100
AcDbEntity
  8
plocha Q20
100
AcDbHatch
 10
0
 20
0
 30
0
210
0
220
0
230
1
  2
SOLID
 70
1
 71
0
 91
1
 92
2
 72
0
 73
1
 93
135
 10
-590376.67
 20
-1160003.48
 10
-590375.5201
 20
-1160003.33
 10
-590374.05
 20
-1160002.8001
 10
-590372.8001
 20
-1160002.07
 10
-590370.07
 20
-1159999.66
 10
-590367.4
 20
-1159996.5701
 10
-590366.46
 20
-1159995
 10
-590366.4101
 20
-1159994.1
 10
-590367.03
 20
-1159992.85
 10
-590368.29
 20
-1159991.64
 10
-590369.95
 20
-1159989.97
 10
-590379.62
 20
-1159979.96
 10
-590388.28
 20
-1159971.3
 10
-590399.82
 20
-1159959.9301
 10
-590413.95
 20
-1159945.15
 10
-590417.51
 20
-1159940.43
 10
-590420.53
 20
-1159935.14
 10
-590422.3
 20
-1159930.5701
 10
-590423.08
 20
-1159927.6801
 10
-590424.78
 20
-1159921.23
 10
-590425.96
 20
-1159912.74
 10
-590426.13
 20
-1159905.4401
 10
-590425.82
 20
-1159898.0101
 10
-590425.82
 20
-1159886.77
 10
-590425.82
 20
-1159879.33
 10
-590426.19
 20
-1159871.72
 10
-590427.09
 20
-1159865.01
 10
-590428.36
 20
-1159861.02
 10
-590430.54
 20
-1159856.4801
 10
-590432.9
 20
-1159853.22
 10
-590435.07
 20
-1159851.0401
 10
-590438.52
 20
-1159847.0501
 10
-590441.78
 20
-1159843.25
 10
-590443.78
 20
-1159839.8
 10
-590445.0501
 20
-1159836.36
 10
-590445.59
 20
-1159832.37
 10
-590445.95
 20
-1159828.19
 10
-590445.95
 20
-1159823.8401
 10
-590446.13
 20
-1159817.86
 10
-590446.86
 20
-1159812.06
 10
-590447.67
 20
-1159806.78
 10
-590449.02
 20
-1159802.7201
 10
-590452.0001
 20
-1159798.3
 10
-590453.71
 20
-1159794.4101
 10
-590454.0801
 20
-1159792.07
 10
-590454.62
 20
-1159788.8101
 10
-590454.8901
 20
-1159786.02
 10
-590455.5201
 20
-1159781.0501
 10
-590456.69
 20
-1159775.54
 10
-590458.23
 20
-1159770.94
 10
-590459.8501
 20
-1159765.88
 10
-590460.87
 20
-1159762.29
 10
-590461.57
 20
-1159758.4001
 10
-590461.81
 20
-1159753.9301
 10
-590462.1601
 20
-1159749.57
 10
-590462.4001
 20
-1159742.51
 10
-590463.11
 20
-1159733.9201
 10
-590463.22
 20
-1159732.04
 10
-590463.6901
 20
-1159728.86
 10
-590464.99
 20
-1159726.86
 10
-590466.28
 20
-1159725.6801
 10
-590468.52
 20
-1159723.8
 10
-590471.23
 20
-1159722.27
 10
-590474.52
 20
-1159720.26
 10
-590476.05
 20
-1159718.26
 10
-590476.47
 20
-1159716.7301
 10
-590476.58
 20
-1159714.7301
 10
-590476.4101
 20
-1159713.4401
 10
-590475.94
 20
-1159711.67
 10
-590475.0501
 20
-1159709.73
 10
-590474.05
 20
-1159707.8501
 10
-590472.35
 20
-1159705.08
 10
-590468.99
 20
-1159699.08
 10
-590468.3301
 20
-1159697.88
 10
-590468.26
 20
-1159697.3701
 10
-590468.39
 20
-1159697.1301
 10
-590468.7301
 20
-1159696.86
 10
-590469.1301
 20
-1159696.59
 10
-590469.99
 20
-1159696.19
 10
-590471.5201
 20
-1159695.43
 10
-590476.47
 20
-1159692.95
 10
-590481.06
 20
-1159690.6
 10
-590485.41
 20
-1159688.36
 10
-590486.0001
 20
-1159688.19
 10
-590486.664
 20
-1159688.1599
 10
-590487.54
 20
-1159688.8801
 10
-590489.63
 20
-1159690.76
 10
-590491.9301
 20
-1159693.1301
 10
-590494.6501
 20
-1159696.27
 10
-590497.22
 20
-1159699.6101
 10
-590499.5201
 20
-1159702.8101
 10
-590501.4
 20
-1159705.74
 10
-590502.66
 20
-1159707.9
 10
-590503.56
 20
-1159709.8501
 10
-590505.2101
 20
-1159712.91
 10
-590507.4401
 20
-1159717.5301
 10
-590509.23
 20
-1159721.71
 10
-590509.64
 20
-1159724.6501
 10
-590509.17
 20
-1159729.06
 10
-590508.5812
 20
-1159733.5308
 10
-590507.9813
 20
-1159735.9208
 10
-590506.3694
 20
-1159740.5718
 10
-590504.4839
 20
-1159745.9508
 10
-590501.75
 20
-1159750.86
 10
-590499.88
 20
-1159754.04
 10
-590497.58
 20
-1159758.74
 10
-590496.19
 20
-1159762.22
 10
-590495.26
 20
-1159765.23
 10
-590493.17
 20
-1159781.9301
 10
-590490.1601
 20
-1159794.22
 10
-590487.7701
 20
-1159801.35
 10
-590481.197
 20
-1159812.3269
 10
-590477.527
 20
-1159822.5969
 10
-590476.3301
 20
-1159832.68
 10
-590473.8401
 20
-1159843.89
 10
-590471
 20
-1159853.02
 10
-590467.6001
 20
-1159859.3
 10
-590462.1
 20
-1159871.03
 10
-590459.17
 20
-1159879.1
 10
-590454.77
 20
-1159897.07
 10
-590451.83
 20
-1159909.18
 10
-590448.53
 20
-1159922.0101
 10
-590446.3301
 20
-1159929.71
 10
-590442.3
 20
-1159938.15
 10
-590438.26
 20
-1159946.22
 10
-590431.4
 20
-1159957.2101
 10
-590422.86
 20
-1159967.1201
 10
-590410.02
 20
-1159978.86
 10
-590398.6501
 20
-1159988.03
 10
-590390.22
 20
-1159994.26
 10
-590385.79
 20
-1159997.83
 10
-590380.9701
 20
-1160002.07
 10
-590378.87
 20
-1160003.17
 10
-590377.56
 20
-1160003.54
 10
-590376.67
 20
-1160003.48
 97
0
 75
0
 76
1
 98
0
  0
HATCH
  5
20013
100
AcDbEntity
  8
plocha Q20
100
AcDbHatch
 10
0
 20
0
 30
0
210
0
220
0
230
1
  2
SOLID
 70
1
 71
0
 91
1
 92
2
 72
0
 73
1
 93
108
 10
-602009.0289
 20
-1163737.038
 10
-602036.236
 20
-1163729.746
 10
-602052.3089
 20
-1163725.277
 10
-602060.306
 20
-1163723.474
 10
-602062.972
 20
-1163722.5331
 10
-602065.2459
 20
-1163722.376
 10
-602071.741
 20
-1163723.3061
 10
-602074.032
 20
-1163725.597
 10
-602075.282
 20
-1163726.743
 10
-602077.366
 20
-1163729.972
 10
-602078.588
 20
-1163731.858
 10
-602077.618
 20
-1163734.3731
 10
-602076.55
 20
-1163736.4001
 10
-602081.324
 20
-1163739.659
 10
-602084.5529
 20
-1163743.201
 10
-602085.803
 20
-1163745.7011
 10
-602090.803
 20
-1163749.763
 10
-602096.323
 20
-1163755.18
 10
-602101.948
 20
-1163759.0341
 10
-602107.677
 20
-1163762.263
 10
-602121.3749
 20
-1163770.93
 10
-602132.1159
 20
-1163776.759
 10
-602143.522
 20
-1163780.6721
 10
-602154.513
 20
-1163783.503
 10
-602162.173
 20
-1163785.335
 10
-602169
 20
-1163787
 10
-602172.747
 20
-1163788.1651
 10
-602178.3339
 20
-1163789.326
 10
-602189.921
 20
-1163791.1941
 10
-602201.222
 20
-1163793.244
 10
-602210.214
 20
-1163794.5761
 10
-602218.4569
 20
-1163795.9091
 10
-602227.949
 20
-1163797.657
 10
-602235.442
 20
-1163799.739
 10
-602238.6059
 20
-1163800.8211
 10
-602239.522
 20
-1163802.486
 10
-602238.939
 20
-1163802.903
 10
-602232.195
 20
-1163801.987
 10
-602227.782
 20
-1163801.404
 10
-602210.797
 20
-1163796.991
 10
-602198.224
 20
-1163795.492
 10
-602183.901
 20
-1163793.592
 10
-602183.8229
 20
-1163793.586
 10
-602173.627
 20
-1163792.8001
 10
-602147.1029
 20
-1163788.582
 10
-602135.196
 20
-1163785.085
 10
-602131.699
 20
-1163784.169
 10
-602130.53
 20
-1163785.208
 10
-602130.563
 20
-1163785.25
 10
-602139.859
 20
-1163789.331
 10
-602149.184
 20
-1163791.8291
 10
-602154.7619
 20
-1163792.995
 10
-602167.085
 20
-1163796.908
 10
-602165.73
 20
-1163799.074
 10
-602159.5079
 20
-1163798.323
 10
-602155.4289
 20
-1163797.407
 10
-602144.771
 20
-1163795.992
 10
-602138.027
 20
-1163796.7411
 10
-602133.947
 20
-1163797.491
 10
-602129.576
 20
-1163799.447
 10
-602120.417
 20
-1163801.945
 10
-602111.7579
 20
-1163803.277
 10
-602105.7639
 20
-1163801.4451
 10
-602093.7739
 20
-1163795.784
 10
-602085
 20
-1163795
 10
-602072.626
 20
-1163798.2821
 10
-602055.474
 20
-1163806.774
 10
-602050.6449
 20
-1163812.269
 10
-602047.981
 20
-1163813.435
 10
-602042.819
 20
-1163808.1061
 10
-602031.495
 20
-1163807.773
 10
-602019.506
 20
-1163811.7701
 10
-602017.27
 20
-1163810.6501
 10
-602018.923
 20
-1163794.3681
 10
-602023.9189
 20
-1163788.707
 10
-602038.9049
 20
-1163789.373
 10
-602050.2289
 20
-1163785.043
 10
-602064.2169
 20
-1163775.385
 10
-602073.2089
 20
-1163772.388
 10
-602076.539
 20
-1163761.064
 10
-602071.8919
 20
-1163742.393
 10
-602060.5529
 20
-1163742.081
 10
-602048.231
 20
-1163740.082
 10
-602034.576
 20
-1163744.412
 10
-602012.9589
 20
-1163748.8421
 10
-601992.161
 20
-1163753.8341
 10
-601968.0359
 20
-1163760.323
 10
-601947.239
 20
-1163764.9811
 10
-601920.784
 20
-1163770.638
 10
-601907.473
 20
-1163774.465
 10
-601899.82
 20
-1163778.126
 10
-601889.671
 20
-1163785.1141
 10
-601887.1879
 20
-1163787.5301
 10
-601885.149
 20
-1163789.334
 10
-601883.7379
 20
-1163789.49
 10
-601882.562
 20
-1163788.001
 10
-601881.308
 20
-1163784.081
 10
-601880.8369
 20
-1163781.101
 10
-601881.6209
 20
-1163778.1221
 10
-601884.13
 20
-1163775.613
 10
-601892.4409
 20
-1163770.987
 10
-601903.339
 20
-1163764.244
 10
-601916.747
 20
-1163760.0101
 10
-601937.446
 20
-1163755.62
 10
-601955.0869
 20
-1163750.915
 10
-601976.726
 20
-1163746.1331
 10
-601994.211
 20
-1163741.036
 10
-602009.0289
 20
-1163737.038
 97
0
 75
0
 76
1
 98
0
  0
HATCH
  5
20014
100
AcDbEntity
  8
plocha Q20
100
AcDbHatch
 10
0
 20
0
 30
0
210
0
220
0
230
1
  2
SOLID
 70
1
 71
0
 91
1
 92
2
 72
0
 73
1
 93
281
 10
-590175.5279
 20
-1160895.8351
 10
-590176.6337
 20
-1160889.5413
 10
-590178.2495
 20
-1160884.7784
 10
-590180.716
 20
-1160880.2707
 10
-590181.9068
 20
-1160876.1032
 10
-590182.7572
 20
-1160872.361
 10
-590184.06
 20
-1160859.18
 10
-590184.8901
 20
-1160848.37
 10
-590186.91
 20
-1160834.2401
 10
-590188.69
 20
-1160820.82
 10
-590190.12
 20
-1160809.54
 10
-590191.66
 20
-1160799.56
 10
-590193.09
 20
-1160787.1
 10
-590194.27
 20
-1160770.23
 10
-590195.22
 20
-1160752.9
 10
-590195.3142
 20
-1160749.8223
 10
-590198.3199
 20
-1160732.37
 10
-590195.959
 20
-1160720.1014
 10
-590195.82
 20
-1160715.01
 10
-590195.08
 20
-1160710.22
 10
-590194.0001
 20
-1160703.17
 10
-590192.7301
 20
-1160693.41
 10
-590191.87
 20
-1160687.83
 10
-590191.2901
 20
-1160682.54
 10
-590190.86
 20
-1160676.86
 10
-590190.95
 20
-1160673.54
 10
-590191.39
 20
-1160671.19
 10
-590191.96
 20
-1160668.6401
 10
-590192.7301
 20
-1160667.34
 10
-590193.6001
 20
-1160666.71
 10
-590194.75
 20
-1160666.04
 10
-590195.5201
 20
-1160665.8
 10
-590196.34
 20
-1160665.8
 10
-590197.16
 20
-1160665.94
 10
-590197.79
 20
-1160666.23
 10
-590198.55
 20
-1160666.78
 10
-590200.45
 20
-1160668.28
 10
-590202.85
 20
-1160670.58
 10
-590205.67
 20
-1160673.48
 10
-590206.7301
 20
-1160674.5
 10
-590207.6901
 20
-1160675.65
 10
-590208.36
 20
-1160676.5601
 10
-590208.8001
 20
-1160677.33
 10
-590209.23
 20
-1160678.2401
 10
-590209.47
 20
-1160680.06
 10
-590209.3701
 20
-1160682.6501
 10
-590209.18
 20
-1160685.2901
 10
-590209.08
 20
-1160686.9601
 10
-590209.1301
 20
-1160689.07
 10
-590209.23
 20
-1160691.47
 10
-590209.51
 20
-1160694.8801
 10
-590209.94
 20
-1160701.38
 10
-590210.55
 20
-1160707.33
 10
-590211.16
 20
-1160713.88
 10
-590211.16
 20
-1160718.61
 10
-590210.7
 20
-1160723.49
 10
-590210.55
 20
-1160729.89
 10
-590209.79
 20
-1160735.5301
 10
-590209.18
 20
-1160741.33
 10
-590208.5701
 20
-1160745.14
 10
-590207.96
 20
-1160749.25
 10
-590207.8
 20
-1160752.3
 10
-590208.4101
 20
-1160755.2001
 10
-590209.2101
 20
-1160756.23
 10
-590211.07
 20
-1160757.7601
 10
-590213.5827
 20
-1160758.1192
 10
-590215.6892
 20
-1160758.4088
 10
-590216.4888
 20
-1160758.7043
 10
-590217.63
 20
-1160760.05
 10
-590217.63
 20
-1160761.15
 10
-590216.9701
 20
-1160762.35
 10
-590215.27
 20
-1160763.1301
 10
-590211.6101
 20
-1160764.04
 10
-590209.79
 20
-1160764.9601
 10
-590208.11
 20
-1160766.02
 10
-590206.28
 20
-1160768.0001
 10
-590205.82
 20
-1160769.99
 10
-590205.5201
 20
-1160771.97
 10
-590205.3601
 20
-1160775.47
 10
-590205.06
 20
-1160780.35
 10
-590204.75
 20
-1160784.93
 10
-590204.1701
 20
-1160790.79
 10
-590203.74
 20
-1160796.04
 10
-590202.77
 20
-1160812.83
 10
-590201.9301
 20
-1160823.8501
 10
-590201.51
 20
-1160836.7301
 10
-590201.72
 20
-1160845.0401
 10
-590202.14
 20
-1160851.06
 10
-590204.42
 20
-1160855.63
 10
-590207.54
 20
-1160858.13
 10
-590211.07
 20
-1160859.58
 10
-590216.47
 20
-1160861.03
 10
-590219.17
 20
-1160861.4501
 10
-590222.91
 20
-1160862.7
 10
-590227.07
 20
-1160864.15
 10
-590230.8101
 20
-1160865.4
 10
-590233.3
 20
-1160867.06
 10
-590236.4101
 20
-1160869.7601
 10
-590239.32
 20
-1160872.8801
 10
-590242.23
 20
-1160877.86
 10
-590243.48
 20
-1160882.23
 10
-590244.1
 20
-1160886.1701
 10
-590244.1
 20
-1160890.54
 10
-590243.48
 20
-1160895.31
 10
-590241.4
 20
-1160901.1301
 10
-590237.4501
 20
-1160911.31
 10
-590233.51
 20
-1160919.2101
 10
-590229.14
 20
-1160927.1
 10
-590225.4
 20
-1160935.2001
 10
-590224.53
 20
-1160937.33
 10
-590223.71
 20
-1160939.5201
 10
-590220.47
 20
-1160946.71
 10
-590219.27
 20
-1160949.62
 10
-590217.39
 20
-1160953.39
 10
-590215.5
 20
-1160955.79
 10
-590214.0605
 20
-1160957.0707
 10
-590213.08
 20
-1160957.55
 10
-590211.78
 20
-1160957.4501
 10
-590210.7
 20
-1160956.69
 10
-590209.72
 20
-1160955.78
 10
-590208.98
 20
-1160954.53
 10
-590208.55
 20
-1160953.35
 10
-590208.55
 20
-1160950.76
 10
-590208.98
 20
-1160947.74
 10
-590209.63
 20
-1160944.82
 10
-590210.1601
 20
-1160941.91
 10
-590211.35
 20
-1160935.7601
 10
-590212.3201
 20
-1160931.01
 10
-590213.2901
 20
-1160925.94
 10
-590214.4801
 20
-1160918.82
 10
-590215.1301
 20
-1160913.86
 10
-590215.67
 20
-1160909.54
 10
-590215.83
 20
-1160907.73
 10
-590215.97
 20
-1160906.37
 10
-590215.97
 20
-1160905.54
 10
-590215.83
 20
-1160904.68
 10
-590215.6101
 20
-1160904.3201
 10
-590215.3601
 20
-1160904.14
 10
-590215.0401
 20
-1160903.9201
 10
-590214.78
 20
-1160903.87
 10
-590214.53
 20
-1160903.89
 10
-590213.96
 20
-1160904.04
 10
-590213.88
 20
-1160904.1
 10
-590213.81
 20
-1160904.18
 10
-590213.6001
 20
-1160904.7301
 10
-590213.32
 20
-1160905.58
 10
-590212.8901
 20
-1160907.26
 10
-590212.28
 20
-1160912.1601
 10
-590211.82
 20
-1160918.59
 10
-590210.75
 20
-1160925.18
 10
-590209.3701
 20
-1160930.54
 10
-590207.5301
 20
-1160940.9601
 10
-590206.47
 20
-1160945.3
 10
-590205.6424
 20
-1160948.9985
 10
-590204.9524
 20
-1160956.0385
 10
-590205.08
 20
-1160970.21
 10
-590205.08
 20
-1160980.47
 10
-590205.8401
 20
-1160992.11
 10
-590206.83
 20
-1160998.9
 10
-590207.3
 20
-1161000.54
 10
-590208.45
 20
-1161002.22
 10
-590210.13
 20
-1161003.9
 10
-590212.8901
 20
-1161005.9
 10
-590215.0668
 20
-1161007.4442
 10
-590215.49
 20
-1161007.7601
 10
-590215.938
 20
-1161008.0622
 10
-590218.07
 20
-1161009.5
 10
-590219.8501
 20
-1161010.69
 10
-590221.78
 20
-1161012.1
 10
-590224.1601
 20
-1161014.11
 10
-590228.52
 20
-1161018.6501
 10
-590232.26
 20
-1161023.88
 10
-590235.06
 20
-1161028.7301
 10
-590236.18
 20
-1161033.03
 10
-590236.39
 20
-1161036.36
 10
-590236.18
 20
-1161039.38
 10
-590234.5
 20
-1161044.23
 10
-590228.0819
 20
-1161059.5094
 10
-590219.4919
 20
-1161077.4294
 10
-590210.9701
 20
-1161097.83
 10
-590205.74
 20
-1161111.27
 10
-590202.75
 20
-1161119.86
 10
-590200.38
 20
-1161126.67
 10
-590198.76
 20
-1161133.02
 10
-590198.04
 20
-1161137.32
 10
-590197.2874
 20
-1161142.1269
 10
-590196.9601
 20
-1161153.48
 10
-590198.26
 20
-1161170.03
 10
-590198.9
 20
-1161181
 10
-590198.83
 20
-1161185.97
 10
-590198.46
 20
-1161196.05
 10
-590197.34
 20
-1161200.53
 10
-590196.59
 20
-1161206.14
 10
-590196.59
 20
-1161212.11
 10
-590197.34
 20
-1161217.71
 10
-590198.38
 20
-1161224.04
 10
-590200.45
 20
-1161229.8501
 10
-590203.63
 20
-1161237.73
 10
-590207.57
 20
-1161248.79
 10
-590210.0101
 20
-1161254.98
 10
-590213.01
 20
-1161261.73
 10
-590214.8901
 20
-1161268.4801
 10
-590217.14
 20
-1161275.79
 10
-590219.39
 20
-1161285.3601
 10
-590221.07
 20
-1161295.86
 10
-590221.64
 20
-1161301.3
 10
-590222.76
 20
-1161320.2401
 10
-590223.32
 20
-1161337.87
 10
-590223.7
 20
-1161346.4901
 10
-590223.89
 20
-1161352.87
 10
-590224.45
 20
-1161357.74
 10
-590224.6401
 20
-1161362.2401
 10
-590225.39
 20
-1161366.74
 10
-590226.3301
 20
-1161370.31
 10
-590228.39
 20
-1161376.31
 10
-590229.89
 20
-1161381.3701
 10
-590231.39
 20
-1161387.75
 10
-590232.3301
 20
-1161393.19
 10
-590232.8901
 20
-1161399.56
 10
-590233.26
 20
-1161404.8101
 10
-590232.8901
 20
-1161409.31
 10
-590232.51
 20
-1161415.5
 10
-590231.95
 20
-1161420.94
 10
-590230.6401
 20
-1161430.5
 10
-590228.58
 20
-1161441.19
 10
-590227.26
 20
-1161449.07
 10
-590225.7601
 20
-1161456.0101
 10
-590224.07
 20
-1161463.32
 10
-590222.2
 20
-1161470.6401
 10
-590221.2674
 20
-1161473.6867
 10
-590221.1
 20
-1161473.59
 10
-590219.74
 20
-1161472.7999
 10
-590208.98
 20
-1161466.5701
 10
-590171.5763
 20
-1161444.4998
 10
-590172.45
 20
-1161436.8801
 10
-590172.91
 20
-1161428.31
 10
-590173.14
 20
-1161419.74
 10
-590172.21
 20
-1161410.0101
 10
-590170.13
 20
-1161399.81
 10
-590166.8901
 20
-1161388.23
 10
-590162.4801
 20
-1161375.95
 10
-590157.62
 20
-1161363.4401
 10
-590153.6801
 20
-1161352.78
 10
-590149.51
 20
-1161343.51
 10
-590144.4101
 20
-1161330.0801
 10
-590138.85
 20
-1161315.48
 10
-590135.15
 20
-1161304.13
 10
-590130.98
 20
-1161288.61
 10
-590127.5
 20
-1161274.47
 10
-590124.7201
 20
-1161262.66
 10
-590122.4001
 20
-1161249.4501
 10
-590121.01
 20
-1161239.72
 10
-590120.3201
 20
-1161232.54
 10
-590118.93
 20
-1161213.7701
 10
-590118.0001
 20
-1161201.26
 10
-590117.54
 20
-1161190.6
 10
-590116.84
 20
-1161180.4101
 10
-590116.61
 20
-1161173
 10
-590117.1897
 20
-1161165.3557
 10
-590118.7
 20
-1161156.78
 10
-590120.55
 20
-1161148.21
 10
-590122.4001
 20
-1161140.1
 10
-590124.95
 20
-1161131.7601
 10
-590128.43
 20
-1161121.56
 10
-590134.45
 20
-1161105.11
 10
-590142.79
 20
-1161082.4101
 10
-590147.89
 20
-1161068.05
 10
-590156.0001
 20
-1161045.11
 10
-590164.34
 20
-1161019.86
 10
-590169.43
 20
-1161004.3301
 10
-590172.45
 20
-1160992.29
 10
-590174.3
 20
-1160985.34
 10
-590175.6901
 20
-1160978.15
 10
-590176.37
 20
-1160970.5601
 10
-590176.2559
 20
-1160967.683
 10
-590177.7701
 20
-1160963.46
 10
-590177.3
 20
-1160959.6799
 10
-590175.139
 20
-1160942.2227
 10
-590174.4901
 20
-1160928.77
 10
-590175.32
 20
-1160904.95
 10
-590175.5279
 20
-1160895.8351
 97
0
 75
0
 76
1
 98
0
  0
HATCH
  5
20015
100
AcDbEntity
  8
plocha Q20
100
AcDbHatch
 10
0
 20
0
 30
0
210
0
220
0
230
1
  2
SOLID
 70
1
 71
0
 91
1
 92
2
 72
0
 73
1
 93
25
 10
-590065.2799
 20
-1161674.84
 10
-590091.3
 20
-1161651.01
 10
-590119.3701
 20
-1161628.5599
 10
-590169.39
 20
-1161584.02
 10
-590181.03
 20
-1161569.48
 10
-590187
 20
-1161561.8399
 10
-590187.1326
 20
-1161561.694
 10
-590186.7
 20
-1161562.5
 10
-590181.96
 20
-1161571.2799
 10
-590175.56
 20
-1161580.29
 10
-590169.63
 20
-1161589.06
 10
-590163.46
 20
-1161595.94
 10
-590155.4
 20
-1161604.4799
 10
-590148.8031
 20
-1161610.9976
 10
-590135.4058
 20
-1161622.9077
 10
-590126.46
 20
-1161629.86
 10
-590115.32
 20
-1161639.58
 10
-590106.78
 20
-1161646.22
 10
-590099.43
 20
-1161652.15
 10
-590080.45
 20
-1161665.91
 10
-590070.7301
 20
-1161672.31
 10
-590064.0901
 20
-1161677.0501
 10
-590058.1601
 20
-1161681.32
 10
-590054.7
 20
-1161683.8545
 10
-590065.2799
 20
-1161674.84
 97
0
 75
0
 76
1
 98
0
  0
HATCH
  5
20016
100
AcDbEntity
  8
plocha Q20
100
AcDbHatch
 10
0
 20
0
 30
0
210
0
220
0
230
1
  2
SOLID
 70
1
 71
0
 91
1
 92
2
 72
0
 73
1
 93
98
 10
-598871.275
 20
-1164628.193
 10
-598883.7589
 20
-1164621.075
 10
-598891.424
 20
-1164618.447
 10
-598898.9799
 20
-1164612.862
 10
-598904.5649
 20
-1164610.562
 10
-598913.763
 20
-1164607.277
 10
-598919.677
 20
-1164606.292
 10
-598924.824
 20
-1164604.956
 10
-598936.822
 20
-1164600.406
 10
-598954.168
 20
-1164599.747
 10
-598968.808
 20
-1164596.711
 10
-598975
 20
-1164585
 10
-598971.07
 20
-1164581.06
 10
-598970.9639
 20
-1164576.1761
 10
-598975
 20
-1164575
 10
-598985
 20
-1164565
 10
-598993.456
 20
-1164562.525
 10
-598999.79
 20
-1164559.101
 10
-599005
 20
-1164555
 10
-599011.261
 20
-1164551.5681
 10
-599015.198
 20
-1164550.884
 10
-599022.56
 20
-1164550.028
 10
-599027.5239
 20
-1164548.829
 10
-599031.501
 20
-1164544.243
 10
-599040.743
 20
-1164535.244
 10
-599043.788
 20
-1164526.573
 10
-599047.718
 20
-1164516.4641
 10
-599052.844
 20
-1164510.199
 10
-599060.9589
 20
-1164496.246
 10
-599064.946
 20
-1164489.27
 10
-599068.257
 20
-1164484.201
 10
-599072.919
 20
-1164479.66
 10
-599077.048
 20
-1164476.812
 10
-599082.743
 20
-1164474.605
 10
-599092.211
 20
-1164471.259
 10
-599099.116
 20
-1164469.266
 10
-599108.94
 20
-1164467.202
 10
-599119.974
 20
-1164464.283
 10
-599129.584
 20
-1164462.0051
 10
-599142.754
 20
-1164458.873
 10
-599147.9509
 20
-1164457.805
 10
-599151.7059
 20
-1164457.289
 10
-599154.803
 20
-1164456.5061
 10
-599159.1089
 20
-1164456.257
 10
-599161.245
 20
-1164455.652
 10
-599163.879
 20
-1164454.726
 10
-599166.157
 20
-1164454.014
 10
-599167.825
 20
-1164453.937
 10
-599168.3989
 20
-1164454.7621
 10
-599168.9479
 20
-1164456.254
 10
-599169.3159
 20
-1164460.1861
 10
-599168.702
 20
-1164461.5781
 10
-599160.592
 20
-1164464.2821
 10
-599148.2229
 20
-1164467.886
 10
-599142.776
 20
-1164469.647
 10
-599136.018
 20
-1164471.613
 10
-599125.102
 20
-1164474.583
 10
-599113.7159
 20
-1164477.532
 10
-599110.947
 20
-1164479.729
 10
-599105.505
 20
-1164480.219
 10
-599093.787
 20
-1164485.1891
 10
-599087.709
 20
-1164488.809
 10
-599082.551
 20
-1164493.694
 10
-599067.927
 20
-1164510.1381
 10
-599060.566
 20
-1164520.4101
 10
-599057.313
 20
-1164526.744
 10
-599052.348
 20
-1164535.647
 10
-599045.329
 20
-1164546.946
 10
-599032.498
 20
-1164562.422
 10
-599026.1319
 20
-1164570.878
 10
-599021.8439
 20
-1164575.5091
 10
-599015.409
 20
-1164580.9861
 10
-599010.3399
 20
-1164586.167
 10
-598996.83
 20
-1164595.246
 10
-598983.723
 20
-1164602.364
 10
-598968.315
 20
-1164607.666
 10
-598946.28
 20
-1164612.305
 10
-598935
 20
-1164615
 10
-598924.576
 20
-1164619.2641
 10
-598918.472
 20
-1164621.841
 10
-598912.5589
 20
-1164624.798
 10
-598906.755
 20
-1164629.507
 10
-598902.594
 20
-1164633.449
 10
-598901.28
 20
-1164634.5441
 10
-598899.1989
 20
-1164635.7491
 10
-598895.804
 20
-1164635.7491
 10
-598892.668
 20
-1164637.096
 10
-598890.5479
 20
-1164638.815
 10
-598889.563
 20
-1164641.662
 10
-598888.082
 20
-1164642.499
 10
-598882.007
 20
-1164644.071
 10
-598878.6119
 20
-1164644.4001
 10
-598877.831
 20
-1164641.005
 10
-598877.2519
 20
-1164639.934
 10
-598873.56
 20
-1164640.691
 10
-598871.3849
 20
-1164638.596
 10
-598869.852
 20
-1164636.515
 10
-598871.275
 20
-1164628.193
 97
0
 75
0
 76
1
 98
0
  0
HATCH
  5
20017
100
AcDbEntity
  8
plocha Q20
100
AcDbHatch
 10
0
 20
0
 30
0
210
0
220
0
230
1
  2
SOLID
 70
1
 71
0
 91
1
 92
2
 72
0
 73
1
 93
18
 10
-599292.518
 20
-1164426.8371
 10
-599289.1729
 20
-1164424.246
 10
-599284.126
 20
-1164420.486
 10
-599281.2469
 20
-1164417.979
 10
-599283.132
 20
-1164415.4661
 10
-599284.722
 20
-1164413.246
 10
-599287.203
 20
-1164411.0291
 10
-599291.5249
 20
-1164409.382
 10
-599295.105
 20
-1164409.884
 10
-599297.264
 20
-1164411.377
 10
-599301.692
 20
-1164413.1301
 10
-599302.232
 20
-1164415.612
 10
-599298.8149
 20
-1164417.133
 10
-599297.3749
 20
-1164419.39
 10
-599298.2389
 20
-1164423.275
 10
-599298.5959
 20
-1164424.927
 10
-599295.432
 20
-1164428.132
 10
-599292.518
 20
-1164426.8371
 97
0
 75
0
 76
1
 98
0
  0
HATCH
  5
20018
100
AcDbEntity
  8
plocha Q20
100
AcDbHatch
 10
0
 20
0
 30
0
210
0
220
0
230
1
  2
SOLID
 70
1
 71
0
 91
1
 92
2
 72
0
 73
1
 93
51
 10
-600563.895
 20
-1164102.477
 10
-600573.996
 20
-1164100.276
 10
-600601.899
 20
-1164101.176
 10
-600622.002
 20
-1164103.277
 10
-600634.803
 20
-1164104.2771
 10
-600655.005
 20
-1164105.577
 10
-600665.707
 20
-1164104.377
 10
-600673.1079
 20
-1164105.0771
 10
-600677.608
 20
-1164106.2771
 10
-600679.1829
 20
-1164106.952
 10
-600680.433
 20
-1164108.452
 10
-600681.0329
 20
-1164110.4531
 10
-600681.3329
 20
-1164113.853
 10
-600680.3829
 20
-1164117.503
 10
-600679.533
 20
-1164119.304
 10
-600677.383
 20
-1164120.654
 10
-600668.9319
 20
-1164121.604
 10
-600660.6809
 20
-1164121.3541
 10
-600648.63
 20
-1164120.204
 10
-600643.6789
 20
-1164119.604
 10
-600629.803
 20
-1164119.879
 10
-600610.8
 20
-1164118.979
 10
-600595.9989
 20
-1164119.079
 10
-600585.0969
 20
-1164118.979
 10
-600576.796
 20
-1164119.279
 10
-600570.9959
 20
-1164119.779
 10
-600566.995
 20
-1164121.279
 10
-600566.395
 20
-1164122.879
 10
-600566.595
 20
-1164126.679
 10
-600568.195
 20
-1164130.58
 10
-600568.796
 20
-1164133.48
 10
-600568.9959
 20
-1164136.881
 10
-600568.896
 20
-1164138.481
 10
-600568.5959
 20
-1164139.681
 10
-600567.195
 20
-1164140.281
 10
-600566.395
 20
-1164139.7811
 10
-600564.195
 20
-1164131.48
 10
-600561.895
 20
-1164124.779
 10
-600558.72
 20
-1164121.6321
 10
-600555.294
 20
-1164118.578
 10
-600550.2929
 20
-1164118.3781
 10
-600548.193
 20
-1164120.179
 10
-600546.7929
 20
-1164121.079
 10
-600545.293
 20
-1164119.379
 10
-600545.003
 20
-1164116.4801
 10
-600547.293
 20
-1164113.9781
 10
-600549.393
 20
-1164111.278
 10
-600553.494
 20
-1164110.078
 10
-600556.3939
 20
-1164108.877
 10
-600559.394
 20
-1164106.6771
 10
-600563.895
 20
-1164102.477
 97
0
 75
0
 76
1
 98
0
  0
HATCH
  5
20019
100
AcDbEntity
  8
plocha Q20
100
AcDbHatch
 10
0
 20
0
 30
0
210
0
220
0
230
1
  2
SOLID
 70
1
 71
0
 91
1
 92
2
 72
0
 73
1
 93
174
 10
-600065.3589
 20
-1164105.843
 10
-600079.074
 20
-1164102.5441
 10
-600084.493
 20
-1164100.255
 10
-600085.884
 20
-1164099.3491
 10
-600087.4809
 20
-1164098.588
 10
-600088.813
 20
-1164098.359
 10
-600089.916
 20
-1164098.854
 10
-600090.487
 20
-1164100.566
 10
-600091.171
 20
-1164104.5221
 10
-600091.704
 20
-1164106.31
 10
-600091.2469
 20
-1164107.794
 10
-600091.286
 20
-1164109.1251
 10
-600090.6389
 20
-1164109.315
 10
-600090.22
 20
-1164110.0001
 10
-600089.688
 20
-1164110.076
 10
-600089.041
 20
-1164109.924
 10
-600087.329
 20
-1164110.152
 10
-600085.2789
 20
-1164112.9281
 10
-600085.731
 20
-1164114.413
 10
-600085.148
 20
-1164120.684
 10
-600084.363
 20
-1164126.0481
 10
-600082.539
 20
-1164143.291
 10
-600076.801
 20
-1164148.6821
 10
-600071.062
 20
-1164151.812
 10
-600067.2359
 20
-1164159.811
 10
-600060.28
 20
-1164166.941
 10
-600048.6289
 20
-1164165.8981
 10
-600037.1509
 20
-1164165.3761
 10
-600028.283
 20
-1164168.5061
 10
-600013.3269
 20
-1164176.5061
 10
-600006.893
 20
-1164183.809
 10
-600002.024
 20
-1164188.505
 10
-599990.3719
 20
-1164187.1141
 10
-599983.59
 20
-1164182.418
 10
-599965.592
 20
-1164196.939
 10
-599936.892
 20
-1164204.204
 10
-599931.622
 20
-1164205.031
 10
-599930.118
 20
-1164210.351
 10
-599922.636
 20
-1164215.09
 10
-599905.83
 20
-1164219.8401
 10
-599892.9589
 20
-1164220.078
 10
-599884.979
 20
-1164221.325
 10
-599882.235
 20
-1164225.814
 10
-599876.9809
 20
-1164229.64
 10
-599845.575
 20
-1164237.784
 10
-599835.351
 20
-1164240.029
 10
-599820.3139
 20
-1164245.4611
 10
-599794.08
 20
-1164254.15
 10
-599782.8849
 20
-1164259.33
 10
-599772.859
 20
-1164262.6721
 10
-599761.831
 20
-1164266.85
 10
-599741.4449
 20
-1164272.6981
 10
-599732.422
 20
-1164275.037
 10
-599716.1539
 20
-1164280.481
 10
-599698.411
 20
-1164284.12
 10
-599676.008
 20
-1164290.344
 10
-599653.5769
 20
-1164297.988
 10
-599624.7829
 20
-1164305.251
 10
-599606.464
 20
-1164310.3361
 10
-599588.9859
 20
-1164314.516
 10
-599578.347
 20
-1164318.315
 10
-599572.8519
 20
-1164319.965
 10
-599561.734
 20
-1164321.167
 10
-599549.6679
 20
-1164324.449
 10
-599536.443
 20
-1164328.214
 10
-599522.15
 20
-1164332.172
 10
-599513.7849
 20
-1164334.345
 10
-599503.291
 20
-1164336.973
 10
-599481.7109
 20
-1164342.886
 10
-599469.742
 20
-1164346.747
 10
-599457.3859
 20
-1164350.415
 10
-599422.636
 20
-1164359.778
 10
-599411.085
 20
-1164362.215
 10
-599388.524
 20
-1164368.7
 10
-599370.221
 20
-1164373.389
 10
-599360.182
 20
-1164376.092
 10
-599348.1159
 20
-1164379.7601
 10
-599336.2179
 20
-1164382.004
 10
-599328.014
 20
-1164384.755
 10
-599312.086
 20
-1164389.678
 10
-599305.281
 20
-1164391.947
 10
-599299.296
 20
-1164393.346
 10
-599296.2069
 20
-1164393.588
 10
-599294.422
 20
-1164393.298
 10
-599293.614
 20
-1164394.665
 10
-599291.245
 20
-1164397.108
 10
-599290.802
 20
-1164397.883
 10
-599287.371
 20
-1164398.516
 10
-599285.3059
 20
-1164398.563
 10
-599283.948
 20
-1164397.497
 10
-599282.248
 20
-1164396.4581
 10
-599280.027
 20
-1164394.429
 10
-599279.323
 20
-1164393.033
 10
-599276.603
 20
-1164390.638
 10
-599273.683
 20
-1164387.236
 10
-599271.0759
 20
-1164383.543
 10
-599268.285
 20
-1164379.838
 10
-599270.108
 20
-1164379.1041
 10
-599272.192
 20
-1164378.383
 10
-599275.63
 20
-1164378.877
 10
-599277.264
 20
-1164374.7941
 10
-599281.4389
 20
-1164372.151
 10
-599285.48
 20
-1164372.338
 10
-599287.789
 20
-1164375.66
 10
-599293.302
 20
-1164378.5
 10
-599310.8469
 20
-1164377.091
 10
-599333.8179
 20
-1164369.976
 10
-599334.456
 20
-1164367.364
 10
-599328.5489
 20
-1164362.1121
 10
-599323.783
 20
-1164359.389
 10
-599322.542
 20
-1164355.442
 10
-599329.0609
 20
-1164351.377
 10
-599331.548
 20
-1164350.641
 10
-599333.069
 20
-1164344.415
 10
-599337.515
 20
-1164342.166
 10
-599346.03
 20
-1164343.647
 10
-599346.764
 20
-1164341.928
 10
-599347.453
 20
-1164333.884
 10
-599351.006
 20
-1164330.6021
 10
-599355.1239
 20
-1164325.033
 10
-599358.5059
 20
-1164325.007
 10
-599374.0529
 20
-1164332.4481
 10
-599383.356
 20
-1164331.134
 10
-599389.484
 20
-1164328.751
 10
-599408.2069
 20
-1164326.3681
 10
-599427.611
 20
-1164318.539
 10
-599447.015
 20
-1164318.539
 10
-599464.376
 20
-1164316.156
 10
-599470.844
 20
-1164309.347
 10
-599482.078
 20
-1164309.007
 10
-599495.6949
 20
-1164305.262
 10
-599504.546
 20
-1164299.816
 10
-599508.971
 20
-1164297.092
 10
-599515.467
 20
-1164295.097
 10
-599521.907
 20
-1164296.7521
 10
-599529.3959
 20
-1164293.007
 10
-599543.379
 20
-1164289.919
 10
-599557.3109
 20
-1164286.539
 10
-599567.1829
 20
-1164281.773
 10
-599584.544
 20
-1164273.603
 10
-599597.821
 20
-1164270.8801
 10
-599611.03
 20
-1164273.6801
 10
-599613.1399
 20
-1164276.327
 10
-599619.948
 20
-1164282.114
 10
-599626.416
 20
-1164288.241
 10
-599636.0999
 20
-1164287.73
 10
-599641.229
 20
-1164286.02
 10
-599654.5269
 20
-1164282.79
 10
-599674.284
 20
-1164277.661
 10
-599690.432
 20
-1164274.241
 10
-599715.5089
 20
-1164266.262
 10
-599733.936
 20
-1164259.613
 10
-599753.1239
 20
-1164254.104
 10
-599776.2009
 20
-1164244.793
 10
-599785.224
 20
-1164239.112
 10
-599793.9129
 20
-1164232.2611
 10
-599799.427
 20
-1164228.7521
 10
-599802.769
 20
-1164228.251
 10
-599809.787
 20
-1164226.078
 10
-599823.155
 20
-1164218.559
 10
-599842.872
 20
-1164207.698
 10
-599856.579
 20
-1164202.175
 10
-599874.286
 20
-1164195.5
 10
-599890.6919
 20
-1164190.995
 10
-599902.358
 20
-1164185.975
 10
-599928.258
 20
-1164174.947
 10
-599952.988
 20
-1164163.5841
 10
-599972.4849
 20
-1164153.07
 10
-600001.8979
 20
-1164135.422
 10
-600013.66
 20
-1164129.678
 10
-600031.415
 20
-1164120.637
 10
-600041.234
 20
-1164115.127
 10
-600050.849
 20
-1164110.699
 10
-600065.3589
 20
-1164105.843
 97
0
 75
0
 76
1
 98
0
  0
HATCH
  5
2001A
100
AcDbEntity
  8
plocha Q20
100
AcDbHatch
 10
0
 20
0
 30
0
210
0
220
0
230
1
  2
SOLID
 70
1
 71
0
 91
1
 92
2
 72
0
 73
1
 93
38
 10
-603076.118
 20
-1163328.876
 10
-603075.2729
 20
-1163326.905
 10
-603076.3989
 20
-1163325.075
 10
-603086.464
 20
-1163321.204
 10
-603099.6849
 20
-1163315.421
 10
-603110.2609
 20
-1163311.95
 10
-603120.507
 20
-1163310.793
 10
-603135.2149
 20
-1163307.9841
 10
-603141.4659
 20
-1163306.023
 10
-603157.4969
 20
-1163302.019
 10
-603165.363
 20
-1163300.331
 10
-603171.0759
 20
-1163298.61
 10
-603182.163
 20
-1163293.444
 10
-603189.286
 20
-1163286.137
 10
-603193.696
 20
-1163282.262
 10
-603196.999
 20
-1163276.5281
 10
-603197.645
 20
-1163274.452
 10
-603199.718
 20
-1163269.281
 10
-603200.491
 20
-1163266.67
 10
-603205.1179
 20
-1163264.191
 10
-603212.555
 20
-1163261.051
 10
-603216.459
 20
-1163260.988
 10
-603215.7329
 20
-1163264.227
 10
-603213.8279
 20
-1163268.161
 10
-603210.536
 20
-1163272.671
 10
-603209.35
 20
-1163281.5041
 10
-603204.4089
 20
-1163290.862
 10
-603195.245
 20
-1163300.141
 10
-603183.6359
 20
-1163307.539
 10
-603171.11
 20
-1163312.267
 10
-603155.538
 20
-1163315.299
 10
-603143.808
 20
-1163317.734
 10
-603127.282
 20
-1163320.7091
 10
-603102.3289
 20
-1163327.154
 10
-603093.57
 20
-1163329.467
 10
-603089.6039
 20
-1163330.459
 10
-603084.007
 20
-1163330.571
 10
-603076.118
 20
-1163328.876
 97
0
 75
0
 76
1
 98
0
  0
HATCH
  5
2001B
100
AcDbEntity
  8
plocha Q20
100
AcDbHatch
 10
0
 20
0
 30
0
210
0
220
0
230
1
  2
SOLID
 70
1
 71
0
 91
1
 92
2
 72
0
 73
1
 93
151
 10
-605054.3619
 20
-1161340.4901
 10
-605048.316
 20
-1161332.59
 10
-605047.91
 20
-1161330.5281
 10
-605047.1889
 20
-1161328.3141
 10
-605048.139
 20
-1161325.449
 10
-605050.1329
 20
-1161323.247
 10
-605054.609
 20
-1161318.045
 10
-605061.745
 20
-1161310.433
 10
-605067.4539
 20
-1161302.345
 10
-605071.152
 20
-1161299.483
 10
-605072.984
 20
-1161298.319
 10
-605077.571
 20
-1161291.677
 10
-605087.5929
 20
-1161280.2721
 10
-605093.259
 20
-1161274.478
 10
-605096.035
 20
-1161272.207
 10
-605101.334
 20
-1161264.889
 10
-605106.896
 20
-1161255.611
 10
-605111.3639
 20
-1161251.073
 10
-605114.0139
 20
-1161247.414
 10
-605118.4299
 20
-1161242.62
 10
-605121.837
 20
-1161236.4371
 10
-605124.9909
 20
-1161231.012
 10
-605126.253
 20
-1161228.7411
 10
-605130.29
 20
-1161224.703
 10
-605134.832
 20
-1161221.549
 10
-605142.024
 20
-1161218.9
 10
-605148.08
 20
-1161216.124
 10
-605153.127
 20
-1161213.348
 10
-605157.0389
 20
-1161209.689
 10
-605161.328
 20
-1161205.147
 10
-605168.268
 20
-1161195.3061
 10
-605170.3179
 20
-1161192.877
 10
-605172.1479
 20
-1161190.984
 10
-605174.419
 20
-1161189.533
 10
-605176.5639
 20
-1161187.704
 10
-605178.961
 20
-1161185.18
 10
-605180.349
 20
-1161183.035
 10
-605183.755
 20
-1161178.115
 10
-605185.7799
 20
-1161172.902
 10
-605187.9989
 20
-1161168.5651
 10
-605191.126
 20
-1161162.8161
 10
-605194.7569
 20
-1161157.067
 10
-605195.766
 20
-1161153.133
 10
-605198.4889
 20
-1161146.375
 10
-605202.624
 20
-1161142.2401
 10
-605207.309
 20
-1161140.364
 10
-605210.7089
 20
-1161139.195
 10
-605213.5769
 20
-1161136.114
 10
-605214.5329
 20
-1161131.227
 10
-605216.658
 20
-1161123.683
 10
-605218.8899
 20
-1161117.308
 10
-605223.2459
 20
-1161111.677
 10
-605226.433
 20
-1161108.171
 10
-605238.333
 20
-1161098.396
 10
-605248.32
 20
-1161090.322
 10
-605260.7509
 20
-1161081.928
 10
-605266.1689
 20
-1161078.5281
 10
-605272.8629
 20
-1161077.359
 10
-605289.5079
 20
-1161098.934
 10
-605278.497
 20
-1161109.692
 10
-605274.556
 20
-1161113.169
 10
-605270.384
 20
-1161118.269
 10
-605266.79
 20
-1161121.863
 10
-605262.038
 20
-1161125.9201
 10
-605254.968
 20
-1161135.4241
 10
-605250.099
 20
-1161140.292
 10
-605244.4199
 20
-1161147.247
 10
-605242.3239
 20
-1161149.891
 10
-605240.4849
 20
-1161152.108
 10
-605237.456
 20
-1161155.7861
 10
-605235.4549
 20
-1161157.625
 10
-605233.1289
 20
-1161160.492
 10
-605231.128
 20
-1161162.655
 10
-605228.749
 20
-1161165.684
 10
-605224.584
 20
-1161170.497
 10
-605222.583
 20
-1161172.823
 10
-605219.987
 20
-1161174.716
 10
-605215.8219
 20
-1161178.502
 10
-605213.821
 20
-1161181.26
 10
-605211.04
 20
-1161183.193
 10
-605208.39
 20
-1161184.455
 10
-605205.6149
 20
-1161186.978
 10
-605200.946
 20
-1161192.2771
 10
-605196.278
 20
-1161198.334
 10
-605191.483
 20
-1161203.507
 10
-605187.824
 20
-1161206.6611
 10
-605182.147
 20
-1161213.096
 10
-605178.866
 20
-1161215.871
 10
-605171.927
 20
-1161219.026
 10
-605166.754
 20
-1161221.8021
 10
-605163.347
 20
-1161224.956
 10
-605159.3099
 20
-1161230.255
 10
-605157.6689
 20
-1161232.274
 10
-605154.0099
 20
-1161237.321
 10
-605149.5939
 20
-1161243.251
 10
-605144.295
 20
-1161250.695
 10
-605142.2759
 20
-1161253.723
 10
-605138.961
 20
-1161258.065
 10
-605134.594
 20
-1161264.18
 10
-605126.464
 20
-1161275.401
 10
-605119.677
 20
-1161284.673
 10
-605115.9819
 20
-1161289.9141
 10
-605112.947
 20
-1161297.053
 10
-605110.806
 20
-1161304.427
 10
-605110.093
 20
-1161313.347
 10
-605109.26
 20
-1161318.223
 10
-605108.546
 20
-1161319.65
 10
-605109.222
 20
-1161326.701
 10
-605103.8659
 20
-1161337.233
 10
-605099.5249
 20
-1161348.748
 10
-605097.6369
 20
-1161364.038
 10
-605098.203
 20
-1161367.436
 10
-605101.601
 20
-1161373.4771
 10
-605105.376
 20
-1161376.875
 10
-605111.126
 20
-1161382.598
 10
-605121.3899
 20
-1161389.028
 10
-605133.51
 20
-1161394.717
 10
-605148.844
 20
-1161402.508
 10
-605154.78
 20
-1161405.723
 10
-605156.883
 20
-1161407.207
 10
-605158.119
 20
-1161408.815
 10
-605156.84
 20
-1161409.2101
 10
-605153.42
 20
-1161409.433
 10
-605150.081
 20
-1161406.836
 10
-605145.011
 20
-1161403.497
 10
-605130.5419
 20
-1161397.314
 10
-605120.47
 20
-1161393.7701
 10
-605110.1899
 20
-1161386.9601
 10
-605100.614
 20
-1161377.527
 10
-605093.8119
 20
-1161370.354
 10
-605085.7739
 20
-1161361.327
 10
-605082.5589
 20
-1161358.235
 10
-605080.827
 20
-1161353.5361
 10
-605081.1979
 20
-1161349.207
 10
-605080.924
 20
-1161348.088
 10
-605080.157
 20
-1161347.576
 10
-605078.834
 20
-1161347.917
 10
-605076.872
 20
-1161350.092
 10
-605075.0809
 20
-1161351.415
 10
-605073.3799
 20
-1161351.9
 10
-605072.9429
 20
-1161351.623
 10
-605072.1369
 20
-1161351.134
 10
-605072.578
 20
-1161344.737
 10
-605072.295
 20
-1161341.811
 10
-605070.9899
 20
-1161341.66
 10
-605070.407
 20
-1161343.227
 10
-605067.387
 20
-1161344.831
 10
-605064.3669
 20
-1161345.1141
 10
-605059.0809
 20
-1161345.209
 10
-605055.96
 20
-1161343.244
 10
-605054.3619
 20
-1161340.4901
 97
0
 75
0
 76
1
 98
0
  0
HATCH
  5
2001C
100
AcDbEntity
  8
plocha Q20
100
AcDbHatch
 10
0
 20
0
 30
0
210
0
220
0
230
1
  2
SOLID
 70
1
 71
0
 91
1
 92
2
 72
0
 73
1
 93
235
 10
-590039.5201
 20
-1160250.68
 10
-590040.15
 20
-1160250.5601
 10
-590041.0401
 20
-1160250.05
 10
-590042.5601
 20
-1160248.91
 10
-590043.57
 20
-1160247.89
 10
-590044.46
 20
-1160246.8801
 10
-590045.22
 20
-1160245.48
 10
-590045.22
 20
-1160244.22
 10
-590045.1
 20
-1160242.95
 10
-590043.96
 20
-1160241.43
 10
-590041.8
 20
-1160239.4
 10
-590032.67
 20
-1160232.55
 10
-590031.4
 20
-1160231.41
 10
-590031.02
 20
-1160230.77
 10
-590031.18
 20
-1160229.7601
 10
-590033.4
 20
-1160223.97
 10
-590037.8501
 20
-1160214.63
 10
-590043.19
 20
-1160205.2901
 10
-590051.64
 20
-1160192.84
 10
-590057.86
 20
-1160184.1601
 10
-590062.53
 20
-1160177.72
 10
-590070.76
 20
-1160169.0401
 10
-590079.4401
 20
-1160160.15
 10
-590085.97
 20
-1160153.2801
 10
-590092.7
 20
-1160147.31
 10
-590099.3
 20
-1160142.4901
 10
-590103.46
 20
-1160139.91
 10
-590108.79
 20
-1160136.79
 10
-590117.47
 20
-1160132.35
 10
-590127.9201
 20
-1160127.23
 10
-590144.6
 20
-1160119.23
 10
-590160.39
 20
-1160111.66
 10
-590175.96
 20
-1160104.99
 10
-590188.63
 20
-1160099.88
 10
-590200.86
 20
-1160094.3201
 10
-590213.32
 20
-1160088.76
 10
-590225.64
 20
-1160083.2101
 10
-590236.47
 20
-1160077.79
 10
-590245.56
 20
-1160073.25
 10
-590254.47
 20
-1160068.7
 10
-590261.81
 20
-1160064.86
 10
-590270.8101
 20
-1160060.23
 10
-590280.3301
 20
-1160054.7201
 10
-590289.07
 20
-1160049.48
 10
-590298.85
 20
-1160043.02
 10
-590306.7201
 20
-1160037.95
 10
-590316.5
 20
-1160031.83
 10
-590324.02
 20
-1160027.47
 10
-590330.13
 20
-1160023.1
 10
-590336.42
 20
-1160018.7301
 10
-590343.41
 20
-1160014.0101
 10
-590349.7
 20
-1160009.47
 10
-590353.7701
 20
-1160006.04
 10
-590354.71
 20
-1160005.23
 10
-590355.32
 20
-1160004.9
 10
-590356.06
 20
-1160004.69
 10
-590356.67
 20
-1160004.69
 10
-590357.07
 20
-1160004.9
 10
-590357.74
 20
-1160005.3701
 10
-590360.38
 20
-1160007.39
 10
-590362.31
 20
-1160009.02
 10
-590363.48
 20
-1160011.35
 10
-590363.23
 20
-1160012.87
 10
-590362.47
 20
-1160014.02
 10
-590358.4101
 20
-1160018.9701
 10
-590355.99
 20
-1160021.63
 10
-590352.82
 20
-1160026.3301
 10
-590349.6101
 20
-1160033.6901
 10
-590345.6801
 20
-1160049.79
 10
-590344.3702
 20
-1160055.1829
 10
-590342.9939
 20
-1160061.0326
 10
-590340.7572
 20
-1160068.6029
 10
-590339.0367
 20
-1160074.4527
 10
-590336.628
 20
-1160082.195
 10
-590334.0472
 20
-1160090.1094
 10
-590329.7459
 20
-1160097.1635
 10
-590326.4769
 20
-1160100.7766
 10
-590323.38
 20
-1160104.0456
 10
-590319.7669
 20
-1160107.3146
 10
-590305.27
 20
-1160115.59
 10
-590296.68
 20
-1160120.2401
 10
-590282.38
 20
-1160127.0401
 10
-590272.7201
 20
-1160131.6901
 10
-590261.2801
 20
-1160136.34
 10
-590248.04
 20
-1160141.34
 10
-590238.03
 20
-1160144.92
 10
-590225.51
 20
-1160149.57
 10
-590214.07
 20
-1160153.86
 10
-590204.77
 20
-1160158.51
 10
-590192.61
 20
-1160164.95
 10
-590177.95
 20
-1160174.2501
 10
-590168.6501
 20
-1160181.7601
 10
-590157.56
 20
-1160190.7
 10
-590145.0401
 20
-1160202.14
 10
-590134.67
 20
-1160211.8
 10
-590119.23
 20
-1160229.4501
 10
-590110.6
 20
-1160241.7701
 10
-590102.98
 20
-1160253.32
 10
-590098.54
 20
-1160260.55
 10
-590095.81
 20
-1160265.4501
 10
-590093.38
 20
-1160270.43
 10
-590091.9301
 20
-1160272.99
 10
-590090.47
 20
-1160274.0801
 10
-590089.62
 20
-1160274.3201
 10
-590088.77
 20
-1160274.3201
 10
-590087.9201
 20
-1160273.96
 10
-590086.267
 20
-1160273.528
 10
-590085.287
 20
-1160273.288
 10
-590084.03
 20
-1160273.47
 10
-590082.69
 20
-1160274.0801
 10
-590081.6001
 20
-1160275.0501
 10
-590080.5
 20
-1160276.15
 10
-590080.02
 20
-1160277.6001
 10
-590080.02
 20
-1160278.7
 10
-590080.5
 20
-1160280.28
 10
-590081.23
 20
-1160282.59
 10
-590081.8401
 20
-1160284.05
 10
-590082.45
 20
-1160286.11
 10
-590082.87
 20
-1160288.8101
 10
-590082.5701
 20
-1160290.36
 10
-590080.2501
 20
-1160299.99
 10
-590078.62
 20
-1160308.13
 10
-590077.73
 20
-1160312.71
 10
-590076.7
 20
-1160319.97
 10
-590075.07
 20
-1160330.62
 10
-590074.18
 20
-1160337.1301
 10
-590074.03
 20
-1160343.2001
 10
-590074.18
 20
-1160349.41
 10
-590074.77
 20
-1160353.8501
 10
-590075.51
 20
-1160358.0001
 10
-590078.35
 20
-1160366.69
 10
-590081.73
 20
-1160374.7201
 10
-590087.06
 20
-1160383.6001
 10
-590092.0901
 20
-1160392.4801
 10
-590098.3
 20
-1160399.88
 10
-590104.22
 20
-1160408.1701
 10
-590110.7301
 20
-1160415.27
 10
-590118.13
 20
-1160423.8501
 10
-590123.46
 20
-1160429.48
 10
-590129.08
 20
-1160435.6901
 10
-590135.89
 20
-1160443.98
 10
-590141.22
 20
-1160449.31
 10
-590150.1
 20
-1160458.78
 10
-590158.0901
 20
-1160467.66
 10
-590164.31
 20
-1160473.2801
 10
-590168.75
 20
-1160478.61
 10
-590174.67
 20
-1160485.71
 10
-590179.99
 20
-1160493.11
 10
-590186.8001
 20
-1160503.18
 10
-590193.02
 20
-1160515.6101
 10
-590197.16
 20
-1160526.5601
 10
-590200.12
 20
-1160537.2101
 10
-590202.19
 20
-1160547.87
 10
-590204.26
 20
-1160561.48
 10
-590205.4501
 20
-1160571.55
 10
-590206.07
 20
-1160582.38
 10
-590204.9953
 20
-1160590.7207
 10
-590203.2029
 20
-1160601.1085
 10
-590201.9338
 20
-1160607.3127
 10
-590200.86
 20
-1160613.35
 10
-590200.1
 20
-1160618.5601
 10
-590199.97
 20
-1160622.4901
 10
-590200.23
 20
-1160624.52
 10
-590200.35
 20
-1160628.84
 10
-590200.93
 20
-1160632.03
 10
-590201.88
 20
-1160634.43
 10
-590203.08
 20
-1160636.9601
 10
-590204.1622
 20
-1160638.568
 10
-590207.2436
 20
-1160642.5299
 10
-590210.9853
 20
-1160647.2619
 10
-590214.11
 20
-1160651.27
 10
-590216.71
 20
-1160654.9701
 10
-590217.88
 20
-1160657.07
 10
-590218.58
 20
-1160659.15
 10
-590218.8001
 20
-1160661.1301
 10
-590218.7
 20
-1160662.43
 10
-590218.4526
 20
-1160663.4801
 10
-590218.27
 20
-1160664.61
 10
-590218.0476
 20
-1160665.2133
 10
-590217.3876
 20
-1160666.0933
 10
-590216.82
 20
-1160666.63
 10
-590215.8501
 20
-1160666.83
 10
-590214.45
 20
-1160666.1
 10
-590211.94
 20
-1160664.4101
 10
-590207.817
 20
-1160661.1475
 10
-590204.9241
 20
-1160657.8983
 10
-590195.8571
 20
-1160644.931
 10
-590188.85
 20
-1160632.71
 10
-590183.48
 20
-1160623.01
 10
-590181.2101
 20
-1160618.8801
 10
-590173.99
 20
-1160602.1601
 10
-590165.5201
 20
-1160582.55
 10
-590162.84
 20
-1160576.98
 10
-590157.27
 20
-1160565.8401
 10
-590152.7301
 20
-1160557.58
 10
-590148.19
 20
-1160551.18
 10
-590141.17
 20
-1160542.7201
 10
-590136.42
 20
-1160537.97
 10
-590126.7201
 20
-1160528.4801
 10
-590120.74
 20
-1160521.26
 10
-590112.69
 20
-1160512.59
 10
-590100.7201
 20
-1160500.0001
 10
-590086.8901
 20
-1160485.55
 10
-590076.5701
 20
-1160472.9601
 10
-590068.7301
 20
-1160462.02
 10
-590063.98
 20
-1160455.2101
 10
-590058.0001
 20
-1160446.13
 10
-590052.0101
 20
-1160437.26
 10
-590048.3
 20
-1160429.62
 10
-590042.52
 20
-1160414.5601
 10
-590036.12
 20
-1160397.42
 10
-590032.2
 20
-1160384.42
 10
-590025.59
 20
-1160361.31
 10
-590022.0801
 20
-1160346.45
 10
-590019.6101
 20
-1160333.03
 10
-590018.37
 20
-1160322.0901
 10
-590017.1301
 20
-1160307.4401
 10
-590016.51
 20
-1160299.18
 10
-590017.1301
 20
-1160288.66
 10
-590017.54
 20
-1160283.5
 10
-590018.78
 20
-1160274.62
 10
-590019.81
 20
-1160265.96
 10
-590021.17
 20
-1160255.23
 10
-590022.0801
 20
-1160249.4501
 10
-590022.91
 20
-1160246.5601
 10
-590023.32
 20
-1160245.32
 10
-590023.94
 20
-1160244.29
 10
-590025.32
 20
-1160243.97
 10
-590026.6
 20
-1160244.2401
 10
-590027.86
 20
-1160244.9
 10
-590034.19
 20
-1160249.0401
 10
-590036.6
 20
-1160250.43
 10
-590037.49
 20
-1160250.68
 10
-590038.5
 20
-1160250.94
 10
-590039.5201
 20
-1160250.68
 97
0
 75
0
 76
1
 98
0
  0
HATCH
  5
2001D
100
AcDbEntity
  8
plocha Q20
100
AcDbHatch
 10
0
 20
0
 30
0
210
0
220
0
230
1
  2
SOLID
 70
1
 71
0
 91
1
 92
2
 72
0
 73
1
 93
103
 10
-598825.968
 20
-1164723.635
 10
-598829.1779
 20
-1164721.825
 10
-598835.133
 20
-1164717.213
 10
-598837.4489
 20
-1164714.46
 10
-598837.879
 20
-1164714.078
 10
-598839.7319
 20
-1164712.34
 10
-598841.164
 20
-1164711.165
 10
-598841.558
 20
-1164710.994
 10
-598842.046
 20
-1164710.957
 10
-598842.385
 20
-1164710.894
 10
-598843.352
 20
-1164711.471
 10
-598844.1059
 20
-1164711.8341
 10
-598844.754
 20
-1164712.1861
 10
-598845.147
 20
-1164712.216
 10
-598845.7489
 20
-1164712.292
 10
-598846.322
 20
-1164712.321
 10
-598846.609
 20
-1164712.5121
 10
-598846.657
 20
-1164713.19
 10
-598846.551
 20
-1164714.603
 10
-598846.8
 20
-1164715.1
 10
-598846.432
 20
-1164716.824
 10
-598844.675
 20
-1164719.2691
 10
-598844.0629
 20
-1164722.402
 10
-598842.688
 20
-1164724.695
 10
-598839.937
 20
-1164726.758
 10
-598835.964
 20
-1164729.967
 10
-598833.136
 20
-1164733.023
 10
-598831.2259
 20
-1164734.628
 10
-598829.774
 20
-1164735.774
 10
-598830.2329
 20
-1164738.372
 10
-598830.844
 20
-1164741.047
 10
-598832.8309
 20
-1164746.243
 10
-598831.073
 20
-1164751.133
 10
-598830.3089
 20
-1164753.3491
 10
-598829.8659
 20
-1164754.767
 10
-598831.175
 20
-1164757.478
 10
-598830.844
 20
-1164760.1491
 10
-598825.707
 20
-1164764.738
 10
-598825.005
 20
-1164766.668
 10
-598823.974
 20
-1164772.473
 10
-598821.932
 20
-1164774.559
 10
-598819.3059
 20
-1164776.807
 10
-598809.4869
 20
-1164786.244
 10
-598800.318
 20
-1164792.051
 10
-598794.355
 20
-1164801.599
 10
-598787.148
 20
-1164810.483
 10
-598780.2759
 20
-1164818.361
 10
-598774.242
 20
-1164822.383
 10
-598769.3809
 20
-1164828.92
 10
-598766.867
 20
-1164834.284
 10
-598757.816
 20
-1164838.977
 10
-598751.446
 20
-1164843.838
 10
-598747.591
 20
-1164849.704
 10
-598745
 20
-1164855
 10
-598740.216
 20
-1164861.102
 10
-598738.0369
 20
-1164862.276
 10
-598735.355
 20
-1164860.767
 10
-598732.851
 20
-1164860.067
 10
-598731.453
 20
-1164861.8181
 10
-598731.8229
 20
-1164865.324
 10
-598730.24
 20
-1164866.108
 10
-598729.42
 20
-1164862.2981
 10
-598726.8569
 20
-1164862.434
 10
-598722.8
 20
-1164864.468
 10
-598722.408
 20
-1164860.061
 10
-598723.958
 20
-1164857.75
 10
-598718.91
 20
-1164851.742
 10
-598717.907
 20
-1164848.171
 10
-598718.408
 20
-1164843.927
 10
-598717.8609
 20
-1164840.579
 10
-598717.4009
 20
-1164838.555
 10
-598717.1249
 20
-1164836.99
 10
-598715.235
 20
-1164836.225
 10
-598713.628
 20
-1164834.137
 10
-598710.775
 20
-1164834.873
 10
-598707.83
 20
-1164836.3461
 10
-598705.08
 20
-1164836.387
 10
-598701.313
 20
-1164831.806
 10
-598701.837
 20
-1164826.151
 10
-598703.883
 20
-1164815.393
 10
-598703.005
 20
-1164796.29
 10
-598701.91
 20
-1164781.62
 10
-598700.36
 20
-1164767.474
 10
-598699.3909
 20
-1164761.467
 10
-598702.8789
 20
-1164755.459
 10
-598733.059
 20
-1164743.863
 10
-598740.414
 20
-1164739.8931
 10
-598748.587
 20
-1164738.376
 10
-598755.2419
 20
-1164737.908
 10
-598759.212
 20
-1164733.939
 10
-598767.502
 20
-1164731.2531
 10
-598773.456
 20
-1164725.766
 10
-598779.761
 20
-1164724.481
 10
-598785.366
 20
-1164725.649
 10
-598790.62
 20
-1164729.502
 10
-598795.494
 20
-1164729.531
 10
-598800.631
 20
-1164727.313
 10
-598806.294
 20
-1164726.671
 10
-598814.759
 20
-1164724.919
 10
-598819.371
 20
-1164723.752
 10
-598821.7639
 20
-1164724.102
 10
-598823.808
 20
-1164724.627
 10
-598825.968
 20
-1164723.635
 97
0
 75
0
 76
1
 98
0
  0
HATCH
  5
2001E
100
AcDbEntity
  8
plocha Q20
100
AcDbHatch
 10
0
 20
0
 30
0
210
0
220
0
230
1
  2
SOLID
 70
1
 71
0
 91
7
 92
2
 72
0
 73
1
 93
1434
 10
-598652.4127
 20
-1164833.3111
 10
-598652.5232
 20
-1164830.9506
 10
-598654.357
 20
-1164829.1993
 10
-598655.4185
 20
-1164824.7239
 10
-598654.4432
 20
-1164820.4485
 10
-598652.2479
 20
-1164811.6675
 10
-598653.0713
 20
-1164809.1291
 10
-598655.0606
 20
-1164806.4536
 10
-598656.9814
 20
-1164802.3375
 10
-598657.974
 20
-1164794.4358
 10
-598663.6359
 20
-1164792.9391
 10
-598666.2428
 20
-1164793.6252
 10
-598669.124
 20
-1164798.29
 10
-598671.819
 20
-1164806.4336
 10
-598672.403
 20
-1164811.1256
 10
-598673.1542
 20
-1164819.2407
 10
-598674.132
 20
-1164823.3299
 10
-598671.1821
 20
-1164828.3378
 10
-598671.9269
 20
-1164830.008
 10
-598675.4017
 20
-1164833.1636
 10
-598672.6913
 20
-1164837.8735
 10
-598673.2646
 20
-1164840.6775
 10
-598669.7415
 20
-1164842.8814
 10
-598666.7231
 20
-1164842.3325
 10
-598662.4012
 20
-1164842.1954
 10
-598659.008
 20
-1164841.82
 10
-598656.2955
 20
-1164840.6176
 10
-598654.649
 20
-1164835.6783
 10
-598641.8225
 20
-1164841.0583
 10
-598642.1457
 20
-1164842.812
 10
-598639.4274
 20
-1164845.4955
 10
-598633.5995
 20
-1164849.4254
 10
-598630.9939
 20
-1164851.2249
 10
-598628.583
 20
-1164857.4279
 10
-598629.2169
 20
-1164859.466
 10
-598628.4419
 20
-1164862.274
 10
-598628.8814
 20
-1164865.5229
 10
-598630.674
 20
-1164869.4587
 10
-598631.3556
 20
-1164871.6189
 10
-598631.7887
 20
-1164874.1773
 10
-598632.688
 20
-1164876.877
 10
-598632.5129
 20
-1164879.1509
 10
-598630.2336
 20
-1164882.8993
 10
-598627.2196
 20
-1164884.4308
 10
-598621.7712
 20
-1164887.5115
 10
-598615.6631
 20
-1164891.4521
 10
-598609.1387
 20
-1164897.7726
 10
-598601.0688
 20
-1164904.8254
 10
-598596.6514
 20
-1164910.3418
 10
-598590.1186
 20
-1164922.5469
 10
-598586.9295
 20
-1164931.1863
 10
-598579.907
 20
-1164939.8174
 10
-598573.7426
 20
-1164949.3472
 10
-598569.5111
 20
-1164955.781
 10
-598565.5121
 20
-1164961.5029
 10
-598558.787
 20
-1164974.9835
 10
-598552.7156
 20
-1164983.3675
 10
-598546.3553
 20
-1164991.1734
 10
-598538.1656
 20
-1164997.197
 10
-598533.0052
 20
-1165000.7473
 10
-598527.6944
 20
-1165002.7128
 10
-598517.2889
 20
-1165007.481
 10
-598512.6056
 20
-1165009.8364
 10
-598507.1246
 20
-1165012.2037
 10
-598503.113
 20
-1165013.9971
 10
-598483.7662
 20
-1165023.9612
 10
-598465.6189
 20
-1165033.3989
 10
-598450.3734
 20
-1165043.906
 10
-598426.3192
 20
-1165059.2203
 10
-598411.6212
 20
-1165066.5365
 10
-598398.215
 20
-1165074.0533
 10
-598384.5434
 20
-1165080.8432
 10
-598372.127
 20
-1165087.2499
 10
-598356.8979
 20
-1165097.388
 10
-598348.0078
 20
-1165106.3141
 10
-598339.6399
 20
-1165113.074
 10
-598330.1706
 20
-1165123.2155
 10
-598318.049
 20
-1165139.5024
 10
-598312.2204
 20
-1165149.3026
 10
-598303.4509
 20
-1165163.12
 10
-598298.9953
 20
-1165173.6037
 10
-598297.8497
 20
-1165176.2989
 10
-598289.7537
 20
-1165188.1057
 10
-598282.182
 20
-1165198.1182
 10
-598273.062
 20
-1165209.631
 10
-598267.0188
 20
-1165215.444
 10
-598258.984
 20
-1165223.1729
 10
-598252.743
 20
-1165228.3218
 10
-598247.4878
 20
-1165232.6575
 10
-598242.385
 20
-1165236.6326
 10
-598234.7451
 20
-1165242.5839
 10
-598220.802
 20
-1165252.5535
 10
-598206.0186
 20
-1165261.9675
 10
-598198.0289
 20
-1165266.892
 10
-598184.6165
 20
-1165272.3032
 10
-598179.054
 20
-1165274.2542
 10
-598157.1925
 20
-1165279.9257
 10
-598133.2491
 20
-1165286.0809
 10
-598110.396
 20
-1165291.8665
 10
-598100.2235
 20
-1165293.2679
 10
-598094.4099
 20
-1165294.0688
 10
-598085.2559
 20
-1165297.115
 10
-598078.3528
 20
-1165299.7054
 10
-598070.3773
 20
-1165303.2313
 10
-598062.6002
 20
-1165307.3474
 10
-598052.2505
 20
-1165313.4178
 10
-598044.4961
 20
-1165316.156
 10
-598040.8259
 20
-1165317.452
 10
-598030.2534
 20
-1165319.317
 10
-598012.7031
 20
-1165321.953
 10
-598001.6701
 20
-1165323.6031
 10
-597992.8099
 20
-1165326.025
 10
-597983.3309
 20
-1165328.4659
 10
-597973.2208
 20
-1165333.5199
 10
-597965.3651
 20
-1165338.3113
 10
-597959.7493
 20
-1165341.2574
 10
-597957.7
 20
-1165342.2743
 10
-597957.7068
 20
-1165342.3289
 10
-597954.3148
 20
-1165343.954
 10
-597950.2343
 20
-1165345.9087
 10
-597947.0846
 20
-1165347.4178
 10
-597942.9972
 20
-1165349.0525
 10
-597937.9279
 20
-1165350.2695
 10
-597933.2169
 20
-1165350.675
 10
-597914.6207
 20
-1165351.2388
 10
-597905.222
 20
-1165351.5239
 10
-597894.0929
 20
-1165348.5319
 10
-597882.3929
 20
-1165345.804
 10
-597871.627
 20
-1165344.097
 10
-597861.873
 20
-1165341.617
 10
-597855.4119
 20
-1165340.2324
 10
-597851.0998
 20
-1165339.5457
 10
-597845.3743
 20
-1165339.3458
 10
-597839.6766
 20
-1165339.9446
 10
-597838.034
 20
-1165340.269
 10
-597825.1652
 20
-1165342.9245
 10
-597814.2867
 20
-1165346.6121
 10
-597799.161
 20
-1165352.1765
 10
-597783.4146
 20
-1165358.0757
 10
-597771.8885
 20
-1165361.9662
 10
-597770.0893
 20
-1165362.616
 10
-597764.5833
 20
-1165365.1711
 10
-597759.467
 20
-1165368.4372
 10
-597754.8318
 20
-1165372.3561
 10
-597750.7601
 20
-1165376.8578
 10
-597747.68
 20
-1165381.273
 10
-597739.8047
 20
-1165393.3502
 10
-597732.7505
 20
-1165402.84
 10
-597732.311
 20
-1165403.4218
 10
-597728.1884
 20
-1165408.1227
 10
-597723.4875
 20
-1165412.2454
 10
-597718.2886
 20
-1165415.7192
 10
-597712.6807
 20
-1165418.4846
 10
-597707.7101
 20
-1165420.2293
 10
-597699.5392
 20
-1165422.7417
 10
-597685.6651
 20
-1165427.6725
 10
-597682.6945
 20
-1165428.8409
 10
-597682.3152
 20
-1165428.9923
 10
-597668.292
 20
-1165434.1442
 10
-597667.6217
 20
-1165434.369
 10
-597669.2724
 20
-1165456.8193
 10
-597670.8347
 20
-1165478.0656
 10
-597671.2605
 20
-1165483.8552
 10
-597671.3401
 20
-1165486.0234
 10
-597670.9368
 20
-1165490.8898
 10
-597669.7381
 20
-1165495.6236
 10
-597667.7764
 20
-1165500.0953
 10
-597665.1056
 20
-1165504.1834
 10
-597661.7984
 20
-1165507.776
 10
-597657.9449
 20
-1165510.7753
 10
-597656.3693
 20
-1165511.736
 10
-597653.353
 20
-1165513.2638
 10
-597648.215
 20
-1165515.1091
 10
-597642.8557
 20
-1165516.1485
 10
-597637.4005
 20
-1165516.3576
 10
-597631.9773
 20
-1165515.7316
 10
-597626.7132
 20
-1165514.2849
 10
-597621.7314
 20
-1165512.0518
 10
-597619.3429
 20
-1165510.6295
 10
-597596.6976
 20
-1165496.6939
 10
-597562.7559
 20
-1165479.0782
 10
-597551.9723
 20
-1165474.585
 10
-597551.2708
 20
-1165474.2788
 10
-597547.5218
 20
-1165472.1143
 10
-597544.25
 20
-1165469.2793
 10
-597541.5739
 20
-1165465.8763
 10
-597539.5902
 20
-1165462.0285
 10
-597538.5375
 20
-1165458.665
 10
-597537.6042
 20
-1165454.6871
 10
-597535.8673
 20
-1165447.6873
 10
-597535.094
 20
-1165445.1895
 10
-597533.122
 20
-1165440.9606
 10
-597530.4457
 20
-1165437.1385
 10
-597527.1465
 20
-1165433.8392
 10
-597523.3243
 20
-1165431.1628
 10
-597519.0955
 20
-1165429.191
 10
-597518.5179
 20
-1165428.9882
 10
-597513.4898
 20
-1165427.4548
 10
-597505.2729
 20
-1165425.6389
 10
-597496.919
 20
-1165424.6246
 10
-597488.5063
 20
-1165424.4211
 10
-597485.9145
 20
-1165424.5225
 10
-597483.2744
 20
-1165424.642
 10
-597472.1928
 20
-1165424.642
 10
-597461.1407
 20
-1165423.8331
 10
-597450.1772
 20
-1165422.2196
 10
-597440.0607
 20
-1165419.9913
 10
-597387.6795
 20
-1165402.5065
 10
-597387.2894
 20
-1165402.3781
 10
-597381.052
 20
-1165400.7765
 10
-597374.6632
 20
-1165399.9696
 10
-597368.2237
 20
-1165399.9696
 10
-597361.8349
 20
-1165400.7765
 10
-597355.5975
 20
-1165402.3781
 10
-597349.6102
 20
-1165404.7487
 10
-597343.9672
 20
-1165407.851
 10
-597338.7575
 20
-1165411.6361
 10
-597334.0633
 20
-1165416.0442
 10
-597329.9585
 20
-1165421.0061
 10
-597329.7378
 20
-1165421.312
 10
-597323.4782
 20
-1165454.8048
 10
-597323.2675
 20
-1165456.3638
 10
-597321.8439
 20
-1165466.8979
 10
-597319.2711
 20
-1165485.9376
 10
-597307.7992
 20
-1165527.0779
 10
-597288.7509
 20
-1165595.3892
 10
-597277.908
 20
-1165644.8591
 10
-597276.4452
 20
-1165651.5338
 10
-597275.9055
 20
-1165653.9959
 10
-597275.8274
 20
-1165653.973
 10
-597260.6812
 20
-1165713.77
 10
-597250.8639
 20
-1165750.0948
 10
-597251.8266
 20
-1165753.7441
 10
-597253.843
 20
-1165758.6125
 10
-597256.5963
 20
-1165763.1052
 10
-597260.0183
 20
-1165767.1121
 10
-597264.0252
 20
-1165770.5342
 10
-597268.518
 20
-1165773.2873
 10
-597273.3863
 20
-1165775.3039
 10
-597278.51
 20
-1165776.5339
 10
-597283.7629
 20
-1165776.9474
 10
-597285.2877
 20
-1165776.9128
 10
-597355.1379
 20
-1165773.7377
 10
-597451.8574
 20
-1165779.1595
 10
-597494.8538
 20
-1165791.5168
 10
-597537.1218
 20
-1165807.9777
 10
-597571.396
 20
-1165815.7674
 10
-597573.9395
 20
-1165816.1484
 10
-597579.2964
 20
-1165817.5489
 10
-597584.3924
 20
-1165819.7145
 10
-597589.1186
 20
-1165822.5989
 10
-597593.3746
 20
-1165826.1409
 10
-597597.0696
 20
-1165830.2646
 10
-597600.1248
 20
-1165834.8824
 10
-597602.4749
 20
-1165839.896
 10
-597604.0702
 20
-1165845.1982
 10
-597604.8763
 20
-1165850.6762
 10
-597604.8763
 20
-1165856.2132
 10
-597604.2755
 20
-1165860.7081
 10
-597600.816
 20
-1165878.4379
 10
-597600.6707
 20
-1165878.9451
 10
-597599.4446
 20
-1165884.8454
 10
-597599.0334
 20
-1165890.8576
 10
-597599.4446
 20
-1165896.8697
 10
-597600.6707
 20
-1165902.77
 10
-597602.6887
 20
-1165908.4484
 10
-597603.6948
 20
-1165910.6036
 10
-597606.4464
 20
-1165916.1069
 10
-597609.7387
 20
-1165922.6915
 10
-597619.6824
 20
-1165933.5822
 10
-597649.755
 20
-1165966.5189
 10
-597653.0432
 20
-1165970.6762
 10
-597655.8435
 20
-1165975.5264
 10
-597657.8885
 20
-1165980.7365
 10
-597665.2337
 20
-1165998.6586
 10
-597676.2255
 20
-1166025.4788
 10
-597676.4203
 20
-1166025.9824
 10
-597677.031
 20
-1166028.2619
 10
-597677.2367
 20
-1166030.6127
 10
-597677.031
 20
-1166032.9635
 10
-597676.4203
 20
-1166035.2429
 10
-597675.4231
 20
-1166037.3818
 10
-597674.0695
 20
-1166039.3148
 10
-597672.4008
 20
-1166040.9834
 10
-597670.4677
 20
-1166042.3369
 10
-597668.3291
 20
-1166043.3343
 10
-597666.0497
 20
-1166043.945
 10
-597664.1718
 20
-1166044.1425
 10
-597645.6509
 20
-1166046.7882
 10
-597645.1252
 20
-1166046.8604
 10
-597638.8274
 20
-1166047.2732
 10
-597632.5296
 20
-1166046.8604
 10
-597626.3394
 20
-1166045.6292
 10
-597620.3629
 20
-1166043.6004
 10
-597614.7025
 20
-1166040.809
 10
-597609.8112
 20
-1166037.5735
 10
-597598.7704
 20
-1166030.3336
 10
-597598.135
 20
-1166029.9236
 10
-597592.5552
 20
-1166026.8562
 10
-597586.6349
 20
-1166024.5122
 10
-597580.4676
 20
-1166022.9286
 10
-597575.6437
 20
-1166022.2466
 10
-597539.2974
 20
-1166018.1321
 10
-597478.5144
 20
-1166015.6823
 10
-597473.9781
 20
-1166015.8964
 10
-597469.4345
 20
-1166016.9334
 10
-597465.1493
 20
-1166018.765
 10
-597461.2599
 20
-1166021.3325
 10
-597457.8914
 20
-1166024.5531
 10
-597455.152
 20
-1166028.3234
 10
-597453.5631
 20
-1166031.4423
 10
-597453.3082
 20
-1166032.0297
 10
-597450.1958
 20
-1166038.0937
 10
-597446.3881
 20
-1166043.7469
 10
-597442.4505
 20
-1166048.3757
 10
-597437.5495
 20
-1166053.7289
 10
-597428.9742
 20
-1166064.0184
 10
-597422.8713
 20
-1166072.1883
 10
-597422.4394
 20
-1166072.8083
 10
-597419.64
 20
-1166077.6569
 10
-597417.5947
 20
-1166082.8685
 10
-597416.3488
 20
-1166088.3267
 10
-597415.9304
 20
-1166093.9098
 10
-597416.3488
 20
-1166099.4926
 10
-597417.5947
 20
-1166104.9509
 10
-597419.44
 20
-1166109.7403
 10
-597428.7986
 20
-1166126.9745
 10
-597442.2311
 20
-1166147.1236
 10
-597455.3597
 20
-1166158.4105
 10
-597470.9247
 20
-1166164.7518
 10
-597491.3594
 20
-1166169.0353
 10
-597505.5492
 20
-1166171.0623
 10
-597508.6922
 20
-1166171.7307
 10
-597512.7823
 20
-1166173.3152
 10
-597516.5116
 20
-1166175.6243
 10
-597519.753
 20
-1166178.5791
 10
-597522.3961
 20
-1166182.0794
 10
-597524.3513
 20
-1166186.0057
 10
-597525.5515
 20
-1166190.2244
 10
-597525.9257
 20
-1166193.3855
 10
-597526.0701
 20
-1166199.074
 10
-597525.6663
 20
-1166208.5789
 10
-597524.671
 20
-1166216.7277
 10
-597522.388
 20
-1166238.4171
 10
-597516.7939
 20
-1166252.0913
 10
-597514.9055
 20
-1166257.6946
 10
-597513.7122
 20
-1166263.6942
 10
-597513.312
 20
-1166269.7983
 10
-597513.7122
 20
-1166275.9026
 10
-597513.9395
 20
-1166277.4338
 10
-597514.4666
 20
-1166281.28
 10
-597514.8754
 20
-1166288.8203
 10
-597514.8322
 20
-1166291.2711
 10
-597515.3039
 20
-1166298.5808
 10
-597515.8544
 20
-1166307.1143
 10
-597516.7472
 20
-1166320.9517
 10
-597521.7844
 20
-1166334.4736
 10
-597526.9651
 20
-1166342.9849
 10
-597536.804
 20
-1166366.3535
 10
-597543.685
 20
-1166389.4131
 10
-597548.1593
 20
-1166409.2281
 10
-597565.537
 20
-1166451.0057
 10
-597572.5088
 20
-1166459.372
 10
-597599.8746
 20
-1166490.9519
 10
-597610.4779
 20
-1166503.235
 10
-597630.1991
 20
-1166527.8866
 10
-597642.073
 20
-1166542.7291
 10
-597645.9349
 20
-1166544.1263
 10
-597650.9045
 20
-1166545.1409
 10
-597655.9725
 20
-1166545.345
 10
-597661.0077
 20
-1166544.7336
 10
-597661.3072
 20
-1166544.6711
 10
-597667.7913
 20
-1166543.2817
 10
-597685.0375
 20
-1166540.8217
 10
-597685.3585
 20
-1166540.8137
 10
-597686.4605
 20
-1166540.91
 10
-597687.5289
 20
-1166541.1964
 10
-597688.5316
 20
-1166541.6639
 10
-597689.4377
 20
-1166542.2984
 10
-597690.2199
 20
-1166543.0807
 10
-597690.8544
 20
-1166543.9868
 10
-597691.3219
 20
-1166544.9893
 10
-597691.6084
 20
-1166546.0579
 10
-597691.7046
 20
-1166547.1599
 10
-597691.6084
 20
-1166548.2619
 10
-597691.3219
 20
-1166549.3304
 10
-597690.8544
 20
-1166550.3331
 10
-597690.2199
 20
-1166551.2392
 10
-597689.4377
 20
-1166552.0215
 10
-597688.5316
 20
-1166552.6559
 10
-597687.6176
 20
-1166553.0903
 10
-597681.9816
 20
-1166555.2375
 10
-597660.3555
 20
-1166563.0582
 10
-597658.5993
 20
-1166563.3338
 10
-597654.5017
 20
-1166564.5768
 10
-597650.7256
 20
-1166566.5953
 10
-597647.4155
 20
-1166569.3115
 10
-597644.6992
 20
-1166572.6215
 10
-597643.5093
 20
-1166574.6262
 10
-597642.5488
 20
-1166576.5877
 10
-597640.5273
 20
-1166582.0076
 10
-597639.2978
 20
-1166587.66
 10
-597638.885
 20
-1166593.4298
 10
-597639.2978
 20
-1166599.1997
 10
-597639.5453
 20
-1166600.7163
 10
-597642.5595
 20
-1166617.2144
 10
-597642.9557
 20
-1166643.7792
 10
-597642.4381
 20
-1166649.601
 10
-597641.7382
 20
-1166657.4764
 10
-597640.5932
 20
-1166670.3567
 10
-597637.8874
 20
-1166687.161
 10
-597631.8394
 20
-1166720.4251
 10
-597621.3092
 20
-1166755.3437
 10
-597608.6862
 20
-1166775.1509
 10
-597591.6013
 20
-1166795.0833
 10
-597583.4282
 20
-1166804.6186
 10
-597583.0389
 20
-1166805.019
 10
-597580.7545
 20
-1166808.0867
 10
-597566.9899
 20
-1166823.1035
 10
-597547.107
 20
-1166842.1126
 10
-597545.7931
 20
-1166843.3686
 10
-597543.0338
 20
-1166848.6544
 10
-597538.856
 20
-1166855.8704
 10
-597532.1377
 20
-1166867.4747
 10
-597520.9493
 20
-1166881.8646
 10
-597520.8755
 20
-1166882.0616
 10
-597520.3803
 20
-1166883.9097
 10
-597520.2134
 20
-1166885.8156
 10
-597520.3803
 20
-1166887.7216
 10
-597520.8755
 20
-1166889.5697
 10
-597521.684
 20
-1166891.3035
 10
-597522.7813
 20
-1166892.8708
 10
-597524.1342
 20
-1166894.2237
 10
-597525.7014
 20
-1166895.321
 10
-597527.4353
 20
-1166896.1295
 10
-597527.4977
 20
-1166896.1521
 10
-597539.9993
 20
-1166900.617
 10
-597574.5377
 20
-1166924.463
 10
-597612.9253
 20
-1166955.0882
 10
-597633.51
 20
-1166973.748
 10
-597646.1182
 20
-1166984.9083
 10
-597646.7629
 20
-1166985.7617
 10
-597650.8409
 20
-1166991.1591
 10
-597660.3487
 20
-1167003.7427
 10
-597669.7266
 20
-1167016.1547
 10
-597682.5
 20
-1167042.5533
 10
-597695.5775
 20
-1167069.5801
 10
-597702.2719
 20
-1167090.3069
 10
-597708.6219
 20
-1167101.4196
 10
-597718.1469
 20
-1167112.5321
 10
-597728.1191
 20
-1167117.1547
 10
-597738.9823
 20
-1167123.2946
 10
-597752.5388
 20
-1167132.6444
 10
-597765.2389
 20
-1167145.3444
 10
-597771.2787
 20
-1167157.1111
 10
-597777.8001
 20
-1167177.8611
 10
-597780.6184
 20
-1167201.8852
 10
-597781.283
 20
-1167229.7958
 10
-597778.1482
 20
-1167261.6074
 10
-597778.1921
 20
-1167304.3647
 10
-597778.1584
 20
-1167304.3195
 10
-597779.3484
 20
-1167329.4412
 10
-597780.8367
 20
-1167336.8827
 10
-597783.5158
 20
-1167343.7288
 10
-597785.0041
 20
-1167350.2773
 10
-597788.5759
 20
-1167358.314
 10
-597795.422
 20
-1167366.053
 10
-597800.4821
 20
-1167369.6249
 10
-597806.7329
 20
-1167372.0062
 10
-597820.1274
 20
-1167374.3873
 10
-597827.5894
 20
-1167373.9772
 10
-597848.1527
 20
-1167371.6464
 10
-597881.8624
 20
-1167371.4233
 10
-597882.5561
 20
-1167371.5415
 10
-597889.454
 20
-1167373.1762
 10
-597896.1154
 20
-1167375.6008
 10
-597897.266
 20
-1167376.1113
 10
-597901.3687
 20
-1167378.0077
 10
-597918.3113
 20
-1167386.3912
 10
-597934.8803
 20
-1167395.4909
 10
-597937.0541
 20
-1167396.7541
 10
-597959.7741
 20
-1167410.0441
 10
-597960.2289
 20
-1167410.2199
 10
-597962.3208
 20
-1167410.7805
 10
-597964.478
 20
-1167410.9691
 10
-597966.6353
 20
-1167410.7805
 10
-597968.727
 20
-1167410.2199
 10
-597970.6897
 20
-1167409.3047
 10
-597972.4634
 20
-1167408.0628
 10
-597973.9947
 20
-1167406.5315
 10
-597975.2368
 20
-1167404.7576
 10
-597975.7577
 20
-1167403.752
 10
-597980.5146
 20
-1167393.4459
 10
-597990.135
 20
-1167376.5577
 10
-597990.1423
 20
-1167376.5375
 10
-597990.3089
 20
-1167376.1804
 10
-597990.5349
 20
-1167375.8576
 10
-597990.8134
 20
-1167375.579
 10
-597991.1363
 20
-1167375.353
 10
-597991.4932
 20
-1167375.1866
 10
-597991.8738
 20
-1167375.0846
 10
-597992.2664
 20
-1167375.0502
 10
-597992.6588
 20
-1167375.0846
 10
-597993.0395
 20
-1167375.1866
 10
-597993.3965
 20
-1167375.353
 10
-597993.7193
 20
-1167375.579
 10
-597993.9979
 20
-1167375.8576
 10
-597994.224
 20
-1167376.1804
 10
-597994.3904
 20
-1167376.5375
 10
-597994.4925
 20
-1167376.9181
 10
-597994.5268
 20
-1167377.3105
 10
-597994.4925
 20
-1167377.7031
 10
-597994.3904
 20
-1167378.0837
 10
-597994.3766
 20
-1167378.1206
 10
-597982.295
 20
-1167409.5978
 10
-597980.0891
 20
-1167420.9831
 10
-597980.0311
 20
-1167421.6773
 10
-597980.0946
 20
-1167422.4032
 10
-597980.2831
 20
-1167423.107
 10
-597980.5911
 20
-1167423.7672
 10
-597980.9821
 20
-1167424.3317
 10
-597984.1958
 20
-1167427.6556
 10
-597987.4561
 20
-1167430.1361
 10
-597993.2605
 20
-1167433.9312
 10
-598002.4134
 20
-1167439.289
 10
-598012.7422
 20
-1167446.509
 10
-598016.6552
 20
-1167451.0743
 10
-598020.3062
 20
-1167455.3337
 10
-598023.7151
 20
-1167459.3107
 10
-598038.0733
 20
-1167476.0619
 10
-598047.4558
 20
-1167487.7903
 10
-598055.1482
 20
-1167497.4057
 10
-598073.1395
 20
-1167508.9422
 10
-598091.7517
 20
-1167513.3973
 10
-598103.3603
 20
-1167517.4157
 10
-598119.8803
 20
-1167523.4432
 10
-598139.3024
 20
-1167531.2568
 10
-598166.5143
 20
-1167547.3251
 10
-598201.6606
 20
-1167572.1001
 10
-598218.3139
 20
-1167583.8022
 10
-598228.8511
 20
-1167598.124
 10
-598230.4496
 20
-1167600.4322
 10
-598233.5313
 20
-1167605.9041
 10
-598235.8879
 20
-1167611.7251
 10
-598237.4808
 20
-1167617.7996
 10
-598238.2839
 20
-1167624.0278
 10
-598238.352
 20
-1167625.3812
 10
-598235.5439
 20
-1167661.1859
 10
-598236.6057
 20
-1167678.7906
 10
-598236.6186
 20
-1167678.8583
 10
-598235.8549
 20
-1167688.1178
 10
-598235.8283
 20
-1167688.7649
 10
-598235.9478
 20
-1167690.1319
 10
-598236.3031
 20
-1167691.4573
 10
-598236.883
 20
-1167692.7009
 10
-598237.6699
 20
-1167693.825
 10
-598238.6402
 20
-1167694.7952
 10
-598239.7244
 20
-1167695.5591
 10
-598254.0119
 20
-1167708.6561
 10
-598263.2393
 20
-1167718.7764
 10
-598273.6574
 20
-1167730.9803
 10
-598284.0753
 20
-1167744.3749
 10
-598284.7061
 20
-1167745.1968
 10
-598289.2597
 20
-1167751.8754
 10
-598293.1254
 20
-1167758.9744
 10
-598296.2653
 20
-1167766.4229
 10
-598296.5769
 20
-1167767.2944
 10
-598297.8241
 20
-1167771.6577
 10
-598298.6386
 20
-1167777.1935
 10
-598298.6605
 20
-1167782.475
 10
-598299.8479
 20
-1167794.841
 10
-598297.7252
 20
-1167809.2951
 10
-598294.6696
 20
-1167822.7394
 10
-598287.6472
 20
-1167836.0532
 10
-598282.5871
 20
-1167848.5547
 10
-598276.9315
 20
-1167859.5681
 10
-598268.2994
 20
-1167872.3673
 10
-598265.3957
 20
-1167881.2432
 10
-598260.5605
 20
-1167889.6314
 10
-598259.1128
 20
-1167892.614
 10
-598257.8623
 20
-1167896.8732
 10
-598257.4402
 20
-1167901.2919
 10
-598257.8272
 20
-1167905.3434
 10
-598258.0287
 20
-1167906.5012
 10
-598258.6273
 20
-1167911.8885
 10
-598261.785
 20
-1167918.6769
 10
-598266.8078
 20
-1167923.6998
 10
-598287.3207
 20
-1167945.514
 10
-598295.5981
 20
-1167955.0984
 10
-598298.3918
 20
-1167960.8748
 10
-598303.9401
 20
-1167967.9351
 10
-598310.9077
 20
-1167982.4066
 10
-598313.8034
 20
-1167988.4207
 10
-598321.7096
 20
-1167995.4349
 10
-598347.0712
 20
-1168010.1168
 10
-598360.8997
 20
-1168019.5876
 10
-598365.5878
 20
-1168022.9362
 10
-598369.8802
 20
-1168029.47
 10
-598374.6365
 20
-1168039.525
 10
-598376.1339
 20
-1168051.5045
 10
-598375.857
 20
-1168074.0587
 10
-598375.857
 20
-1168081.9053
 10
-598375.857
 20
-1168085.4442
 10
-598374.8648
 20
-1168089.0491
 10
-598374.1951
 20
-1168094.4069
 10
-598373.0788
 20
-1168101.5507
 10
-598371.0697
 20
-1168108.0247
 10
-598367.6755
 20
-1168120.6871
 10
-598362.343
 20
-1168132.048
 10
-598357.2287
 20
-1168147.7619
 10
-598354.1032
 20
-1168154.0126
 10
-598349.4151
 20
-1168160.2635
 10
-598345.1736
 20
-1168163.1656
 10
-598338.0782
 20
-1168165.4246
 10
-598337.7941
 20
-1168165.7443
 10
-598329.925
 20
-1168171.102
 10
-598325.0693
 20
-1168173.9485
 10
-598323.5515
 20
-1168174.4544
 10
-598322.132
 20
-1168175.3702
 10
-598318.0166
 20
-1168178.0253
 10
-598315.3266
 20
-1168179.5654
 10
-598310.7212
 20
-1168181.4161
 10
-598305.8692
 20
-1168182.4617
 10
-598300.9102
 20
-1168182.6725
 10
-598295.987
 20
-1168182.042
 10
-598291.241
 20
-1168180.5886
 10
-598288.2359
 20
-1168179.1781
 10
-598275.924
 20
-1168172.5748
 10
-598267.0039
 20
-1168166.0876
 10
-598260.5927
 20
-1168161.4248
 10
-598253.252
 20
-1168156.5905
 10
-598247.9897
 20
-1168153.757
 10
-598247.7158
 20
-1168153.6891
 10
-598241.8659
 20
-1168150.5458
 10
-598232.3658
 20
-1168147.6023
 10
-598224.7943
 20
-1168148.1071
 10
-598223.2027
 20
-1168148.2999
 10
-598219.8981
 20
-1168149.2891
 10
-598216.9108
 20
-1168151.0139
 10
-598214.5477
 20
-1168153.2098
 10
-598205.4078
 20
-1168165.3962
 10
-598196.2593
 20
-1168180.2625
 10
-598189.3839
 20
-1168191.4352
 10
-598182.516
 20
-1168202.5953
 10
-598182.0844
 20
-1168203.1904
 10
-598181.398
 20
-1168204.5011
 10
-598179.0055
 20
-1168209.0684
 10
-598170.3351
 20
-1168217.3777
 10
-598166.1775
 20
-1168221.362
 10
-598165.177
 20
-1168222.3207
 10
-598153.7401
 20
-1168234.4508
 10
-598145.42
 20
-1168243.2753
 10
-598140.2581
 20
-1168244.6923
 10
-598126.2606
 20
-1168250.778
 10
-598108.7702
 20
-1168258.3826
 10
-598093.7107
 20
-1168257.47
 10
-598091.7466
 20
-1168258.0092
 10
-598072.7412
 20
-1168256.199
 10
-598063.5587
 20
-1168255.6425
 10
-598056.9919
 20
-1168254.4859
 10
-598051.2276
 20
-1168252.3623
 10
-598042.2829
 20
-1168250.6421
 10
-598024.2805
 20
-1168241.2497
 10
-598006.8443
 20
-1168230.0254
 10
-597986.0385
 20
-1168215.2302
 10
-597966.5063
 20
-1168201.2576
 10
-597951.4609
 20
-1168190.2631
 10
-597940.5182
 20
-1168184.2047
 10
-597917.7151
 20
-1168181.6357
 10
-597914.9402
 20
-1168190.6544
 10
-597918.0744
 20
-1168199.6092
 10
-597930.5988
 20
-1168216.3362
 10
-597952.5683
 20
-1168233.3093
 10
-597964.5659
 20
-1168240.7658
 10
-597971.8598
 20
-1168250.9773
 10
-597978.6174
 20
-1168260.438
 10
-597980.0488
 20
-1168262.6616
 10
-597982.0651
 20
-1168266.9857
 10
-597983.3001
 20
-1168271.5944
 10
-597983.7158
 20
-1168276.3474
 10
-597983.7124
 20
-1168276.7829
 10
-597983.6204
 20
-1168279.3713
 10
-597982.9752
 20
-1168285.6291
 10
-597982.7903
 20
-1168288.0847
 10
-597983.0393
 20
-1168290.9312
 10
-597983.7788
 20
-1168293.6912
 10
-597984.9864
 20
-1168296.2808
 10
-597986.6253
 20
-1168298.6214
 10
-597987.1302
 20
-1168299.1954
 10
-597989.7241
 20
-1168302.0361
 10
-597995.1572
 20
-1168308.1667
 10
-597997.3048
 20
-1168310.9646
 10
-597999.724
 20
-1168315.295
 10
-598001.3765
 20
-1168319.972
 10
-598002.2147
 20
-1168324.861
 10
-598002.2274
 20
-1168325.0147
 10
-598002.5296
 20
-1168327.5984
 10
-598003.7626
 20
-1168332.8675
 10
-598005.7855
 20
-1168337.8865
 10
-598008.5508
 20
-1168342.538
 10
-598009.3596
 20
-1168343.6418
 10
-598025.4442
 20
-1168365.3559
 10
-598050.0823
 20
-1168405.9365
 10
-598053.9054
 20
-1168412.2333
 10
-598057.6698
 20
-1168418.4333
 10
-598061.2264
 20
-1168424.2913
 10
-598066.3262
 20
-1168440.4408
 10
-598070.109
 20
-1168452.4198
 10
-598071.3517
 20
-1168455.9163
 10
-598074.1424
 20
-1168461.8471
 10
-598077.6544
 20
-1168467.3813
 10
-598081.8325
 20
-1168472.4315
 10
-598085.844
 20
-1168476.2717
 10
-598099.6023
 20
-1168490.0302
 10
-598102.9121
 20
-1168493.7925
 10
-598106.0712
 20
-1168498.5676
 10
-598108.5016
 20
-1168503.7518
 10
-598110.1511
 20
-1168509.2347
 10
-598110.6901
 20
-1168512.1808
 10
-598111.2075
 20
-1168546.6965
 10
-598111.6188
 20
-1168551.1343
 10
-598112.8504
 20
-1168555.8641
 10
-598114.8635
 20
-1168560.3176
 10
-598117.6002
 20
-1168564.3669
 10
-598118.2188
 20
-1168565.1072
 10
-598158.0849
 20
-1168603.5909
 10
-598166.886
 20
-1168612.7178
 10
-598171.8344
 20
-1168617.8493
 10
-598171.9534
 20
-1168617.9816
 10
-598172.2111
 20
-1168618.3496
 10
-598172.401
 20
-1168618.7568
 10
-598172.5172
 20
-1168619.1909
 10
-598172.5565
 20
-1168619.6385
 10
-598172.5172
 20
-1168620.0859
 10
-598172.401
 20
-1168620.52
 10
-598172.2111
 20
-1168620.9271
 10
-598171.9534
 20
-1168621.2953
 10
-598171.6357
 20
-1168621.613
 10
-598171.2677
 20
-1168621.8706
 10
-598170.8605
 20
-1168622.0604
 10
-598170.4265
 20
-1168622.1768
 10
-598169.979
 20
-1168622.216
 10
-598169.9026
 20
-1168622.2148
 10
-598169.5313
 20
-1168622.1768
 10
-598169.0973
 20
-1168622.0604
 10
-598168.6901
 20
-1168621.8706
 10
-598168.4378
 20
-1168621.7044
 10
-598158.4667
 20
-1168618.6023
 10
-598129.0468
 20
-1168609.4495
 10
-598080.6269
 20
-1168583.6184
 10
-598077.3023
 20
-1168581.813
 10
-598064.9749
 20
-1168574.5413
 10
-598053.0747
 20
-1168566.5898
 10
-598041.639
 20
-1168557.9836
 10
-598030.7039
 20
-1168548.7496
 10
-598020.3037
 20
-1168538.9172
 10
-598010.4713
 20
-1168528.5171
 10
-598008.66
 20
-1168526.4681
 10
-598001.6587
 20
-1168518.2556
 10
-597990.1407
 20
-1168503.7665
 10
-597979.2611
 20
-1168488.7919
 10
-597969.0403
 20
-1168473.3602
 10
-597959.4976
 20
-1168457.5002
 10
-597950.6511
 20
-1168441.2419
 10
-597942.5171
 20
-1168424.6154
 10
-597937.2224
 20
-1168412.6972
 10
-597932.5904
 20
-1168402.2911
 10
-597898.5932
 20
-1168325.9137
 10
-597918.1724
 20
-1168313.2137
 10
-597928.2266
 20
-1168303.6885
 10
-597938.2807
 20
-1168295.751
 10
-597930.5781
 20
-1168291.5114
 10
-597924.187
 20
-1168290.7925
 10
-597917.7812
 20
-1168297.9099
 10
-597910.0129
 20
-1168301.0172
 10
-597904.9845
 20
-1168303.0287
 10
-597902.5693
 20
-1168303.8208
 10
-597898.5685
 20
-1168304.4337
 10
-597894.5265
 20
-1168304.2286
 10
-597890.6082
 20
-1168303.2141
 10
-597890.1264
 20
-1168303.0287
 10
-597882.1659
 20
-1168290.3036
 10
-597863.694
 20
-1168250.9108
 10
-597851.4886
 20
-1168225.4828
 10
-597845.7617
 20
-1168213.5516
 10
-597836.7954
 20
-1168209.0684
 10
-597832.583
 20
-1168218.0949
 10
-597834.5375
 20
-1168225.6334
 10
-597848.6187
 20
-1168270.4867
 10
-597859.0559
 20
-1168300.1046
 10
-597859.5948
 20
-1168301.8217
 10
-597860.4235
 20
-1168306.3883
 10
-597860.4235
 20
-1168311.0294
 10
-597859.5948
 20
-1168315.5959
 10
-597857.9639
 20
-1168319.9412
 10
-597855.8781
 20
-1168323.5112
 10
-597844.2666
 20
-1168336.4889
 10
-597841.0005
 20
-1168340.1393
 10
-597857.6017
 20
-1168336.4502
 10
-597861.3625
 20
-1168335.9466
 10
-597865.5796
 20
-1168336.1473
 10
-597869.6826
 20
-1168337.1428
 10
-597873.523
 20
-1168338.8967
 10
-597876.9622
 20
-1168341.3456
 10
-597879.8756
 20
-1168344.4012
 10
-597882.1582
 20
-1168347.953
 10
-597883.2299
 20
-1168350.3768
 10
-597898.1536
 20
-1168378.4686
 10
-597915.9318
 20
-1168415.6503
 10
-597916.0362
 20
-1168415.6405
 10
-597917.504
 20
-1168418.8699
 10
-597918.1384
 20
-1168420.2653
 10
-597924.1796
 20
-1168433.5561
 10
-597950.0396
 20
-1168476.6562
 10
-597955.0501
 20
-1168484.7614
 10
-597964.5135
 20
-1168498.8796
 10
-597974.6333
 20
-1168512.5348
 10
-597985.3866
 20
-1168525.697
 10
-597996.7494
 20
-1168538.3368
 10
-598008.6963
 20
-1168550.4257
 10
-598021.2009
 20
-1168561.937
 10
-598034.2353
 20
-1168572.8449
 10
-598047.7701
 20
-1168583.1253
 10
-598061.7753
 20
-1168592.7548
 10
-598076.2197
 20
-1168601.7122
 10
-598091.071
 20
-1168609.9776
 10
-598106.296
 20
-1168617.5324
 10
-598121.8608
 20
-1168624.3598
 10
-598137.7306
 20
-1168630.4445
 10
-598153.8701
 20
-1168635.7728
 10
-598170.2433
 20
-1168640.3333
 10
-598186.8135
 20
-1168644.1152
 10
-598203.5439
 20
-1168647.1105
 10
-598220.3969
 20
-1168649.3125
 10
-598231.1543
 20
-1168650.2971
 10
-598237.0457
 20
-1168650.9451
 10
-598245.372
 20
-1168652.5499
 10
-598253.5079
 20
-1168654.9388
 10
-598261.3801
 20
-1168658.0904
 10
-598268.917
 20
-1168661.9758
 10
-598276.0503
 20
-1168666.5602
 10
-598282.7157
 20
-1168671.8019
 10
-598288.8526
 20
-1168677.6534
 10
-598294.4055
 20
-1168684.0618
 10
-598299.324
 20
-1168690.9689
 10
-598303.5639
 20
-1168698.3124
 10
-598307.0864
 20
-1168706.0256
 10
-598309.8597
 20
-1168714.0388
 10
-598310.4592
 20
-1168716.1786
 10
-598310.9628
 20
-1168717.9912
 10
-598313.7124
 20
-1168726.0652
 10
-598317.206
 20
-1168733.8465
 10
-598321.4127
 20
-1168741.2662
 10
-598326.2959
 20
-1168748.2596
 10
-598331.8124
 20
-1168754.7648
 10
-598337.9139
 20
-1168760.7249
 10
-598344.5468
 20
-1168766.0874
 10
-598351.6526
 20
-1168770.8053
 10
-598353.5965
 20
-1168771.9361
 10
-598354.3587
 20
-1168772.3716
 10
-598361.7658
 20
-1168777.1103
 10
-598368.7115
 20
-1168782.5028
 10
-598375.1378
 20
-1168788.5046
 10
-598380.9918
 20
-1168795.066
 10
-598386.2249
 20
-1168802.1326
 10
-598390.7939
 20
-1168809.6458
 10
-598392.3614
 20
-1168812.632
 10
-598409.7902
 20
-1168837.4708
 10
-598409.641
 20
-1168837.4726
 10
-598411.6624
 20
-1168841.0915
 10
-598413.2588
 20
-1168845.6095
 10
-598414.0686
 20
-1168850.3322
 10
-598414.0686
 20
-1168855.1238
 10
-598413.7139
 20
-1168857.7858
 10
-598421.7028
 20
-1168912.8616
 10
-598424.9817
 20
-1168941.3027
 10
-598425.1037
 20
-1168942.2682
 10
-598426.343
 20
-1168948.2324
 10
-598428.383
 20
-1168953.9722
 10
-598431.1855
 20
-1168959.3806
 10
-598434.6983
 20
-1168964.3572
 10
-598438.856
 20
-1168968.8091
 10
-598441.5688
 20
-1168971.1461
 10
-598476.1792
 20
-1168993.6429
 10
-598535.9227
 20
-1169027.1493
 10
-598537.4684
 20
-1169027.9986
 10
-598545.6418
 20
-1169031.9345
 10
-598554.135
 20
-1169035.1221
 10
-598561.1112
 20
-1169037.1151
 10
-598565.8771
 20
-1169038.394
 10
-598575.4069
 20
-1169041.5755
 10
-598584.6495
 20
-1169045.5135
 10
-598593.5454
 20
-1169050.1823
 10
-598602.0369
 20
-1169055.552
 10
-598610.0685
 20
-1169061.5873
 10
-598612.4405
 20
-1169063.5735
 10
-598612.6323
 20
-1169063.7384
 10
-598626.5486
 20
-1169076.2326
 10
-598639.9145
 20
-1169089.314
 10
-598652.7054
 20
-1169102.9583
 10
-598664.8974
 20
-1169117.1403
 10
-598676.4687
 20
-1169131.8349
 10
-598705.7799
 20
-1169158.7279
 10
-598741.169
 20
-1169178.9502
 10
-598748.7664
 20
-1169183.2917
 10
-598753.0397
 20
-1169185.9675
 10
-598758.6966
 20
-1169190.3296
 10
-598763.8192
 20
-1169195.308
 10
-598768.341
 20
-1169200.8379
 10
-598772.2029
 20
-1169206.8472
 10
-598775.1465
 20
-1169212.7706
 10
-598805.2468
 20
-1169238.3944
 10
-598814.9306
 20
-1169253.6118
 10
-598817.872
 20
-1169258.2343
 10
-598836.8076
 20
-1169275.7698
 10
-598839.6588
 20
-1169278.5494
 10
-598844.9413
 20
-1169284.5599
 10
-598849.5778
 20
-1169291.0815
 10
-598853.5192
 20
-1169298.0455
 10
-598856.7235
 20
-1169305.3778
 10
-598859.157
 20
-1169313.0006
 10
-598860.7939
 20
-1169320.8334
 10
-598861.1493
 20
-1169323.3948
 10
-598866.6882
 20
-1169357.562
 10
-598874.1251
 20
-1169388.5493
 10
-598885.1457
 20
-1169417.4781
 10
-598886.908
 20
-1169439.5079
 10
-598901.6765
 20
-1169516.6631
 10
-598909.3035
 20
-1169569.987
 10
-598909.8326
 20
-1169606.4995
 10
-598910.2318
 20
-1169612.8906
 10
-598911.4451
 20
-1169620.1619
 10
-598913.4511
 20
-1169627.2557
 10
-598913.8007
 20
-1169628.2487
 10
-598917.4118
 20
-1169644.5505
 10
-598917.8705
 20
-1169644.5439
 10
-598919.5254
 20
-1169653.8113
 10
-598919.7838
 20
-1169655.2581
 10
-598922.3401
 20
-1169669.5732
 10
-598927.0353
 20
-1169684.9399
 10
-598931.0489
 20
-1169698.0745
 10
-598935.1073
 20
-1169711.3571
 10
-598935.1098
 20
-1169711.8223
 10
-598935.2305
 20
-1169711.7605
 10
-598940.4412
 20
-1169725.9686
 10
-598957.5545
 20
-1169765.1294
 10
-598982.953
 20
-1169832.1262
 10
-598935.7653
 20
-1169832.4417
 10
-598394.4352
 20
-1169836.6436
 10
-598386.9843
 20
-1169836.7015
 10
-598386.9838
 20
-1169836.5974
 10
-598145.1852
 20
-1169835.1001
 10
-598042.5267
 20
-1169831.3958
 10
-598017.1266
 20
-1169831.3958
 10
-597983.2599
 20
-1169829.2791
 10
-597968.8875
 20
-1169829.8819
 10
-597969.0707
 20
-1169830.4938
 10
-597978.1817
 20
-1169870.5258
 10
-597979.4645
 20
-1169890.7093
 10
-597978.6526
 20
-1169916.7339
 10
-597971.965
 20
-1169955.1197
 10
-597956.8984
 20
-1170014.7944
 10
-597947.3459
 20
-1170042.491
 10
-597936.2733
 20
-1170081.5317
 10
-597922.2483
 20
-1170130.4474
 10
-597918.1472
 20
-1170144.7728
 10
-597914.0256
 20
-1170159.1693
 10
-597896.6673
 20
-1170225.2443
 10
-597882.6338
 20
-1170279.3619
 10
-597872.726
 20
-1170325.7604
 10
-597862.4169
 20
-1170366.4859
 10
-597853.5182
 20
-1170407.5471
 10
-597847.0392
 20
-1170441.8915
 10
-597811.3269
 20
-1170444.6219
 10
-597813.4289
 20
-1170408.0909
 10
-597829.0803
 20
-1170359.5649
 10
-597858.3614
 20
-1170268.2167
 10
-597878.1292
 20
-1170205.8632
 10
-597888.8299
 20
-1170172.394
 10
-597892.403
 20
-1170161.2181
 10
-597897.6995
 20
-1170143.9369
 10
-597913.7281
 20
-1170091.6415
 10
-597926.549
 20
-1170049.739
 10
-597935.2449
 20
-1170028.719
 10
-597942.564
 20
-1170000.741
 10
-597949.7408
 20
-1169968.5997
 10
-597956.4254
 20
-1169920.5071
 10
-597957.0655
 20
-1169898.158
 10
-597953.9409
 20
-1169866.9379
 10
-597946.2154
 20
-1169830.8325
 10
-597935.6827
 20
-1169831.2743
 10
-597929.8983
 20
-1169809.4217
 10
-597922.0388
 20
-1169787.2988
 10
-597914.1977
 20
-1169765.2275
 10
-597907.1285
 20
-1169747.4424
 10
-597895.924
 20
-1169724.2034
 10
-597886.5034
 20
-1169705.2883
 10
-597877.5463
 20
-1169684.866
 10
-597865.7195
 20
-1169656.5943
 10
-597860.1367
 20
-1169641.8882
 10
-597859.4588
 20
-1169640.1024
 10
-597857.3697
 20
-1169634.5994
 10
-597853.1914
 20
-1169623.5934
 10
-597835.0244
 20
-1169576.7592
 10
-597821.4572
 20
-1169544.3637
 10
-597808.1702
 20
-1169512.6378
 10
-597784.5028
 20
-1169458.9489
 10
-597767.4973
 20
-1169420.9368
 10
-597749.467
 20
-1169376.9144
 10
-597741.7939
 20
-1169357.971
 10
-597730.0552
 20
-1169333.5549
 10
-597723.3521
 20
-1169319.6124
 10
-597718.5551
 20
-1169302.1688
 10
-597705.5434
 20
-1169253.5197
 10
-597699.5226
 20
-1169228.2798
 10
-597699.4049
 20
-1169228.2854
 10
-597698.9677
 20
-1169225.9529
 10
-597698.4705
 20
-1169223.3012
 10
-597695.559
 20
-1169207.7736
 10
-597693.1688
 20
-1169195.0257
 10
-597688.1814
 20
-1169166.04
 10
-597671.3602
 20
-1169044.8907
 10
-597671.3524
 20
-1169044.8387
 10
-597647.3471
 20
-1168895.5509
 10
-597627.1726
 20
-1168756.8271
 10
-597623.6626
 20
-1168735.8505
 10
-597618.537
 20
-1168705.2206
 10
-597617.3849
 20
-1168698.3343
 10
-597605.9276
 20
-1168629.8636
 10
-597597.9699
 20
-1168580.457
 10
-597591.4452
 20
-1168535.0103
 10
-597583.0946
 20
-1168476.8428
 10
-597579.2101
 20
-1168449.7863
 10
-597577.0804
 20
-1168434.9518
 10
-597575.2646
 20
-1168422.3025
 10
-597573.823
 20
-1168413.749
 10
-597572.0034
 20
-1168402.9528
 10
-597563.6034
 20
-1168353.1134
 10
-597559.2985
 20
-1168327.571
 10
-597552.1577
 20
-1168285.2025
 10
-597551.1377
 20
-1168279.1494
 10
-597546.4307
 20
-1168248.7202
 10
-597541.3101
 20
-1168214.5831
 10
-597538.83
 20
-1168198.0482
 10
-597531.6163
 20
-1168149.9574
 10
-597529.0283
 20
-1168132.7043
 10
-597527.6136
 20
-1168123.2726
 10
-597526.9753
 20
-1168119.018
 10
-597526.1143
 20
-1168113.2779
 10
-597525.1848
 20
-1168107.0804
 10
-597519.3611
 20
-1168068.7899
 10
-597513.202
 20
-1168029.0354
 10
-597507.9456
 20
-1167995.1085
 10
-597498.1886
 20
-1167932.1314
 10
-597494.3448
 20
-1167907.3219
 10
-597540.0462
 20
-1167934.8911
 10
-597537.3887
 20
-1167884.5291
 10
-597487.9824
 20
-1167859.629
 10
-597486.0384
 20
-1167846.1711
 10
-597484.5764
 20
-1167836.0497
 10
-597481.5094
 20
-1167814.8165
 10
-597475.8324
 20
-1167775.5139
 10
-597472.1525
 20
-1167750.0378
 10
-597463.6934
 20
-1167691.4754
 10
-597458.8217
 20
-1167657.748
 10
-597453.1504
 20
-1167619.78
 10
-597448.6148
 20
-1167591.6748
 10
-597445.871
 20
-1167574.6718
 10
-597445.121
 20
-1167570.0247
 10
-597444.0866
 20
-1167563.6138
 10
-597440.8809
 20
-1167543.7494
 10
-597437.915
 20
-1167525.3712
 10
-597434.9134
 20
-1167506.771
 10
-597431.3015
 20
-1167484.3887
 10
-597428.0672
 20
-1167464.3467
 10
-597424.0739
 20
-1167439.6025
 10
-597421.1368
 20
-1167421.4015
 10
-597420.1408
 20
-1167415.2297
 10
-597416.016
 20
-1167389.6696
 10
-597409.7141
 20
-1167350.6173
 10
-597405.1499
 20
-1167322.3345
 10
-597402.1495
 20
-1167299.2736
 10
-597401.6947
 20
-1167294.5945
 10
-597399.5727
 20
-1167272.7686
 10
-597382.1414
 20
-1167186.8549
 10
-597382.0708
 20
-1167186.8552
 10
-597381.9149
 20
-1167185.7344
 10
-597379.3584
 20
-1167167.4346
 10
-597379.3793
 20
-1167167.4132
 10
-597355.0717
 20
-1166991.8157
 10
-597339.792
 20
-1166865.4108
 10
-597337.6753
 20
-1166850.0648
 10
-597331.7152
 20
-1166835.0442
 10
-597307.7061
 20
-1166781.2994
 10
-597276.0424
 20
-1166710.4196
 10
-597250.9689
 20
-1166654.7664
 10
-597233.4872
 20
-1166616.8007
 10
-597226.5144
 20
-1166601.658
 10
-597226.144
 20
-1166600.8539
 10
-597191.1952
 20
-1166524.9546
 10
-597170.2303
 20
-1166479.7144
 10
-597154.714
 20
-1166439.8318
 10
-597143.0699
 20
-1166415.2673
 10
-597126.4639
 20
-1166381.0173
 10
-597114.3665
 20
-1166368.5222
 10
-597097.9623
 20
-1166361.1138
 10
-597077.3248
 20
-1166358.9973
 10
-597049.279
 20
-1166358.468
 10
-597052.7651
 20
-1166339.3373
 10
-597054.3041
 20
-1166325.1016
 10
-597068.4016
 20
-1166246.2237
 10
-597081.1015
 20
-1166152.1641
 10
-597082.374
 20
-1166123.0294
 10
-597088.7913
 20
-1166090.0261
 10
-597088.3236
 20
-1166068.9806
 10
-597087.9007
 20
-1166049.9517
 10
-597088.2982
 20
-1166035.2559
 10
-597088.9334
 20
-1166026.8372
 10
-597089.425
 20
-1166020.3246
 10
-597089.7278
 20
-1166016.3137
 10
-597090.9828
 20
-1165999.6848
 10
-597091.6374
 20
-1165980.5629
 10
-597092.6707
 20
-1165925.6089
 10
-597104.2683
 20
-1165878.8397
 10
-597120.9919
 20
-1165863.2733
 10
-597149.5203
 20
-1165847.7881
 10
-597154.1444
 20
-1165845.4041
 10
-597159.7568
 20
-1165841.6851
 10
-597164.8697
 20
-1165837.3046
 10
-597169.4057
 20
-1165832.329
 10
-597173.2957
 20
-1165826.8336
 10
-597176.481
 20
-1165820.9019
 10
-597178.9132
 20
-1165814.6237
 10
-597179.9834
 20
-1165810.7795
 10
-597197.975
 20
-1165735.6377
 10
-597197.9761
 20
-1165735.3529
 10
-597197.5686
 20
-1165729.9142
 10
-597196.355
 20
-1165724.5972
 10
-597194.3625
 20
-1165719.5203
 10
-597191.6356
 20
-1165714.7972
 10
-597188.45
 20
-1165710.7668
 10
-597169.9779
 20
-1165690.5077
 10
-597169.1524
 20
-1165689.2331
 10
-597168.0575
 20
-1165686.8854
 10
-597167.3871
 20
-1165684.3829
 10
-597167.1613
 20
-1165681.8022
 10
-597167.3871
 20
-1165679.2217
 10
-597168.0575
 20
-1165676.7194
 10
-597169.1524
 20
-1165674.3715
 10
-597170.6382
 20
-1165672.2495
 10
-597172.4701
 20
-1165670.4178
 10
-597174.5921
 20
-1165668.9318
 10
-597176.9399
 20
-1165667.8371
 10
-597179.4422
 20
-1165667.1666
 10
-597181.4041
 20
-1165666.9536
 10
-597196.3
 20
-1165666.3329
 10
-597199.4357
 20
-1165666.5106
 10
-597199.8524
 20
-1165666.5076
 10
-597204.255
 20
-1165666.0891
 10
-597208.9277
 20
-1165664.837
 10
-597213.3122
 20
-1165662.7925
 10
-597217.2749
 20
-1165660.0176
 10
-597220.6957
 20
-1165656.597
 10
-597223.4705
 20
-1165652.6342
 10
-597225.515
 20
-1165648.2498
 10
-597225.7645
 20
-1165647.5339
 10
-597228.2515
 20
-1165640.0726
 10
-597233.6996
 20
-1165619.6583
 10
-597234.7923
 20
-1165610.2603
 10
-597238.2348
 20
-1165580.6553
 10
-597236.7382
 20
-1165573.66
 10
-597234.3415
 20
-1165566.1525
 10
-597231.1856
 20
-1165558.9312
 10
-597227.304
 20
-1165552.0726
 10
-597222.7376
 20
-1165545.6494
 10
-597222.6901
 20
-1165545.5895
 10
-597211.3365
 20
-1165531.274
 10
-597192.1485
 20
-1165512.9738
 10
-597189.9614
 20
-1165511.2073
 10
-597185.8607
 20
-1165507.1066
 10
-597182.3855
 20
-1165502.4641
 10
-597179.6061
 20
-1165497.3741
 10
-597177.5794
 20
-1165491.9406
 10
-597176.3468
 20
-1165486.2737
 10
-597175.9333
 20
-1165480.6409
 10
-597175.9332
 20
-1165480.5963
 10
-597176.1149
 20
-1165478.5193
 10
-597176.6546
 20
-1165476.5055
 10
-597177.5357
 20
-1165474.6159
 10
-597178.7316
 20
-1165472.908
 10
-597180.2057
 20
-1165471.4337
 10
-597181.9137
 20
-1165470.2379
 10
-597183.8033
 20
-1165469.3566
 10
-597185.8171
 20
-1165468.8171
 10
-597187.8941
 20
-1165468.6353
 10
-597189.9712
 20
-1165468.8171
 10
-597191.9851
 20
-1165469.3566
 10
-597193.8745
 20
-1165470.2379
 10
-597195.0166
 20
-1165470.9872
 10
-597196.8666
 20
-1165472.385
 10
-597200.7841
 20
-1165475.6573
 10
-597204.604
 20
-1165478.8484
 10
-597213.7582
 20
-1165482.6062
 10
-597231.7821
 20
-1165489.4853
 10
-597234.8846
 20
-1165490.3513
 10
-597239.0291
 20
-1165490.7596
 10
-597239.2482
 20
-1165490.7584
 10
-597243.1738
 20
-1165490.3513
 10
-597247.1591
 20
-1165489.1424
 10
-597250.8319
 20
-1165487.1793
 10
-597254.0512
 20
-1165484.5373
 10
-597256.6932
 20
-1165481.318
 10
-597258.6565
 20
-1165477.6451
 10
-597259.8654
 20
-1165473.6598
 10
-597260.0788
 20
-1165472.3857
 10
-597260.9958
 20
-1165465.6608
 10
-597261.3879
 20
-1165443.0402
 10
-597261.4539
 20
-1165442.5177
 10
-597261.8637
 20
-1165435.7422
 10
-597261.4539
 20
-1165428.9668
 10
-597260.2304
 20
-1165422.2902
 10
-597258.211
 20
-1165415.8097
 10
-597257.8806
 20
-1165414.9595
 10
-597255.5981
 20
-1165408.8972
 10
-597253.3171
 20
-1165402.0299
 10
-597251.0637
 20
-1165395.2454
 10
-597248.8087
 20
-1165389.2562
 10
-597248.1649
 20
-1165387.5657
 10
-597246.1302
 20
-1165380.7697
 10
-597244.8983
 20
-1165373.7833
 10
-597244.4859
 20
-1165366.7011
 10
-597244.8983
 20
-1165359.6191
 10
-597245.6211
 20
-1165354.9877
 10
-597247.039
 20
-1165347.741
 10
-597248.1314
 20
-1165342.1569
 10
-597248.3412
 20
-1165341.0847
 10
-597248.9608
 20
-1165337.2397
 10
-597249.6903
 20
-1165334.1898
 10
-597250.8138
 20
-1165330.1216
 10
-597254.4176
 20
-1165319.162
 10
-597258.7854
 20
-1165308.4841
 10
-597263.8957
 20
-1165298.1409
 10
-597267.0275
 20
-1165292.59
 10
-597291.3089
 20
-1165245.6827
 10
-597291.6906
 20
-1165244.9588
 10
-597295.1953
 20
-1165239.2983
 10
-597299.3692
 20
-1165234.1115
 10
-597304.1488
 20
-1165229.477
 10
-597304.5371
 20
-1165229.1474
 10
-597305.332
 20
-1165226.4647
 10
-597358.7182
 20
-1165240.9435
 10
-597356.9466
 20
-1165251.9286
 10
-597342.4379
 20
-1165298.016
 10
-597339.7576
 20
-1165323.6006
 10
-597336.9507
 20
-1165335.9512
 10
-597336.7904
 20
-1165336.7465
 10
-597336.5385
 20
-1165339.6248
 10
-597336.7904
 20
-1165342.5031
 10
-597337.5382
 20
-1165345.2939
 10
-597338.7591
 20
-1165347.9124
 10
-597340.4163
 20
-1165350.2792
 10
-597342.4593
 20
-1165352.3222
 10
-597344.8261
 20
-1165353.9795
 10
-597347.4447
 20
-1165355.2005
 10
-597350.2356
 20
-1165355.9482
 10
-597353.1138
 20
-1165356.2001
 10
-597355.9921
 20
-1165355.9482
 10
-597358.783
 20
-1165355.2005
 10
-597361.4015
 20
-1165353.9795
 10
-597363.7682
 20
-1165352.3222
 10
-597365.5296
 20
-1165350.606
 10
-597367.7736
 20
-1165347.7101
 10
-597370.1099
 20
-1165343.5281
 10
-597370.8396
 20
-1165341.7562
 10
-597372.0647
 20
-1165338.2672
 10
-597373.8184
 20
-1165332.323
 10
-597374.0913
 20
-1165331.4473
 10
-597374.8106
 20
-1165329.9048
 10
-597375.7869
 20
-1165328.5106
 10
-597376.9902
 20
-1165327.3071
 10
-597378.3844
 20
-1165326.331
 10
-597379.9268
 20
-1165325.6118
 10
-597381.5708
 20
-1165325.1713
 10
-597383.2663
 20
-1165325.0229
 10
-597384.9617
 20
-1165325.1713
 10
-597385.5412
 20
-1165325.2917
 10
-597386.6806
 20
-1165325.5845
 10
-597391.8136
 20
-1165327.4281
 10
-597396.6048
 20
-1165330.0334
 10
-597400.9422
 20
-1165333.3397
 10
-597402.8214
 20
-1165335.1421
 10
-597437.3176
 20
-1165369.2948
 10
-597438.0404
 20
-1165370.0795
 10
-597439.1969
 20
-1165371.7312
 10
-597440.0489
 20
-1165373.5586
 10
-597440.5708
 20
-1165375.506
 10
-597440.7466
 20
-1165377.5146
 10
-597440.5708
 20
-1165379.5233
 10
-597440.0489
 20
-1165381.4708
 10
-597439.1969
 20
-1165383.2981
 10
-597438.0404
 20
-1165384.9496
 10
-597436.6147
 20
-1165386.3755
 10
-597435.264
 20
-1165387.3519
 10
-597434.2058
 20
-1165388.1171
 10
-597433.0891
 20
-1165389.2339
 10
-597432.183
 20
-1165390.528
 10
-597431.5153
 20
-1165391.9596
 10
-597431.1067
 20
-1165393.4852
 10
-597430.969
 20
-1165395.0589
 10
-597431.1067
 20
-1165396.6325
 10
-597431.5153
 20
-1165398.1581
 10
-597432.183
 20
-1165399.5898
 10
-597432.9322
 20
-1165400.6916
 10
-597448.6235
 20
-1165405.0203
 10
-597471.5548
 20
-1165409.111
 10
-597524.4243
 20
-1165409.8961
 10
-597588.4805
 20
-1165412.17
 10
-597606.5814
 20
-1165416.4778
 10
-597629.7346
 20
-1165417.5303
 10
-597654.7598
 20
-1165418.3375
 10
-597663.7301
 20
-1165422.6941
 10
-597663.545
 20
-1165422.139
 10
-597677.8675
 20
-1165415.6144
 10
-597678.3553
 20
-1165413.3643
 10
-597680.8142
 20
-1165411.7733
 10
-597684.1409
 20
-1165411.6287
 10
-597688.0464
 20
-1165412.0626
 10
-597693.549
 20
-1165412.119
 10
-597699.4626
 20
-1165408.9666
 10
-597712.4904
 20
-1165402.8056
 10
-597715.7404
 20
-1165400.278
 10
-597719.2798
 20
-1165396.8453
 10
-597722.5825
 20
-1165392.3512
 10
-597729.8506
 20
-1165382.1085
 10
-597734.4827
 20
-1165376.7667
 10
-597744.0601
 20
-1165367.3449
 10
-597751.7736
 20
-1165361.2983
 10
-597757.568
 20
-1165357.3693
 10
-597765.576
 20
-1165352.467
 10
-597781.6167
 20
-1165346.3856
 10
-597791.3359
 20
-1165343.254
 10
-597807.3131
 20
-1165338.1104
 10
-597817.7794
 20
-1165334.9179
 10
-597826.2193
 20
-1165333.1159
 10
-597833.6736
 20
-1165332.2732
 10
-597838.965
 20
-1165331.675
 10
-597844.7254
 20
-1165331.2126
 10
-597853.1911
 20
-1165331.2126
 10
-597861.6184
 20
-1165332.0173
 10
-597863.7727
 20
-1165332.3541
 10
-597877.8393
 20
-1165334.3329
 10
-597878.697
 20
-1165334.4281
 10
-597900.0647
 20
-1165336.5692
 10
-597907.663
 20
-1165337.2371
 10
-597909.5273
 20
-1165337.3779
 10
-597916.8542
 20
-1165337.6041
 10
-597918.6549
 20
-1165337.58
 10
-597927.7655
 20
-1165336.9744
 10
-597936.7869
 20
-1165335.566
 10
-597945.6485
 20
-1165333.3657
 10
-597948.3987
 20
-1165332.5103
 10
-597952.6693
 20
-1165330.7826
 10
-597956.1116
 20
-1165329.3902
 10
-597959.6373
 20
-1165327.9639
 10
-597970.8342
 20
-1165323.4343
 10
-597984.6699
 20
-1165318.0481
 10
-597997.9815
 20
-1165313.7361
 10
-598010.2238
 20
-1165310.5902
 10
-598023.6354
 20
-1165307.8083
 10
-598037.7787
 20
-1165305.209
 10
-598052.7369
 20
-1165300.401
 10
-598066.8826
 20
-1165293.2999
 10
-598071.9009
 20
-1165290.1669
 10
-598086.4619
 20
-1165286.4132
 10
-598105.5736
 20
-1165282.5367
 10
-598115.5465
 20
-1165280.5298
 10
-598128.041
 20
-1165277.4846
 10
-598140.9173
 20
-1165274.1458
 10
-598169.9666
 20
-1165264.6501
 10
-598184.8817
 20
-1165259.6213
 10
-598197.7755
 20
-1165254.0995
 10
-598208.9007
 20
-1165247.7997
 10
-598221.8313
 20
-1165238.1807
 10
-598232.2853
 20
-1165229.4566
 10
-598239.5669
 20
-1165223.5547
 10
-598244.1977
 20
-1165219.8013
 10
-598251.0764
 20
-1165213.1492
 10
-598262.0066
 20
-1165203.3834
 10
-598273.8181
 20
-1165192.0968
 10
-598280.135
 20
-1165184.751
 10
-598285.4951
 20
-1165176.7389
 10
-598291.7029
 20
-1165164.5102
 10
-598296.6469
 20
-1165154.8472
 10
-598302.2365
 20
-1165144.618
 10
-598310.1509
 20
-1165133.252
 10
-598314.5705
 20
-1165127.395
 10
-598324.295
 20
-1165115.4791
 10
-598334.7778
 20
-1165105.4957
 10
-598341.56
 20
-1165099.28
 10
-598347.0239
 20
-1165092.152
 10
-598355.043
 20
-1165087.8738
 10
-598377.0589
 20
-1165074.6429
 10
-598387.214
 20
-1165067.0352
 10
-598431.5238
 20
-1165041.2472
 10
-598463.9484
 20
-1165020.3481
 10
-598479.4901
 20
-1165011.521
 10
-598493.0838
 20
-1165004.6199
 10
-598499.2052
 20
-1165001.5123
 10
-598507.692
 20
-1164997.2039
 10
-598513.6049
 20
-1164993.854
 10
-598516.8101
 20
-1164993.2063
 10
-598522.8869
 20
-1164991.753
 10
-598530.02
 20
-1164989.778
 10
-598534.7981
 20
-1164986.545
 10
-598539.3883
 20
-1164981.6102
 10
-598547.0915
 20
-1164971.0631
 10
-598553.5356
 20
-1164961.4662
 10
-598559.0789
 20
-1164952.0121
 10
-598561.7381
 20
-1164946.5543
 10
-598570.5005
 20
-1164933.5699
 10
-598576.9037
 20
-1164918.8943
 10
-598582.5205
 20
-1164905.7846
 10
-598587.9892
 20
-1164892.9279
 10
-598588.517
 20
-1164887.1588
 10
-598593.9356
 20
-1164877.5228
 10
-598599.4059
 20
-1164866.8069
 10
-598601.942
 20
-1164861.9333
 10
-598608.6184
 20
-1164853.9494
 10
-598618.8078
 20
-1164845.787
 10
-598623.7598
 20
-1164843.4656
 10
-598631.719
 20
-1164837.931
 10
-598634.4489
 20
-1164836.865
 10
-598638.536
 20
-1164837.51
 10
-598652.4127
 20
-1164833.3111
 97
0
 92
2
 72
0
 73
1
 93
386
 10
-597604.4766
 20
-1166542.5662
 10
-597587.6378
 20
-1166533.0944
 10
-597560.061
 20
-1166523.7288
 10
-597538.9796
 20
-1166516.569
 10
-597522.3132
 20
-1166512.7366
 10
-597516.6174
 20
-1166511.8928
 10
-597515.961
 20
-1166511.7657
 10
-597510.4301
 20
-1166511.157
 10
-597504.8694
 20
-1166511.3602
 10
-597499.3976
 20
-1166512.3709
 10
-597494.1312
 20
-1166514.1675
 10
-597489.1826
 20
-1166516.7119
 10
-597484.6572
 20
-1166519.9496
 10
-597483.9394
 20
-1166520.5619
 10
-597478.3948
 20
-1166525.4134
 10
-597478.334
 20
-1166525.4633
 10
-597474.0544
 20
-1166528.4172
 10
-597469.3564
 20
-1166530.6465
 10
-597464.3618
 20
-1166532.0931
 10
-597459.796
 20
-1166532.6904
 10
-597447.6981
 20
-1166533.4021
 10
-597445.5311
 20
-1166533.9744
 10
-597440.0629
 20
-1166536.014
 10
-597434.9404
 20
-1166538.8109
 10
-597430.2683
 20
-1166542.3086
 10
-597426.1414
 20
-1166546.4354
 10
-597422.6439
 20
-1166551.1076
 10
-597419.847
 20
-1166556.23
 10
-597417.8072
 20
-1166561.6982
 10
-597416.5667
 20
-1166567.4011
 10
-597416.1503
 20
-1166573.2225
 10
-597416.5667
 20
-1166579.0439
 10
-597417.341
 20
-1166583.0195
 10
-597419.999
 20
-1166593.7947
 10
-597420.3307
 20
-1166595.1166
 10
-597423.6967
 20
-1166608.0198
 10
-597428.2215
 20
-1166620.1632
 10
-597429.4444
 20
-1166623.0757
 10
-597432.208
 20
-1166628.0001
 10
-597435.6593
 20
-1166632.4695
 10
-597439.7244
 20
-1166636.389
 10
-597444.317
 20
-1166639.6747
 10
-597449.3391
 20
-1166642.2568
 10
-597454.6834
 20
-1166644.08
 10
-597460.2364
 20
-1166645.1057
 10
-597462.6723
 20
-1166645.2961
 10
-597488.7534
 20
-1166651.1612
 10
-597492.2325
 20
-1166652.2639
 10
-597495.9163
 20
-1166654.233
 10
-597499.145
 20
-1166656.8827
 10
-597501.7949
 20
-1166660.1117
 10
-597503.7639
 20
-1166663.7953
 10
-597504.9764
 20
-1166667.7924
 10
-597505.0254
 20
-1166668.0469
 10
-597505.3094
 20
-1166670.0659
 10
-597505.3094
 20
-1166674.4229
 10
-597504.4847
 20
-1166678.7014
 10
-597502.8654
 20
-1166682.7464
 10
-597500.5096
 20
-1166686.4118
 10
-597497.5029
 20
-1166689.5652
 10
-597495.7782
 20
-1166690.9208
 10
-597481.0383
 20
-1166705.7401
 10
-597475.1859
 20
-1166711.1585
 10
-597468.7146
 20
-1166716.2154
 10
-597462.6783
 20
-1166726.4305
 10
-597453.4345
 20
-1166744.0046
 10
-597449.065
 20
-1166756.6758
 10
-597446.7201
 20
-1166763.4764
 10
-597443.9263
 20
-1166785.0339
 10
-597439.843
 20
-1166805.5625
 10
-597438.9734
 20
-1166809.1016
 10
-597436.9367
 20
-1166814.5623
 10
-597434.1435
 20
-1166819.6774
 10
-597432.9322
 20
-1166821.4573
 10
-597432.8008
 20
-1166821.6391
 10
-597428.7296
 20
-1166826.5602
 10
-597424.0737
 20
-1166830.9323
 10
-597418.9066
 20
-1166834.6865
 10
-597413.3098
 20
-1166837.7634
 10
-597407.3713
 20
-1166840.1147
 10
-597402.4121
 20
-1166841.4532
 10
-597378.2066
 20
-1166842.5056
 10
-597370.7961
 20
-1166849.8093
 10
-597371.1707
 20
-1166855.2731
 10
-597385.6313
 20
-1166863.9811
 10
-597391.4989
 20
-1166895.8566
 10
-597421.35
 20
-1167106.1159
 10
-597432.0012
 20
-1167178.189
 10
-597433.2562
 20
-1167186.6817
 10
-597442.2227
 20
-1167237.6375
 10
-597449.8847
 20
-1167293.4
 10
-597450.4687
 20
-1167297.6501
 10
-597450.8213
 20
-1167300.2164
 10
-597451.6778
 20
-1167306.4488
 10
-597463.9051
 20
-1167391.6301
 10
-597469.2104
 20
-1167427.1004
 10
-597472.1725
 20
-1167446.9044
 10
-597477.7515
 20
-1167484.2032
 10
-597478.4113
 20
-1167488.6155
 10
-597480.4936
 20
-1167502.5371
 10
-597483.0052
 20
-1167519.3282
 10
-597487.135
 20
-1167546.9385
 10
-597490.4018
 20
-1167568.3661
 10
-597491.3881
 20
-1167574.8347
 10
-597491.8167
 20
-1167577.6454
 10
-597492.8921
 20
-1167584.6984
 10
-597497.5613
 20
-1167615.3236
 10
-597506.3823
 20
-1167673.179
 10
-597518.8235
 20
-1167753.363
 10
-597528.1248
 20
-1167809.7902
 10
-597533.888
 20
-1167844.7538
 10
-597534.3683
 20
-1167847.6675
 10
-597535.6145
 20
-1167855.2271
 10
-597544.275
 20
-1167881.2256
 10
-597547.0532
 20
-1167897.4976
 10
-597546.6563
 20
-1167927.6602
 10
-597547.5271
 20
-1167940.7252
 10
-597580.4186
 20
-1168153.3843
 10
-597583.7673
 20
-1168174.3691
 10
-597605.645
 20
-1168302.2872
 10
-597608.7704
 20
-1168302.5103
 10
-597614.5748
 20
-1168298.9384
 10
-597640.6942
 20
-1168259.6478
 10
-597636.2293
 20
-1168256.2991
 10
-597621.2721
 20
-1168276.3909
 10
-597612.7888
 20
-1168290.4553
 10
-597609.6634
 20
-1168295.3667
 10
-597584.2675
 20
-1168129.0632
 10
-597564.1591
 20
-1168003.6505
 10
-597556.2216
 20
-1167954.9671
 10
-597559.7432
 20
-1167945.6497
 10
-597584.0751
 20
-1167961.0911
 10
-597645.5144
 20
-1168000.0814
 10
-597710.7709
 20
-1168047.5254
 10
-597713.2133
 20
-1168049.3681
 10
-597722.7146
 20
-1168057.1656
 10
-597731.6854
 20
-1168065.5678
 10
-597740.0877
 20
-1168074.5386
 10
-597747.8851
 20
-1168084.04
 10
-597755.0445
 20
-1168094.0308
 10
-597760.2346
 20
-1168102.2512
 10
-597787.3948
 20
-1168147.8416
 10
-597788.2711
 20
-1168149.1534
 10
-597790.6248
 20
-1168153.6379
 10
-597792.2287
 20
-1168158.4419
 10
-597793.041
 20
-1168163.4407
 10
-597793.041
 20
-1168168.5055
 10
-597792.4248
 20
-1168172.6583
 10
-597789.6549
 20
-1168185.4004
 10
-597788.151
 20
-1168192.3179
 10
-597791.1829
 20
-1168193.8987
 10
-597814.9604
 20
-1168187.4971
 10
-597823.3798
 20
-1168167.5011
 10
-597799.6425
 20
-1168124.5915
 10
-597773.916
 20
-1168079.0979
 10
-597778.1258
 20
-1168062.2592
 10
-597785.4926
 20
-1168058.0496
 10
-597792.8596
 20
-1168050.6826
 10
-597797.9577
 20
-1168042.5256
 10
-597791.3645
 20
-1168038.3216
 10
-597710.9198
 20
-1167992.5768
 10
-597673.4567
 20
-1167965.117
 10
-597641.575
 20
-1167944.4662
 10
-597594.4466
 20
-1167916.0041
 10
-597562.5812
 20
-1167898.2187
 10
-597552.908
 20
-1167892.8198
 10
-597542.8188
 20
-1167834.8072
 10
-597535.4894
 20
-1167788.6183
 10
-597535.4727
 20
-1167788.6183
 10
-597535.0814
 20
-1167786.0468
 10
-597535.0791
 20
-1167786.0324
 10
-597519.2462
 20
-1167681.9869
 10
-597506.8744
 20
-1167603.0109
 10
-597491.7992
 20
-1167503.1939
 10
-597491.1089
 20
-1167498.5158
 10
-597490.4775
 20
-1167494.2368
 10
-597478.3634
 20
-1167412.1295
 10
-597466.7527
 20
-1167333.4351
 10
-597455.4492
 20
-1167260.652
 10
-597449.5822
 20
-1167223.3678
 10
-597447.6324
 20
-1167209.6188
 10
-597445.6335
 20
-1167190.6005
 10
-597444.4328
 20
-1167171.5154
 10
-597444.0323
 20
-1167152.3968
 10
-597444.0381
 20
-1167150.103
 10
-597444.4497
 20
-1167144.4219
 10
-597445.6781
 20
-1167138.6426
 10
-597447.6989
 20
-1167133.0906
 10
-597450.4726
 20
-1167127.8738
 10
-597453.9454
 20
-1167123.0939
 10
-597458.0498
 20
-1167118.8438
 10
-597462.7056
 20
-1167115.2062
 10
-597467.8224
 20
-1167112.252
 10
-597473.3006
 20
-1167110.0388
 10
-597478.1864
 20
-1167108.7677
 10
-597483.2279
 20
-1167107.9446
 10
-597491.1592
 20
-1167107.3306
 10
-597499.1117
 20
-1167107.5356
 10
-597504.3978
 20
-1167108.1282
 10
-597505.6977
 20
-1167108.3081
 10
-597513.4593
 20
-1167108.9088
 10
-597516.0941
 20
-1167108.9309
 10
-597521.2414
 20
-1167108.7085
 10
-597528.9617
 20
-1167107.7089
 10
-597536.5385
 20
-1167105.9209
 10
-597543.891
 20
-1167103.3633
 10
-597549.3425
 20
-1167100.8904
 10
-597558.2987
 20
-1167096.1685
 10
-597570.6992
 20
-1167088.8537
 10
-597578.9759
 20
-1167083.4279
 10
-597581.9231
 20
-1167081.5343
 10
-597588.1387
 20
-1167078.2546
 10
-597594.6879
 20
-1167075.7046
 10
-597601.485
 20
-1167073.918
 10
-597608.4414
 20
-1167072.9179
 10
-597615.4666
 20
-1167072.7172
 10
-597622.4687
 20
-1167073.3185
 10
-597629.3567
 20
-1167074.7143
 10
-597636.0407
 20
-1167076.886
 10
-597642.4336
 20
-1167079.8055
 10
-597645.1218
 20
-1167081.3112
 10
-597653.8952
 20
-1167086.8278
 10
-597664.3011
 20
-1167094.2378
 10
-597674.216
 20
-1167102.2928
 10
-597675.0246
 20
-1167102.9973
 10
-597683.222
 20
-1167115.707
 10
-597698.0384
 20
-1167135.8155
 10
-597707.9363
 20
-1167150.3306
 10
-597719.7345
 20
-1167165.4489
 10
-597732.4344
 20
-1167183.4406
 10
-597737.7262
 20
-1167197.7281
 10
-597738.2553
 20
-1167212.0157
 10
-597738.2634
 20
-1167212.4549
 10
-597738.0832
 20
-1167214.5161
 10
-597737.5476
 20
-1167216.5146
 10
-597736.6732
 20
-1167218.3898
 10
-597735.4865
 20
-1167220.0847
 10
-597734.0235
 20
-1167221.5477
 10
-597732.3286
 20
-1167222.7345
 10
-597730.4533
 20
-1167223.6089
 10
-597730.3178
 20
-1167223.6573
 10
-597715.5011
 20
-1167230.5365
 10
-597710.6619
 20
-1167233.1986
 10
-597706.0378
 20
-1167236.6602
 10
-597701.9533
 20
-1167240.7447
 10
-597698.4917
 20
-1167245.3688
 10
-597695.7235
 20
-1167250.4385
 10
-597694.8963
 20
-1167252.3827
 10
-597693.9948
 20
-1167254.8041
 10
-597691.9693
 20
-1167261.8347
 10
-597690.7436
 20
-1167269.0478
 10
-597690.3335
 20
-1167276.3526
 10
-597690.7436
 20
-1167283.6575
 10
-597691.9693
 20
-1167290.8706
 10
-597693.9948
 20
-1167297.9011
 10
-597696.7946
 20
-1167304.6605
 10
-597699.626
 20
-1167309.9117
 10
-597705.5872
 20
-1167319.1929
 10
-597709.1512
 20
-1167324.1992
 10
-597709.2625
 20
-1167324.3514
 10
-597711.6007
 20
-1167328.2649
 10
-597713.2027
 20
-1167332.5331
 10
-597714.0167
 20
-1167337.0187
 10
-597714.0167
 20
-1167341.5775
 10
-597713.3845
 20
-1167345.3659
 10
-597712.8762
 20
-1167347.8603
 10
-597712.4632
 20
-1167352.9767
 10
-597712.8762
 20
-1167358.093
 10
-597714.1046
 20
-1167363.0768
 10
-597716.1165
 20
-1167367.799
 10
-597718.86
 20
-1167372.1374
 10
-597720.7928
 20
-1167374.47
 10
-597727.7798
 20
-1167381.7857
 10
-597737.464
 20
-1167390.9019
 10
-597747.6809
 20
-1167399.4166
 10
-597758.3636
 20
-1167407.2784
 10
-597759.8902
 20
-1167408.3351
 10
-597780.9408
 20
-1167423.4299
 10
-597782.7054
 20
-1167424.741
 10
-597814.065
 20
-1167429.9104
 10
-597838.1135
 20
-1167431.8602
 10
-597858.1095
 20
-1167436.0699
 10
-597889.8604
 20
-1167449.0296
 10
-597927.9724
 20
-1167463.6498
 10
-597951.7032
 20
-1167473.0239
 10
-597954.8886
 20
-1167474.2228
 10
-597954.9997
 20
-1167474.2217
 10
-597955.0829
 20
-1167474.2957
 10
-597955.1008
 20
-1167474.3026
 10
-597955.1039
 20
-1167474.3145
 10
-597955.2101
 20
-1167474.4091
 10
-597955.2578
 20
-1167474.428
 10
-597955.2335
 20
-1167474.4301
 10
-597957.557
 20
-1167476.5023
 10
-597962.4398
 20
-1167481.6779
 10
-597966.6889
 20
-1167487.3854
 10
-597970.2466
 20
-1167493.5475
 10
-597971.5528
 20
-1167496.3193
 10
-597988.6096
 20
-1167534.9973
 10
-598000.1984
 20
-1167533.7985
 10
-598014.6054
 20
-1167532.308
 10
-598023.6048
 20
-1167528.9443
 10
-598031.1086
 20
-1167524.089
 10
-598030.7062
 20
-1167518.1586
 10
-598022.0635
 20
-1167503.0339
 10
-598013.8675
 20
-1167488.6909
 10
-598006.919
 20
-1167481.5106
 10
-598006.5537
 20
-1167481.1333
 10
-598001.4425
 20
-1167475.8516
 10
-597994.1453
 20
-1167468.3113
 10
-597986.0265
 20
-1167459.9217
 10
-597976.6992
 20
-1167452.5257
 10
-597959.8255
 20
-1167441.8505
 10
-597942.8836
 20
-1167431.1321
 10
-597926.2816
 20
-1167421.2185
 10
-597904.4098
 20
-1167408.4815
 10
-597892.3547
 20
-1167401.3378
 10
-597886.3272
 20
-1167399.1054
 10
-597877.844
 20
-1167396.873
 10
-597870.2538
 20
-1167395.98
 10
-597862.8867
 20
-1167395.7568
 10
-597851.9478
 20
-1167396.6497
 10
-597834.4151
 20
-1167397.9022
 10
-597829.64
 20
-1167398.1224
 10
-597820.0602
 20
-1167398.5641
 10
-597803.6561
 20
-1167395.9182
 10
-597786.7305
 20
-1167389.0589
 10
-597772.6513
 20
-1167374.9993
 10
-597768.4178
 20
-1167369.7076
 10
-597762.0678
 20
-1167358.066
 10
-597755.3867
 20
-1167345.7665
 10
-597753.0246
 20
-1167325.0967
 10
-597749.7105
 20
-1167296.0982
 10
-597751.3481
 20
-1167268.5167
 10
-597751.6973
 20
-1167263.2194
 10
-597752.6876
 20
-1167248.2016
 10
-597754.4735
 20
-1167207.3481
 10
-597752.241
 20
-1167172.0757
 10
-597748.8925
 20
-1167164.0392
 10
-597742.6416
 20
-1167157.3418
 10
-597725.8467
 20
-1167144.8919
 10
-597711.9409
 20
-1167134.8058
 10
-597702.1547
 20
-1167126.6619
 10
-597696.7885
 20
-1167119.3081
 10
-597689.1066
 20
-1167108.7813
 10
-597679.1776
 20
-1167095.1746
 10
-597673.6609
 20
-1167084.4159
 10
-597664.5178
 20
-1167059.5993
 10
-597655.1285
 20
-1167041.454
 10
-597644.5927
 20
-1167018.3402
 10
-597630.8343
 20
-1166999.2902
 10
-597613.3715
 20
-1166983.9446
 10
-597612.1329
 20
-1166982.8569
 10
-597565.7467
 20
-1166942.14
 10
-597538.2299
 20
-1166922.0317
 10
-597505.9506
 20
-1166910.3901
 10
-597503.1313
 20
-1166908.802
 10
-597499.907
 20
-1166906.1558
 10
-597497.2608
 20
-1166902.9315
 10
-597495.2943
 20
-1166899.2527
 10
-597494.0836
 20
-1166895.2613
 10
-597493.6748
 20
-1166891.1102
 10
-597494.0836
 20
-1166886.959
 10
-597495.2943
 20
-1166882.9675
 10
-597497.2033
 20
-1166879.3753
 10
-597502.2545
 20
-1166871.9695
 10
-597503.5595
 20
-1166870.1284
 10
-597515.021
 20
-1166854.0823
 10
-597525.4219
 20
-1166841.7551
 10
-597544.0507
 20
-1166825.7231
 10
-597554.1049
 20
-1166815.1398
 10
-597584.7966
 20
-1166774.3939
 10
-597595.9092
 20
-1166758.5189
 10
-597607.0218
 20
-1166724.123
 10
-597616.1808
 20
-1166694.0756
 10
-597619.7533
 20
-1166680.0197
 10
-597621.2621
 20
-1166658.392
 10
-597621.4826
 20
-1166655.2324
 10
-597622.0468
 20
-1166633.0812
 10
-597620.9521
 20
-1166600.7852
 10
-597620.2628
 20
-1166580.4533
 10
-597622.2061
 20
-1166567.8222
 10
-597621.0033
 20
-1166561.9317
 10
-597620.1977
 20
-1166559.0734
 10
-597617.102
 20
-1166555.8229
 10
-597604.4766
 20
-1166542.5662
 97
0
 92
2
 72
0
 73
1
 93
195
 10
-598219.3058
 20
-1168055.8884
 10
-598221.3517
 20
-1168062.1849
 10
-598224.1705
 20
-1168068.1755
 10
-598225.6674
 20
-1168070.7257
 10
-598231.0504
 20
-1168080.5421
 10
-598233.3862
 20
-1168088.8446
 10
-598234.8756
 20
-1168093.7372
 10
-598234.8756
 20
-1168094.1381
 10
-598234.8756
 20
-1168099.3182
 10
-598234.8756
 20
-1168104.6761
 10
-598235.2793
 20
-1168108.13
 10
-598236.0988
 20
-1168110.6044
 10
-598244.4703
 20
-1168124.5571
 10
-598246.716
 20
-1168128.2996
 10
-598248.9337
 20
-1168131.996
 10
-598252.2294
 20
-1168134.3502
 10
-598266.5531
 20
-1168142.5039
 10
-598276.9724
 20
-1168147.5052
 10
-598284.6327
 20
-1168153.3976
 10
-598295.6645
 20
-1168158.6829
 10
-598303.6814
 20
-1168159.7286
 10
-598306.1898
 20
-1168159.9451
 10
-598307.6702
 20
-1168159.9699
 10
-598311.0815
 20
-1168159.7372
 10
-598315.8678
 20
-1168158.7058
 10
-598318.3896
 20
-1168157.8036
 10
-598323.8637
 20
-1168152.5574
 10
-598332.6399
 20
-1168144.1468
 10
-598335.6053
 20
-1168140.8599
 10
-598338.3604
 20
-1168136.6432
 10
-598340.3838
 20
-1168132.0303
 10
-598341.6203
 20
-1168127.1476
 10
-598341.9435
 20
-1168124.5022
 10
-598343.2424
 20
-1168115.6264
 10
-598349.0678
 20
-1168084.9977
 10
-598349.0206
 20
-1168081.4612
 10
-598348.8446
 20
-1168068.2545
 10
-598347.282
 20
-1168053.967
 10
-598346.5396
 20
-1168049.9299
 10
-598344.9473
 20
-1168045.4229
 10
-598342.6161
 20
-1168041.25
 10
-598339.6132
 20
-1168037.531
 10
-598336.025
 20
-1168034.3729
 10
-598331.9547
 20
-1168031.8669
 10
-598331.6981
 20
-1168031.7391
 10
-598315.6951
 20
-1168024.0577
 10
-598311.6613
 20
-1168021.9291
 10
-598305.8352
 20
-1168018.0971
 10
-598300.4933
 20
-1168013.6148
 10
-598295.708
 20
-1168008.5426
 10
-598291.5439
 20
-1168002.9492
 10
-598288.0572
 20
-1167996.9101
 10
-598287.8993
 20
-1167996.5936
 10
-598284.2633
 20
-1167989.4777
 10
-598276.5176
 20
-1167975.6575
 10
-598269.8166
 20
-1167964.8932
 10
-598266.8956
 20
-1167960.6488
 10
-598261.2503
 20
-1167953.5696
 10
-598254.9931
 20
-1167947.0253
 10
-598251.0643
 20
-1167943.4618
 10
-598245.9297
 20
-1167938.5505
 10
-598241.6881
 20
-1167933.1927
 10
-598237.6697
 20
-1167927.3884
 10
-598232.8046
 20
-1167920.3857
 10
-598231.9658
 20
-1167915.3537
 10
-598230.9522
 20
-1167909.2719
 10
-598230.5547
 20
-1167906.886
 10
-598230.5119
 20
-1167906.6291
 10
-598231.1814
 20
-1167904.0215
 10
-598231.9853
 20
-1167900.347
 10
-598234.0689
 20
-1167895.8821
 10
-598234.3666
 20
-1167890.2268
 10
-598237.3431
 20
-1167883.976
 10
-598238.2362
 20
-1167877.4274
 10
-598241.2127
 20
-1167870.879
 10
-598245.0822
 20
-1167865.8189
 10
-598248.9518
 20
-1167860.4611
 10
-598251.9283
 20
-1167855.9962
 10
-598254.6073
 20
-1167852.1266
 10
-598257.8816
 20
-1167844.9828
 10
-598260.5605
 20
-1167839.3274
 10
-598263.8346
 20
-1167832.4813
 10
-598268.3535
 20
-1167822.6295
 10
-598271.8713
 20
-1167814.3243
 10
-598273.0228
 20
-1167811.283
 10
-598275.0144
 20
-1167804.3706
 10
-598276.2192
 20
-1167797.2787
 10
-598276.6226
 20
-1167790.0964
 10
-598276.2192
 20
-1167782.9141
 10
-598275.0144
 20
-1167775.8222
 10
-598273.0228
 20
-1167768.9097
 10
-598271.7102
 20
-1167765.477
 10
-598268.0019
 20
-1167758.0671
 10
-598263.537
 20
-1167753.0069
 10
-598259.9651
 20
-1167748.5421
 10
-598253.7143
 20
-1167741.3984
 10
-598248.6541
 20
-1167737.5288
 10
-598239.9602
 20
-1167731.561
 10
-598235.5524
 20
-1167726.77
 10
-598217.4793
 20
-1167706.1331
 10
-598216.0863
 20
-1167704.3519
 10
-598214.0888
 20
-1167700.7531
 10
-598212.8567
 20
-1167696.8259
 10
-598212.4402
 20
-1167692.7311
 10
-598212.6377
 20
-1167689.9036
 10
-598212.3896
 20
-1167676.0956
 10
-598212.2479
 20
-1167672.058
 10
-598210.6037
 20
-1167625.2294
 10
-598210.2025
 20
-1167621.4158
 10
-598208.9608
 20
-1167616.7817
 10
-598206.9333
 20
-1167612.4336
 10
-598204.1813
 20
-1167608.5036
 10
-598200.7889
 20
-1167605.1112
 10
-598199.0942
 20
-1167603.7982
 10
-598171.7099
 20
-1167580.7794
 10
-598133.6097
 20
-1167556.1731
 10
-598107.8128
 20
-1167544.2668
 10
-598087.537
 20
-1167541.3119
 10
-598063.3313
 20
-1167531.8401
 10
-598053.8595
 20
-1167529.7353
 10
-598052.7564
 20
-1167538.6996
 10
-598052.8987
 20
-1167559.9793
 10
-598050.7022
 20
-1167583.4086
 10
-598048.1679
 20
-1167592.3948
 10
-598047.19
 20
-1167596.9333
 10
-598046.7758
 20
-1167602.4602
 10
-598047.19
 20
-1167607.9871
 10
-598048.4232
 20
-1167613.3905
 10
-598050.4481
 20
-1167618.5498
 10
-598053.2193
 20
-1167623.3495
 10
-598056.6749
 20
-1167627.6828
 10
-598060.7378
 20
-1167631.4526
 10
-598065.317
 20
-1167634.5747
 10
-598070.3105
 20
-1167636.9794
 10
-598075.6068
 20
-1167638.613
 10
-598078.9278
 20
-1167639.2136
 10
-598104.8252
 20
-1167643.7615
 10
-598122.9706
 20
-1167648.0254
 10
-598127.6551
 20
-1167649.4037
 10
-598133.1811
 20
-1167651.8039
 10
-598138.3289
 20
-1167654.9344
 10
-598143.0025
 20
-1167658.7366
 10
-598147.1147
 20
-1167663.1398
 10
-598150.5891
 20
-1167668.0619
 10
-598153.3611
 20
-1167673.4113
 10
-598155.3786
 20
-1167679.0883
 10
-598156.6044
 20
-1167684.9871
 10
-598156.9966
 20
-1167689.7029
 10
-598160.7786
 20
-1167710.9767
 10
-598161.4007
 20
-1167714.4763
 10
-598161.6418
 20
-1167715.8328
 10
-598163.2732
 20
-1167725.0089
 10
-598165.4159
 20
-1167737.0618
 10
-598164.3997
 20
-1167761.9572
 10
-598163.9038
 20
-1167774.1077
 10
-598163.6235
 20
-1167780.9756
 10
-598164.2375
 20
-1167791.915
 10
-598167.1195
 20
-1167802.1331
 10
-598172.9581
 20
-1167822.8336
 10
-598182.3363
 20
-1167850.5309
 10
-598188.0111
 20
-1167866.4203
 10
-598188.5124
 20
-1167867.7673
 10
-598191.2961
 20
-1167873.8178
 10
-598194.8022
 20
-1167879.4802
 10
-598198.9774
 20
-1167884.6688
 10
-598202.2298
 20
-1167887.9441
 10
-598206.9223
 20
-1167892.6991
 10
-598211.7326
 20
-1167898.6393
 10
-598214.8795
 20
-1167903.344
 10
-598220.8368
 20
-1167906.3226
 10
-598221.338
 20
-1167906.5922
 10
-598222.6934
 20
-1167907.5414
 10
-598223.8635
 20
-1167908.7114
 10
-598224.8127
 20
-1167910.0668
 10
-598225.5119
 20
-1167911.5666
 10
-598225.9403
 20
-1167913.1649
 10
-598226.0844
 20
-1167914.8135
 10
-598225.9716
 20
-1167916.2725
 10
-598228.2666
 20
-1167941.7376
 10
-598232.9063
 20
-1167970.6064
 10
-598233.9011
 20
-1167976.7965
 10
-598234.4821
 20
-1167982.0345
 10
-598234.4821
 20
-1167988.6749
 10
-598233.666
 20
-1167995.2651
 10
-598232.0464
 20
-1168001.705
 10
-598229.6475
 20
-1168007.8969
 10
-598228.9911
 20
-1168009.2722
 10
-598225.1624
 20
-1168015.6533
 10
-598224.1705
 20
-1168017.3796
 10
-598221.3517
 20
-1168023.3701
 10
-598219.3058
 20
-1168029.6667
 10
-598218.0653
 20
-1168036.17
 10
-598217.6496
 20
-1168042.7775
 10
-598218.0653
 20
-1168049.3849
 10
-598219.3058
 20
-1168055.8884
 97
0
 92
2
 72
0
 73
1
 93
47
 10
-597959.9188
 20
-1169629.9816
 10
-597937.3398
 20
-1169611.7727
 10
-597928.0593
 20
-1169603.8626
 10
-597918.36
 20
-1169594.589
 10
-597909.2327
 20
-1169584.7522
 10
-597900.71
 20
-1169574.3871
 10
-597892.8224
 20
-1169563.5308
 10
-597885.5983
 20
-1169552.2222
 10
-597879.0633
 20
-1169540.5018
 10
-597876.7657
 20
-1169535.949
 10
-597862.1088
 20
-1169522.4195
 10
-597858.8574
 20
-1169533.1938
 10
-597867.3535
 20
-1169552.422
 10
-597899.3176
 20
-1169624.7617
 10
-597905.0955
 20
-1169637.8378
 10
-597905.5048
 20
-1169638.7644
 10
-597910.1316
 20
-1169649.2354
 10
-597922.7016
 20
-1169677.6833
 10
-597955.214
 20
-1169764.7206
 10
-597955.4309
 20
-1169765.1238
 10
-597956.1938
 20
-1169766.2131
 10
-597957.1342
 20
-1169767.1536
 10
-597958.2237
 20
-1169767.9166
 10
-597959.4291
 20
-1169768.4787
 10
-597960.7139
 20
-1169768.8229
 10
-597962.0388
 20
-1169768.9387
 10
-597963.3637
 20
-1169768.8229
 10
-597964.6485
 20
-1169768.4787
 10
-597965.8538
 20
-1169767.9166
 10
-597966.9434
 20
-1169767.1536
 10
-597967.8838
 20
-1169766.2131
 10
-597968.5371
 20
-1169765.3076
 10
-597975.2958
 20
-1169754.3245
 10
-597989.5681
 20
-1169733.9906
 10
-598014.5227
 20
-1169706.7676
 10
-598015.6999
 20
-1169704.3088
 10
-598017.2865
 20
-1169699.5565
 10
-598018.0901
 20
-1169694.6115
 10
-598018.0901
 20
-1169689.6014
 10
-598017.2865
 20
-1169684.6564
 10
-598015.6999
 20
-1169679.9043
 10
-598013.3717
 20
-1169675.4682
 10
-598010.362
 20
-1169671.4629
 10
-598006.7487
 20
-1169667.9924
 10
-598006.691
 20
-1169667.9455
 10
-598005.6552
 20
-1169667.1038
 10
-597959.9188
 20
-1169629.9816
 97
0
 92
2
 72
0
 73
1
 93
98
 10
-597721.3313
 20
-1168266.5166
 10
-597711.9552
 20
-1168270.9815
 10
-597700.5699
 20
-1168276.5624
 10
-597690.7472
 20
-1168283.0366
 10
-597683.1568
 20
-1168290.1802
 10
-597667.0834
 20
-1168302.9051
 10
-597649.8659
 20
-1168316.8858
 10
-597637.9782
 20
-1168325.5921
 10
-597632.1179
 20
-1168331.9546
 10
-597623.0767
 20
-1168341.4983
 10
-597615.7097
 20
-1168350.8744
 10
-597611.189
 20
-1168357.4043
 10
-597605.4964
 20
-1168373.9801
 10
-597605.6638
 20
-1168386.8723
 10
-597607.3379
 20
-1168399.5971
 10
-597608.8613
 20
-1168406.3673
 10
-597610.3519
 20
-1168412.9917
 10
-597615.8243
 20
-1168453.4575
 10
-597623.762
 20
-1168506.6389
 10
-597636.8588
 20
-1168585.2202
 10
-597647.3191
 20
-1168653.2119
 10
-597662.0477
 20
-1168731.2573
 10
-597678.14
 20
-1168832.2039
 10
-597697.534
 20
-1168956.6813
 10
-597703.6915
 20
-1169003.4793
 10
-597704.9106
 20
-1169012.7438
 10
-597710.0742
 20
-1169025.2842
 10
-597710.5468
 20
-1169026.32
 10
-597712.489
 20
-1169029.2731
 10
-597714.4795
 20
-1169031.2442
 10
-597716.9156
 20
-1169033.5024
 10
-597719.911
 20
-1169037.2122
 10
-597722.2364
 20
-1169041.3746
 10
-597722.6145
 20
-1169042.2504
 10
-597723.8108
 20
-1169051.4231
 10
-597725.2036
 20
-1169062.1008
 10
-597727.0406
 20
-1169076.1829
 10
-597727.4564
 20
-1169087.4136
 10
-597727.3876
 20
-1169098.5209
 10
-597725.1551
 20
-1169112.3631
 10
-597724.0898
 20
-1169118.9675
 10
-597725.0262
 20
-1169128.6611
 10
-597730.3178
 20
-1169154.5903
 10
-597735.365
 20
-1169156.829
 10
-597739.2675
 20
-1169156.3389
 10
-597733.5655
 20
-1169119.0347
 10
-597734.8281
 20
-1169114.2628
 10
-597735.973
 20
-1169109.7048
 10
-597736.2029
 20
-1169108.7325
 10
-597737.4108
 20
-1169101.6238
 10
-597737.8152
 20
-1169094.4246
 10
-597737.6215
 20
-1169089.4382
 10
-597734.9068
 20
-1169054.5383
 10
-597734.8448
 20
-1169049.8949
 10
-597734.0457
 20
-1169044.2095
 10
-597732.4632
 20
-1169038.6907
 10
-597730.128
 20
-1169033.4459
 10
-597727.0858
 20
-1169028.5772
 10
-597723.3955
 20
-1169024.1792
 10
-597723.0841
 20
-1169023.8603
 10
-597721.3254
 20
-1169021.9589
 10
-597717.9062
 20
-1169017.3913
 10
-597715.1718
 20
-1169012.3835
 10
-597713.1778
 20
-1169007.0376
 10
-597712.0524
 20
-1169002.0403
 10
-597707.7693
 20
-1168975.0567
 10
-597702.9763
 20
-1168942.3039
 10
-597698.8269
 20
-1168914.9403
 10
-597688.629
 20
-1168855.6073
 10
-597682.105
 20
-1168814.1202
 10
-597681.5382
 20
-1168810.1923
 10
-597680.7259
 20
-1168804.5652
 10
-597663.7061
 20
-1168686.6442
 10
-597658.5769
 20
-1168651.1058
 10
-597653.7622
 20
-1168637.8123
 10
-597652.914
 20
-1168629.8511
 10
-597651.329
 20
-1168621.3502
 10
-597639.3765
 20
-1168561.3953
 10
-597630.677
 20
-1168506.1637
 10
-597629.9485
 20
-1168501.4704
 10
-597624.1472
 20
-1168464.0965
 10
-597615.5423
 20
-1168413.3265
 10
-597615.1673
 20
-1168410.2953
 10
-597613.533
 20
-1168397.0857
 10
-597612.6959
 20
-1168384.0259
 10
-597614.2028
 20
-1168372.9755
 10
-597619.0584
 20
-1168359.0786
 10
-597623.7465
 20
-1168352.2139
 10
-597640.3222
 20
-1168334.801
 10
-597663.7626
 20
-1168312.6999
 10
-597683.3522
 20
-1168297.1288
 10
-597707.6299
 20
-1168280.3856
 10
-597713.2946
 20
-1168276.7858
 10
-597725.573
 20
-1168270.0885
 10
-597732.2703
 20
-1168266.2934
 10
-597731.7656
 20
-1168264.1648
 10
-597730.261
 20
-1168262.4983
 10
-597721.3313
 20
-1168266.5166
 97
0
 92
2
 72
0
 73
1
 93
39
 10
-597795.549
 20
-1169368.9053
 10
-597796.7726
 20
-1169368.7878
 10
-597798.0878
 20
-1169368.4354
 10
-597799.322
 20
-1169367.8599
 10
-597800.4374
 20
-1169367.0789
 10
-597801.4004
 20
-1169366.116
 10
-597802.1814
 20
-1169365.0005
 10
-597802.7569
 20
-1169363.7665
 10
-597803.1093
 20
-1169362.4511
 10
-597803.1864
 20
-1169361.8983
 10
-597805.0653
 20
-1169343.7361
 10
-597809.265
 20
-1169303.1401
 10
-597809.5666
 20
-1169297.8294
 10
-597809.1656
 20
-1169291.7094
 10
-597807.9691
 20
-1169285.6943
 10
-597805.9976
 20
-1169279.8865
 10
-597803.2851
 20
-1169274.386
 10
-597799.8776
 20
-1169269.2865
 10
-597795.8339
 20
-1169264.6754
 10
-597791.2227
 20
-1169260.6315
 10
-597786.1232
 20
-1169257.2241
 10
-597783.6482
 20
-1169255.8925
 10
-597779.8382
 20
-1169253.9874
 10
-597772.2823
 20
-1169255.0218
 10
-597761.05
 20
-1169263.1906
 10
-597752.0138
 20
-1169266.2446
 10
-597754.7531
 20
-1169283.4481
 10
-597770.5346
 20
-1169323.3948
 10
-597787.6435
 20
-1169361.8783
 10
-597787.7228
 20
-1169362.4511
 10
-597788.0753
 20
-1169363.7665
 10
-597788.6508
 20
-1169365.0005
 10
-597789.4318
 20
-1169366.116
 10
-597790.3946
 20
-1169367.0789
 10
-597791.51
 20
-1169367.8599
 10
-597792.7442
 20
-1169368.4354
 10
-597794.0595
 20
-1169368.7878
 10
-597795.416
 20
-1169368.9064
 10
-597795.549
 20
-1169368.9053
 97
0
 92
2
 72
0
 73
1
 93
15
 10
-597803.6718
 20
-1168060.1213
 10
-597809.171
 20
-1168067.8287
 10
-597837.5637
 20
-1168092.9434
 10
-597859.5139
 20
-1168111.601
 10
-597884.4657
 20
-1168131.8915
 10
-597895.9966
 20
-1168141.1906
 10
-597906.5208
 20
-1168154.8721
 10
-597905.8289
 20
-1168155.3942
 10
-597914.5103
 20
-1168155.9344
 10
-597924.9806
 20
-1168155.6406
 10
-597922.3072
 20
-1168144.3478
 10
-597903.9976
 20
-1168126.2618
 10
-597861.635
 20
-1168090.187
 10
-597811.4995
 20
-1168051.264
 10
-597803.6718
 20
-1168060.1213
 97
0
 75
0
 76
1
 98
0
  0
HATCH
  5
2001F
100
AcDbEntity
  8
plocha Q20
100
AcDbHatch
 10
0
 20
0
 30
0
210
0
220
0
230
1
  2
SOLID
 70
1
 71
0
 91
1
 92
2
 72
0
 73
1
 93
322
 10
-600806.9499
 20
-1158671.6845
 10
-600816.9672
 20
-1158669.9168
 10
-600841.1347
 20
-1158665.6519
 10
-600903.4717
 20
-1158689.7824
 10
-600911.5153
 20
-1158699.8367
 10
-600908.2768
 20
-1158746.7946
 10
-600907.4936
 20
-1158758.152
 10
-600895.2397
 20
-1158776.1724
 10
-600878.1535
 20
-1158801.2992
 10
-600873.3087
 20
-1158808.4238
 10
-600858.0794
 20
-1158815.3857
 10
-600821.8756
 20
-1158831.936
 10
-600802.9282
 20
-1158840.5978
 10
-600792.7152
 20
-1158850.3001
 10
-600778.8916
 20
-1158863.4326
 10
-600765.5684
 20
-1158876.0895
 10
-600754.9845
 20
-1158884.7477
 10
-600741.8142
 20
-1158894.8786
 10
-600725.8054
 20
-1158907.193
 10
-600715.0391
 20
-1158915.4748
 10
-600710.7248
 20
-1158922.8777
 10
-600711.6336
 20
-1158934.6937
 10
-600712.1969
 20
-1158942.0182
 10
-600718.2791
 20
-1158942.6602
 10
-600726.1346
 20
-1158939.2935
 10
-600740.5911
 20
-1158933.0979
 10
-600744.1275
 20
-1158929.2895
 10
-600754.0976
 20
-1158918.5525
 10
-600763.8037
 20
-1158908.0996
 10
-600771.1992
 20
-1158905.839
 10
-600779.9508
 20
-1158907.5893
 10
-600784.3267
 20
-1158908.4645
 10
-600789.4147
 20
-1158909.4822
 10
-600789.8218
 20
-1158909.5636
 10
-600801.8299
 20
-1158911.9652
 10
-600808.0408
 20
-1158920.6257
 10
-600812.0626
 20
-1158948.7775
 10
-600812.9825
 20
-1158967.5825
 10
-600812.9825
 20
-1158992.9824
 10
-600812.9825
 20
-1159015.5435
 10
-600816.3857
 20
-1159028.3057
 10
-600823.336
 20
-1159050.6153
 10
-600834.4529
 20
-1159074.2389
 10
-600834.7534
 20
-1159086.2962
 10
-600832.8651
 20
-1159091.4213
 10
-600829.2243
 20
-1159101.3038
 10
-600825.2039
 20
-1159112.2162
 10
-600825.2168
 20
-1159121.9131
 10
-600828.5058
 20
-1159127.6688
 10
-600832.8694
 20
-1159135.3051
 10
-600837.1678
 20
-1159142.8274
 10
-600845.5101
 20
-1159141.8289
 10
-600859.5988
 20
-1159132.0753
 10
-600865.9769
 20
-1159122.815
 10
-600867.4511
 20
-1159111.758
 10
-600869.2869
 20
-1159097.9893
 10
-600877.3305
 20
-1159075.8697
 10
-600881.016
 20
-1159057.4419
 10
-600885.374
 20
-1159035.6524
 10
-600881.4126
 20
-1159009.2427
 10
-600879.3413
 20
-1158995.4349
 10
-600870.8963
 20
-1158981.3599
 10
-600868.6818
 20
-1158968.2973
 10
-600871.3277
 20
-1158955.0682
 10
-600873.866
 20
-1158936.8043
 10
-600875.3195
 20
-1158915
 10
-600878.3145
 20
-1158906.0152
 10
-600882.442
 20
-1158893.6326
 10
-600888.8242
 20
-1158883.6869
 10
-600898.8255
 20
-1158880.3531
 10
-600904.3221
 20
-1158884.3315
 10
-600907.4936
 20
-1158904.9457
 10
-600911.1451
 20
-1158915.9004
 10
-600915.7488
 20
-1158929.7116
 10
-600921.9488
 20
-1158936.869
 10
-600931.8934
 20
-1158940.8469
 10
-600938.5965
 20
-1158937.0435
 10
-600939.6669
 20
-1158930.0848
 10
-600941.6784
 20
-1158917.0109
 10
-600943.9182
 20
-1158912.5314
 10
-600950.0565
 20
-1158900.2546
 10
-600959.7119
 20
-1158884.2595
 10
-600971.8415
 20
-1158866.7391
 10
-600974.961
 20
-1158853.4811
 10
-600978.5488
 20
-1158838.2322
 10
-600984.3528
 20
-1158829.7619
 10
-600995.972
 20
-1158822.4998
 10
-600999.5413
 20
-1158818.1373
 10
-601004.3038
 20
-1158812.3165
 10
-601008.1232
 20
-1158807.6483
 10
-601011.3532
 20
-1158803.7005
 10
-601011.4746
 20
-1158795.6225
 10
-601009.4321
 20
-1158791.8779
 10
-601004.6998
 20
-1158783.2022
 10
-601002.0045
 20
-1158773.3779
 10
-601002.0045
 20
-1158760.6779
 10
-601005.0861
 20
-1158752.4431
 10
-601008.3393
 20
-1158748.5394
 10
-601016.2029
 20
-1158750.5881
 10
-601018.3166
 20
-1158753.9094
 10
-601026.1349
 20
-1158766.1954
 10
-601044.5382
 20
-1158810.4769
 10
-601052.2762
 20
-1158828.5325
 10
-601072.44
 20
-1158845.8156
 10
-601080.4285
 20
-1158852.663
 10
-601113.6162
 20
-1158870.9162
 10
-601125.8586
 20
-1158875.0308
 10
-601142.7787
 20
-1158875.8365
 10
-601156.682
 20
-1158876.4986
 10
-601165.4876
 20
-1158880.2778
 10
-601168.4085
 20
-1158884.1725
 10
-601176.727
 20
-1158895.2639
 10
-601180.5047
 20
-1158905.3649
 10
-601179.4086
 20
-1158915.7772
 10
-601177.492
 20
-1158933.9849
 10
-601180.2552
 20
-1158945.74
 10
-601186.8169
 20
-1158958.8635
 10
-601191.0265
 20
-1158967.2826
 10
-601205.1025
 20
-1158979.3479
 10
-601229.9063
 20
-1158985.2536
 10
-601247.3308
 20
-1158989.4022
 10
-601255.4049
 20
-1158993.4391
 10
-601261.3043
 20
-1158998.9332
 10
-601266.6431
 20
-1159008.721
 10
-601269.6563
 20
-1159014.2453
 10
-601266.1049
 20
-1159021.1255
 10
-601258.5338
 20
-1159026.1729
 10
-601249.107
 20
-1159029.3156
 10
-601231.1691
 20
-1159028.0344
 10
-601215.4163
 20
-1159027.6089
 10
-601204.8975
 20
-1159031.3073
 10
-601197.6297
 20
-1159037.6666
 10
-601193.0374
 20
-1159048.016
 10
-601193.0374
 20
-1159067.5952
 10
-601195.1681
 20
-1159095.8713
 10
-601197.059
 20
-1159110.0546
 10
-601199.5388
 20
-1159115.51
 10
-601207.1134
 20
-1159132.1742
 10
-601215.9274
 20
-1159145.395
 10
-601218.451
 20
-1159149.1805
 10
-601220.1606
 20
-1159151.745
 10
-601230.9658
 20
-1159157.2006
 10
-601237.815
 20
-1159157.9909
 10
-601247.9177
 20
-1159159.1567
 10
-601269.5697
 20
-1159161.6549
 10
-601276.7323
 20
-1159158.5894
 10
-601278.3726
 20
-1159153.6682
 10
-601278.5844
 20
-1159153.0332
 10
-601281.1773
 20
-1159145.2545
 10
-601283.5266
 20
-1159138.2067
 10
-601282.4705
 20
-1159130.8144
 10
-601279.5049
 20
-1159110.0546
 10
-601275.3412
 20
-1159090.6241
 10
-601273.4723
 20
-1159081.9023
 10
-601276.4688
 20
-1159078.9058
 10
-601279.5049
 20
-1159075.8697
 10
-601283.4181
 20
-1159078.106
 10
-601287.5212
 20
-1159080.4506
 10
-601299.6397
 20
-1159082.1822
 10
-601303.1342
 20
-1159081.1837
 10
-601310.7529
 20
-1159069.0561
 10
-601313.3687
 20
-1159059.9004
 10
-601318.7527
 20
-1159047.3791
 10
-601329.7766
 20
-1159031.6306
 10
-601335.8886
 20
-1159027.9635
 10
-601349.8853
 20
-1159019.5654
 10
-601354.4782
 20
-1159014.2068
 10
-601370.4655
 20
-1158995.5551
 10
-601378.6006
 20
-1158988.2039
 10
-601403.9091
 20
-1158971.8332
 10
-601426.2986
 20
-1158959.2391
 10
-601436.7564
 20
-1158951.9186
 10
-601450.9789
 20
-1158942.8772
 10
-601463.0439
 20
-1158936.8448
 10
-601472.2874
 20
-1158926.099
 10
-601474.2174
 20
-1158918.3793
 10
-601477.6103
 20
-1158904.8076
 10
-601480.592
 20
-1158892.8804
 10
-601481.0332
 20
-1158881.4084
 10
-601481.6858
 20
-1158864.4391
 10
-601482.3565
 20
-1158847.0025
 10
-601484.3057
 20
-1158836.511
 10
-601487.5152
 20
-1158828.8084
 10
-601503.4353
 20
-1158795.989
 10
-601512.7659
 20
-1158778.2607
 10
-601532.0359
 20
-1158760.473
 10
-601561.7492
 20
-1158736.3643
 10
-601562.8841
 20
-1158736.6356
 10
-601567.6107
 20
-1158731.8052
 10
-601584.6639
 20
-1158722.9706
 10
-601602.3001
 20
-1158712.4781
 10
-601609.4413
 20
-1158708.3171
 10
-601630.6519
 20
-1158695.9581
 10
-601673.4018
 20
-1158744.2721
 10
-601661.7527
 20
-1158751.678
 10
-601661.0661
 20
-1158752.3199
 10
-601655.9868
 20
-1158757.2541
 10
-601651.5935
 20
-1158766.0409
 10
-601652.2139
 20
-1158774.2802
 10
-601662.7158
 20
-1158790.0331
 10
-601671.0554
 20
-1158799.8108
 10
-601680.3157
 20
-1158809.0712
 10
-601699.777
 20
-1158828.5325
 10
-601712.8708
 20
-1158837.8852
 10
-601735.346
 20
-1158853.9389
 10
-601762.5179
 20
-1158877.5422
 10
-601774.1794
 20
-1158890.8696
 10
-601778.8317
 20
-1158912.5808
 10
-601778.0661
 20
-1158923.0067
 10
-601770.1481
 20
-1158937.7116
 10
-601766.1358
 20
-1158945.1631
 10
-601766.1358
 20
-1158959.2391
 10
-601762.1141
 20
-1158977.3371
 10
-601755.2874
 20
-1158992.5073
 10
-601748.0298
 20
-1159008.6353
 10
-601740.7055
 20
-1159026.8247
 10
-601735.797
 20
-1159040.5687
 10
-601729.6764
 20
-1159048.6531
 10
-601708.4085
 20
-1159063.2746
 10
-601699.1969
 20
-1159067.4807
 10
-601666.3538
 20
-1159062.4868
 10
-601639.451
 20
-1159055.761
 10
-601628.4038
 20
-1159051.6183
 10
-601607.9331
 20
-1159043.9419
 10
-601587.4116
 20
-1159036.4037
 10
-601571.5365
 20
-1159031.1121
 10
-601563.773
 20
-1159035.0969
 10
-601562.6526
 20
-1159036.9647
 10
-601558.1703
 20
-1159044.4352
 10
-601556.6868
 20
-1159053.9597
 10
-601560.0808
 20
-1159062.4446
 10
-601569.0704
 20
-1159089.9459
 10
-601565.6689
 20
-1159106.9539
 10
-601563.0377
 20
-1159120.109
 10
-601550.9726
 20
-1159132.1742
 10
-601542.542
 20
-1159135.1851
 10
-601522.8203
 20
-1159142.2286
 10
-601508.1555
 20
-1159152.4938
 10
-601503.6247
 20
-1159163.1526
 10
-601505.5843
 20
-1159177.8492
 10
-601508.3374
 20
-1159195.4506
 10
-601511.6996
 20
-1159214.2782
 10
-601514.9275
 20
-1159232.355
 10
-601516.0427
 20
-1159238.6002
 10
-601514.1768
 20
-1159250.9782
 10
-601509.3676
 20
-1159266.0927
 10
-601499.1554
 20
-1159296.7103
 10
-601482.6106
 20
-1159341.832
 10
-601469.2607
 20
-1159355.5784
 10
-601444.8761
 20
-1159373.3127
 10
-601432.8297
 20
-1159381.4687
 10
-601421.777
 20
-1159387.6091
 10
-601407.804
 20
-1159395.3719
 10
-601400.1571
 20
-1159399.6202
 10
-601367.9832
 20
-1159423.7505
 10
-601345.3723
 20
-1159441.8394
 10
-601327.7657
 20
-1159455.9246
 10
-601316.3914
 20
-1159462.3255
 10
-601296.6344
 20
-1159474.5065
 10
-601287.5327
 20
-1159479.0574
 10
-601269.7526
 20
-1159487.9473
 10
-601265.4287
 20
-1159490.1094
 10
-601243.8925
 20
-1159506.6757
 10
-601220.9023
 20
-1159524.3605
 10
-601198.757
 20
-1159542.0652
 10
-601176.8595
 20
-1159559.929
 10
-601159.7777
 20
-1159573.8641
 10
-601154.3264
 20
-1159578.3113
 10
-601148.6158
 20
-1159582.97
 10
-601136.7329
 20
-1159592.6638
 10
-601115.3751
 20
-1159612.6438
 10
-601101.393
 20
-1159625.7239
 10
-601061.0545
 20
-1159588.2944
 10
-601060.4995
 20
-1159585.5187
 10
-601059.7056
 20
-1159581.55
 10
-601053.2621
 20
-1159571.4118
 10
-601041.2755
 20
-1159563.9202
 10
-601029.5269
 20
-1159556.5772
 10
-601021.8503
 20
-1159548.1732
 10
-601009.3563
 20
-1159529.8486
 10
-600995.972
 20
-1159510.218
 10
-600983.7967
 20
-1159496.6107
 10
-600982.0667
 20
-1159494.6771
 10
-600977.1122
 20
-1159489.1397
 10
-600961.787
 20
-1159472.0115
 10
-600942.5861
 20
-1159452.0115
 10
-600865.9227
 20
-1159325.5716
 10
-600859.7045
 20
-1159311.3587
 10
-600843.7534
 20
-1159274.3532
 10
-600831.0803
 20
-1159244.7831
 10
-600825.3948
 20
-1159236.7286
 10
-600806.9499
 20
-1159210.5981
 10
-600798.8961
 20
-1159193.5959
 10
-600788.8521
 20
-1159172.3915
 10
-600776.169
 20
-1159159.7086
 10
-600763.9982
 20
-1159147.5377
 10
-600750.8072
 20
-1159126.862
 10
-600731.3913
 20
-1159094.1324
 10
-600729.6405
 20
-1159094.0536
 10
-600726.3195
 20
-1159087.7808
 10
-600710.5905
 20
-1159058.0702
 10
-600692.5988
 20
-1159012.5616
 10
-600677.2529
 20
-1158964.9366
 10
-600665.0821
 20
-1158927.8949
 10
-600647.3943
 20
-1158882.5652
 10
-600640.5581
 20
-1158853.7014
 10
-600639.741
 20
-1158818.7756
 10
-600646.0968
 20
-1158795.3113
 10
-600652.4469
 20
-1158779.4363
 10
-600659.0571
 20
-1158765.8335
 10
-600673.6295
 20
-1158743.9747
 10
-600690.7382
 20
-1158719.3589
 10
-600700.3737
 20
-1158705.8693
 10
-600703.643
 20
-1158703.6899
 10
-600715.6102
 20
-1158695.7116
 10
-600730.1216
 20
-1158685.6629
 10
-600743.6107
 20
-1158675.7708
 10
-600751.64
 20
-1158669.8826
 10
-600760.3845
 20
-1158668.8879
 10
-600779.2848
 20
-1158672.938
 10
-600785.5206
 20
-1158673.4703
 10
-600806.9499
 20
-1158671.6845
 97
0
 75
0
 76
1
 98
0
  0
HATCH
  5
20020
100
AcDbEntity
  8
plocha Q20
100
AcDbHatch
 10
0
 20
0
 30
0
210
0
220
0
230
1
  2
SOLID
 70
1
 71
0
 91
2
 92
2
 72
0
 73
1
 93
609
 10
-594901.5002
 20
-1157418.1542
 10
-594904.8414
 20
-1157417.9155
 10
-594907.096
 20
-1157417.5366
 10
-594909.9949
 20
-1157416.3358
 10
-594912.2064
 20
-1157414.6947
 10
-594923.068
 20
-1157406.1606
 10
-594932.5504
 20
-1157398.0714
 10
-594944.7164
 20
-1157386.7744
 10
-594949.6087
 20
-1157383.0937
 10
-594952.9599
 20
-1157381.5164
 10
-594958.4292
 20
-1157378.9427
 10
-594958.9968
 20
-1157378.6757
 10
-594965.6635
 20
-1157375.5385
 10
-594970.5787
 20
-1157373.5923
 10
-594976.2763
 20
-1157372.1718
 10
-594982.1161
 20
-1157371.558
 10
-594982.8053
 20
-1157371.5396
 10
-594985.4557
 20
-1157371.4556
 10
-594994.4481
 20
-1157370.6462
 10
-595000.6222
 20
-1157369.6134
 10
-595006.2724
 20
-1157368.8599
 10
-595012.3283
 20
-1157368.8599
 10
-595017.7894
 20
-1157369.5761
 10
-595053.7156
 20
-1157370.0583
 10
-595056.0134
 20
-1157370.2911
 10
-595059.1623
 20
-1157371.3143
 10
-595061.9576
 20
-1157373.0883
 10
-595064.224
 20
-1157375.5018
 10
-595065.0034
 20
-1157376.7071
 10
-595065.5805
 20
-1157377.9513
 10
-595065.9438
 20
-1157379.3071
 10
-595066.0661
 20
-1157380.7053
 10
-595066.0126
 20
-1157381.6319
 10
-595065.9034
 20
-1157383.5245
 10
-595066.1532
 20
-1157386.3803
 10
-595066.8952
 20
-1157389.1493
 10
-595068.1067
 20
-1157391.7474
 10
-595069.7509
 20
-1157394.0956
 10
-595071.7779
 20
-1157396.1226
 10
-595074.1262
 20
-1157397.7669
 10
-595076.7243
 20
-1157398.9783
 10
-595079.4933
 20
-1157399.7203
 10
-595081.6851
 20
-1157399.9568
 10
-595082.9403
 20
-1157400.0341
 10
-595087.7843
 20
-1157400.8424
 10
-595092.4292
 20
-1157402.437
 10
-595096.7483
 20
-1157404.7744
 10
-595100.6237
 20
-1157407.7908
 10
-595102.0914
 20
-1157409.2391
 10
-595107.0506
 20
-1157425.1081
 10
-595107.2068
 20
-1157425.5702
 10
-595107.9849
 20
-1157427.2389
 10
-595109.041
 20
-1157428.7471
 10
-595110.3429
 20
-1157430.0491
 10
-595111.8512
 20
-1157431.105
 10
-595113.5199
 20
-1157431.8832
 10
-595115.2982
 20
-1157432.3597
 10
-595116.1416
 20
-1157432.4737
 10
-595127.283
 20
-1157433.7116
 10
-595129.4265
 20
-1157433.9498
 10
-595136.9688
 20
-1157434.7878
 10
-595141.5471
 20
-1157435.2965
 10
-595143.3337
 20
-1157435.3803
 10
-595144.7884
 20
-1157435.2799
 10
-595148.0733
 20
-1157434.4703
 10
-595151.0688
 20
-1157432.8981
 10
-595153.6012
 20
-1157430.6546
 10
-595155.2255
 20
-1157428.4083
 10
-595156.4688
 20
-1157422.2213
 10
-595161.7355
 20
-1157418.7637
 10
-595166.0757
 20
-1157414.1826
 10
-595167.0401
 20
-1157406.9491
 10
-595167.0896
 20
-1157406.6292
 10
-595167.4373
 20
-1157405.3314
 10
-595168.0053
 20
-1157404.1137
 10
-595168.7758
 20
-1157403.0131
 10
-595169.7259
 20
-1157402.063
 10
-595170.0063
 20
-1157401.8387
 10
-595170.7576
 20
-1157401.3383
 10
-595171.873
 20
-1157400.8181
 10
-595173.0619
 20
-1157400.4996
 10
-595174.2879
 20
-1157400.3924
 10
-595175.5139
 20
-1157400.4996
 10
-595176.7028
 20
-1157400.8181
 10
-595177.8181
 20
-1157401.3383
 10
-595178.8263
 20
-1157402.0442
 10
-595179.6966
 20
-1157402.9145
 10
-595180.4025
 20
-1157403.9227
 10
-595180.8856
 20
-1157404.9387
 10
-595194.0117
 20
-1157421.3463
 10
-595194.408
 20
-1157421.8301
 10
-595197.7036
 20
-1157425.1256
 10
-595201.5214
 20
-1157427.7988
 10
-595205.4437
 20
-1157429.6567
 10
-595235.8303
 20
-1157441.5867
 10
-595252.2465
 20
-1157448.5319
 10
-595282.399
 20
-1157459.356
 10
-595300.9488
 20
-1157466.0148
 10
-595310.7451
 20
-1157468.1783
 10
-595324.7299
 20
-1157468.1783
 10
-595332.9278
 20
-1157468.1783
 10
-595333.9855
 20
-1157468.1979
 10
-595334.626
 20
-1157468.1742
 10
-595338.1179
 20
-1157467.5584
 10
-595340.2166
 20
-1157466.7576
 10
-595341.1757
 20
-1157466.3036
 10
-595350.3462
 20
-1157461.4732
 10
-595359.1148
 20
-1157455.9466
 10
-595367.4287
 20
-1157449.7571
 10
-595370.7214
 20
-1157447.0129
 10
-595371.4605
 20
-1157446.4005
 10
-595375.2796
 20
-1157443.8795
 10
-595379.4875
 20
-1157442.081
 10
-595383.9487
 20
-1157441.0626
 10
-595388.5201
 20
-1157440.8574
 10
-595392.6335
 20
-1157441.3793
 10
-595403.7887
 20
-1157443.7278
 10
-595421.4691
 20
-1157449.7958
 10
-595446.1787
 20
-1157458.7539
 10
-595478.3493
 20
-1157472.5488
 10
-595486.6891
 20
-1157475.5272
 10
-595501.8035
 20
-1157478.8203
 10
-595519.4588
 20
-1157480.7942
 10
-595524.9745
 20
-1157481.7288
 10
-595531.0561
 20
-1157483.5338
 10
-595536.857
 20
-1157486.1017
 10
-595542.2818
 20
-1157489.3903
 10
-595547.2416
 20
-1157493.3457
 10
-595551.6549
 20
-1157497.9028
 10
-595555.4492
 20
-1157502.9868
 10
-595556.8502
 20
-1157505.2722
 10
-595558.8482
 20
-1157508.6824
 10
-595561.8925
 20
-1157513.6759
 10
-595563.4354
 20
-1157516.1803
 10
-595563.482
 20
-1157516.2053
 10
-595573.4466
 20
-1157522.4742
 10
-595594.2199
 20
-1157536.4459
 10
-595601.1396
 20
-1157542.7031
 10
-595609.455
 20
-1157550.222
 10
-595616.6046
 20
-1157559.1592
 10
-595630.7512
 20
-1157576.9781
 10
-595649.2736
 20
-1157601.4155
 10
-595656.7702
 20
-1157611.0201
 10
-595665.6139
 20
-1157623.348
 10
-595671.9734
 20
-1157634.645
 10
-595676.2419
 20
-1157642.228
 10
-595678.1367
 20
-1157648.7422
 10
-595683.8116
 20
-1157668.2533
 10
-595686.7588
 20
-1157678.387
 10
-595681.8308
 20
-1157693.6776
 10
-595679.8649
 20
-1157699.8448
 10
-595677.158
 20
-1157705.5494
 10
-595669.085
 20
-1157722.5629
 10
-595665.4465
 20
-1157732.1453
 10
-595661.464
 20
-1157742.6338
 10
-595658.6912
 20
-1157755.5931
 10
-595656.9114
 20
-1157765.9357
 10
-595655.734
 20
-1157774.5949
 10
-595656.4091
 20
-1157777.9993
 10
-595659.1061
 20
-1157786.0475
 10
-595665.1062
 20
-1157794.0411
 10
-595676.4392
 20
-1157803.2753
 10
-595686.2352
 20
-1157811.2665
 10
-595694.3139
 20
-1157818.709
 10
-595699.0151
 20
-1157824.4396
 10
-595704.7299
 20
-1157831.4058
 10
-595709.65
 20
-1157835.9177
 10
-595713.2359
 20
-1157838.554
 10
-595717.9777
 20
-1157840.5815
 10
-595731.5078
 20
-1157843.2909
 10
-595745.4647
 20
-1157846.0823
 10
-595747.3296
 20
-1157846.5333
 10
-595751.468
 20
-1157848.1365
 10
-595755.2413
 20
-1157850.4729
 10
-595756.7606
 20
-1157851.7209
 10
-595764.9837
 20
-1157857.7511
 10
-595766.7976
 20
-1157858.6086
 10
-595777.7769
 20
-1157865.835
 10
-595782.83
 20
-1157871.7748
 10
-595788.02
 20
-1157881.525
 10
-595789.414
 20
-1157893.269
 10
-595787.9169
 20
-1157907.111
 10
-595780.774
 20
-1157915.9899
 10
-595774.5298
 20
-1157920.1806
 10
-595769.3504
 20
-1157923.3408
 10
-595769.0167
 20
-1157923.7322
 10
-595759.9304
 20
-1157937.068
 10
-595754.6342
 20
-1157945.3065
 10
-595750.3669
 20
-1157962.3763
 10
-595746.4097
 20
-1157990.3901
 10
-595744.2713
 20
-1158018.9009
 10
-595747.5995
 20
-1158062.7855
 10
-595747.6176
 20
-1158062.7841
 10
-595747.6053
 20
-1158062.8632
 10
-595747.6176
 20
-1158063.0251
 10
-595747.6176
 20
-1158068.5709
 10
-595746.7194
 20
-1158068.5643
 10
-595744.9948
 20
-1158079.6621
 10
-595740.6546
 20
-1158100.3982
 10
-595734.5938
 20
-1158126.9507
 10
-595734.5922
 20
-1158126.9625
 10
-595733.8611
 20
-1158132.0798
 10
-595731.6598
 20
-1158147.4893
 10
-595731.328
 20
-1158149.3723
 10
-595729.2813
 20
-1158168.4013
 10
-595723.9517
 20
-1158189.7842
 10
-595712.2029
 20
-1158209.1414
 10
-595696.9383
 20
-1158233.747
 10
-595696.0482
 20
-1158235.1819
 10
-595685.5583
 20
-1158251.3755
 10
-595666.2252
 20
-1158289.1193
 10
-595662.7527
 20
-1158296.7496
 10
-595659.9331
 20
-1158304.8965
 10
-595657.9005
 20
-1158313.2745
 10
-595656.6737
 20
-1158321.8079
 10
-595656.2634
 20
-1158330.4191
 10
-595656.402
 20
-1158335.4287
 10
-595654.5763
 20
-1158372.1356
 10
-595653.6118
 20
-1158388.7726
 10
-595654.7155
 20
-1158400.5968
 10
-595655.2996
 20
-1158406.8563
 10
-595654.5763
 20
-1158420.1176
 10
-595650.4774
 20
-1158443.9882
 10
-595648.0662
 20
-1158455.3207
 10
-595631.6704
 20
-1158485.219
 10
-595622.2667
 20
-1158501.3737
 10
-595605.1475
 20
-1158521.6274
 10
-595593.3329
 20
-1158533.9244
 10
-595585.6171
 20
-1158542.3633
 10
-595570.7741
 20
-1158555.817
 10
-595568.5387
 20
-1158558.1901
 10
-595562.8812
 20
-1158562.9711
 10
-595545.1097
 20
-1158581.1831
 10
-595513.5235
 20
-1158610.1169
 10
-595480.1681
 20
-1158642.2443
 10
-595480.403
 20
-1158642.2325
 10
-595478.1806
 20
-1158644.1587
 10
-595465.3004
 20
-1158657.3756
 10
-595464.7353
 20
-1158657.9752
 10
-595461.9838
 20
-1158661.6188
 10
-595459.9486
 20
-1158665.7059
 10
-595458.699
 20
-1158670.0977
 10
-595458.2778
 20
-1158674.644
 10
-595458.2778
 20
-1158674.7059
 10
-595459.9376
 20
-1158719.1916
 10
-595464.1908
 20
-1158736.3553
 10
-595429.9905
 20
-1158745.4366
 10
-595426.2664
 20
-1158732.1294
 10
-595423.4441
 20
-1158683.9409
 10
-595426.6133
 20
-1158666.5111
 10
-595428.2761
 20
-1158660.5992
 10
-595429.2263
 20
-1158656.1647
 10
-595430.7634
 20
-1158648.9914
 10
-595431.3518
 20
-1158646.2459
 10
-595433.325
 20
-1158642.6477
 10
-595434.5954
 20
-1158638.1308
 10
-595434.7111
 20
-1158635.9006
 10
-595434.2973
 20
-1158631.6998
 10
-595433.0721
 20
-1158627.6603
 10
-595431.0822
 20
-1158623.9375
 10
-595430.978
 20
-1158623.7831
 10
-595428.2139
 20
-1158618.9916
 10
-595426.1834
 20
-1158613.8181
 10
-595424.9467
 20
-1158608.3998
 10
-595424.5315
 20
-1158602.8576
 10
-595424.9467
 20
-1158597.3154
 10
-595425.9985
 20
-1158592.5154
 10
-595426.4374
 20
-1158590.7151
 10
-595426.8541
 20
-1158586.4848
 10
-595426.4374
 20
-1158582.2544
 10
-595425.4307
 20
-1158578.7579
 10
-595415.1215
 20
-1158551.726
 10
-595413.5835
 20
-1158546.6791
 10
-595412.375
 20
-1158540.214
 10
-595411.9701
 20
-1158533.6496
 10
-595412.375
 20
-1158527.085
 10
-595413.5835
 20
-1158520.62
 10
-595414.0601
 20
-1158518.8536
 10
-595418.7514
 20
-1158502.5792
 10
-595418.7514
 20
-1158484.4955
 10
-595419.0472
 20
-1158481.8143
 10
-595420.2904
 20
-1158476.0995
 10
-595422.3341
 20
-1158470.6199
 10
-595425.137
 20
-1158465.487
 10
-595428.6418
 20
-1158460.8052
 10
-595432.7772
 20
-1158456.6697
 10
-595434.6279
 20
-1158455.1582
 10
-595435.2804
 20
-1158454.6562
 10
-595437.7973
 20
-1158452.72
 10
-595439.4754
 20
-1158451.4293
 10
-595440.0273
 20
-1158450.9858
 10
-595442.084
 20
-1158448.929
 10
-595443.7524
 20
-1158446.5463
 10
-595444.9817
 20
-1158443.9102
 10
-595445.7346
 20
-1158441.1005
 10
-595445.9881
 20
-1158438.2029
 10
-595445.7346
 20
-1158435.3053
 10
-595444.9817
 20
-1158432.4957
 10
-595444.8296
 20
-1158432.0937
 10
-595442.4814
 20
-1158422.5709
 10
-595442.3752
 20
-1158422.0685
 10
-595442.2592
 20
-1158420.7418
 10
-595442.3752
 20
-1158419.415
 10
-595442.7199
 20
-1158418.1286
 10
-595443.2827
 20
-1158416.9217
 10
-595444.0467
 20
-1158415.8307
 10
-595444.9884
 20
-1158414.889
 10
-595446.0793
 20
-1158414.1251
 10
-595447.2863
 20
-1158413.5623
 10
-595448.5726
 20
-1158413.2176
 10
-595449.8993
 20
-1158413.1016
 10
-595451.226
 20
-1158413.2176
 10
-595452.5125
 20
-1158413.5623
 10
-595452.8913
 20
-1158413.7117
 10
-595466.5928
 20
-1158416.5662
 10
-595469.2314
 20
-1158417.194
 10
-595475.1878
 20
-1158419.2159
 10
-595480.8293
 20
-1158421.9982
 10
-595486.0596
 20
-1158425.4929
 10
-595489.5089
 20
-1158428.4067
 10
-595492.6383
 20
-1158430.9811
 10
-595497.1548
 20
-1158433.7488
 10
-595502.0487
 20
-1158435.7759
 10
-595507.1993
 20
-1158437.0124
 10
-595507.4658
 20
-1158437.0535
 10
-595536.312
 20
-1158441.1642
 10
-595566.27
 20
-1158445.8058
 10
-595569.1054
 20
-1158446.1312
 10
-595572.0937
 20
-1158446.2311
 10
-595574.5114
 20
-1158446.1312
 10
-595579.8573
 20
-1158445.3254
 10
-595585.0233
 20
-1158443.7319
 10
-595589.8943
 20
-1158441.3861
 10
-595594.3611
 20
-1158438.3408
 10
-595598.3242
 20
-1158434.6635
 10
-595601.6949
 20
-1158430.4367
 10
-595604.398
 20
-1158425.7548
 10
-595604.668
 20
-1158425.1813
 10
-595605.1916
 20
-1158419.4216
 10
-595608.5939
 20
-1158410.3488
 10
-595612.5772
 20
-1158399.7266
 10
-595613.4633
 20
-1158397.364
 10
-595614.3163
 20
-1158391.606
 10
-595616.1659
 20
-1158379.1216
 10
-595615.3524
 20
-1158372.2072
 10
-595614.072
 20
-1158361.3232
 10
-595613.1772
 20
-1158353.7173
 10
-595610.0179
 20
-1158336.025
 10
-595607.7841
 20
-1158323.5159
 10
-595606.3777
 20
-1158315.6405
 10
-595600.9767
 20
-1158300.0536
 10
-595596.0135
 20
-1158287.6455
 10
-595591.8167
 20
-1158277.1534
 10
-595588.244
 20
-1158271.514
 10
-595580.537
 20
-1158262.3248
 10
-595572.2668
 20
-1158252.4643
 10
-595556.9409
 20
-1158234.1912
 10
-595547.3746
 20
-1158224.1342
 10
-595540.5455
 20
-1158218.0239
 10
-595529.4627
 20
-1158208.1078
 10
-595515.3636
 20
-1158195.4929
 10
-595509.5169
 20
-1158190.2615
 10
-595501.4754
 20
-1158179.6533
 10
-595498.0716
 20
-1158175.1629
 10
-595490.1341
 20
-1158164.5795
 10
-595484.5897
 20
-1158155.8548
 10
-595478.2776
 20
-1158143.1307
 10
-595478.0796
 20
-1158140.4233
 10
-595475.4272
 20
-1158133.1899
 10
-595474.4629
 20
-1158127.162
 10
-595472.2927
 20
-1158118.2407
 10
-595470.6049
 20
-1158112.2129
 10
-595470.1227
 20
-1158103.5327
 10
-595469.1582
 20
-1158070.2587
 10
-595472.0481
 20
-1158037.845
 10
-595474.635
 20
-1158019.9546
 10
-595476.2476
 20
-1158008.1298
 10
-595476.252
 20
-1158008.0974
 10
-595476.7774
 20
-1158004.2458
 10
-595477.2355
 20
-1158004.1686
 10
-595477.9208
 20
-1158001.431
 10
-595485.5535
 20
-1157982.643
 10
-595493.3228
 20
-1157963.5186
 10
-595496.734
 20
-1157949.5475
 10
-595498.9326
 20
-1157936.9844
 10
-595502.5006
 20
-1157916.5955
 10
-595506.385
 20
-1157894.3444
 10
-595509.0625
 20
-1157878.949
 10
-595510.1819
 20
-1157868.8401
 10
-595510.148
 20
-1157848.6732
 10
-595510.6852
 20
-1157828.9957
 10
-595510.0468
 20
-1157823.5246
 10
-595509.4136
 20
-1157818.0987
 10
-595508.5595
 20
-1157796.8768
 10
-595499.1388
 20
-1157776.6032
 10
-595495.0204
 20
-1157762.8752
 10
-595492.1157
 20
-1157762.1006
 10
-595456.7436
 20
-1157752.668
 10
-595427.999
 20
-1157741.6799
 10
-595407.1844
 20
-1157732.6471
 10
-595387.685
 20
-1157724.4116
 10
-595383.4203
 20
-1157723.2389
 10
-595367.8466
 20
-1157718.9562
 10
-595331.0407
 20
-1157708.6454
 10
-595312.6176
 20
-1157702.2372
 10
-595311.5285
 20
-1157701.8792
 10
-595300.3889
 20
-1157698.685
 10
-595289.0536
 20
-1157696.2756
 10
-595288.4612
 20
-1157696.1723
 10
-595284.2228
 20
-1157695.2407
 10
-595278.3067
 20
-1157693.2324
 10
-595272.7032
 20
-1157690.4691
 10
-595267.5083
 20
-1157686.998
 10
-595266.2213
 20
-1157685.9747
 10
-595254.1526
 20
-1157676.0359
 10
-595222.565
 20
-1157661.4804
 10
-595190.6389
 20
-1157645.7098
 10
-595176.4674
 20
-1157637.9799
 10
-595176.1107
 20
-1157637.614
 10
-595173.3956
 20
-1157634.1614
 10
-595172.71
 20
-1157633.0242
 10
-595171.3828
 20
-1157630.2573
 10
-595170.1454
 20
-1157626.0429
 10
-595169.7279
 20
-1157621.6704
 10
-595170.1454
 20
-1157617.2981
 10
-595171.3828
 20
-1157613.0837
 10
-595173.3955
 20
-1157609.1796
 10
-595176.1106
 20
-1157605.727
 10
-595179.4302
 20
-1157602.8506
 10
-595183.234
 20
-1157600.6545
 10
-595187.3847
 20
-1157599.2178
 10
-595188.363
 20
-1157599.0029
 10
-595201.8073
 20
-1157596.3526
 10
-595224.056
 20
-1157598.5504
 10
-595242.4756
 20
-1157602.8011
 10
-595260.6859
 20
-1157607.4367
 10
-595290.4387
 20
-1157618.77
 10
-595315.3185
 20
-1157629.1401
 10
-595331.4811
 20
-1157633.1157
 10
-595349.0825
 20
-1157632.6334
 10
-595352.313
 20
-1157630.7526
 10
-595352.3502
 20
-1157622.1699
 10
-595350.9014
 20
-1157619.4172
 10
-595349.9129
 20
-1157617.5391
 10
-595347.1493
 20
-1157612.8353
 10
-595342.5411
 20
-1157606.3532
 10
-595337.2907
 20
-1157600.3793
 10
-595331.4539
 20
-1157594.9769
 10
-595325.0927
 20
-1157590.2032
 10
-595318.2743
 20
-1157586.1089
 10
-595311.0711
 20
-1157582.7375
 10
-595303.5593
 20
-1157580.1245
 10
-595302.6445
 20
-1157579.8643
 10
-595287.7093
 20
-1157575.7157
 10
-595287.3788
 20
-1157575.4497
 10
-595286.1068
 20
-1157574.1778
 10
-595285.075
 20
-1157572.7042
 10
-595284.3147
 20
-1157571.0738
 10
-595283.8492
 20
-1157569.3362
 10
-595283.7721
 20
-1157568.8243
 10
-595282.8744
 20
-1157561.6426
 10
-595282.8112
 20
-1157561.1382
 10
-595282.3327
 20
-1157557.3099
 10
-595281.7162
 20
-1157552.3774
 10
-595281.1466
 20
-1157548.902
 10
-595279.5144
 20
-1157542.9436
 10
-595277.1026
 20
-1157537.256
 10
-595273.9543
 20
-1157531.9406
 10
-595270.1256
 20
-1157527.0922
 10
-595265.6847
 20
-1157522.7974
 10
-595260.7112
 20
-1157519.1328
 10
-595255.2935
 20
-1157516.1639
 10
-595249.5285
 20
-1157513.9434
 10
-595243.5189
 20
-1157512.5114
 10
-595237.372
 20
-1157511.8929
 10
-595231.1977
 20
-1157512.0994
 10
-595225.1059
 20
-1157513.1269
 10
-595219.2054
 20
-1157514.9573
 10
-595217.0558
 20
-1157515.8478
 10
-595208.2384
 20
-1157519.9626
 10
-595206.408
 20
-1157520.7413
 10
-595203.2542
 20
-1157521.5864
 10
-595200.0016
 20
-1157521.8709
 10
-595196.7489
 20
-1157521.5864
 10
-595193.5949
 20
-1157520.7413
 10
-595190.6358
 20
-1157519.3614
 10
-595187.9611
 20
-1157517.4886
 10
-595185.6524
 20
-1157515.1798
 10
-595183.7796
 20
-1157512.5052
 10
-595182.739
 20
-1157510.4109
 10
-595181.4847
 20
-1157507.7969
 10
-595178.7939
 20
-1157503.6781
 10
-595175.4618
 20
-1157500.0585
 10
-595171.5793
 20
-1157497.0366
 10
-595167.2523
 20
-1157494.6949
 10
-595162.599
 20
-1157493.0975
 10
-595160.1108
 20
-1157492.5792
 10
-595156.7091
 20
-1157492.3019
 10
-595152.6115
 20
-1157492.7055
 10
-595148.6714
 20
-1157493.9008
 10
-595145.0401
 20
-1157495.8417
 10
-595142.5542
 20
-1157497.7881
 10
-595142.2025
 20
-1157498.0959
 10
-595140.5903
 20
-1157499.2247
 10
-595138.8068
 20
-1157500.0565
 10
-595136.9059
 20
-1157500.5658
 10
-595134.9453
 20
-1157500.7372
 10
-595132.9847
 20
-1157500.5658
 10
-595131.0838
 20
-1157500.0565
 10
-595129.5843
 20
-1157499.3833
 10
-595121.7379
 20
-1157496.2447
 10
-595111.8236
 20
-1157495.4515
 10
-595093.5194
 20
-1157493.9872
 10
-595092.3828
 20
-1157493.903
 10
-595083.3901
 20
-1157493.6982
 10
-595074.416
 20
-1157494.3121
 10
-595065.5349
 20
-1157495.7394
 10
-595056.8205
 20
-1157497.9684
 10
-595048.3448
 20
-1157500.9807
 10
-595040.3455
 20
-1157504.6646
 10
-595035.9785
 20
-1157506.9578
 10
-595029.8452
 20
-1157510.3187
 10
-595025.0858
 20
-1157512.8814
 10
-595022.1024
 20
-1157514.4879
 10
-595020.696
 20
-1157515.3509
 10
-595017.4619
 20
-1157518.0049
 10
-595015.6192
 20
-1157520.1065
 10
-595008.6429
 20
-1157526.1528
 10
-595006.4188
 20
-1157527.9672
 10
-595001.1796
 20
-1157531.468
 10
-594995.5282
 20
-1157534.2548
 10
-594989.5613
 20
-1157536.2803
 10
-594983.3812
 20
-1157537.5095
 10
-594977.0935
 20
-1157537.9217
 10
-594970.8058
 20
-1157537.5095
 10
-594964.6256
 20
-1157536.2803
 10
-594958.6589
 20
-1157534.2548
 10
-594953.0075
 20
-1157531.468
 10
-594947.7682
 20
-1157527.9672
 10
-594943.0942
 20
-1157523.873
 10
-594931.1731
 20
-1157515.0535
 10
-594931.0218
 20
-1157514.9412
 10
-594925.7328
 20
-1157510.5033
 10
-594920.9949
 20
-1157505.4814
 10
-594916.872
 20
-1157499.9434
 10
-594914.1667
 20
-1157495.4017
 10
-594913.4256
 20
-1157494.0909
 10
-594910.3879
 20
-1157489.7723
 10
-594906.7265
 20
-1157485.9678
 10
-594902.5273
 20
-1157482.7669
 10
-594897.8886
 20
-1157480.2445
 10
-594892.9194
 20
-1157478.4597
 10
-594887.7359
 20
-1157477.4545
 10
-594882.4597
 20
-1157477.2523
 10
-594880.2346
 20
-1157477.4097
 10
-594876.392
 20
-1157477.9023
 10
-594868.5483
 20
-1157479.5142
 10
-594865.1105
 20
-1157480.4878
 10
-594857.4797
 20
-1157483.0107
 10
-594846.8447
 20
-1157487.1298
 10
-594844.0688
 20
-1157488.1371
 10
-594839.2562
 20
-1157489.1742
 10
-594834.3374
 20
-1157489.3832
 10
-594834.0507
 20
-1157489.3696
 10
-594811.7803
 20
-1157490.9536
 10
-594800.2336
 20
-1157492.495
 10
-594797.3982
 20
-1157491.8843
 10
-594806.6641
 20
-1157439.9468
 10
-594811.5339
 20
-1157443.1933
 10
-594812.3389
 20
-1157443.6932
 10
-594814.6633
 20
-1157444.7771
 10
-594817.1407
 20
-1157445.4409
 10
-594819.6958
 20
-1157445.6645
 10
-594822.2509
 20
-1157445.4409
 10
-594824.2672
 20
-1157444.9363
 10
-594830.3098
 20
-1157443.2099
 10
-594836.3048
 20
-1157441.497
 10
-594838.0704
 20
-1157440.9926
 10
-594820.3432
 20
-1157430.2295
 10
-594809.5651
 20
-1157423.6857
 10
-594812.8684
 20
-1157405.1695
 10
-594816.9061
 20
-1157406.5859
 10
-594820.9486
 20
-1157408.0038
 10
-594836.1388
 20
-1157415.4182
 10
-594858.3817
 20
-1157424.4601
 10
-594863.8068
 20
-1157426.4492
 10
-594863.8679
 20
-1157426.4716
 10
-594868.4644
 20
-1157427.7032
 10
-594873.2047
 20
-1157428.1179
 10
-594877.9452
 20
-1157427.7032
 10
-594882.5415
 20
-1157426.4716
 10
-594885.8689
 20
-1157425.0027
 10
-594886.1125
 20
-1157424.8687
 10
-594887.0757
 20
-1157424.1942
 10
-594887.9073
 20
-1157423.3627
 10
-594888.5818
 20
-1157422.3994
 10
-594889.0787
 20
-1157421.3337
 10
-594889.1241
 20
-1157421.2051
 10
-594889.1494
 20
-1157421.133
 10
-594889.4279
 20
-1157420.5358
 10
-594889.8058
 20
-1157419.996
 10
-594890.2717
 20
-1157419.5301
 10
-594890.8116
 20
-1157419.1522
 10
-594891.4087
 20
-1157418.8737
 10
-594892.0452
 20
-1157418.7032
 10
-594892.7016
 20
-1157418.6458
 10
-594893.3579
 20
-1157418.7032
 10
-594893.4808
 20
-1157418.727
 10
-594901.5002
 20
-1157418.1542
 97
0
 92
2
 72
0
 73
1
 93
190
 10
-595616.0255
 20
-1158058.4449
 10
-595616.3009
 20
-1158050.7305
 10
-595616.4733
 20
-1158045.9056
 10
-595616.4893
 20
-1158045.4585
 10
-595616.8424
 20
-1158040.3128
 10
-595618.0478
 20
-1158032.4438
 10
-595620.0432
 20
-1158024.7372
 10
-595622.8081
 20
-1158017.2721
 10
-595626.3139
 20
-1158010.1248
 10
-595630.5248
 20
-1158003.3691
 10
-595635.3977
 20
-1157997.0738
 10
-595640.8824
 20
-1157991.304
 10
-595646.9226
 20
-1157986.1185
 10
-595653.4565
 20
-1157981.5708
 10
-595660.4169
 20
-1157977.7075
 10
-595667.7326
 20
-1157974.5681
 10
-595673.896
 20
-1157972.5702
 10
-595690.0817
 20
-1157969.1629
 10
-595707.0113
 20
-1157966.4898
 10
-595712.5335
 20
-1157965.6177
 10
-595716.7446
 20
-1157964.9529
 10
-595717.1554
 20
-1157964.8813
 10
-595720.2718
 20
-1157963.8687
 10
-595723.0385
 20
-1157962.1128
 10
-595725.2818
 20
-1157959.7241
 10
-595725.7054
 20
-1157959.1043
 10
-595731.5449
 20
-1157945.2192
 10
-595737.9798
 20
-1157938.1046
 10
-595746.4899
 20
-1157929.5943
 10
-595747.6019
 20
-1157928.1078
 10
-595749.5974
 20
-1157926.4868
 10
-595749.9149
 20
-1157926.1693
 10
-595758.1129
 20
-1157917.9713
 10
-595761.6508
 20
-1157914.4334
 10
-595763.2795
 20
-1157912.656
 10
-595766.0423
 20
-1157908.7103
 10
-595768.078
 20
-1157904.3448
 10
-595769.3247
 20
-1157899.6921
 10
-595769.7445
 20
-1157894.8937
 10
-595769.3247
 20
-1157890.0952
 10
-595768.078
 20
-1157885.4424
 10
-595767.1331
 20
-1157883.1675
 10
-595764.5773
 20
-1157875.5001
 10
-595764.4692
 20
-1157875.1898
 10
-595763.5832
 20
-1157873.29
 10
-595762.3808
 20
-1157871.5728
 10
-595760.8986
 20
-1157870.0905
 10
-595759.1814
 20
-1157868.8881
 10
-595758.9432
 20
-1157868.7541
 10
-595745.5053
 20
-1157861.64
 10
-595733.832
 20
-1157856.2369
 10
-595720.9546
 20
-1157851.2842
 10
-595709.2419
 20
-1157845.546
 10
-595701.032
 20
-1157839.511
 10
-595698.1366
 20
-1157835.9815
 10
-595692.0793
 20
-1157828.5975
 10
-595688.4839
 20
-1157824.215
 10
-595683.6026
 20
-1157819.7188
 10
-595676.899
 20
-1157813.5439
 10
-595668.7296
 20
-1157807.5375
 10
-595656.581
 20
-1157797.006
 10
-595649.948
 20
-1157786.5419
 10
-595648.4526
 20
-1157779.0069
 10
-595647.86
 20
-1157773.1206
 10
-595648.9701
 20
-1157764.9614
 10
-595651.5608
 20
-1157750.682
 10
-595653.7679
 20
-1157740.364
 10
-595654.7772
 20
-1157737.7056
 10
-595659.2983
 20
-1157725.7983
 10
-595663.7227
 20
-1157715.2006
 10
-595672.411
 20
-1157696.893
 10
-595678.445
 20
-1157678.1089
 10
-595670.3019
 20
-1157645.417
 10
-595660.45
 20
-1157627.025
 10
-595656.3565
 20
-1157621.9193
 10
-595652.62
 20
-1157617.2588
 10
-595641.0639
 20
-1157602.4539
 10
-595627.9308
 20
-1157584.9744
 10
-595620.6054
 20
-1157575.8535
 10
-595614.0407
 20
-1157568.1382
 10
-595604.7299
 20
-1157557.196
 10
-595596.8661
 20
-1157549.8578
 10
-595589.2279
 20
-1157542.73
 10
-595580.0368
 20
-1157536.5475
 10
-595574.615
 20
-1157532.9008
 10
-595566.5896
 20
-1157527.5024
 10
-595566.5896
 20
-1157527.7481
 10
-595566.5896
 20
-1157531.847
 10
-595566.3907
 20
-1157534.1217
 10
-595565.7997
 20
-1157536.3271
 10
-595564.8347
 20
-1157538.3965
 10
-595563.5251
 20
-1157540.2668
 10
-595561.9106
 20
-1157541.8813
 10
-595561.392
 20
-1157542.2946
 10
-595555.9153
 20
-1157549.4142
 10
-595549.2883
 20
-1157560.9705
 10
-595541.8155
 20
-1157577.411
 10
-595540.0282
 20
-1157581.7858
 10
-595537.9955
 20
-1157588.5754
 10
-595536.7648
 20
-1157595.5551
 10
-595536.3526
 20
-1157602.6304
 10
-595536.7648
 20
-1157609.7058
 10
-595537.9955
 20
-1157616.6854
 10
-595540.0282
 20
-1157623.475
 10
-595541.33
 20
-1157626.7533
 10
-595556.4451
 20
-1157642.7576
 10
-595559.0529
 20
-1157645.5187
 10
-595560.651
 20
-1157647.2109
 10
-595562.9272
 20
-1157649.3572
 10
-595566.7856
 20
-1157652.0589
 10
-595569.731
 20
-1157653.528
 10
-595582.028
 20
-1157657.6268
 10
-595596.7426
 20
-1157662.1208
 10
-595619.338
 20
-1157665.202
 10
-595630.1905
 20
-1157668.9149
 10
-595642.3788
 20
-1157676.4153
 10
-595643.3394
 20
-1157677.1082
 10
-595644.3369
 20
-1157678.1058
 10
-595645.1461
 20
-1157679.2614
 10
-595645.7425
 20
-1157680.5401
 10
-595646.1075
 20
-1157681.9028
 10
-595646.2305
 20
-1157683.3082
 10
-595646.1075
 20
-1157684.7137
 10
-595645.7425
 20
-1157686.0764
 10
-595645.5163
 20
-1157686.6326
 10
-595631.3103
 20
-1157692.9464
 10
-595628.0482
 20
-1157694.744
 10
-595624.74
 20
-1157697.4589
 10
-595622.0251
 20
-1157700.767
 10
-595620.0078
 20
-1157704.5412
 10
-595618.7655
 20
-1157708.6365
 10
-595618.346
 20
-1157712.8954
 10
-595618.4213
 20
-1157714.7067
 10
-595620.5171
 20
-1157725.1861
 10
-595622.7223
 20
-1157736.2121
 10
-595623.4506
 20
-1157746.4073
 10
-595623.834
 20
-1157765.4846
 10
-595623.3813
 20
-1157780.4201
 10
-595622.9357
 20
-1157795.1293
 10
-595622.7223
 20
-1157829.3838
 10
-595615.7057
 20
-1157856.8973
 10
-595606.4597
 20
-1157880.0126
 10
-595606.3023
 20
-1157880.5634
 10
-595604.3214
 20
-1157885.8746
 10
-595601.6047
 20
-1157890.8497
 10
-595598.2076
 20
-1157895.3876
 10
-595594.6831
 20
-1157898.9698
 10
-595594.2271
 20
-1157899.3824
 10
-595589.4928
 20
-1157904.2593
 10
-595585.3685
 20
-1157909.6618
 10
-595581.9121
 20
-1157915.5142
 10
-595581.7906
 20
-1157915.7523
 10
-595570.581
 20
-1157937.8449
 10
-595551.1531
 20
-1157978.986
 10
-595540.4908
 20
-1158002.0799
 10
-595537.2431
 20
-1158009.1587
 10
-595537.1718
 20
-1158009.2687
 10
-595532.4236
 20
-1158016.6068
 10
-595521.8469
 20
-1158033.4432
 10
-595514.273
 20
-1158046.0662
 10
-595507.7368
 20
-1158050.4871
 10
-595501.3103
 20
-1158063.7437
 10
-595502.0403
 20
-1158076.2084
 10
-595503.0987
 20
-1158099.7563
 10
-595506.0091
 20
-1158115.3669
 10
-595506.5383
 20
-1158119.071
 10
-595512.8426
 20
-1158132.407
 10
-595522.4449
 20
-1158141.6288
 10
-595532.5717
 20
-1158153.2026
 10
-595537.2523
 20
-1158155.7512
 10
-595539.9266
 20
-1158157.2074
 10
-595547.1892
 20
-1158156.5472
 10
-595567.7118
 20
-1158154.6815
 10
-595584.1705
 20
-1158152.4791
 10
-595594.7796
 20
-1158150.5503
 10
-595605.8826
 20
-1158147.3842
 10
-595606.669
 20
-1158147.1293
 10
-595608.5015
 20
-1158146.2748
 10
-595610.1579
 20
-1158145.115
 10
-595611.5876
 20
-1158143.6853
 10
-595612.7474
 20
-1158142.0289
 10
-595613.6019
 20
-1158140.1964
 10
-595614.1252
 20
-1158138.2433
 10
-595614.3014
 20
-1158136.2291
 10
-595614.1252
 20
-1158134.2148
 10
-595613.8759
 20
-1158133.1161
 10
-595613.1467
 20
-1158120.7203
 10
-595613.266
 20
-1158110.0934
 10
-595614.1001
 20
-1158095.4949
 10
-595616.0255
 20
-1158058.4449
 97
0
 75
0
 76
1
 98
0
  0
HATCH
  5
20021
100
AcDbEntity
  8
plocha Q20
100
AcDbHatch
 10
0
 20
0
 30
0
210
0
220
0
230
1
  2
SOLID
 70
1
 71
0
 91
1
 92
2
 72
0
 73
1
 93
217
 10
-597536.6241
 20
-1164052.0326
 10
-597556.697
 20
-1164050.8856
 10
-597601.9959
 20
-1164046.9948
 10
-597620.253
 20
-1164044.9663
 10
-597626.0029
 20
-1164044.3275
 10
-597629.6555
 20
-1164044.1251
 10
-597634.8297
 20
-1164044.5323
 10
-597639.8762
 20
-1164045.744
 10
-597641.8946
 20
-1164046.4728
 10
-597646.7498
 20
-1164059.0966
 10
-597660.6746
 20
-1164095.3008
 10
-597676.2171
 20
-1164140.9619
 10
-597678.1974
 20
-1164145.5721
 10
-597680.9803
 20
-1164149.9728
 10
-597684.4331
 20
-1164153.8704
 10
-597687.2648
 20
-1164156.2928
 10
-597708.1284
 20
-1164167.0896
 10
-597717.5228
 20
-1164170.6125
 10
-597734.9722
 20
-1164174.1202
 10
-597749.3425
 20
-1164174.6951
 10
-597754.2482
 20
-1164175.0203
 10
-597762.8291
 20
-1164176.2173
 10
-597771.2628
 20
-1164178.2008
 10
-597779.4774
 20
-1164180.9541
 10
-597787.403
 20
-1164184.4536
 10
-597794.972
 20
-1164188.6695
 10
-597801.3198
 20
-1164192.9683
 10
-597803.7285
 20
-1164194.9953
 10
-597806.6589
 20
-1164198.3496
 10
-597808.9434
 20
-1164202.1731
 10
-597810.5085
 20
-1164206.3431
 10
-597811.3036
 20
-1164210.7254
 10
-597811.3682
 20
-1164214.2805
 10
-597811.2459
 20
-1164216.3595
 10
-597810.0401
 20
-1164228.8579
 10
-597810.028
 20
-1164228.9417
 10
-597808.9348
 20
-1164236.6055
 10
-597808.8289
 20
-1164236.9231
 10
-597804.4899
 20
-1164249.9406
 10
-597783.0238
 20
-1164285.8318
 10
-597775.0899
 20
-1164296.2902
 10
-597766.1336
 20
-1164314.2787
 10
-597757.68
 20
-1164346.2819
 10
-597751.6547
 20
-1164369.092
 10
-597737.2259
 20
-1164404.0466
 10
-597718.3846
 20
-1164454.0918
 10
-597710.0493
 20
-1164480.2092
 10
-597709.9293
 20
-1164480.5818
 10
-597707.1216
 20
-1164487.8961
 10
-597703.5647
 20
-1164494.8771
 10
-597699.2975
 20
-1164501.4478
 10
-597695.8689
 20
-1164505.8165
 10
-597679.196
 20
-1164526.6968
 10
-597676.077
 20
-1164530.8776
 10
-597671.8268
 20
-1164537.6964
 10
-597668.2885
 20
-1164544.9101
 10
-597665.498
 20
-1164552.4447
 10
-597663.484
 20
-1164560.223
 10
-597663.1732
 20
-1164561.8174
 10
-597660.2696
 20
-1164576.822
 10
-597660.3921
 20
-1164576.8352
 10
-597658.6317
 20
-1164585.2855
 10
-597658.5261
 20
-1164585.7927
 10
-597654.991
 20
-1164602.7612
 10
-597650.8382
 20
-1164624.8028
 10
-597650.7977
 20
-1164625.012
 10
-597649.6002
 20
-1164628.9593
 10
-597647.6557
 20
-1164632.5973
 10
-597645.0388
 20
-1164635.7859
 10
-597641.8501
 20
-1164638.4028
 10
-597638.2121
 20
-1164640.3473
 10
-597634.2647
 20
-1164641.5449
 10
-597630.1596
 20
-1164641.9492
 10
-597626.0543
 20
-1164641.5449
 10
-597622.107
 20
-1164640.3473
 10
-597618.469
 20
-1164638.4028
 10
-597615.2804
 20
-1164635.7859
 10
-597612.6634
 20
-1164632.5973
 10
-597610.719
 20
-1164628.9593
 10
-597609.5214
 20
-1164625.012
 10
-597609.1173
 20
-1164620.9885
 10
-597610.7772
 20
-1164613.5194
 10
-597610.9327
 20
-1164612.7378
 10
-597611.2071
 20
-1164609.602
 10
-597610.9327
 20
-1164606.466
 10
-597610.1179
 20
-1164603.4254
 10
-597608.7877
 20
-1164600.5723
 10
-597606.9821
 20
-1164597.9937
 10
-597604.7562
 20
-1164595.7678
 10
-597602.1776
 20
-1164593.9624
 10
-597599.3246
 20
-1164592.632
 10
-597596.2841
 20
-1164591.8172
 10
-597593.1481
 20
-1164591.5428
 10
-597590.0121
 20
-1164591.8172
 10
-597586.9715
 20
-1164592.632
 10
-597584.1186
 20
-1164593.9624
 10
-597582.0555
 20
-1164595.3512
 10
-597570.0096
 20
-1164601.8373
 10
-597568.2729
 20
-1164602.8819
 10
-597565.0429
 20
-1164605.5329
 10
-597562.392
 20
-1164608.7629
 10
-597560.4221
 20
-1164612.4481
 10
-597559.2093
 20
-1164616.4468
 10
-597558.7997
 20
-1164620.6054
 10
-597559.2093
 20
-1164624.764
 10
-597560.4221
 20
-1164628.7626
 10
-597562.392
 20
-1164632.4479
 10
-597562.4762
 20
-1164632.5729
 10
-597563.8494
 20
-1164634.8845
 10
-597565.4321
 20
-1164638.8376
 10
-597566.2379
 20
-1164643.0188
 10
-597566.2379
 20
-1164647.277
 10
-597565.4321
 20
-1164651.4582
 10
-597563.8494
 20
-1164655.4113
 10
-597561.5473
 20
-1164658.9934
 10
-597558.6088
 20
-1164662.0752
 10
-597555.1403
 20
-1164664.5452
 10
-597551.2669
 20
-1164666.314
 10
-597551.1984
 20
-1164666.3377
 10
-597539.6303
 20
-1164669.1141
 10
-597538.6298
 20
-1164669.3763
 10
-597534.3567
 20
-1164671.0317
 10
-597530.4605
 20
-1164673.444
 10
-597527.0741
 20
-1164676.5313
 10
-597524.3124
 20
-1164680.1882
 10
-597522.2699
 20
-1164684.2903
 10
-597521.8483
 20
-1164685.4656
 10
-597514.0294
 20
-1164708.9298
 10
-597512.5818
 20
-1164713.5136
 10
-597509.4161
 20
-1164723.5383
 10
-597489.5465
 20
-1164755.0898
 10
-597470.998
 20
-1164812.5472
 10
-597455.1506
 20
-1164820.7067
 10
-597415.9127
 20
-1164820.0677
 10
-597414.4647
 20
-1164820.0905
 10
-597410.198
 20
-1164820.704
 10
-597406.1245
 20
-1164822.1138
 10
-597399.1336
 20
-1164827.0919
 10
-597300.1044
 20
-1164834.4651
 10
-597289.3104
 20
-1164813.7468
 10
-597288.1224
 20
-1164809.7012
 10
-597287.7218
 20
-1164805.5041
 10
-597287.8968
 20
-1164802.7216
 10
-597291.1087
 20
-1164790.0149
 10
-597291.4547
 20
-1164788.5753
 10
-597292.6552
 20
-1164781.5096
 10
-597293.0571
 20
-1164774.3542
 10
-597292.6552
 20
-1164767.1985
 10
-597291.4547
 20
-1164760.1329
 10
-597289.4708
 20
-1164753.2463
 10
-597287.225
 20
-1164747.6816
 10
-597287.225
 20
-1164728.1022
 10
-597287.225
 20
-1164725.4564
 10
-597283.1045
 20
-1164637.2126
 10
-597291.1087
 20
-1164585.227
 10
-597297.0122
 20
-1164546.6805
 10
-597298.691
 20
-1164538.0618
 10
-597305.9419
 20
-1164500.8412
 10
-597311.002
 20
-1164467.8013
 10
-597316.9552
 20
-1164446.0725
 10
-597324.9918
 20
-1164418.9857
 10
-597335.4099
 20
-1164384.4575
 10
-597346.7209
 20
-1164349.9293
 10
-597357.1388
 20
-1164324.9261
 10
-597368.3671
 20
-1164290.4806
 10
-597375.7755
 20
-1164262.4346
 10
-597374.1075
 20
-1164252.0944
 10
-597368.079
 20
-1164244.2574
 10
-597363.4366
 20
-1164238.2222
 10
-597363.1807
 20
-1164237.8898
 10
-597361.9612
 20
-1164236.3041
 10
-597361.6753
 20
-1164235.9485
 10
-597360.3496
 20
-1164234.6228
 10
-597358.8138
 20
-1164233.5474
 10
-597357.1147
 20
-1164232.7551
 10
-597355.3038
 20
-1164232.2699
 10
-597353.4361
 20
-1164232.1065
 10
-597351.9743
 20
-1164232.2063
 10
-597336.878
 20
-1164229.5808
 10
-597336.8448
 20
-1164229.575
 10
-597334.4245
 20
-1164228.9265
 10
-597332.1534
 20
-1164227.8674
 10
-597330.1007
 20
-1164226.4302
 10
-597328.3289
 20
-1164224.6583
 10
-597326.8917
 20
-1164222.6057
 10
-597325.8326
 20
-1164220.3347
 10
-597325.3112
 20
-1164218.551
 10
-597321.352
 20
-1164197.9625
 10
-597321.2746
 20
-1164197.5431
 10
-597320.8553
 20
-1164192.751
 10
-597321.2746
 20
-1164187.9592
 10
-597322.5195
 20
-1164183.3129
 10
-597324.5525
 20
-1164178.9533
 10
-597327.3116
 20
-1164175.0131
 10
-597330.7129
 20
-1164171.6117
 10
-597334.6532
 20
-1164168.8527
 10
-597336.125
 20
-1164168.0613
 10
-597338.6709
 20
-1164166.6925
 10
-597343.8626
 20
-1164163.2236
 10
-597348.557
 20
-1164159.1067
 10
-597352.6738
 20
-1164154.4122
 10
-597356.1428
 20
-1164149.2206
 10
-597358.6235
 20
-1164144.2846
 10
-597372.9423
 20
-1164118.447
 10
-597375.8766
 20
-1164113.7156
 10
-597380.1046
 20
-1164108.3189
 10
-597384.9525
 20
-1164103.471
 10
-597388.6156
 20
-1164100.4883
 10
-597388.7149
 20
-1164100.4138
 10
-597392.0738
 20
-1164097.3517
 10
-597394.813
 20
-1164093.7244
 10
-597396.839
 20
-1164089.6556
 10
-597397.4713
 20
-1164087.8094
 10
-597394.8255
 20
-1164056.5884
 10
-597462.6513
 20
-1164050.3854
 10
-597472.6132
 20
-1164052.692
 10
-597536.6241
 20
-1164052.0326
 97
0
 75
0
 76
1
 98
0
  0
HATCH
  5
20022
100
AcDbEntity
  8
plocha Q20
100
AcDbHatch
 10
0
 20
0
 30
0
210
0
220
0
230
1
  2
SOLID
 70
1
 71
0
 91
1
 92
2
 72
0
 73
1
 93
660
 10
-592840.0026
 20
-1156182.4713
 10
-592837.27
 20
-1156178.5809
 10
-592835.5396
 20
-1156171.6382
 10
-592834.0629
 20
-1156165.713
 10
-592831.4508
 20
-1156155.1483
 10
-592825.6828
 20
-1156137.3847
 10
-592820.5117
 20
-1156122.5593
 10
-592817.3863
 20
-1156113.5983
 10
-592815.8405
 20
-1156109.1666
 10
-592813.9373
 20
-1156103.7641
 10
-592811.5966
 20
-1156097.1198
 10
-592806.7104
 20
-1156083.3314
 10
-592802.4531
 20
-1156071.0193
 10
-592797.7386
 20
-1156057.385
 10
-592792.7141
 20
-1156042.201
 10
-592786.8606
 20
-1156023.4723
 10
-592783.6905
 20
-1156013.555
 10
-592781.4697
 20
-1156008.0613
 10
-592778.3865
 20
-1156001.4926
 10
-592774.604
 20
-1155993.434
 10
-592770.6604
 20
-1155982.069
 10
-592766.5558
 20
-1155970.1196
 10
-592762.5074
 20
-1155957.8895
 10
-592758.0789
 20
-1155946.3508
 10
-592752.1951
 20
-1155932.209
 10
-592747.6809
 20
-1155921.9832
 10
-592745.2939
 20
-1155916.0038
 10
-592741.5792
 20
-1155905.4103
 10
-592738.8827
 20
-1155897.3753
 10
-592735.927
 20
-1155886.9198
 10
-592732.5269
 20
-1155874.6119
 10
-592729.1695
 20
-1155862.0834
 10
-592723.1589
 20
-1155838.6249
 10
-592720.701
 20
-1155825.2299
 10
-592719.9687
 20
-1155816.2971
 10
-592718.8679
 20
-1155801.4114
 10
-592718.185
 20
-1155790.427
 10
-592717.2626
 20
-1155765.6494
 10
-592716.5159
 20
-1155750.4279
 10
-592715.1329
 20
-1155728.191
 10
-592712.8779
 20
-1155712.322
 10
-592712.9521
 20
-1155701.9161
 10
-592712.9842
 20
-1155697.4032
 10
-592713.0747
 20
-1155684.7039
 10
-592728.8389
 20
-1155684.6895
 10
-592727.993
 20
-1155703.2866
 10
-592728.1331
 20
-1155707.2006
 10
-592733.187
 20
-1155713.2009
 10
-592739.3354
 20
-1155722.9661
 10
-592742.5905
 20
-1155728.2104
 10
-592746.9306
 20
-1155736.5289
 10
-592747.654
 20
-1155747.7407
 10
-592749.6431
 20
-1155764.5585
 10
-592754.7065
 20
-1155805.4276
 10
-592755.7917
 20
-1155818.0863
 10
-592757.7808
 20
-1155830.3832
 10
-592760.0009
 20
-1155838.6437
 10
-592761.3704
 20
-1155844.0893
 10
-592762.4295
 20
-1155848.3004
 10
-592764.4833
 20
-1155856.4674
 10
-592768.6873
 20
-1155872.2712
 10
-592779.7392
 20
-1155908.5937
 10
-592783.4471
 20
-1155920.0824
 10
-592786.1692
 20
-1155927.9073
 10
-592790.2163
 20
-1155938.6737
 10
-592795.4023
 20
-1155949.7103
 10
-592798.0111
 20
-1155955.262
 10
-592801.5587
 20
-1155960.2877
 10
-592807.9135
 20
-1155969.2902
 10
-592815.3808
 20
-1155979.8689
 10
-592816.664
 20
-1155981.6865
 10
-592818.9191
 20
-1155984.8814
 10
-592826.4705
 20
-1155995.2889
 10
-592832.162
 20
-1156002.5742
 10
-592837.7274
 20
-1156009.6981
 10
-592843.1637
 20
-1156016.2447
 10
-592846.61
 20
-1156022.846
 10
-592847.0544
 20
-1156031.5047
 10
-592847.0727
 20
-1156037.1755
 10
-592846.354
 20
-1156045.1652
 10
-592844.8824
 20
-1156070.7092
 10
-592846.9334
 20
-1156076.5021
 10
-592847.6567
 20
-1156081.9272
 10
-592848.4827
 20
-1156092.2684
 10
-592856.2212
 20
-1156106.1439
 10
-592857.7564
 20
-1156108.8963
 10
-592861.4486
 20
-1156111.3655
 10
-592869.0116
 20
-1156113.5171
 10
-592871.0059
 20
-1156114.0844
 10
-592875.5269
 20
-1156115.8019
 10
-592880.7623
 20
-1156118.6427
 10
-592887.9543
 20
-1156122.545
 10
-592899.7885
 20
-1156129.0258
 10
-592909.0858
 20
-1156134.5193
 10
-592915.3064
 20
-1156138.1949
 10
-592917.632
 20
-1156139.5689
 10
-592923.3116
 20
-1156143.8989
 10
-592926.2279
 20
-1156150.963
 10
-592923.3059
 20
-1156161.4659
 10
-592924.1594
 20
-1156163.6622
 10
-592925.0882
 20
-1156166.0526
 10
-592927.292
 20
-1156168.4727
 10
-592929.6868
 20
-1156169.319
 10
-592932.8756
 20
-1156170.4462
 10
-592936.2884
 20
-1156170.926
 10
-592938.7978
 20
-1156171.2789
 10
-592944.7777
 20
-1156172.4683
 10
-592956.1394
 20
-1156174.7895
 10
-592970.3199
 20
-1156177.985
 10
-592976.9046
 20
-1156180.7641
 10
-592982.4839
 20
-1156183.119
 10
-592984.9652
 20
-1156183.6859
 10
-592994.1414
 20
-1156185.783
 10
-593010.9561
 20
-1156185.0967
 10
-593021.6013
 20
-1156184.0887
 10
-593043.8773
 20
-1156181.6795
 10
-593053.6274
 20
-1156180.571
 10
-593059.7726
 20
-1156179.1916
 10
-593065.5909
 20
-1156177.8856
 10
-593068.6931
 20
-1156177.1893
 10
-593080.1643
 20
-1156173.1355
 10
-593090.739
 20
-1156172.8519
 10
-593098.5562
 20
-1156174.9044
 10
-593105.0081
 20
-1156176.3016
 10
-593111.695
 20
-1156176.9816
 10
-593115.2537
 20
-1156174.6088
 10
-593122.2606
 20
-1156169.1749
 10
-593119.4265
 20
-1156161.987
 10
-593130.8236
 20
-1156152.0215
 10
-593137.0214
 20
-1156146.493
 10
-593144.1056
 20
-1156142.8246
 10
-593154.6219
 20
-1156138.6572
 10
-593158.5262
 20
-1156137.1099
 10
-593165.5589
 20
-1156135.5422
 10
-593174.1993
 20
-1156134.7125
 10
-593187.0504
 20
-1156135.1361
 10
-593194.3517
 20
-1156136.014
 10
-593200.499
 20
-1156138.4546
 10
-593204.4138
 20
-1156140.4966
 10
-593213.0261
 20
-1156147.0391
 10
-593218.7263
 20
-1156151.3694
 10
-593219.8931
 20
-1156152.5567
 10
-593220.3677
 20
-1156152.7551
 10
-593223.8152
 20
-1156156.5473
 10
-593228.3053
 20
-1156161.4865
 10
-593238.3595
 20
-1156173.1281
 10
-593248.6782
 20
-1156185.0344
 10
-593259.5263
 20
-1156196.1468
 10
-593268.2574
 20
-1156205.9365
 10
-593274.8722
 20
-1156212.0219
 10
-593283.6033
 20
-1156219.1656
 10
-593289.7831
 20
-1156224.6737
 10
-593295.7164
 20
-1156228.9106
 10
-593315.1289
 20
-1156244.3773
 10
-593322.7617
 20
-1156249.8574
 10
-593332.5514
 20
-1156256.2075
 10
-593349.7493
 20
-1156269.9659
 10
-593365.0952
 20
-1156279.4908
 10
-593372.5036
 20
-1156286.3701
 10
-593385.9973
 20
-1156296.9532
 10
-593397.1099
 20
-1156306.7429
 10
-593407.164
 20
-1156316.2679
 10
-593415.1016
 20
-1156325.2639
 10
-593416.1756
 20
-1156326.5766
 10
-593423.8588
 20
-1156330.3141
 10
-593427.5598
 20
-1156331.9756
 10
-593435.4566
 20
-1156336.2226
 10
-593442.5134
 20
-1156340.1934
 10
-593445.2229
 20
-1156341.718
 10
-593450.0287
 20
-1156343.7686
 10
-593454.4155
 20
-1156345.6404
 10
-593462.541
 20
-1156348.3756
 10
-593466.9121
 20
-1156349.8471
 10
-593471.2679
 20
-1156352.114
 10
-593475.4783
 20
-1156354.3053
 10
-593481.0995
 20
-1156359.1035
 10
-593483.4379
 20
-1156364.9767
 10
-593484.526
 20
-1156372.9815
 10
-593485.2948
 20
-1156384.426
 10
-593484.8675
 20
-1156393.5656
 10
-593483.846
 20
-1156415.4075
 10
-593482.9395
 20
-1156438.5481
 10
-593483.012
 20
-1156454.9924
 10
-593483.2995
 20
-1156471.2563
 10
-593483.9413
 20
-1156482.0919
 10
-593484.0614
 20
-1156484.1194
 10
-593484.7195
 20
-1156492.6376
 10
-593486.3007
 20
-1156506.6366
 10
-593487.9353
 20
-1156520.2607
 10
-593489.2697
 20
-1156530.5359
 10
-593490.5869
 20
-1156540.6797
 10
-593493.2066
 20
-1156560.8516
 10
-593494.9193
 20
-1156574.0408
 10
-593495.9008
 20
-1156582.2664
 10
-593497.6303
 20
-1156596.7642
 10
-593498.849
 20
-1156607.48
 10
-593499.8629
 20
-1156616.5129
 10
-593499.7412
 20
-1156622.2484
 10
-593499.6607
 20
-1156626.0595
 10
-593499.6188
 20
-1156628.0326
 10
-593499.2387
 20
-1156645.9694
 10
-593498.6767
 20
-1156662.5948
 10
-593498.0923
 20
-1156673.1656
 10
-593497.5708
 20
-1156682.6007
 10
-593494.1223
 20
-1156694.2133
 10
-593490.9438
 20
-1156703.6169
 10
-593485.8366
 20
-1156715.6801
 10
-593475.17
 20
-1156741.5099
 10
-593469.2444
 20
-1156754.0309
 10
-593468.4946
 20
-1156755.5603
 10
-593467.2865
 20
-1156758.0245
 10
-593466.6768
 20
-1156759.2682
 10
-593461.3736
 20
-1156770.0859
 10
-593458.2035
 20
-1156776.5526
 10
-593456.9967
 20
-1156779.0144
 10
-593453.3176
 20
-1156784.0947
 10
-593447.5813
 20
-1156791.7847
 10
-593439.9271
 20
-1156801.1074
 10
-593426.8246
 20
-1156816.5588
 10
-593412.3148
 20
-1156832.4918
 10
-593402.5341
 20
-1156842.1876
 10
-593394.9893
 20
-1156849.0403
 10
-593379.3747
 20
-1156861.4069
 10
-593368.612
 20
-1156869.9308
 10
-593359.8682
 20
-1156876.8557
 10
-593352.8173
 20
-1156884.2322
 10
-593350.1837
 20
-1156887.1771
 10
-593348.5713
 20
-1156888.9801
 10
-593346.471
 20
-1156891.3289
 10
-593335.6696
 20
-1156897.6966
 10
-593320.8373
 20
-1156906.7999
 10
-593310.6608
 20
-1156913.5996
 10
-593305.2173
 20
-1156916.9498
 10
-593292.8947
 20
-1156922.366
 10
-593277.1823
 20
-1156929.2356
 10
-593265.2044
 20
-1156934.4363
 10
-593256.9041
 20
-1156938.0401
 10
-593250.3889
 20
-1156940.869
 10
-593246.5424
 20
-1156941.5917
 10
-593237.5461
 20
-1156941.9384
 10
-593223.4835
 20
-1156941.4694
 10
-593216.661
 20
-1156939.8635
 10
-593212.3224
 20
-1156935.6851
 10
-593205.2354
 20
-1156934.3381
 10
-593203.6684
 20
-1156937.3168
 10
-593193.4175
 20
-1156941.3486
 10
-593191.7564
 20
-1156942.002
 10
-593189.1045
 20
-1156943.0451
 10
-593187.0686
 20
-1156943.8459
 10
-593185.5598
 20
-1156944.4392
 10
-593179.3479
 20
-1156946.1014
 10
-593168.6741
 20
-1156948.6392
 10
-593158.4418
 20
-1156951.3139
 10
-593145.7101
 20
-1156955.5107
 10
-593133.6875
 20
-1156960.312
 10
-593122.5789
 20
-1156965.1991
 10
-593104.6816
 20
-1156973.0726
 10
-593096.2002
 20
-1156977.617
 10
-593084.9178
 20
-1156985.0597
 10
-593079.0146
 20
-1156989.5391
 10
-593075.3896
 20
-1156992.4223
 10
-593069.265
 20
-1156997.2937
 10
-593066.2366
 20
-1156999.7022
 10
-593064.0847
 20
-1157002.4762
 10
-593060.9663
 20
-1157007.665
 10
-593056.2965
 20
-1157020.5013
 10
-593053.0662
 20
-1157029.2761
 10
-593051.7803
 20
-1157033.3343
 10
-593050.6637
 20
-1157037.4982
 10
-593049.1845
 20
-1157043.0125
 10
-593049.0334
 20
-1157048.2141
 10
-593050.6801
 20
-1157059.0406
 10
-593053.8993
 20
-1157072.7062
 10
-593056.0903
 20
-1157080.6086
 10
-593057.6281
 20
-1157085.0204
 10
-593063.88
 20
-1157099.0798
 10
-593066.6625
 20
-1157105.3373
 10
-593069.0528
 20
-1157109.0968
 10
-593076.0919
 20
-1157120.168
 10
-593080.6903
 20
-1157126.2648
 10
-593087.2022
 20
-1157134.8992
 10
-593090.4509
 20
-1157138.9804
 10
-593098.1548
 20
-1157147.6829
 10
-593101.8595
 20
-1157151.8681
 10
-593109.8878
 20
-1157160.0623
 10
-593118.9794
 20
-1157169.0419
 10
-593124.4574
 20
-1157173.8644
 10
-593132.5363
 20
-1157180.9766
 10
-593137.3643
 20
-1157183.754
 10
-593148.2293
 20
-1157188.4145
 10
-593164.0806
 20
-1157194.8078
 10
-593187.6123
 20
-1157204.1702
 10
-593192.5988
 20
-1157206.2374
 10
-593199.6978
 20
-1157209.1801
 10
-593222.2639
 20
-1157220.9569
 10
-593236.6648
 20
-1157232.4261
 10
-593246.5496
 20
-1157240.1501
 10
-593259.7226
 20
-1157250.4433
 10
-593271.1197
 20
-1157259.3489
 10
-593277.2713
 20
-1157264.1556
 10
-593280.379
 20
-1157266.584
 10
-593287.9545
 20
-1157270.9087
 10
-593303.1547
 20
-1157279.5214
 10
-593313.0377
 20
-1157285.0591
 10
-593325.6377
 20
-1157292.1108
 10
-593337.9816
 20
-1157299.0038
 10
-593345.7333
 20
-1157303.3889
 10
-593355.9301
 20
-1157309.1899
 10
-593364.7047
 20
-1157314.2162
 10
-593373.2318
 20
-1157319.2321
 10
-593379.7281
 20
-1157323.0536
 10
-593385.6621
 20
-1157326.724
 10
-593393.515
 20
-1157331.7686
 10
-593399.294
 20
-1157335.481
 10
-593404.8275
 20
-1157340.0332
 10
-593410.5652
 20
-1157345.3234
 10
-593417.3059
 20
-1157351.7817
 10
-593429.7805
 20
-1157364.743
 10
-593439.2016
 20
-1157375.1234
 10
-593454.9893
 20
-1157393.8011
 10
-593456.5501
 20
-1157395.6476
 10
-593467.5356
 20
-1157410.7682
 10
-593474.9379
 20
-1157421.2761
 10
-593484.6732
 20
-1157435.7849
 10
-593489.6698
 20
-1157443.8071
 10
-593496.5975
 20
-1157455.2673
 10
-593502.7031
 20
-1157466.303
 10
-593505.0758
 20
-1157471.0952
 10
-593510.7761
 20
-1157484.927
 10
-593513.6839
 20
-1157492.6402
 10
-593519.0428
 20
-1157509.286
 10
-593526.6476
 20
-1157535.2005
 10
-593527.4043
 20
-1157537.779
 10
-593529.3769
 20
-1157545.1361
 10
-593533.2542
 20
-1157560.0255
 10
-593534.9639
 20
-1157567.1963
 10
-593536.7862
 20
-1157574.8395
 10
-593539.6734
 20
-1157586.5035
 10
-593541.2822
 20
-1157591.9871
 10
-593543.4654
 20
-1157599.4288
 10
-593547.7736
 20
-1157613.8859
 10
-593551.0139
 20
-1157623.7715
 10
-593554.2911
 20
-1157633.7695
 10
-593558.1896
 20
-1157645.5508
 10
-593564.7273
 20
-1157664.6406
 10
-593567.7462
 20
-1157672.8826
 10
-593568.3731
 20
-1157674.5938
 10
-593569.7137
 20
-1157678.2537
 10
-593573.0637
 20
-1157684.3474
 10
-593575.3109
 20
-1157688.435
 10
-593585.9187
 20
-1157702.2999
 10
-593597.0713
 20
-1157716.5157
 10
-593609.4564
 20
-1157732.1869
 10
-593620.3682
 20
-1157745.7354
 10
-593629.9716
 20
-1157757.6602
 10
-593647.5765
 20
-1157779.5253
 10
-593668.4109
 20
-1157806.368
 10
-593676.9401
 20
-1157815.6007
 10
-593677.9874
 20
-1157816.7344
 10
-593686.1512
 20
-1157825.5713
 10
-593696.9394
 20
-1157835.9269
 10
-593704.744
 20
-1157841.5594
 10
-593722.3646
 20
-1157854.671
 10
-593736.2891
 20
-1157866.0638
 10
-593746.7776
 20
-1157872.9355
 10
-593758.8936
 20
-1157877.8182
 10
-593774.4456
 20
-1157884.6899
 10
-593797.0502
 20
-1157885.2325
 10
-593807.3579
 20
-1157882.8195
 10
-593811.3363
 20
-1157882.8195
 10
-593812.4213
 20
-1157882.8195
 10
-593814.9532
 20
-1157882.8195
 10
-593815.0557
 20
-1157882.8193
 10
-593816.4488
 20
-1157882.7127
 10
-593819.3196
 20
-1157881.8698
 10
-593820.7329
 20
-1157881.088
 10
-593838.3431
 20
-1157869.8814
 10
-593850.4772
 20
-1157862.1597
 10
-593858.7041
 20
-1157853.8473
 10
-593871.9116
 20
-1157838.753
 10
-593883.2392
 20
-1157824.5118
 10
-593920.0011
 20
-1157820.5038
 10
-593919.7439
 20
-1157821.0612
 10
-593917.4469
 20
-1157826.0382
 10
-593903.495
 20
-1157856.2671
 10
-593893.5188
 20
-1157872.3913
 10
-593884.9183
 20
-1157885.039
 10
-593866.2436
 20
-1157913.0297
 10
-593852.4004
 20
-1157934.2562
 10
-593844.7109
 20
-1157943.4092
 10
-593832.362
 20
-1157958.7999
 10
-593821.349
 20
-1157968.5909
 10
-593815.2037
 20
-1157970.582
 10
-593805.0829
 20
-1157973.8613
 10
-593796.1021
 20
-1157976.7964
 10
-593782.6085
 20
-1157976.7964
 10
-593775.2002
 20
-1157975.2089
 10
-593758.7959
 20
-1157970.4464
 10
-593750.0646
 20
-1157965.6838
 10
-593737.4237
 20
-1157959.4272
 10
-593734.6163
 20
-1157958.3474
 10
-593733.3446
 20
-1157957.0757
 10
-593732.6212
 20
-1157956.3524
 10
-593732.6406
 20
-1157956.3401
 10
-593698.4259
 20
-1157920.5835
 10
-593688.2054
 20
-1157904.231
 10
-593684.5652
 20
-1157899.7793
 10
-593676.4761
 20
-1157888.5833
 10
-593667.7959
 20
-1157868.8095
 10
-593655.9387
 20
-1157851.3303
 10
-593639.8502
 20
-1157828.7113
 10
-593630.791
 20
-1157816.5248
 10
-593613.0057
 20
-1157792.2176
 10
-593591.7418
 20
-1157763.258
 10
-593578.0004
 20
-1157744.6772
 10
-593557.9611
 20
-1157720.0175
 10
-593548.6427
 20
-1157708.6663
 10
-593544.7198
 20
-1157702.4001
 10
-593539.2165
 20
-1157693.61
 10
-593533.519
 20
-1157680.5478
 10
-593531.4909
 20
-1157675.6946
 10
-593531.4034
 20
-1157675.6972
 10
-593530.6024
 20
-1157673.5687
 10
-593522.9542
 20
-1157653.2458
 10
-593517.3094
 20
-1157634.5593
 10
-593511.7432
 20
-1157614.2045
 10
-593504.8043
 20
-1157587.408
 10
-593499.7354
 20
-1157565.8473
 10
-593496.8702
 20
-1157553.6605
 10
-593492.8779
 20
-1157539.309
 10
-593491.1322
 20
-1157534.8577
 10
-593486.9401
 20
-1157524.1694
 10
-593475.6464
 20
-1157495.9571
 10
-593464.4169
 20
-1157471.7821
 10
-593450.6211
 20
-1157441.4763
 10
-593443.233
 20
-1157424.6289
 10
-593436.3314
 20
-1157414.6261
 10
-593426.3633
 20
-1157400.7642
 10
-593419.5061
 20
-1157392.6542
 10
-593412.4497
 20
-1157384.8518
 10
-593406.3022
 20
-1157378.0541
 10
-593394.602
 20
-1157365.1168
 10
-593382.5122
 20
-1157353.0193
 10
-593361.9568
 20
-1157340.1902
 10
-593348.9365
 20
-1157331.6908
 10
-593332.1186
 20
-1157320.6598
 10
-593313.1307
 20
-1157310.3521
 10
-593300.653
 20
-1157305.6503
 10
-593283.1118
 20
-1157300.4059
 10
-593279.0295
 20
-1157297.4537
 10
-593262.3156
 20
-1157292.0875
 10
-593184.6623
 20
-1157255.1401
 10
-593177.3935
 20
-1157253.2897
 10
-593165.4929
 20
-1157250.2603
 10
-593158.0627
 20
-1157248.0745
 10
-593144.0024
 20
-1157243.0277
 10
-593128.1159
 20
-1157237.3252
 10
-593122.6211
 20
-1157234.9136
 10
-593111.9632
 20
-1157230.2361
 10
-593106.068
 20
-1157227.649
 10
-593103.3678
 20
-1157225.2964
 10
-593100.0976
 20
-1157222.4471
 10
-593096.3122
 20
-1157219.1489
 10
-593091.1404
 20
-1157212.2874
 10
-593086.4799
 20
-1157203.9462
 10
-593083.2171
 20
-1157195.8377
 10
-593080.0338
 20
-1157187.927
 10
-593077.9012
 20
-1157181.4125
 10
-593077.0861
 20
-1157170.0135
 10
-593076.7335
 20
-1157165.3543
 10
-593073.8437
 20
-1157161.5895
 10
-593068.5887
 20
-1157154.7437
 10
-593062.494
 20
-1157146.804
 10
-593053.6702
 20
-1157138.3519
 10
-593040.6795
 20
-1157125.9088
 10
-593029.5534
 20
-1157115.6318
 10
-593027.352
 20
-1157113.682
 10
-593019.4859
 20
-1157105.1151
 10
-593010.3748
 20
-1157094.7797
 10
-593005.6276
 20
-1157088.652
 10
-592995.3192
 20
-1157072.3036
 10
-592989.6308
 20
-1157063.3923
 10
-592984.3787
 20
-1157055.165
 10
-592979.6939
 20
-1157045.9529
 10
-592977.6759
 20
-1157039.3539
 10
-592975.8988
 20
-1157035.647
 10
-592972.2372
 20
-1157027.9971
 10
-592966.8979
 20
-1157016.7299
 10
-592966.3991
 20
-1157014.19
 10
-592965.3503
 20
-1157008.8486
 10
-592966.0097
 20
-1157004.34
 10
-592967.2838
 20
-1157000.8583
 10
-592969.2127
 20
-1156996.6796
 10
-592972.0228
 20
-1156991.4549
 10
-592974.7464
 20
-1156987.8464
 10
-592978.3169
 20
-1156983.5104
 10
-592982.1779
 20
-1156979.4109
 10
-592986.2711
 20
-1156975.0645
 10
-592992.5174
 20
-1156968.9503
 10
-592999.4214
 20
-1156962.2864
 10
-593005.1886
 20
-1156956.8633
 10
-593010.0179
 20
-1156952.4642
 10
-593014.7061
 20
-1156948.2895
 10
-593017.2967
 20
-1156945.9827
 10
-593018.367
 20
-1156945.1223
 10
-593018.34
 20
-1156945.0537
 10
-593020.003
 20
-1156943.8075
 10
-593034.2333
 20
-1156933.1444
 10
-593042.0404
 20
-1156929.1691
 10
-593050.5206
 20
-1156925.1321
 10
-593056.8249
 20
-1156923.2423
 10
-593068.3716
 20
-1156920.206
 10
-593079.2137
 20
-1156918.7598
 10
-593092.7335
 20
-1156917.2729
 10
-593109.1638
 20
-1156916.4221
 10
-593123.2704
 20
-1156915.9193
 10
-593136.8333
 20
-1156915.1261
 10
-593142.0241
 20
-1156913.9801
 10
-593151.0374
 20
-1156911.9903
 10
-593156.6453
 20
-1156909.9874
 10
-593163.3523
 20
-1156907.5921
 10
-593166.628
 20
-1156905.7752
 10
-593171.2199
 20
-1156903.228
 10
-593175.4539
 20
-1156901.847
 10
-593179.3457
 20
-1156901.482
 10
-593184.5946
 20
-1156900.9897
 10
-593190.8806
 20
-1156900.5034
 10
-593195.0528
 20
-1156900.4109
 10
-593207.33
 20
-1156900.1389
 10
-593214.6239
 20
-1156901.9287
 10
-593215.5695
 20
-1156907.8244
 10
-593214.6328
 20
-1156915.5872
 10
-593207.5233
 20
-1156929.7982
 10
-593211.1739
 20
-1156930.476
 10
-593216.175
 20
-1156931.8401
 10
-593219.0423
 20
-1156927.1635
 10
-593224.6203
 20
-1156918.543
 10
-593230.7238
 20
-1156909.1104
 10
-593233.2256
 20
-1156906.0872
 10
-593238.843
 20
-1156901.7659
 10
-593246.4958
 20
-1156898.178
 10
-593253.5754
 20
-1156892.5912
 10
-593261.1775
 20
-1156887.0245
 10
-593268.9072
 20
-1156881.8893
 10
-593275.7997
 20
-1156877.3102
 10
-593279.602
 20
-1156874.4867
 10
-593289.4372
 20
-1156864.9296
 10
-593297.9349
 20
-1156855.8407
 10
-593306.7685
 20
-1156845.1168
 10
-593321.2112
 20
-1156825.8528
 10
-593328.5735
 20
-1156815.6842
 10
-593335.7263
 20
-1156805.8047
 10
-593345.3527
 20
-1156793.4664
 10
-593355.9768
 20
-1156779.4454
 10
-593365.7026
 20
-1156766.2925
 10
-593372.6149
 20
-1156756.983
 10
-593376.0418
 20
-1156752.3676
 10
-593378.0942
 20
-1156749.6036
 10
-593385.769
 20
-1156739.2672
 10
-593393.1645
 20
-1156729.3072
 10
-593398.7055
 20
-1156721.8447
 10
-593402.669
 20
-1156716.507
 10
-593409.1468
 20
-1156703.1188
 10
-593417.1692
 20
-1156685.0046
 10
-593421.8333
 20
-1156673.0905
 10
-593424.7547
 20
-1156665.492
 10
-593426.7769
 20
-1156658.8168
 10
-593428.9281
 20
-1156650.1778
 10
-593429.7149
 20
-1156641.6378
 10
-593430.4173
 20
-1156631.1117
 10
-593430.8186
 20
-1156624.1046
 10
-593432.0536
 20
-1156598.9275
 10
-593432.5861
 20
-1156583.9315
 10
-593432.7499
 20
-1156568.7292
 10
-593432.8732
 20
-1156557.283
 10
-593432.9345
 20
-1156543.7826
 10
-593433.0032
 20
-1156528.5893
 10
-593432.776
 20
-1156509.9869
 10
-593432.4376
 20
-1156498.9385
 10
-593432.2161
 20
-1156491.7063
 10
-593431.9984
 20
-1156484.6036
 10
-593431.8902
 20
-1156481.069
 10
-593430.7762
 20
-1156444.6939
 10
-593429.9208
 20
-1156400.1815
 10
-593429.5659
 20
-1156383.5444
 10
-593428.9085
 20
-1156377.9904
 10
-593428.0013
 20
-1156375.2273
 10
-593424.9398
 20
-1156368.3497
 10
-593422.2732
 20
-1156363.1284
 10
-593418.6611
 20
-1156357.5533
 10
-593413.9176
 20
-1156351.5757
 10
-593410.1466
 20
-1156348.1476
 10
-593393.7566
 20
-1156337.0474
 10
-593364.3009
 20
-1156316.4363
 10
-593346.6977
 20
-1156303.4794
 10
-593329.2148
 20
-1156290.2651
 10
-593302.6024
 20
-1156269.769
 10
-593287.6626
 20
-1156256.7187
 10
-593278.6077
 20
-1156248.1067
 10
-593273.2532
 20
-1156242.9775
 10
-593270.197
 20
-1156240.0496
 10
-593268.2722
 20
-1156238.2057
 10
-593262.7512
 20
-1156233.262
 10
-593258.297
 20
-1156229.4471
 10
-593251.0478
 20
-1156224.0689
 10
-593239.0213
 20
-1156215.786
 10
-593213.255
 20
-1156198.7352
 10
-593199.8417
 20
-1156189.9222
 10
-593193.9506
 20
-1156186.3362
 10
-593178.8258
 20
-1156178.8492
 10
-593165.5705
 20
-1156175.2144
 10
-593158.5814
 20
-1156173.7969
 10
-593148.8578
 20
-1156171.8249
 10
-593141.9118
 20
-1156171.5371
 10
-593137.719
 20
-1156175.9624
 10
-593129.0774
 20
-1156183.0958
 10
-593138.7816
 20
-1156186.8382
 10
-593152.9093
 20
-1156191.5144
 10
-593156.3523
 20
-1156195.0848
 10
-593155.8538
 20
-1156196.3339
 10
-593151.6255
 20
-1156195.824
 10
-593147.7727
 20
-1156196.6931
 10
-593142.6828
 20
-1156197.8413
 10
-593135.5996
 20
-1156199.6544
 10
-593126.0659
 20
-1156202.289
 10
-593120.8262
 20
-1156202.9829
 10
-593110.4845
 20
-1156204.3528
 10
-593102.6803
 20
-1156205.3986
 10
-593096.7238
 20
-1156206.2046
 10
-593093.226
 20
-1156206.8578
 10
-593086.5985
 20
-1156208.5749
 10
-593079.252
 20
-1156210.8379
 10
-593067.4247
 20
-1156215.1362
 10
-593061.3495
 20
-1156217.8899
 10
-593049.038
 20
-1156223.419
 10
-593032.7058
 20
-1156228.751
 10
-593019.1682
 20
-1156233.2906
 10
-593009.6798
 20
-1156236.67
 10
-593001.1049
 20
-1156239.724
 10
-592991.5614
 20
-1156241.6769
 10
-592979.158
 20
-1156244.2152
 10
-592974.7519
 20
-1156245.1169
 10
-592968.7392
 20
-1156245.1982
 10
-592966.8258
 20
-1156245.2241
 10
-592958.1685
 20
-1156245.3411
 10
-592948.9608
 20
-1156245.0641
 10
-592938.358
 20
-1156243.05
 10
-592927.0029
 20
-1156240.8929
 10
-592908.1903
 20
-1156234.681
 10
-592904.5589
 20
-1156233.4819
 10
-592900.6529
 20
-1156231.3019
 10
-592890.2607
 20
-1156225.5023
 10
-592876.259
 20
-1156215.9862
 10
-592867.718
 20
-1156209.914
 10
-592860.9537
 20
-1156204.123
 10
-592852.5386
 20
-1156196.9189
 10
-592848.4624
 20
-1156193.4293
 10
-592846.5499
 20
-1156191.7919
 10
-592843.0059
 20
-1156186.7466
 10
-592840.0026
 20
-1156182.4713
 97
0
 75
0
 76
1
 98
0
  0
HATCH
  5
20023
100
AcDbEntity
  8
plocha Q20
100
AcDbHatch
 10
0
 20
0
 30
0
210
0
220
0
230
1
  2
SOLID
 70
1
 71
0
 91
1
 92
2
 72
0
 73
1
 93
134
 10
-597403.8214
 20
-1164002.0842
 10
-597404.8796
 20
-1163992.03
 10
-597406.9963
 20
-1163959.7507
 10
-597405.4087
 20
-1163902.0713
 10
-597405.9379
 20
-1163863.9714
 10
-597403.8214
 20
-1163835.9256
 10
-597404.3505
 20
-1163827.4588
 10
-597403.8214
 20
-1163820.5797
 10
-597403.4193
 20
-1163811.6018
 10
-597402.2339
 20
-1163785.1255
 10
-597402.763
 20
-1163762.9003
 10
-597404.8796
 20
-1163741.2045
 10
-597409.1131
 20
-1163721.6252
 10
-597405.4422
 20
-1163689.4951
 10
-597392.796
 20
-1163649.2979
 10
-597387.1298
 20
-1163628.5221
 10
-597386.8
 20
-1163618.9829
 10
-597391.9604
 20
-1163604.7919
 10
-597394.8188
 20
-1163596.9316
 10
-597401.8459
 20
-1163588.39
 10
-597416.8366
 20
-1163579.8239
 10
-597421.4281
 20
-1163576.2918
 10
-597430.0719
 20
-1163569.6429
 10
-597439.6537
 20
-1163556.9786
 10
-597448.9669
 20
-1163538.3519
 10
-597460.078
 20
-1163515.8096
 10
-597472.6024
 20
-1163489.5681
 10
-597481.5879
 20
-1163470.7415
 10
-597485.1641
 20
-1163463.2482
 10
-597486.6273
 20
-1163448.0455
 10
-597486.6273
 20
-1163438.5206
 10
-597484.8826
 20
-1163428.4383
 10
-597482.9856
 20
-1163421.7987
 10
-597479.6707
 20
-1163410.1969
 10
-597474.4123
 20
-1163398.5912
 10
-597465.081
 20
-1163383.2221
 10
-597457.6027
 20
-1163370.9048
 10
-597453.8683
 20
-1163364.7542
 10
-597452.3551
 20
-1163357.9439
 10
-597456.4665
 20
-1163351.0756
 10
-597467.5533
 20
-1163349.3249
 10
-597494.355
 20
-1163345.0378
 10
-597516.5989
 20
-1163341.4502
 10
-597532.5443
 20
-1163336.6137
 10
-597552.1453
 20
-1163329.1468
 10
-597566.3882
 20
-1163314.9036
 10
-597578.7428
 20
-1163296.3718
 10
-597634.2023
 20
-1163272.5937
 10
-597626.317
 20
-1163318.5286
 10
-597621.1214
 20
-1163355.8078
 10
-597618.4137
 20
-1163383.5606
 10
-597614.6472
 20
-1163397.6324
 10
-597610.1782
 20
-1163406.2513
 10
-597596.1781
 20
-1163433.5995
 10
-597593.594
 20
-1163439.1653
 10
-597586.7292
 20
-1163453.9509
 10
-597579.2069
 20
-1163470.1526
 10
-597571.5041
 20
-1163488.9819
 10
-597566.3882
 20
-1163501.4873
 10
-597567.2928
 20
-1163526.8174
 10
-597567.5955
 20
-1163535.2923
 10
-597572.5356
 20
-1163545.0008
 10
-597581.0258
 20
-1163551.5318
 10
-597586.8021
 20
-1163562.2404
 10
-597587.4145
 20
-1163570.8146
 10
-597587.7527
 20
-1163575.551
 10
-597585.867
 20
-1163586.8659
 10
-597580.7399
 20
-1163594.4934
 10
-597559.2667
 20
-1163604.037
 10
-597540.136
 20
-1163613.1866
 10
-597526.5077
 20
-1163619.7043
 10
-597521.0955
 20
-1163625.718
 10
-597517.6223
 20
-1163629.577
 10
-597517.9417
 20
-1163636.5358
 10
-597523.6829
 20
-1163640.0305
 10
-597534.5276
 20
-1163646.6317
 10
-597546.4481
 20
-1163653.8876
 10
-597562.5391
 20
-1163664.2317
 10
-597566.3882
 20
-1163666.7063
 10
-597581.672
 20
-1163685.4636
 10
-597591.0775
 20
-1163697.0068
 10
-597595.1948
 20
-1163702.0599
 10
-597599.1909
 20
-1163712.5023
 10
-597601.735
 20
-1163725.2227
 10
-597607.6931
 20
-1163755.013
 10
-597610.2909
 20
-1163772.5486
 10
-597611.0693
 20
-1163777.8033
 10
-597613.0864
 20
-1163820.0381
 10
-597613.3902
 20
-1163820.0505
 10
-597613.3902
 20
-1163826.4005
 10
-597613.3902
 20
-1163833.3496
 10
-597616.1719
 20
-1163841.6949
 10
-597618.6062
 20
-1163848.9973
 10
-597623.687
 20
-1163857.8895
 10
-597631.8891
 20
-1163866.0916
 10
-597641.8762
 20
-1163876.0787
 10
-597650.6483
 20
-1163886.4456
 10
-597661.9889
 20
-1163899.848
 10
-597669.4757
 20
-1163908.6962
 10
-597669.5156
 20
-1163908.7436
 10
-597671.0189
 20
-1163910.8906
 10
-597672.1267
 20
-1163913.2659
 10
-597672.805
 20
-1163915.7977
 10
-597673.0334
 20
-1163918.4086
 10
-597672.805
 20
-1163921.0197
 10
-597672.7903
 20
-1163921.1017
 10
-597672.3891
 20
-1163923.6843
 10
-597671.975
 20
-1163930.1322
 10
-597672.1165
 20
-1163933.9055
 10
-597672.1772
 20
-1163935.5266
 10
-597671.761
 20
-1163939.7525
 10
-597670.5283
 20
-1163943.816
 10
-597668.5265
 20
-1163947.5609
 10
-597667.9646
 20
-1163948.3622
 10
-597663.9226
 20
-1163957.0239
 10
-597658.2486
 20
-1163972.2402
 10
-597653.2706
 20
-1163987.1741
 10
-597651.6367
 20
-1163995.3437
 10
-597649.2351
 20
-1164007.3519
 10
-597647.5735
 20
-1164015.6603
 10
-597645.341
 20
-1164021.6134
 10
-597640.2739
 20
-1164026.9571
 10
-597614.9321
 20
-1164026.0694
 10
-597590.1015
 20
-1164024.3273
 10
-597564.1893
 20
-1164022.9953
 10
-597550.3424
 20
-1164023.4715
 10
-597536.0989
 20
-1164023.9612
 10
-597527.4053
 20
-1164024.2602
 10
-597521.9943
 20
-1164023.6049
 10
-597470.5108
 20
-1164025.8254
 10
-597466.895
 20
-1164026.2195
 10
-597394.4522
 20
-1164030.4854
 10
-597394.3993
 20
-1164026.7744
 10
-597403.8214
 20
-1164002.0842
 97
0
 75
0
 76
1
 98
0
  0
HATCH
  5
20024
100
AcDbEntity
  8
plocha Q20
100
AcDbHatch
 10
0
 20
0
 30
0
210
0
220
0
230
1
  2
SOLID
 70
1
 71
0
 91
1
 92
2
 72
0
 73
1
 93
163
 10
-600654.6289
 20
-1161851.704
 10
-600695.5954
 20
-1161833.5617
 10
-600722.0761
 20
-1161821.8344
 10
-600737.4475
 20
-1161812.7471
 10
-600747.2094
 20
-1161801.9005
 10
-600772.4919
 20
-1161773.809
 10
-600775.0541
 20
-1161768.6844
 10
-600787.8601
 20
-1161743.0726
 10
-600804.7823
 20
-1161725.0755
 10
-600823.3032
 20
-1161690.6796
 10
-600839.1783
 20
-1161662.6337
 10
-600865.6366
 20
-1161629.2961
 10
-600889.4491
 20
-1161600.1918
 10
-600913.2617
 20
-1161568.971
 10
-600936.0159
 20
-1161538.8083
 10
-600951.3618
 20
-1161512.35
 10
-600964.5909
 20
-1161483.2458
 10
-600967.4842
 20
-1161476.2194
 10
-600979.4077
 20
-1161447.2624
 10
-600991.6442
 20
-1161408.5367
 10
-601009.5702
 20
-1161376.3539
 10
-601021.0247
 20
-1161344.506
 10
-601025.8906
 20
-1161335.1971
 10
-601037.365
 20
-1161318.623
 10
-601064.0745
 20
-1161288.512
 10
-601079.0882
 20
-1161248.4586
 10
-601092.4823
 20
-1161223.3628
 10
-601105.6256
 20
-1161202.7718
 10
-601113.5095
 20
-1161190.4203
 10
-601123.3429
 20
-1161181.6285
 10
-601131.5858
 20
-1161179.98
 10
-601139.552
 20
-1161178.3867
 10
-601158.4954
 20
-1161168.915
 10
-601160.2466
 20
-1161165.4125
 10
-601162.0459
 20
-1161161.814
 10
-601162.3633
 20
-1161161.179
 10
-601195.5221
 20
-1161188.2297
 10
-601194.4822
 20
-1161189.5914
 10
-601194.2776
 20
-1161189.9634
 10
-601190.853
 20
-1161196.356
 10
-601186.8253
 20
-1161203.8745
 10
-601182.0031
 20
-1161212.876
 10
-601172.3526
 20
-1161228.4346
 10
-601154.8319
 20
-1161254.1318
 10
-601146.9188
 20
-1161265.7374
 10
-601134.0616
 20
-1161278.5948
 10
-601116.3986
 20
-1161296.2577
 10
-601087.377
 20
-1161346.1156
 10
-601063.9138
 20
-1161391.1272
 10
-601048.2531
 20
-1161424.4693
 10
-601042.7293
 20
-1161436.2294
 10
-601037.4818
 20
-1161465.7939
 10
-601036.8208
 20
-1161474.5404
 10
-601035.0932
 20
-1161479.2516
 10
-601034.4718
 20
-1161480.9463
 10
-601031.359
 20
-1161489.4359
 10
-601020.8954
 20
-1161509.4778
 10
-601008.8314
 20
-1161525.4335
 10
-600998.8721
 20
-1161538.6055
 10
-600984.6994
 20
-1161548.8625
 10
-600964.4367
 20
-1161576.7451
 10
-600932.8382
 20
-1161609.1335
 10
-600931.9837
 20
-1161609.5922
 10
-600909.8907
 20
-1161640.4181
 10
-600889.4978
 20
-1161670.2516
 10
-600869.1909
 20
-1161700.8051
 10
-600856.6685
 20
-1161718.5707
 10
-600855.3789
 20
-1161720.3278
 10
-600855.1726
 20
-1161720.6864
 10
-600849.0137
 20
-1161732.4656
 10
-600842.171
 20
-1161748.4319
 10
-600827.4954
 20
-1161780.3655
 10
-600812.7199
 20
-1161803.9214
 10
-600789.9656
 20
-1161827.734
 10
-600748.2681
 20
-1161856.0556
 10
-600748.1175
 20
-1161855.6378
 10
-600737.0489
 20
-1161860.0133
 10
-600723.2905
 20
-1161865.3049
 10
-600708.4737
 20
-1161873.7715
 10
-600683.6029
 20
-1161885.4133
 10
-600664.245
 20
-1161899.1475
 10
-600643.9535
 20
-1161912.482
 10
-600628.273
 20
-1161922.7863
 10
-600593.9505
 20
-1161939.3011
 10
-600547.4521
 20
-1161956.1196
 10
-600528.5076
 20
-1161958.5907
 10
-600515.3564
 20
-1161960.3059
 10
-600510.2139
 20
-1161961.5782
 10
-600505.0269
 20
-1161961.6534
 10
-600498.3744
 20
-1161962.5212
 10
-600478.3083
 20
-1161964.7058
 10
-600446.5446
 20
-1161965.0588
 10
-600404.704
 20
-1161959.8254
 10
-600395.7173
 20
-1161959.5339
 10
-600368.3163
 20
-1161957.8826
 10
-600327.6933
 20
-1161955.4343
 10
-600298.249
 20
-1161952.4579
 10
-600271.6289
 20
-1161948.9084
 10
-600262.289
 20
-1161947.663
 10
-600240.8171
 20
-1161942.7201
 10
-600217.0064
 20
-1161937.2387
 10
-600200.6179
 20
-1161933.466
 10
-600196.9446
 20
-1161932.6202
 10
-600186.3553
 20
-1161930.1826
 10
-600176.9228
 20
-1161928.0111
 10
-600153.343
 20
-1161922.5829
 10
-600126.347
 20
-1161914.6616
 10
-600101.9609
 20
-1161907.5059
 10
-600078.8563
 20
-1161899.3152
 10
-600044.9021
 20
-1161884.4275
 10
-600007.6651
 20
-1161865.7524
 10
-599970.8502
 20
-1161845.3496
 10
-599941.0882
 20
-1161828.8553
 10
-599899.0107
 20
-1161805.5359
 10
-599836.7016
 20
-1161771.0041
 10
-599831.8487
 20
-1161768.3146
 10
-599815.4221
 20
-1161759.3201
 10
-599736.3926
 20
-1161725.6046
 10
-599717.6355
 20
-1161721.8953
 10
-599689.3264
 20
-1161708.6114
 10
-599661.3317
 20
-1161699.4593
 10
-599636.5088
 20
-1161691.3441
 10
-599618.0885
 20
-1161683.9625
 10
-599579.3278
 20
-1161665.602
 10
-599567.7893
 20
-1161661.0814
 10
-599525.0781
 20
-1161648.5076
 10
-599492.8756
 20
-1161640.2697
 10
-599477.9488
 20
-1161637.0947
 10
-599471.2418
 20
-1161635.8731
 10
-599459.9455
 20
-1161633.9946
 10
-599452.7252
 20
-1161633.8141
 10
-599434.2422
 20
-1161633.3521
 10
-599397.2816
 20
-1161629.1752
 10
-599403.0606
 20
-1161590.7612
 10
-599421.5379
 20
-1161591.7253
 10
-599462.5789
 20
-1161598.594
 10
-599473.2934
 20
-1161601.6149
 10
-599477.6296
 20
-1161602.8377
 10
-599534.7797
 20
-1161614.4794
 10
-599604.6298
 20
-1161637.2337
 10
-599667.0717
 20
-1161661.0461
 10
-599732.5665
 20
-1161685.136
 10
-599777.4332
 20
-1161704.8246
 10
-599826.8803
 20
-1161731.4255
 10
-599832.0339
 20
-1161734.3174
 10
-599900.4347
 20
-1161772.7006
 10
-600006.7974
 20
-1161829.3214
 10
-600066.5933
 20
-1161855.2507
 10
-600145.4393
 20
-1161882.7675
 10
-600209.9976
 20
-1161895.9967
 10
-600260.2687
 20
-1161907.6382
 10
-600272.1255
 20
-1161910.4282
 10
-600278.2605
 20
-1161911.8717
 10
-600320.0646
 20
-1161918.7509
 10
-600404.2023
 20
-1161927.2176
 10
-600448.6632
 20
-1161918.814
 10
-600500.3348
 20
-1161916.9949
 10
-600530.6363
 20
-1161915.4
 10
-600546.9181
 20
-1161912.0975
 10
-600568.8166
 20
-1161900.5718
 10
-600608.3034
 20
-1161876.5365
 10
-600634.3345
 20
-1161860.6915
 10
-600654.6289
 20
-1161851.704
 97
0
 75
0
 76
1
 98
0
  0
HATCH
  5
20025
100
AcDbEntity
  8
plocha Q20
100
AcDbHatch
 10
0
 20
0
 30
0
210
0
220
0
230
1
  2
SOLID
 70
1
 71
0
 91
1
 92
2
 72
0
 73
1
 93
193
 10
-602468.5324
 20
-1157706.8146
 10
-602490.7155
 20
-1157705.5732
 10
-602514.2918
 20
-1157703.5218
 10
-602542.4947
 20
-1157698.1284
 10
-602566.9539
 20
-1157693.451
 10
-602590.0545
 20
-1157689.0333
 10
-602599.2435
 20
-1157687.2759
 10
-602614.3795
 20
-1157684.1829
 10
-602638.422
 20
-1157678.788
 10
-602657.6134
 20
-1157674.873
 10
-602677.0322
 20
-1157670.9114
 10
-602695.3314
 20
-1157667.1786
 10
-602713.4357
 20
-1157658.8245
 10
-602744.2205
 20
-1157643.6525
 10
-602768.7569
 20
-1157631.5599
 10
-602791.9189
 20
-1157617.2062
 10
-602810.0923
 20
-1157606.4504
 10
-602824.391
 20
-1157597.2054
 10
-602843.6125
 20
-1157583.1523
 10
-602859.8231
 20
-1157571.3006
 10
-602876.9459
 20
-1157558.782
 10
-602899.744
 20
-1157537.8027
 10
-602931.7146
 20
-1157507.3242
 10
-602948.7536
 20
-1157489.9445
 10
-602966.3166
 20
-1157472.0303
 10
-602976.773
 20
-1157461.365
 10
-602987.7559
 20
-1157444.3644
 10
-603004.9373
 20
-1157417.7866
 10
-603016.3499
 20
-1157400.1598
 10
-603024.2762
 20
-1157378.0215
 10
-603027.0358
 20
-1157370.3142
 10
-603031.4269
 20
-1157358.0496
 10
-603032.4594
 20
-1157355.1657
 10
-603035.6627
 20
-1157346.2193
 10
-603042.2742
 20
-1157327.7528
 10
-603048.7973
 20
-1157309.5218
 10
-603051.9455
 20
-1157300.7664
 10
-603088.9572
 20
-1157313.2436
 10
-603086.9428
 20
-1157317.463
 10
-603076.6072
 20
-1157344.2216
 10
-603070.5441
 20
-1157359.919
 10
-603063.5473
 20
-1157378.0333
 10
-603058.7979
 20
-1157390.3296
 10
-603050.4261
 20
-1157415.7324
 10
-603043.9573
 20
-1157439.2739
 10
-603039.4349
 20
-1157455.731
 10
-603029.8661
 20
-1157475.0297
 10
-603019.9085
 20
-1157490.3384
 10
-603007.231
 20
-1157506.7349
 10
-602994.7503
 20
-1157517.8372
 10
-602967.3012
 20
-1157542.255
 10
-602937.4236
 20
-1157568.8329
 10
-602901.3387
 20
-1157600.9326
 10
-602857.0461
 20
-1157640.3337
 10
-602841.2696
 20
-1157652.5084
 10
-602821.0952
 20
-1157664.8138
 10
-602801.5169
 20
-1157675.5931
 10
-602778.0289
 20
-1157685.65
 10
-602757.7221
 20
-1157693.6106
 10
-602736.399
 20
-1157701.9697
 10
-602730.294
 20
-1157704.363
 10
-602710.6627
 20
-1157707.585
 10
-602691.6895
 20
-1157710.6991
 10
-602663.5035
 20
-1157714.0453
 10
-602639.0975
 20
-1157716.6081
 10
-602617.9419
 20
-1157718.8295
 10
-602603.1768
 20
-1157720.38
 10
-602593.2677
 20
-1157721.7816
 10
-602578.371
 20
-1157724.8804
 10
-602567.5446
 20
-1157727.6259
 10
-602545.4016
 20
-1157733.2407
 10
-602521.4279
 20
-1157739.32
 10
-602495.4782
 20
-1157741.0458
 10
-602468.0713
 20
-1157742.7908
 10
-602438.7649
 20
-1157744.6409
 10
-602428.6306
 20
-1157743.2451
 10
-602407.5004
 20
-1157740.3345
 10
-602394.22
 20
-1157738.5052
 10
-602351.152
 20
-1157745.514
 10
-602338.9375
 20
-1157745.514
 10
-602334.658
 20
-1157745.9354
 10
-602330.5429
 20
-1157747.1838
 10
-602326.7504
 20
-1157749.2109
 10
-602324.5283
 20
-1157750.91
 10
-602323.6187
 20
-1157751.6574
 10
-602320.1285
 20
-1157753.8328
 10
-602316.272
 20
-1157755.2611
 10
-602312.2071
 20
-1157755.8838
 10
-602311.578
 20
-1157755.9058
 10
-602309.696
 20
-1157756.0024
 10
-602304.8209
 20
-1157756.8159
 10
-602300.1463
 20
-1157758.4207
 10
-602295.7995
 20
-1157760.7731
 10
-602294.0353
 20
-1157762.0186
 10
-602293.8986
 20
-1157762.1232
 10
-602289.2071
 20
-1157766.2375
 10
-602287.2633
 20
-1157768.3005
 10
-602283.6873
 20
-1157771.7317
 10
-602279.5836
 20
-1157774.5643
 10
-602275.0786
 20
-1157776.702
 10
-602270.2892
 20
-1157778.0893
 10
-602269.7393
 20
-1157778.1964
 10
-602265.5064
 20
-1157779.2715
 10
-602260.6646
 20
-1157781.277
 10
-602256.1962
 20
-1157784.0153
 10
-602252.2111
 20
-1157787.4188
 10
-602248.8076
 20
-1157791.4039
 10
-602247.2459
 20
-1157793.7562
 10
-602245.2948
 20
-1157796.5927
 10
-602242.0188
 20
-1157800.1513
 10
-602238.2021
 20
-1157803.122
 10
-602233.9481
 20
-1157805.4241
 10
-602229.3736
 20
-1157806.9946
 10
-602228.3908
 20
-1157807.2255
 10
-602220.2703
 20
-1157810.9117
 10
-602209.5266
 20
-1157812.8591
 10
-602193.625
 20
-1157816.4398
 10
-602183.0983
 20
-1157820.8942
 10
-602170.9288
 20
-1157825.9484
 10
-602168.2065
 20
-1157826.8612
 10
-602164.1099
 20
-1157827.4888
 10
-602159.9706
 20
-1157827.2789
 10
-602157.6221
 20
-1157826.7766
 10
-602157.314
 20
-1157826.6942
 10
-602153.3189
 20
-1157826.0823
 10
-602149.2826
 20
-1157826.287
 10
-602146.7278
 20
-1157826.8516
 10
-602146.5847
 20
-1157826.8929
 10
-602142.0876
 20
-1157827.7335
 10
-602137.5124
 20
-1157827.7335
 10
-602136.2585
 20
-1157827.585
 10
-602132.3955
 20
-1157827.3077
 10
-602127.6998
 20
-1157827.7184
 10
-602123.6173
 20
-1157828.7721
 10
-602123.3213
 20
-1157828.8709
 10
-602119.4421
 20
-1157829.6956
 10
-602115.4763
 20
-1157829.6956
 10
-602111.5972
 20
-1157828.8709
 10
-602111.2126
 20
-1157828.7415
 10
-602111.1623
 20
-1157828.7239
 10
-602106.9923
 20
-1157827.7124
 10
-602102.7063
 20
-1157827.5081
 10
-602098.459
 20
-1157828.1188
 10
-602096.7928
 20
-1157828.5915
 10
-602094.3089
 20
-1157828.7895
 10
-602072.9207
 20
-1157827.4586
 10
-602062.1685
 20
-1157826.7896
 10
-602046.6331
 20
-1157827.6105
 10
-602023.0081
 20
-1157829.3374
 10
-602000.4861
 20
-1157831.3184
 10
-601982.9535
 20
-1157833.4292
 10
-601982.5822
 20
-1157833.4767
 10
-601978.171
 20
-1157834.4835
 10
-601974.0105
 20
-1157836.2618
 10
-601970.2345
 20
-1157838.7544
 10
-601966.9641
 20
-1157841.881
 10
-601964.3046
 20
-1157845.5416
 10
-601962.4814
 20
-1157849.2542
 10
-601961.5102
 20
-1157854.1855
 10
-601961.5023
 20
-1157854.2249
 10
-601949.6471
 20
-1157857.843
 10
-601880.5858
 20
-1157829.1542
 10
-601876.2465
 20
-1157821.7753
 10
-601869.294
 20
-1157809.953
 10
-601867.8238
 20
-1157799.3849
 10
-601869.008
 20
-1157796.4919
 10
-601874.3253
 20
-1157790.7636
 10
-601878.313
 20
-1157786.468
 10
-601887.9639
 20
-1157774.544
 10
-601897.1409
 20
-1157765.4358
 10
-601921.4039
 20
-1157765.2689
 10
-601947.013
 20
-1157742.1534
 10
-601973.055
 20
-1157720.664
 10
-601993.9949
 20
-1157708.19
 10
-602028.0289
 20
-1157694.924
 10
-602044.6379
 20
-1157690.227
 10
-602066.3157
 20
-1157684.0966
 10
-602080.2974
 20
-1157681.4491
 10
-602091.3174
 20
-1157680.1411
 10
-602103.5051
 20
-1157678.6945
 10
-602123.9179
 20
-1157676.2717
 10
-602141.473
 20
-1157675.7405
 10
-602170.0044
 20
-1157676.0513
 10
-602194.3743
 20
-1157677.5021
 10
-602222.4561
 20
-1157679.6874
 10
-602245.6719
 20
-1157681.494
 10
-602269.5094
 20
-1157684.9434
 10
-602316.9828
 20
-1157691.8131
 10
-602344.685
 20
-1157695.8217
 10
-602373.0558
 20
-1157699.9271
 10
-602408.826
 20
-1157705.1034
 10
-602425.7805
 20
-1157707.5566
 10
-602468.5324
 20
-1157706.8146
 97
0
 75
0
 76
1
 98
0
  0
HATCH
  5
20026
100
AcDbEntity
  8
plocha Q20
100
AcDbHatch
 10
0
 20
0
 30
0
210
0
220
0
230
1
  2
SOLID
 70
1
 71
0
 91
1
 92
2
 72
0
 73
1
 93
135
 10
-601872.5869
 20
-1157947.0079
 10
-601873.2603
 20
-1157924.8309
 10
-601877.0695
 20
-1157881.0796
 10
-601878.1292
 20
-1157868.9089
 10
-601879.5952
 20
-1157857.9324
 10
-601882.196
 20
-1157845.011
 10
-601883.1106
 20
-1157840.1146
 10
-601937.7023
 20
-1157861.3553
 10
-601953.218
 20
-1157867.1172
 10
-601950.3163
 20
-1157868.8583
 10
-601948.174
 20
-1157869.7593
 10
-601947.9076
 20
-1157869.8559
 10
-601944.3658
 20
-1157871.5933
 10
-601941.2461
 20
-1157874.008
 10
-601938.6764
 20
-1157877.0014
 10
-601936.7618
 20
-1157880.4507
 10
-601936.5423
 20
-1157880.9838
 10
-601931.1161
 20
-1157885.1368
 10
-601923.4126
 20
-1157886.9954
 10
-601912.6887
 20
-1157911.8342
 10
-601911.0109
 20
-1157925.834
 10
-601910.0312
 20
-1157944.2748
 10
-601909.3364
 20
-1157957.3546
 10
-601909.3202
 20
-1157966.4296
 10
-601910.545
 20
-1158000.1179
 10
-601913.5915
 20
-1158029.8222
 10
-601916.0953
 20
-1158054.2327
 10
-601917.3528
 20
-1158066.4917
 10
-601917.9287
 20
-1158085.5008
 10
-601917.6956
 20
-1158090.252
 10
-601916.9155
 20
-1158106.1665
 10
-601915.7647
 20
-1158112.6468
 10
-601916.9511
 20
-1158128.749
 10
-601913.342
 20
-1158140.479
 10
-601907.3864
 20
-1158167.0613
 10
-601903.9229
 20
-1158192.2647
 10
-601898.312
 20
-1158222.5642
 10
-601879.3762
 20
-1158283.5092
 10
-601868.5356
 20
-1158311.777
 10
-601859.1171
 20
-1158334.5387
 10
-601851.2586
 20
-1158353.5302
 10
-601848.7913
 20
-1158363.7748
 10
-601849.0844
 20
-1158369.0502
 10
-601849.6705
 20
-1158379.601
 10
-601850.2323
 20
-1158389.7122
 10
-601851.974
 20
-1158400.8003
 10
-601856.6252
 20
-1158416.3038
 10
-601855.3222
 20
-1158428.6819
 10
-601855.2496
 20
-1158429.3705
 10
-601853.7332
 20
-1158443.7769
 10
-601852.6033
 20
-1158454.5103
 10
-601850.0573
 20
-1158479.9713
 10
-601848.0977
 20
-1158499.5662
 10
-601846.5707
 20
-1158514.8365
 10
-601848.3516
 20
-1158546.8913
 10
-601846.8429
 20
-1158559.7259
 10
-601842.549
 20
-1158581.1953
 10
-601839.8641
 20
-1158586.9484
 10
-601833.2534
 20
-1158601.1143
 10
-601828.4729
 20
-1158611.3583
 10
-601825.1745
 20
-1158641.0446
 10
-601822.3424
 20
-1158651.0045
 10
-601814.7296
 20
-1158663.462
 10
-601805.9656
 20
-1158677.803
 10
-601796.9718
 20
-1158685.5364
 10
-601782.208
 20
-1158690.4576
 10
-601766.1358
 20
-1158695.815
 10
-601753.7415
 20
-1158701.4488
 10
-601729.1089
 20
-1158713.3229
 10
-601701.4483
 20
-1158727.8885
 10
-601700.0988
 20
-1158728.719
 10
-601652.0147
 20
-1158672.1404
 10
-601659.3616
 20
-1158668.7506
 10
-601668.1539
 20
-1158665.0873
 10
-601671.1044
 20
-1158657.9164
 10
-601670.5883
 20
-1158652.2387
 10
-601669.9247
 20
-1158644.9388
 10
-601673.1854
 20
-1158637.9498
 10
-601675.6465
 20
-1158635.4889
 10
-601677.4745
 20
-1158630.0049
 10
-601679.6684
 20
-1158623.4236
 10
-601678.4993
 20
-1158617.5786
 10
-601677.6574
 20
-1158613.3691
 10
-601673.7968
 20
-1158606.9349
 10
-601674.8707
 20
-1158600.61
 10
-601678.4101
 20
-1158597.6605
 10
-601687.5125
 20
-1158593.579
 10
-601698.028
 20
-1158594.4554
 10
-601699.8065
 20
-1158604.8644
 10
-601698.7481
 20
-1158614.6539
 10
-601708.0085
 20
-1158620.7393
 10
-601727.2711
 20
-1158596.6606
 10
-601739.7474
 20
-1158594.64
 10
-601749.372
 20
-1158587.9029
 10
-601756.0814
 20
-1158583.2061
 10
-601766.1358
 20
-1158565.1083
 10
-601769.5939
 20
-1158544.3596
 10
-601770.1576
 20
-1158526.7857
 10
-601770.571
 20
-1158506.0612
 10
-601771.5915
 20
-1158494.3242
 10
-601773.0192
 20
-1158477.9061
 10
-601777.162
 20
-1158445.1769
 10
-601780.14
 20
-1158426.79
 10
-601780.1685
 20
-1158426.6184
 10
-601780.669
 20
-1158423.6149
 10
-601782.9431
 20
-1158409.971
 10
-601788.0068
 20
-1158388.3928
 10
-601793.6974
 20
-1158367.5273
 10
-601799.1091
 20
-1158348.6212
 10
-601805.7213
 20
-1158326.5806
 10
-601814.5294
 20
-1158299.2753
 10
-601821.3543
 20
-1158273.8538
 10
-601827.2419
 20
-1158247.5125
 10
-601830.8648
 20
-1158229.3986
 10
-601831.4426
 20
-1158213.8856
 10
-601830.9347
 20
-1158210.3296
 10
-601829.1567
 20
-1158197.8837
 10
-601826.1483
 20
-1158180.312
 10
-601824.4511
 20
-1158170.9774
 10
-601827.1602
 20
-1158157.4319
 10
-601831.0772
 20
-1158145.009
 10
-601836.5164
 20
-1158132.7708
 10
-601843.0991
 20
-1158126.7367
 10
-601861.331
 20
-1158110.2236
 10
-601876.7338
 20
-1158100.5969
 10
-601884.2843
 20
-1158083.8724
 10
-601887.4594
 20
-1158051.064
 10
-601891.0533
 20
-1158024.8896
 10
-601889.8295
 20
-1158020.0465
 10
-601887.5009
 20
-1158010.8311
 10
-601880.5857
 20
-1157983.4628
 10
-601874.2642
 20
-1157958.4453
 10
-601873.4009
 20
-1157955.0289
 10
-601873.7726
 20
-1157955.0934
 10
-601872.5869
 20
-1157947.0079
 97
0
 75
0
 76
1
 98
0
  0
HATCH
  5
20027
100
AcDbEntity
  8
plocha Q20
100
AcDbHatch
 10
0
 20
0
 30
0
210
0
220
0
230
1
  2
SOLID
 70
1
 71
0
 91
1
 92
2
 72
0
 73
1
 93
154
 10
-604066.7855
 20
-1155928.9345
 10
-604084.266
 20
-1155924.62
 10
-604095.1552
 20
-1155923.9368
 10
-604113.0849
 20
-1155922.812
 10
-604115.3449
 20
-1155932.079
 10
-604140.255
 20
-1155925.975
 10
-604145.0889
 20
-1155941.865
 10
-604148.502
 20
-1155953.413
 10
-604132.3566
 20
-1155958.9632
 10
-604102.7919
 20
-1155971.8369
 10
-604092.2163
 20
-1155975.459
 10
-604072.6469
 20
-1155977.413
 10
-604043.452
 20
-1155974.1429
 10
-604020.1145
 20
-1155972.9693
 10
-603981.393
 20
-1155971.7579
 10
-603936.3046
 20
-1155969.3264
 10
-603908.2423
 20
-1155967.985
 10
-603880.0901
 20
-1155966.7382
 10
-603864.7368
 20
-1155965.2264
 10
-603846.7615
 20
-1155966.8827
 10
-603828.1469
 20
-1155969.468
 10
-603795.1374
 20
-1155983.0671
 10
-603780.1074
 20
-1155992.4985
 10
-603762.2909
 20
-1156006.5413
 10
-603754.43
 20
-1156013.189
 10
-603751.1588
 20
-1156017.8249
 10
-603742.0202
 20
-1156030.7772
 10
-603732.6778
 20
-1156044.4671
 10
-603720.6255
 20
-1156062.9692
 10
-603708.7451
 20
-1156083.3808
 10
-603697.9196
 20
-1156100.0746
 10
-603681.812
 20
-1156121.1393
 10
-603667.4519
 20
-1156136.981
 10
-603648.157
 20
-1156151.5859
 10
-603631.0601
 20
-1156162.5906
 10
-603611.9358
 20
-1156171.8289
 10
-603593.4505
 20
-1156175.4792
 10
-603570.4136
 20
-1156175.3293
 10
-603551.8602
 20
-1156173.7081
 10
-603536.5739
 20
-1156171.942
 10
-603517.083
 20
-1156168.598
 10
-603505.8432
 20
-1156165.4862
 10
-603481.8626
 20
-1156159.7213
 10
-603466.7049
 20
-1156156.486
 10
-603437.391
 20
-1156155.0457
 10
-603428.5289
 20
-1156155.5992
 10
-603412.26
 20
-1156156.767
 10
-603398.0793
 20
-1156159.567
 10
-603384.8968
 20
-1156163.2679
 10
-603367.744
 20
-1156171.049
 10
-603357.0876
 20
-1156178.4597
 10
-603346.6353
 20
-1156185.911
 10
-603336.7419
 20
-1156193.1769
 10
-603327.1069
 20
-1156205.079
 10
-603320.8947
 20
-1156220.6388
 10
-603312.154
 20
-1156243.6039
 10
-603306.003
 20
-1156266.9359
 10
-603299.8236
 20
-1156288.4106
 10
-603295.6001
 20
-1156305.7911
 10
-603292.782
 20
-1156324.0558
 10
-603287.6353
 20
-1156357.1154
 10
-603285.2776
 20
-1156372.2589
 10
-603283.3401
 20
-1156384.7049
 10
-603280.8145
 20
-1156400.9281
 10
-603278.614
 20
-1156409.896
 10
-603274.9327
 20
-1156422.1251
 10
-603268.7326
 20
-1156441.2006
 10
-603262.6266
 20
-1156458.5323
 10
-603255.2727
 20
-1156479.4058
 10
-603245.4802
 20
-1156507.2011
 10
-603235.9309
 20
-1156534.3062
 10
-603231.0441
 20
-1156548.1772
 10
-603227.4574
 20
-1156558.8557
 10
-603224.3661
 20
-1156568.0587
 10
-603216.2672
 20
-1156589.1145
 10
-603203.7315
 20
-1156620.0741
 10
-603190.56
 20
-1156652.6038
 10
-603181.0488
 20
-1156676.0941
 10
-603176.0624
 20
-1156688.4092
 10
-603123.6867
 20
-1156727.5239
 10
-603126.88
 20
-1156714.2657
 10
-603131.3862
 20
-1156695.5558
 10
-603134.9914
 20
-1156680.5878
 10
-603137.403
 20
-1156670.5749
 10
-603137.7068
 20
-1156663.162
 10
-603144.2253
 20
-1156651.4112
 10
-603158.5112
 20
-1156625.6587
 10
-603171.1821
 20
-1156602.2345
 10
-603184.5927
 20
-1156578.0159
 10
-603195.4173
 20
-1156559.1041
 10
-603197.7963
 20
-1156554.9478
 10
-603202.7193
 20
-1156546.3467
 10
-603206.3766
 20
-1156538.476
 10
-603213.6815
 20
-1156520.1247
 10
-603227.283
 20
-1156485.955
 10
-603231.8861
 20
-1156468.4127
 10
-603241.2653
 20
-1156432.6686
 10
-603244.7609
 20
-1156419.347
 10
-603248.8604
 20
-1156389.8987
 10
-603252.6911
 20
-1156370.7727
 10
-603261.497
 20
-1156334.17
 10
-603264.1841
 20
-1156314.9147
 10
-603265.8149
 20
-1156303.228
 10
-603274.5952
 20
-1156271.9061
 10
-603284.3816
 20
-1156239.359
 10
-603295.9504
 20
-1156205.4426
 10
-603302.0939
 20
-1156187.432
 10
-603308.8247
 20
-1156171.6403
 10
-603316.43
 20
-1156155.265
 10
-603319.7909
 20
-1156149.8
 10
-603331.727
 20
-1156143.0292
 10
-603345.8101
 20
-1156138.0989
 10
-603365.4429
 20
-1156133.4562
 10
-603388.9987
 20
-1156129.1831
 10
-603406.0486
 20
-1156126.4668
 10
-603424.0775
 20
-1156124.8387
 10
-603450.9961
 20
-1156126.141
 10
-603484.2182
 20
-1156130.3649
 10
-603513.7144
 20
-1156137.1139
 10
-603532.4532
 20
-1156141.4953
 10
-603549.234
 20
-1156144.4715
 10
-603558.1441
 20
-1156145.6333
 10
-603573.6209
 20
-1156146.0179
 10
-603595.865
 20
-1156142.4589
 10
-603612.3473
 20
-1156136.3087
 10
-603631.9852
 20
-1156124.9614
 10
-603643.1193
 20
-1156117.5858
 10
-603660.3319
 20
-1156099.648
 10
-603676.4973
 20
-1156070.2931
 10
-603689.9155
 20
-1156047.6514
 10
-603701.201
 20
-1156031.979
 10
-603715.7176
 20
-1156010.6018
 10
-603732.8285
 20
-1155991.2813
 10
-603738.5255
 20
-1155985.8035
 10
-603743.0044
 20
-1155981.4971
 10
-603751.8758
 20
-1155974.0412
 10
-603773.5759
 20
-1155958.793
 10
-603790.1449
 20
-1155951.8998
 10
-603811.4711
 20
-1155942.9106
 10
-603820.1689
 20
-1155939.2219
 10
-603840.9259
 20
-1155934.156
 10
-603858.539
 20
-1155932.5604
 10
-603884.5326
 20
-1155930.0983
 10
-603894.844
 20
-1155929.098
 10
-603914.8528
 20
-1155930.3187
 10
-603942.1538
 20
-1155931.7244
 10
-603958.0888
 20
-1155932.3749
 10
-603970.438
 20
-1155932.879
 10
-603987.1289
 20
-1155933.3124
 10
-604011.302
 20
-1155933.9399
 10
-604030.6458
 20
-1155933.1575
 10
-604045.481
 20
-1155932.5575
 10
-604053.406
 20
-1155932.2369
 10
-604066.7855
 20
-1155928.9345
 97
0
 75
0
 76
1
 98
0
  0
HATCH
  5
20028
100
AcDbEntity
  8
plocha Q20
100
AcDbHatch
 10
0
 20
0
 30
0
210
0
220
0
230
1
  2
SOLID
 70
1
 71
0
 91
1
 92
2
 72
0
 73
1
 93
117
 10
-597688.789
 20
-1162825.6386
 10
-597704.5456
 20
-1162803.5792
 10
-597723.1964
 20
-1162781.002
 10
-597745.7492
 20
-1162755.3526
 10
-597769.5042
 20
-1162729.3707
 10
-597785.084
 20
-1162712.0175
 10
-597788.9755
 20
-1162707.6072
 10
-597789.0537
 20
-1162707.5808
 10
-597799.9525
 20
-1162695.3536
 10
-597817.415
 20
-1162677.8911
 10
-597834.3484
 20
-1162660.9577
 10
-597854.7213
 20
-1162640.5847
 10
-597871.8737
 20
-1162620.645
 10
-597903.9188
 20
-1162581.6445
 10
-597911.2704
 20
-1162572.2193
 10
-597934.7697
 20
-1162611.7598
 10
-597924.1829
 20
-1162624.8819
 10
-597912.5474
 20
-1162634.8552
 10
-597896.8262
 20
-1162648.3304
 10
-597873.4571
 20
-1162675.7639
 10
-597845.6517
 20
-1162708.4049
 10
-597844.7617
 20
-1162709.4498
 10
-597838.3957
 20
-1162716.9229
 10
-597831.3084
 20
-1162725.2426
 10
-597810.3561
 20
-1162746.971
 10
-597787.3652
 20
-1162771.8296
 10
-597761.4308
 20
-1162803.5272
 10
-597730.5085
 20
-1162843.6049
 10
-597711.6671
 20
-1162870.5215
 10
-597681.7567
 20
-1162933.1908
 10
-597672.8853
 20
-1162971.0421
 10
-597660.3921
 20
-1163024.3461
 10
-597660.1608
 20
-1163030.9392
 10
-597660.0601
 20
-1163033.8044
 10
-597659.7074
 20
-1163043.8647
 10
-597659.318
 20
-1163054.9636
 10
-597658.7795
 20
-1163070.3073
 10
-597610.2703
 20
-1163069.5987
 10
-597606.2687
 20
-1163067.0752
 10
-597609.2159
 20
-1163050.6546
 10
-597612.0497
 20
-1163034.8674
 10
-597612.2007
 20
-1163034.0261
 10
-597613.1537
 20
-1163028.7156
 10
-597614.6087
 20
-1163027.9072
 10
-597623.9552
 20
-1163002.4864
 10
-597651.8463
 20
-1162893.3103
 10
-597656.7635
 20
-1162879.1902
 10
-597656.1541
 20
-1162868.2891
 10
-597658.16
 20
-1162856.4298
 10
-597651.7249
 20
-1162848.6541
 10
-597644.2948
 20
-1162839.6761
 10
-597634.4001
 20
-1162827.72
 10
-597629.5153
 20
-1162821.8177
 10
-597621.7771
 20
-1162816.4122
 10
-597603.4298
 20
-1162810.5745
 10
-597587.9618
 20
-1162809.2924
 10
-597579.4247
 20
-1162811.071
 10
-597567.4431
 20
-1162813.5671
 10
-597556.3142
 20
-1162821.9037
 10
-597545.7392
 20
-1162838.6473
 10
-597539.0896
 20
-1162846.2447
 10
-597530.6053
 20
-1162854.1633
 10
-597525.1754
 20
-1162859.2312
 10
-597516.1024
 20
-1162861.3302
 10
-597511.9156
 20
-1162860.8895
 10
-597500.7043
 20
-1162859.7092
 10
-597494.5235
 20
-1162854.3622
 10
-597491.9474
 20
-1162835.4712
 10
-597488.8919
 20
-1162808.7128
 10
-597485.0634
 20
-1162783.7974
 10
-597487.1491
 20
-1162769.7767
 10
-597491.5941
 20
-1162760.8868
 10
-597498.8801
 20
-1162750.307
 10
-597502.6383
 20
-1162746.8378
 10
-597510.9462
 20
-1162739.1691
 10
-597518.4404
 20
-1162733.1815
 10
-597529.3565
 20
-1162725.2426
 10
-597538.9358
 20
-1162721.4109
 10
-597552.8948
 20
-1162715.8274
 10
-597558.6333
 20
-1162708.3113
 10
-597559.1626
 20
-1162704.6071
 10
-597559.914
 20
-1162699.3472
 10
-597552.3972
 20
-1162690.1067
 10
-597543.8333
 20
-1162686.1817
 10
-597532.6456
 20
-1162681.054
 10
-597514.9466
 20
-1162664.3481
 10
-597499.0715
 20
-1162661.7023
 10
-597478.4341
 20
-1162658.5274
 10
-597449.4322
 20
-1162657.5251
 10
-597436.8742
 20
-1162658.3456
 10
-597424.2791
 20
-1162660.536
 10
-597412.5636
 20
-1162662.5735
 10
-597401.5336
 20
-1162667.3005
 10
-597389.9822
 20
-1162672.3198
 10
-597383.1837
 20
-1162671.2274
 10
-597378.4213
 20
-1162667.5232
 10
-597378.4213
 20
-1162661.7023
 10
-597380.0087
 20
-1162657.4689
 10
-597386.3588
 20
-1162653.7648
 10
-597401.7047
 20
-1162649.0024
 10
-597426.0464
 20
-1162645.8272
 10
-597447.213
 20
-1162643.1815
 10
-597480.1328
 20
-1162638.5495
 10
-597504.2216
 20
-1162642.0727
 10
-597511.8185
 20
-1162645.4782
 10
-597524.1255
 20
-1162650.9951
 10
-597537.952
 20
-1162657.1933
 10
-597558.1625
 20
-1162667.9561
 10
-597576.3584
 20
-1162678.2407
 10
-597590.4767
 20
-1162688.4373
 10
-597613.3609
 20
-1162707.1746
 10
-597639.9998
 20
-1162731.912
 10
-597651.6457
 20
-1162747.8908
 10
-597661.8836
 20
-1162774.8815
 10
-597675.3629
 20
-1162812.971
 10
-597683.1811
 20
-1162833.4896
 10
-597688.789
 20
-1162825.6386
 97
0
 75
0
 76
1
 98
0
  0
HATCH
  5
20029
100
AcDbEntity
  8
plocha Q20
100
AcDbHatch
 10
0
 20
0
 30
0
210
0
220
0
230
1
  2
SOLID
 70
1
 71
0
 91
1
 92
2
 72
0
 73
1
 93
80
 10
-601108.7697
 20
-1160585.3928
 10
-601109.5634
 20
-1160581.6622
 10
-601118.0496
 20
-1160568.3149
 10
-601120.6955
 20
-1160561.4355
 10
-601137.0996
 20
-1160507.9896
 10
-601139.2163
 20
-1160491.5854
 10
-601136.3946
 20
-1160473.2661
 10
-601114.8313
 20
-1160370.6448
 10
-601114.0804
 20
-1160359.2861
 10
-601113.6687
 20
-1160344.4663
 10
-601113.5217
 20
-1160339.1787
 10
-601113.3308
 20
-1160332.3048
 10
-601112.1891
 20
-1160291.1976
 10
-601112.6561
 20
-1160170.1771
 10
-601112.7376
 20
-1160143.3998
 10
-601108.5245
 20
-1160111.1138
 10
-601095.7473
 20
-1160095.0881
 10
-601084.3817
 20
-1160060.2289
 10
-601074.3959
 20
-1160029.023
 10
-601062.2809
 20
-1160009.1986
 10
-601050.9439
 20
-1159999.95
 10
-601051.0804
 20
-1159988.3855
 10
-601048.679
 20
-1159979.4662
 10
-601048.1578
 20
-1159977.5306
 10
-601046.0377
 20
-1159969.655
 10
-601041.1124
 20
-1159951.3611
 10
-601036.6369
 20
-1159932.2073
 10
-601010.0432
 20
-1159799.0442
 10
-601008.9651
 20
-1159794.5157
 10
-601006.9037
 20
-1159781.5297
 10
-601005.4851
 20
-1159772.5917
 10
-601004.393
 20
-1159765.711
 10
-601004.4703
 20
-1159759.1883
 10
-601004.6898
 20
-1159740.6762
 10
-601004.922
 20
-1159721.1124
 10
-601005.0854
 20
-1159707.3433
 10
-601005.3059
 20
-1159688.7458
 10
-601005.8472
 20
-1159660.431
 10
-601019.803
 20
-1159638.2975
 10
-601030.1568
 20
-1159624.8378
 10
-601041.1294
 20
-1159614.551
 10
-601054.7007
 20
-1159601.8278
 10
-601090.0603
 20
-1159640.4226
 10
-601063.3759
 20
-1159672.0175
 10
-601056.1152
 20
-1159685.8785
 10
-601053.3519
 20
-1159699.016
 10
-601061.2894
 20
-1159741.8786
 10
-601066.5352
 20
-1159776.933
 10
-601067.1237
 20
-1159797.7866
 10
-601064.3416
 20
-1159815.8707
 10
-601062.2358
 20
-1159842.192
 10
-601060.7148
 20
-1159861.205
 10
-601062.5302
 20
-1159873.1419
 10
-601066.6089
 20
-1159886.0579
 10
-601088.472
 20
-1159938.5338
 10
-601104.6215
 20
-1159961.6045
 10
-601112.4771
 20
-1159972.8271
 10
-601113.0241
 20
-1159973.6085
 10
-601116.6241
 20
-1159978.7513
 10
-601120.5303
 20
-1159988.7336
 10
-601128.7984
 20
-1160009.8631
 10
-601135.1796
 20
-1160027.5177
 10
-601144.3236
 20
-1160077.8099
 10
-601150.8091
 20
-1160113.4796
 10
-601151.1286
 20
-1160137.5723
 10
-601150.8778
 20
-1160205.8185
 10
-601149.7656
 20
-1160297.369
 10
-601149.8051
 20
-1160336.227
 10
-601151.7799
 20
-1160346.2986
 10
-601154.6343
 20
-1160360.8565
 10
-601157.7122
 20
-1160376.5535
 10
-601163.042
 20
-1160400.5907
 10
-601168.4651
 20
-1160425.0732
 10
-601175.3342
 20
-1160479.5806
 10
-601175.3342
 20
-1160511.8922
 10
-601172.347
 20
-1160538.8927
 10
-601158.679
 20
-1160569.5089
 10
-601149.0236
 20
-1160591.137
 10
-601143.6948
 20
-1160596.7435
 10
-601108.7697
 20
-1160585.3928
 97
0
 75
0
 76
1
 98
0
  0
HATCH
  5
2002A
100
AcDbEntity
  8
plocha Q20
100
AcDbHatch
 10
0
 20
0
 30
0
210
0
220
0
230
1
  2
SOLID
 70
1
 71
0
 91
1
 92
2
 72
0
 73
1
 93
71
 10
-598238.6587
 20
-1162090.004
 10
-598251.3154
 20
-1162082.621
 10
-598272.8421
 20
-1162070.0639
 10
-598308.5593
 20
-1162056.6697
 10
-598329.8141
 20
-1162048.6993
 10
-598349.7543
 20
-1162101.3985
 10
-598344.0075
 20
-1162118.7427
 10
-598337.9867
 20
-1162127.5003
 10
-598338.5611
 20
-1162144.7331
 10
-598340.1056
 20
-1162191.0653
 10
-598337.6176
 20
-1162209.3109
 10
-598333.9177
 20
-1162217.7361
 10
-598326.8871
 20
-1162225.5939
 10
-598318.9172
 20
-1162234.5013
 10
-598309.9842
 20
-1162237.3599
 10
-598296.1214
 20
-1162241.796
 10
-598287.3669
 20
-1162250.2122
 10
-598283.874
 20
-1162260.0411
 10
-598281.1343
 20
-1162275.4494
 10
-598279.7188
 20
-1162283.2344
 10
-598271.652
 20
-1162289.2411
 10
-598266.3167
 20
-1162288.9272
 10
-598256.8744
 20
-1162286.6645
 10
-598242.6393
 20
-1162276.878
 10
-598237.2868
 20
-1162275.8074
 10
-598220.3272
 20
-1162246.8349
 10
-598206.6191
 20
-1162228.1449
 10
-598208.3831
 20
-1162215.7976
 10
-598230.3813
 20
-1162189.1555
 10
-598249.9604
 20
-1162169.0472
 10
-598273.773
 20
-1162151.5847
 10
-598318.7523
 20
-1162129.8887
 10
-598330.5708
 20
-1162112.6686
 10
-598331.6303
 20
-1162108.4309
 10
-598296.1642
 20
-1162123.9172
 10
-598268.6284
 20
-1162137.7447
 10
-598235.2233
 20
-1162160.3422
 10
-598213.2233
 20
-1162188.6281
 10
-598192.8521
 20
-1162219.6607
 10
-598164.8884
 20
-1162268.3963
 10
-598146.856
 20
-1162302.7707
 10
-598144.3258
 20
-1162307.5938
 10
-598139.8759
 20
-1162316.0762
 10
-598134.2268
 20
-1162326.3476
 10
-598126.7412
 20
-1162339.9577
 10
-598110.2283
 20
-1162369.9811
 10
-598082.6131
 20
-1162417.5548
 10
-598052.6387
 20
-1162465.3667
 10
-598032.2732
 20
-1162493.5192
 10
-598017.5123
 20
-1162514.3828
 10
-597999.2293
 20
-1162540.5887
 10
-597982.4697
 20
-1162556.8486
 10
-597956.2647
 20
-1162511.2737
 10
-597972.7353
 20
-1162492.0231
 10
-597996.7976
 20
-1162459.2576
 10
-598022.1649
 20
-1162424.715
 10
-598044.4644
 20
-1162388.0137
 10
-598059.9153
 20
-1162362.5839
 10
-598075.0395
 20
-1162337.6921
 10
-598090.5313
 20
-1162312.1951
 10
-598093.064
 20
-1162306.7548
 10
-598096.2335
 20
-1162299.9461
 10
-598101.4697
 20
-1162288.6981
 10
-598114.1515
 20
-1162261.4557
 10
-598128.9876
 20
-1162229.5857
 10
-598144.1711
 20
-1162206.4486
 10
-598165.266
 20
-1162174.3042
 10
-598187.0891
 20
-1162141.0501
 10
-598195.9453
 20
-1162131.4971
 10
-598216.9163
 20
-1162111.1252
 10
-598238.6587
 20
-1162090.004
 97
0
 75
0
 76
1
 98
0
  0
HATCH
  5
2002B
100
AcDbEntity
  8
plocha Q20
100
AcDbHatch
 10
0
 20
0
 30
0
210
0
220
0
230
1
  2
SOLID
 70
1
 71
0
 91
1
 92
2
 72
0
 73
1
 93
102
 10
-594514.4301
 20
-1157379.2509
 10
-594525.2802
 20
-1157377.6234
 10
-594537.9615
 20
-1157378.3126
 10
-594541.9172
 20
-1157378.5276
 10
-594541.9057
 20
-1157378.6115
 10
-594543.1831
 20
-1157378.7083
 10
-594559.8202
 20
-1157379.4317
 10
-594566.5072
 20
-1157378.8746
 10
-594566.4858
 20
-1157419.3798
 10
-594562.2772
 20
-1157418.637
 10
-594557.4424
 20
-1157419.1373
 10
-594548.743
 20
-1157420.0371
 10
-594540.7779
 20
-1157420.8612
 10
-594536.9835
 20
-1157421.2536
 10
-594536.0022
 20
-1157421.3552
 10
-594531.9182
 20
-1157421.7777
 10
-594527.945
 20
-1157422.1888
 10
-594528.0033
 20
-1157421.933
 10
-594503.0374
 20
-1157423.7368
 10
-594469.4929
 20
-1157428.571
 10
-594461.3423
 20
-1157434.1498
 10
-594454.3894
 20
-1157436.9309
 10
-594445.2541
 20
-1157440.5851
 10
-594435.6822
 20
-1157444.4139
 10
-594433.2502
 20
-1157445.3866
 10
-594421.7723
 20
-1157446.9697
 10
-594395.857
 20
-1157450.5442
 10
-594393.6786
 20
-1157450.8447
 10
-594388.076
 20
-1157453.5014
 10
-594383.2204
 20
-1157455.804
 10
-594374.42
 20
-1157464.0544
 10
-594368.8318
 20
-1157469.2933
 10
-594366.0279
 20
-1157471.6945
 10
-594361.2783
 20
-1157474.8981
 10
-594356.1291
 20
-1157477.4097
 10
-594353.3862
 20
-1157478.4059
 10
-594333.1671
 20
-1157485.378
 10
-594325.153
 20
-1157488.1416
 10
-594311.3001
 20
-1157494.8334
 10
-594300.0911
 20
-1157502.5936
 10
-594289.5026
 20
-1157509.924
 10
-594289.418
 20
-1157509.9825
 10
-594286.5687
 20
-1157511.9552
 10
-594267.9969
 20
-1157524.8126
 10
-594247.9298
 20
-1157538.7053
 10
-594211.3201
 20
-1157565.416
 10
-594205.6354
 20
-1157569.0036
 10
-594193.7969
 20
-1157575.9673
 10
-594183.0637
 20
-1157582.2811
 10
-594165.6768
 20
-1157592.7132
 10
-594151.5937
 20
-1157601.1631
 10
-594146.6416
 20
-1157604.9145
 10
-594135.5943
 20
-1157613.284
 10
-594076.6646
 20
-1157657.9834
 10
-594058.8477
 20
-1157671.324
 10
-594034.4165
 20
-1157686.5935
 10
-594023.6556
 20
-1157693.3191
 10
-593998.5025
 20
-1157708.374
 10
-593994.6066
 20
-1157711.3745
 10
-593969.3878
 20
-1157730.7978
 10
-593948.9532
 20
-1157750.8705
 10
-593936.8371
 20
-1157766.2418
 10
-593925.0098
 20
-1157788.4096
 10
-593922.1962
 20
-1157807.1661
 10
-593885.6723
 20
-1157815.1589
 10
-593899.2575
 20
-1157779.3436
 10
-593916.4025
 20
-1157753.0406
 10
-593932.1353
 20
-1157732.2445
 10
-593944.4323
 20
-1157720.3091
 10
-593967.8788
 20
-1157702.4373
 10
-593970.292
 20
-1157700.598
 10
-593990.8426
 20
-1157678.404
 10
-594009.2492
 20
-1157658.3967
 10
-594024.4879
 20
-1157641.8331
 10
-594036.2351
 20
-1157631.7327
 10
-594055.1425
 20
-1157616.1241
 10
-594066.1384
 20
-1157608.4269
 10
-594079.4644
 20
-1157599.0986
 10
-594085.5067
 20
-1157594.869
 10
-594100.3869
 20
-1157582.3384
 10
-594109.7924
 20
-1157574.418
 10
-594113.6516
 20
-1157571.1681
 10
-594114.342
 20
-1157570.5867
 10
-594123.2935
 20
-1157560.0495
 10
-594133.3325
 20
-1157547.7794
 10
-594145.2295
 20
-1157533.5729
 10
-594173.3446
 20
-1157506.261
 10
-594191.6092
 20
-1157493.1104
 10
-594209.8132
 20
-1157480.0036
 10
-594229.8502
 20
-1157470.3306
 10
-594249.735
 20
-1157460.731
 10
-594253.4468
 20
-1157458.939
 10
-594255.4446
 20
-1157457.9745
 10
-594276.0481
 20
-1157451.1068
 10
-594323.6167
 20
-1157435.6389
 10
-594367.4487
 20
-1157421.8399
 10
-594385.8274
 20
-1157416.054
 10
-594387.6186
 20
-1157415.4901
 10
-594447.7012
 20
-1157398.2387
 10
-594478.0819
 20
-1157389.3778
 10
-594493.453
 20
-1157383.9527
 10
-594514.4301
 20
-1157379.2509
 97
0
 75
0
 76
1
 98
0
  0
HATCH
  5
2002C
100
AcDbEntity
  8
plocha Q20
100
AcDbHatch
 10
0
 20
0
 30
0
210
0
220
0
230
1
  2
SOLID
 70
1
 71
0
 91
1
 92
2
 72
0
 73
1
 93
100
 10
-595570.7385
 20
-1158984.8974
 10
-595542.6447
 20
-1158945.7666
 10
-595531.7394
 20
-1158930.5772
 10
-595514.549
 20
-1158906.6332
 10
-595509.3715
 20
-1158890.6369
 10
-595505.0817
 20
-1158880.2225
 10
-595493.3255
 20
-1158866.0687
 10
-595478.3105
 20
-1158844.9604
 10
-595463.6692
 20
-1158824.186
 10
-595453.8106
 20
-1158809.4258
 10
-595453.3665
 20
-1158808.3563
 10
-595439.1091
 20
-1158780.4954
 10
-595435.6756
 20
-1158764.7664
 10
-595473.8824
 20
-1158753.8365
 10
-595478.3508
 20
-1158762.9543
 10
-595495.3444
 20
-1158799.6014
 10
-595499.1471
 20
-1158807.8018
 10
-595538.6217
 20
-1158862.2108
 10
-595586.7954
 20
-1158927.6166
 10
-595589.8774
 20
-1158931.3468
 10
-595590.5841
 20
-1158932.3765
 10
-595618.8359
 20
-1158967.8706
 10
-595632.1469
 20
-1158986.6043
 10
-595633.8312
 20
-1158978.6035
 10
-595635.8881
 20
-1158968.8334
 10
-595636.3418
 20
-1158965.8032
 10
-595636.3418
 20
-1158961.1348
 10
-595635.5083
 20
-1158956.5415
 10
-595633.8679
 20
-1158952.1708
 10
-595631.4735
 20
-1158948.1631
 10
-595628.4021
 20
-1158944.6475
 10
-595625.4419
 20
-1158942.2083
 10
-595605.1916
 20
-1158924.832
 10
-595604.406
 20
-1158924.1337
 10
-595601.0362
 20
-1158920.4733
 10
-595598.315
 20
-1158916.3081
 10
-595596.3165
 20
-1158911.7518
 10
-595595.0951
 20
-1158906.9288
 10
-595594.6842
 20
-1158901.9704
 10
-595595.0951
 20
-1158897.0121
 10
-595595.2069
 20
-1158896.3835
 10
-595599.9415
 20
-1158891.6413
 10
-595608.7853
 20
-1158887.5142
 10
-595615.5605
 20
-1158883.8509
 10
-595615.8554
 20
-1158883.6862
 10
-595617.5814
 20
-1158882.4777
 10
-595619.0713
 20
-1158880.9878
 10
-595620.2798
 20
-1158879.2618
 10
-595621.1702
 20
-1158877.3523
 10
-595621.7156
 20
-1158875.3171
 10
-595621.8993
 20
-1158873.2181
 10
-595621.7156
 20
-1158871.1191
 10
-595621.1702
 20
-1158869.0839
 10
-595620.4864
 20
-1158867.5472
 10
-595618.1011
 20
-1158857.5292
 10
-595614.7895
 20
-1158852.441
 10
-595614.628
 20
-1158851.7707
 10
-595611.5175
 20
-1158848.8019
 10
-595605.4072
 20
-1158843.3025
 10
-595604.7818
 20
-1158840.1065
 10
-595607.5363
 20
-1158839.0736
 10
-595611.4798
 20
-1158837.5948
 10
-595618.425
 20
-1158838.2746
 10
-595624.4575
 20
-1158841.2909
 10
-595629.8521
 20
-1158845.3077
 10
-595633.4886
 20
-1158848.6137
 10
-595635.6672
 20
-1158849.7734
 10
-595651.2384
 20
-1158858.3125
 10
-595662.6116
 20
-1158864.5495
 10
-595672.597
 20
-1158871.242
 10
-595689.6542
 20
-1158880.9506
 10
-595701.0597
 20
-1158884.5812
 10
-595701.7237
 20
-1158884.8076
 10
-595704.4348
 20
-1158886.0718
 10
-595706.8852
 20
-1158887.7875
 10
-595709.0003
 20
-1158889.9028
 10
-595710.7162
 20
-1158892.3531
 10
-595711.9804
 20
-1158895.0643
 10
-595712.7545
 20
-1158897.9536
 10
-595713.0153
 20
-1158900.9337
 10
-595713.0125
 20
-1158901.2463
 10
-595712.6203
 20
-1158907.6186
 10
-595711.4113
 20
-1158915.2512
 10
-595709.4114
 20
-1158922.7154
 10
-595706.6421
 20
-1158929.9297
 10
-595704.6744
 20
-1158934.0077
 10
-595691.6336
 20
-1158951.0667
 10
-595681.0562
 20
-1158964.9495
 10
-595677.3429
 20
-1158970.3735
 10
-595673.8355
 20
-1158976.8548
 10
-595671.0622
 20
-1158983.6826
 10
-595669.057
 20
-1158990.7739
 10
-595667.844
 20
-1158998.043
 10
-595667.6803
 20
-1158999.7144
 10
-595667.6776
 20
-1158999.7481
 10
-595665.2885
 20
-1159021.5666
 10
-595618.1737
 20
-1159048.7421
 10
-595605.5948
 20
-1159032.6253
 10
-595591.2378
 20
-1159013.4497
 10
-595570.7385
 20
-1158984.8974
 97
0
 75
0
 76
1
 98
0
  0
HATCH
  5
2002D
100
AcDbEntity
  8
plocha Q20
100
AcDbHatch
 10
0
 20
0
 30
0
210
0
220
0
230
1
  2
SOLID
 70
1
 71
0
 91
1
 92
2
 72
0
 73
1
 93
81
 10
-597011.2704
 20
-1166111.9572
 10
-596978.9369
 20
-1166038.7813
 10
-596975.2226
 20
-1166030.3753
 10
-596951.3714
 20
-1165979.1494
 10
-596909.0897
 20
-1165886.7262
 10
-596897.3678
 20
-1165862.2356
 10
-596893.9118
 20
-1165855.015
 10
-596874.1261
 20
-1165813.0044
 10
-596855.9666
 20
-1165773.7042
 10
-596846.7515
 20
-1165752.5634
 10
-596842.6859
 20
-1165743.348
 10
-596839.4334
 20
-1165721.9363
 10
-596829.1183
 20
-1165670.606
 10
-596828.05
 20
-1165665.2898
 10
-596822.9003
 20
-1165631.4103
 10
-596816.1243
 20
-1165602.6805
 10
-596814.4348
 20
-1165569.034
 10
-596804.337
 20
-1165521.3401
 10
-596803.8398
 20
-1165518.4914
 10
-596795.4157
 20
-1165470.2235
 10
-596785.0478
 20
-1165419.5891
 10
-596774.6797
 20
-1165350.63
 10
-596774.1085
 20
-1165348.1833
 10
-596765.2762
 20
-1165310.3637
 10
-596755.1494
 20
-1165259.2471
 10
-596745.0225
 20
-1165211.0239
 10
-596744.6596
 20
-1165209.1183
 10
-596735.3779
 20
-1165160.3897
 10
-596725.4921
 20
-1165108.7909
 10
-596714.4008
 20
-1165048.7531
 10
-596713.825
 20
-1165046.0881
 10
-596705.9617
 20
-1165009.6923
 10
-596696.5583
 20
-1164960.5046
 10
-596690.3037
 20
-1164934.8594
 10
-596707.5016
 20
-1164943.4583
 10
-596709.4469
 20
-1164951.618
 10
-596720.1318
 20
-1165003.1994
 10
-596726.3429
 20
-1165035.7073
 10
-596727.286
 20
-1165040.6435
 10
-596739.6637
 20
-1165105.427
 10
-596746.0211
 20
-1165138.7008
 10
-596754.0367
 20
-1165180.6537
 10
-596757.9319
 20
-1165201.0406
 10
-596761.6504
 20
-1165220.504
 10
-596763.3067
 20
-1165229.1718
 10
-596770.623
 20
-1165267.4647
 10
-596776.1999
 20
-1165296.6543
 10
-596782.4829
 20
-1165329.5379
 10
-596788.7842
 20
-1165362.5191
 10
-596791.9458
 20
-1165379.0656
 10
-596795.7964
 20
-1165399.2203
 10
-596798.4143
 20
-1165412.9214
 10
-596802.8086
 20
-1165434.6475
 10
-596807.598
 20
-1165458.1854
 10
-596814.6333
 20
-1165492.7603
 10
-596820.0756
 20
-1165519.5064
 10
-596823.8004
 20
-1165537.8124
 10
-596829.1604
 20
-1165564.1537
 10
-596832.3665
 20
-1165579.9102
 10
-596836.4235
 20
-1165599.8483
 10
-596844.2715
 20
-1165638.5418
 10
-596848.3484
 20
-1165658.688
 10
-596855.87
 20
-1165695.8583
 10
-596860.1942
 20
-1165717.227
 10
-596864.305
 20
-1165737.541
 10
-596874.2903
 20
-1165759.9074
 10
-596884.2344
 20
-1165782.1815
 10
-596913.0487
 20
-1165846.723
 10
-596949.1413
 20
-1165906.2488
 10
-596957.3917
 20
-1165925.0598
 10
-596966.0688
 20
-1165944.8437
 10
-596979.5663
 20
-1165975.6174
 10
-596984.1541
 20
-1165986.0779
 10
-597002.3742
 20
-1166027.6195
 10
-597010.6074
 20
-1166046.3913
 10
-597018.086
 20
-1166063.4423
 10
-597024.8745
 20
-1166078.8616
 10
-597033.9935
 20
-1166099.1264
 10
-597050.6369
 20
-1166134.6191
 10
-597045.5038
 20
-1166185.8817
 10
-597011.2704
 20
-1166111.9572
 97
0
 75
0
 76
1
 98
0
  0
HATCH
  5
2002E
100
AcDbEntity
  8
plocha Q20
100
AcDbHatch
 10
0
 20
0
 30
0
210
0
220
0
230
1
  2
SOLID
 70
1
 71
0
 91
1
 92
2
 72
0
 73
1
 93
71
 10
-596659.1277
 20
-1162964.7435
 10
-596664.9721
 20
-1162911.0203
 10
-596665.2097
 20
-1162904.2944
 10
-596667.3833
 20
-1162842.7844
 10
-596670.2765
 20
-1162764.1807
 10
-596671.2412
 20
-1162741.9981
 10
-596672.2057
 20
-1162723.9144
 10
-596672.3963
 20
-1162718.8765
 10
-596673.4112
 20
-1162692.087
 10
-596675.34
 20
-1162653.5086
 10
-596676.7867
 20
-1162617.3412
 10
-596677.5101
 20
-1162564.778
 10
-596677.5101
 20
-1162549.8288
 10
-596677.6974
 20
-1162544.5224
 10
-596678.9568
 20
-1162508.839
 10
-596681.3679
 20
-1162420.3495
 10
-596683.0559
 20
-1162366.5808
 10
-596683.1863
 20
-1162361.7685
 10
-596684.9847
 20
-1162295.4516
 10
-596686.9137
 20
-1162236.1371
 10
-596688.6014
 20
-1162186.7083
 10
-596688.5283
 20
-1162179.9501
 10
-596688.004
 20
-1162131.4406
 10
-596693.1826
 20
-1162050.2368
 10
-596692.0005
 20
-1162006.626
 10
-596692.1994
 20
-1162000.3328
 10
-596693.0765
 20
-1161972.5712
 10
-596694.418
 20
-1161930.1088
 10
-596698.4872
 20
-1161861.9254
 10
-596698.1513
 20
-1161814.1735
 10
-596698.2176
 20
-1161812.2462
 10
-596700.6395
 20
-1161742.0647
 10
-596706.4441
 20
-1161669.9972
 10
-596707.0045
 20
-1161648.6968
 10
-596724.0842
 20
-1161653.9026
 10
-596722.4373
 20
-1161681.8048
 10
-596721.8068
 20
-1161691.5019
 10
-596719.0968
 20
-1161750.7772
 10
-596718.4565
 20
-1161768.2163
 10
-596717.5093
 20
-1161794.3779
 10
-596716.5121
 20
-1161821.6489
 10
-596715.2323
 20
-1161856.311
 10
-596714.5072
 20
-1161875.9499
 10
-596715.7683
 20
-1161999.1111
 10
-596715.8475
 20
-1162006.836
 10
-596708.4739
 20
-1162055.8096
 10
-596708.1873
 20
-1162064.5252
 10
-596706.4466
 20
-1162117.4456
 10
-596705.2528
 20
-1162153.7413
 10
-596704.1382
 20
-1162187.6237
 10
-596703.3642
 20
-1162211.1548
 10
-596702.8438
 20
-1162226.9754
 10
-596703.6092
 20
-1162288.2333
 10
-596701.5916
 20
-1162360.3242
 10
-596701.4167
 20
-1162366.5749
 10
-596696.2129
 20
-1162428.5599
 10
-596695.9763
 20
-1162435.7525
 10
-596695.515
 20
-1162449.7775
 10
-596693.7736
 20
-1162502.7155
 10
-596692.8023
 20
-1162532.2468
 10
-596693.9935
 20
-1162578.9521
 10
-596688.3852
 20
-1162666.5217
 10
-596686.9755
 20
-1162709.3754
 10
-596685.8701
 20
-1162742.9761
 10
-596684.903
 20
-1162772.1829
 10
-596685.4453
 20
-1162904.7532
 10
-596685.4669
 20
-1162910.0558
 10
-596678.3236
 20
-1162967.6564
 10
-596678.2683
 20
-1162968.9995
 10
-596658.9862
 20
-1162974.079
 10
-596659.1277
 20
-1162964.7435
 97
0
 75
0
 76
1
 98
0
  0
HATCH
  5
2002F
100
AcDbEntity
  8
plocha Q20
100
AcDbHatch
 10
0
 20
0
 30
0
210
0
220
0
230
1
  2
SOLID
 70
1
 71
0
 91
1
 92
2
 72
0
 73
1
 93
37
 10
-598715.0307
 20
-1161896.1485
 10
-598720.3906
 20
-1161890.705
 10
-598749.4948
 20
-1161857.8965
 10
-598788.6533
 20
-1161816.0923
 10
-598853.2118
 20
-1161754.7089
 10
-598902.7953
 20
-1161713.0497
 10
-598932.7373
 20
-1161696.5815
 10
-598954.8507
 20
-1161683.0334
 10
-598956.2816
 20
-1161682.0427
 10
-598962.6379
 20
-1161677.6422
 10
-598972.3789
 20
-1161670.8984
 10
-598990.8427
 20
-1161658.1159
 10
-599009.2393
 20
-1161647.1106
 10
-599038.774
 20
-1161632.6218
 10
-599068.9364
 20
-1161617.8252
 10
-599097.7362
 20
-1161605.9164
 10
-599121.8537
 20
-1161596.5648
 10
-599139.1461
 20
-1161589.8594
 10
-599150.7454
 20
-1161586.7196
 10
-599168.237
 20
-1161584.8783
 10
-599193.5791
 20
-1161582.2108
 10
-599190.3455
 20
-1161626.5253
 10
-599151.6363
 20
-1161629.9546
 10
-599132.3308
 20
-1161636.3896
 10
-599107.4071
 20
-1161644.6975
 10
-599095.1516
 20
-1161649.5426
 10
-599059.4589
 20
-1161666.6454
 10
-599026.4446
 20
-1161683.5596
 10
-598975.3936
 20
-1161707.9772
 10
-598960.302
 20
-1161719.9823
 10
-598922.3238
 20
-1161746.7472
 10
-598884.102
 20
-1161776.3386
 10
-598844.8112
 20
-1161817.2168
 10
-598796.3924
 20
-1161866.4294
 10
-598751.1485
 20
-1161913.6575
 10
-598739.2443
 20
-1161926.4658
 10
-598715.0307
 20
-1161896.1485
 97
0
 75
0
 76
1
 98
0
  0
HATCH
  5
20030
100
AcDbEntity
  8
plocha Q20
100
AcDbHatch
 10
0
 20
0
 30
0
210
0
220
0
230
1
  2
SOLID
 70
1
 71
0
 91
1
 92
2
 72
0
 73
1
 93
59
 10
-601185.9759
 20
-1161133.6223
 10
-601197.4247
 20
-1161121.8243
 10
-601199.5415
 20
-1161114.4159
 10
-601199.5415
 20
-1161103.3034
 10
-601196.3664
 20
-1161087.4284
 10
-601184.7247
 20
-1161057.2657
 10
-601159.4766
 20
-1160998.8059
 10
-601146.8079
 20
-1160976.2311
 10
-601144.4483
 20
-1160964.1982
 10
-601137.9924
 20
-1160947.4766
 10
-601123.2815
 20
-1160911.1757
 10
-601114.2036
 20
-1160896.1493
 10
-601107.2028
 20
-1160879.3473
 10
-601096.3426
 20
-1160850.7677
 10
-601089.8518
 20
-1160833.6866
 10
-601080.1411
 20
-1160808.1323
 10
-601077.895
 20
-1160799.5219
 10
-601073.6522
 20
-1160783.2582
 10
-601070.1596
 20
-1160764.462
 10
-601069.4932
 20
-1160759.3973
 10
-601068.7222
 20
-1160753.5386
 10
-601065.8027
 20
-1160731.3496
 10
-601064.4738
 20
-1160721.2498
 10
-601065.3394
 20
-1160707.3995
 10
-601066.2947
 20
-1160692.1135
 10
-601067.3224
 20
-1160675.6722
 10
-601069.765
 20
-1160667.2972
 10
-601073.5523
 20
-1160654.3127
 10
-601077.2925
 20
-1160641.4891
 10
-601086.8252
 20
-1160625.3843
 10
-601090.7887
 20
-1160614.2629
 10
-601096.7047
 20
-1160605.3954
 10
-601133.3845
 20
-1160617.3458
 10
-601131.7465
 20
-1160620.3396
 10
-601125.7187
 20
-1160642.9132
 10
-601110.3106
 20
-1160671.4363
 10
-601103.9908
 20
-1160698.9957
 10
-601100.9344
 20
-1160717.319
 10
-601102.5068
 20
-1160731.0791
 10
-601104.9953
 20
-1160752.8534
 10
-601106.6786
 20
-1160762.9063
 10
-601106.937
 20
-1160778.3944
 10
-601117.5009
 20
-1160801.3856
 10
-601121.2664
 20
-1160813.8887
 10
-601124.7361
 20
-1160821.6954
 10
-601137.0651
 20
-1160849.4358
 10
-601147.343
 20
-1160872.561
 10
-601155.2111
 20
-1160890.6492
 10
-601200.5998
 20
-1161010.6991
 10
-601226.0352
 20
-1161058.0717
 10
-601239.3288
 20
-1161085.2629
 10
-601242.229
 20
-1161094.9211
 10
-601244.3273
 20
-1161112.4071
 10
-601241.6687
 20
-1161120.9814
 10
-601236.6215
 20
-1161128.5525
 10
-601230.8936
 20
-1161135.1386
 10
-601229.8428
 20
-1161136.621
 10
-601216.2489
 20
-1161159.0459
 10
-601185.9759
 20
-1161133.6223
 97
0
 75
0
 76
1
 98
0
  0
HATCH
  5
20031
100
AcDbEntity
  8
plocha Q20
100
AcDbHatch
 10
0
 20
0
 30
0
210
0
220
0
230
1
  2
SOLID
 70
1
 71
0
 91
1
 92
2
 72
0
 73
1
 93
36
 10
-597330.796
 20
-1165074.178
 10
-597330.2671
 20
-1165016.4987
 10
-597318.0961
 20
-1164963.0528
 10
-597310.6877
 20
-1164931.8319
 10
-597306.9837
 20
-1164908.0193
 10
-597304.3379
 20
-1164867.8025
 10
-597389.5688
 20
-1164864.5966
 10
-597378.6316
 20
-1164885.5934
 10
-597376.203
 20
-1164890.9608
 10
-597374.2144
 20
-1164897.2119
 10
-597373.0091
 20
-1164903.6598
 10
-597372.7052
 20
-1164906.9453
 10
-597373.1297
 20
-1164955.6444
 10
-597383.2697
 20
-1165005.7196
 10
-597385.4798
 20
-1165030.5822
 10
-597386.3747
 20
-1165040.6509
 10
-597386.9262
 20
-1165046.8549
 10
-597386.1837
 20
-1165063.5634
 10
-597385.2426
 20
-1165084.7352
 10
-597383.6198
 20
-1165110.9691
 10
-597384.0776
 20
-1165110.9484
 10
-597383.3658
 20
-1165115.2187
 10
-597383.3516
 20
-1165115.3047
 10
-597380.906
 20
-1165129.9783
 10
-597377.6698
 20
-1165163.272
 10
-597375.9528
 20
-1165179.7177
 10
-597368.1782
 20
-1165211.3459
 10
-597365.4021
 20
-1165220.074
 10
-597311.6573
 20
-1165205.1174
 10
-597312.9566
 20
-1165200.7321
 10
-597317.4073
 20
-1165168.7166
 10
-597323.5135
 20
-1165145.6489
 10
-597324.2881
 20
-1165136.6526
 10
-597328.6794
 20
-1165119.1573
 10
-597331.3253
 20
-1165113.3364
 10
-597330.796
 20
-1165074.178
 97
0
 75
0
 76
1
 98
0
  0
HATCH
  5
20032
100
AcDbEntity
  8
plocha Q20
100
AcDbHatch
 10
0
 20
0
 30
0
210
0
220
0
230
1
  2
SOLID
 70
1
 71
0
 91
1
 92
2
 72
0
 73
1
 93
53
 10
-603054.2061
 20
-1157294.4791
 10
-603058.2198
 20
-1157283.317
 10
-603064.7064
 20
-1157268.4272
 10
-603074.8849
 20
-1157245.0616
 10
-603086.5639
 20
-1157218.2526
 10
-603095.227
 20
-1157198.3662
 10
-603102.9464
 20
-1157180.6462
 10
-603109.6873
 20
-1157165.1719
 10
-603115.6809
 20
-1157151.413
 10
-603118.6964
 20
-1157137.9266
 10
-603126.2238
 20
-1157104.2606
 10
-603132.1353
 20
-1157077.8224
 10
-603139.5639
 20
-1157044.5989
 10
-603141.0106
 20
-1157018.6255
 10
-603141.6461
 20
-1156985.3383
 10
-603140.9723
 20
-1156967.8814
 10
-603140.627
 20
-1156958.9396
 10
-603138.4028
 20
-1156927.8149
 10
-603135.4389
 20
-1156900.641
 10
-603132.9536
 20
-1156889.1622
 10
-603125.9309
 20
-1156856.7286
 10
-603120.937
 20
-1156833.6649
 10
-603118.5609
 20
-1156806.6248
 10
-603117.088
 20
-1156789.861
 10
-603154.456
 20
-1156762.322
 10
-603153.7151
 20
-1156783.7386
 10
-603153.5019
 20
-1156790.6439
 10
-603156.3484
 20
-1156806.9334
 10
-603159.4345
 20
-1156825.4573
 10
-603163.1519
 20
-1156851.8392
 10
-603166.7014
 20
-1156877.0302
 10
-603170.4611
 20
-1156903.7116
 10
-603175.6408
 20
-1156940.4709
 10
-603177.365
 20
-1156958.7494
 10
-603177.3777
 20
-1156958.9203
 10
-603177.8141
 20
-1156965.1203
 10
-603180.8311
 20
-1157008.0783
 10
-603181.0507
 20
-1157032.4229
 10
-603180.5772
 20
-1157043.4379
 10
-603177.8629
 20
-1157064.297
 10
-603170.7679
 20
-1157096.1083
 10
-603166.2196
 20
-1157116.5005
 10
-603163.8749
 20
-1157127.0129
 10
-603159.3155
 20
-1157137.4703
 10
-603151.7943
 20
-1157154.7205
 10
-603141.0766
 20
-1157179.3022
 10
-603127.381
 20
-1157210.7135
 10
-603111.7221
 20
-1157246.6281
 10
-603106.7571
 20
-1157258.6733
 10
-603102.7738
 20
-1157274.3336
 10
-603096.5661
 20
-1157292.6321
 10
-603091.7012
 20
-1157305.1846
 10
-603054.2061
 20
-1157294.4791
 97
0
 75
0
 76
1
 98
0
  0
HATCH
  5
20033
100
AcDbEntity
  8
plocha Q20
100
AcDbHatch
 10
0
 20
0
 30
0
210
0
220
0
230
1
  2
SOLID
 70
1
 71
0
 91
1
 92
2
 72
0
 73
1
 93
43
 10
-595922.6629
 20
-1159443.9299
 10
-595916.1579
 20
-1159437.67
 10
-595911.4699
 20
-1159433.159
 10
-595904.5916
 20
-1159423.5009
 10
-595894.6881
 20
-1159409.5951
 10
-595878.3968
 20
-1159386.7204
 10
-595866.906
 20
-1159370.5857
 10
-595854.2918
 20
-1159352.8736
 10
-595849.5995
 20
-1159346.285
 10
-595844.0894
 20
-1159343.1966
 10
-595822.3886
 20
-1159331.0333
 10
-595797.7007
 20
-1159297.8998
 10
-595786.7318
 20
-1159283.1783
 10
-595739.6374
 20
-1159215.332
 10
-595723.4633
 20
-1159190.7339
 10
-595702.6656
 20
-1159159.1039
 10
-595699.6356
 20
-1159154.4958
 10
-595693.873
 20
-1159145.7318
 10
-595675.7288
 20
-1159122.4847
 10
-595657.5684
 20
-1159099.2168
 10
-595635.6623
 20
-1159071.1494
 10
-595675.4214
 20
-1159044.8643
 10
-595676.6827
 20
-1159047.8915
 10
-595684.9067
 20
-1159060.553
 10
-595705.8152
 20
-1159091.9156
 10
-595714.2819
 20
-1159104.6157
 10
-595753.7846
 20
-1159159.3312
 10
-595774.5747
 20
-1159187.3735
 10
-595797.4225
 20
-1159220.3967
 10
-595808.8211
 20
-1159238.4446
 10
-595823.8829
 20
-1159262.2925
 10
-595851.0279
 20
-1159303.9572
 10
-595868.4579
 20
-1159329.0115
 10
-595869.5852
 20
-1159330.6317
 10
-595872.1089
 20
-1159334.2597
 10
-595884.0059
 20
-1159351.3605
 10
-595899.7078
 20
-1159374.4411
 10
-595910.1939
 20
-1159390.2872
 10
-595920.2328
 20
-1159405.458
 10
-595930.1192
 20
-1159415.5496
 10
-595940.9679
 20
-1159423.013
 10
-595933.2634
 20
-1159448.763
 10
-595922.6629
 20
-1159443.9299
 97
0
 75
0
 76
1
 98
0
  0
HATCH
  5
20034
100
AcDbEntity
  8
plocha Q20
100
AcDbHatch
 10
0
 20
0
 30
0
210
0
220
0
230
1
  2
SOLID
 70
1
 71
0
 91
1
 92
2
 72
0
 73
1
 93
65
 10
-596623.2591
 20
-1164523.1205
 10
-596621.5713
 20
-1164488.1588
 10
-596621.2939
 20
-1164482.6513
 10
-596619.8834
 20
-1164454.6437
 10
-596618.6779
 20
-1164391.9535
 10
-596621.089
 20
-1164327.0934
 10
-596621.3209
 20
-1164323.0077
 10
-596624.2235
 20
-1164271.8779
 10
-596624.9468
 20
-1164214.7335
 10
-596628.0814
 20
-1164137.5764
 10
-596628.1357
 20
-1164133.0102
 10
-596628.8047
 20
-1164076.8151
 10
-596629.5281
 20
-1164006.6505
 10
-596629.5777
 20
-1163973.1005
 10
-596630.0561
 20
-1163966.6287
 10
-596635.7971
 20
-1163888.986
 10
-596635.8214
 20
-1163816.8932
 10
-596636.5446
 20
-1163796.3473
 10
-596636.8562
 20
-1163787.4965
 10
-596638.6396
 20
-1163736.8232
 10
-596640.6249
 20
-1163674.8696
 10
-596642.0572
 20
-1163607.1503
 10
-596642.1541
 20
-1163602.3011
 10
-596642.9361
 20
-1163563.184
 10
-596661.1114
 20
-1163557.8082
 10
-596661.0536
 20
-1163561.2766
 10
-596660.7969
 20
-1163576.5749
 10
-596660.5922
 20
-1163588.8166
 10
-596659.617
 20
-1163619.9951
 10
-596658.9171
 20
-1163638.5594
 10
-596658.1885
 20
-1163657.8864
 10
-596657.4796
 20
-1163676.6949
 10
-596656.7344
 20
-1163696.4609
 10
-596655.9258
 20
-1163717.9114
 10
-596655.0778
 20
-1163740.4091
 10
-596654.3492
 20
-1163759.7361
 10
-596653.9109
 20
-1163771.3614
 10
-596652.1335
 20
-1163818.5099
 10
-596651.3574
 20
-1163839.0983
 10
-596650.7481
 20
-1163855.2647
 10
-596649.8531
 20
-1163879.0037
 10
-596648.4765
 20
-1163915.5242
 10
-596647.3897
 20
-1163944.3528
 10
-596646.8573
 20
-1163958.4753
 10
-596644.701
 20
-1164028.0654
 10
-596645.6288
 20
-1164131.7858
 10
-596645.6828
 20
-1164137.8175
 10
-596639.5106
 20
-1164210.4031
 10
-596639.2794
 20
-1164218.5245
 10
-596638.6687
 20
-1164239.976
 10
-596638.0507
 20
-1164261.6844
 10
-596637.0658
 20
-1164296.2868
 10
-596636.3874
 20
-1164320.1176
 10
-596635.3768
 20
-1164355.6184
 10
-596635.1229
 20
-1164370.6333
 10
-596635.2745
 20
-1164380.9575
 10
-596635.5079
 20
-1164396.8524
 10
-596635.7255
 20
-1164411.6815
 10
-596636.0675
 20
-1164434.9676
 10
-596636.3585
 20
-1164454.7956
 10
-596636.7895
 20
-1164484.1619
 10
-596637.1533
 20
-1164498.6472
 10
-596638.1028
 20
-1164509.9614
 10
-596623.4535
 20
-1164523.9007
 10
-596623.2591
 20
-1164523.1205
 97
0
 75
0
 76
1
 98
0
  0
HATCH
  5
20035
100
AcDbEntity
  8
plocha Q20
100
AcDbHatch
 10
0
 20
0
 30
0
210
0
220
0
230
1
  2
SOLID
 70
1
 71
0
 91
1
 92
2
 72
0
 73
1
 93
88
 10
-596559.6111
 20
-1160023.7648
 10
-596550.2656
 20
-1160010.9106
 10
-596542.1499
 20
-1159999.748
 10
-596532.666
 20
-1159985.4867
 10
-596517.5091
 20
-1159962.6942
 10
-596507.1025
 20
-1159946.3934
 10
-596496.4039
 20
-1159928.478
 10
-596484.582
 20
-1159908.683
 10
-596470.9269
 20
-1159887.3904
 10
-596450.7795
 20
-1159856.3667
 10
-596435.3232
 20
-1159832.3566
 10
-596413.1314
 20
-1159796.6531
 10
-596398.2362
 20
-1159772.689
 10
-596377.8365
 20
-1159739.8687
 10
-596356.8852
 20
-1159706.1611
 10
-596343.2097
 20
-1159685.0088
 10
-596332.8554
 20
-1159669.7824
 10
-596325.8376
 20
-1159659.4625
 10
-596309.3709
 20
-1159635.2481
 10
-596295.7485
 20
-1159615.2162
 10
-596286.1829
 20
-1159601.15
 10
-596283.0996
 20
-1159594.2969
 10
-596276.8963
 20
-1159585.1892
 10
-596270.386
 20
-1159572.1691
 10
-596266.5627
 20
-1159564.9138
 10
-596262.9114
 20
-1159559.1488
 10
-596257.1247
 20
-1159548.0575
 10
-596247.9623
 20
-1159536.0017
 10
-596239.2822
 20
-1159525.8749
 10
-596231.8076
 20
-1159514.0601
 10
-596222.645
 20
-1159503.9333
 10
-596211.5539
 20
-1159493.0831
 10
-596206.9727
 20
-1159488.743
 10
-596201.6681
 20
-1159484.4029
 10
-596195.399
 20
-1159479.3395
 10
-596190.0946
 20
-1159477.4105
 10
-596187.2011
 20
-1159475.7227
 10
-596181.3807
 20
-1159473.1465
 10
-596157.7851
 20
-1159462.7025
 10
-596142.5948
 20
-1159459.568
 10
-596134.4556
 20
-1159459.175
 10
-596137.0175
 20
-1159435.7593
 10
-596149.346
 20
-1159438.8319
 10
-596188.4657
 20
-1159452.4055
 10
-596190.1975
 20
-1159453.0064
 10
-596190.1656
 20
-1159453.2482
 10
-596193.4071
 20
-1159454.8549
 10
-596199.2675
 20
-1159458.2302
 10
-596212.2772
 20
-1159467.7659
 10
-596216.4494
 20
-1159472.842
 10
-596224.4989
 20
-1159479.8682
 10
-596234.5081
 20
-1159489.9888
 10
-596241.6143
 20
-1159498.6557
 10
-596250.7627
 20
-1159510.3624
 10
-596259.6115
 20
-1159522.5945
 10
-596270.2312
 20
-1159537.7974
 10
-596277.7242
 20
-1159549.5669
 10
-596285.2327
 20
-1159562.5434
 10
-596289.1801
 20
-1159569.365
 10
-596293.8679
 20
-1159578.778
 10
-596296.9691
 20
-1159585.9867
 10
-596300.4145
 20
-1159593.9956
 10
-596303.1875
 20
-1159600.4417
 10
-596307.3766
 20
-1159607.2115
 10
-596318.5194
 20
-1159623.3305
 10
-596343.3071
 20
-1159659.1884
 10
-596368.7744
 20
-1159696.7216
 10
-596380.4919
 20
-1159714.5729
 10
-596419.8768
 20
-1159774.5754
 10
-596432.3566
 20
-1159793.5883
 10
-596444.5178
 20
-1159812.1156
 10
-596459.9864
 20
-1159835.6819
 10
-596468.3963
 20
-1159848.494
 10
-596476.4909
 20
-1159860.8261
 10
-596484.0215
 20
-1159873.0285
 10
-596489.9319
 20
-1159883.0297
 10
-596496.043
 20
-1159893.13
 10
-596508.439
 20
-1159912.2894
 10
-596520.544
 20
-1159930.766
 10
-596535.4924
 20
-1159952.7188
 10
-596557.58
 20
-1159984.1073
 10
-596566.1905
 20
-1159995.7689
 10
-596571.1252
 20
-1160002.4518
 10
-596579.6422
 20
-1160013.987
 10
-596587.5003
 20
-1160024.6291
 10
-596594.316
 20
-1160035.3353
 10
-596576.3301
 20
-1160045.9432
 10
-596559.6111
 20
-1160023.7648
 97
0
 75
0
 76
1
 98
0
  0
HATCH
  5
20036
100
AcDbEntity
  8
plocha Q20
100
AcDbHatch
 10
0
 20
0
 30
0
210
0
220
0
230
1
  2
SOLID
 70
1
 71
0
 91
1
 92
2
 72
0
 73
1
 93
67
 10
-594673.2888
 20
-1157376.0872
 10
-594679.1844
 20
-1157375.5904
 10
-594686.4101
 20
-1157375.5017
 10
-594703.2284
 20
-1157375.2953
 10
-594722.3118
 20
-1157375.0613
 10
-594723.5457
 20
-1157375.5591
 10
-594735.3621
 20
-1157379.2997
 10
-594755.9596
 20
-1157386.852
 10
-594798.3021
 20
-1157402.902
 10
-594794.9923
 20
-1157415.5987
 10
-594754.0528
 20
-1157397.5516
 10
-594737.7072
 20
-1157392.1462
 10
-594723.6742
 20
-1157388.8051
 10
-594714.7017
 20
-1157386.6688
 10
-594702.0825
 20
-1157386.0703
 10
-594687.4215
 20
-1157386.9327
 10
-594681.2224
 20
-1157387.0195
 10
-594671.7524
 20
-1157386.3882
 10
-594661.4063
 20
-1157386.6679
 10
-594655.7666
 20
-1157387.0621
 10
-594632.9214
 20
-1157389.4353
 10
-594629.6302
 20
-1157390.7518
 10
-594621.0872
 20
-1157394.1689
 10
-594624.3368
 20
-1157396.4944
 10
-594640.9636
 20
-1157406.7593
 10
-594653.4299
 20
-1157414.1599
 10
-594689.5661
 20
-1157424.3524
 10
-594700.7506
 20
-1157427.507
 10
-594703.1689
 20
-1157428.1891
 10
-594708.6151
 20
-1157429.7252
 10
-594721.4178
 20
-1157433.3363
 10
-594741.5615
 20
-1157433.3016
 10
-594777.7344
 20
-1157432.7095
 10
-594788.7605
 20
-1157433.1006
 10
-594778.6251
 20
-1157490.4292
 10
-594769.9791
 20
-1157492.5917
 10
-594750.4341
 20
-1157487.7053
 10
-594723.6276
 20
-1157481.0037
 10
-594693.0294
 20
-1157471.1377
 10
-594675.3384
 20
-1157465.5843
 10
-594665.5913
 20
-1157464.1918
 10
-594661.2874
 20
-1157463.5771
 10
-594660.5026
 20
-1157463.4648
 10
-594658.0973
 20
-1157463.1212
 10
-594644.0992
 20
-1157461.1215
 10
-594623.8993
 20
-1157454.6943
 10
-594601.0025
 20
-1157448.5669
 10
-594599.4388
 20
-1157448.2467
 10
-594596.0301
 20
-1157440.229
 10
-594593.3943
 20
-1157432.8209
 10
-594590.748
 20
-1157427.0871
 10
-594590.414
 20
-1157426.4424
 10
-594589.6178
 20
-1157425.3054
 10
-594588.6363
 20
-1157424.3239
 10
-594587.4993
 20
-1157423.5277
 10
-594586.2412
 20
-1157422.9411
 10
-594585.7426
 20
-1157422.7781
 10
-594578.161
 20
-1157419.6106
 10
-594576.4716
 20
-1157378.0448
 10
-594586.1837
 20
-1157379.2101
 10
-594594.9119
 20
-1157380.2576
 10
-594603.2785
 20
-1157380.5494
 10
-594626.1068
 20
-1157378.2666
 10
-594631.5111
 20
-1157377.7261
 10
-594657.2976
 20
-1157376.2935
 10
-594666.4932
 20
-1157376.3905
 10
-594673.2888
 20
-1157376.0872
 97
0
 75
0
 76
1
 98
0
  0
HATCH
  5
20037
100
AcDbEntity
  8
plocha Q20
100
AcDbHatch
 10
0
 20
0
 30
0
210
0
220
0
230
1
  2
SOLID
 70
1
 71
0
 91
1
 92
2
 72
0
 73
1
 93
75
 10
-596539.3507
 20
-1160524.697
 10
-596534.2873
 20
-1160502.2734
 10
-596533.2901
 20
-1160496.4173
 10
-596529.7061
 20
-1160480.0907
 10
-596529.7061
 20
-1160459.3547
 10
-596531.8762
 20
-1160440.5477
 10
-596532.4652
 20
-1160424.9344
 10
-596534.8336
 20
-1160410.6199
 10
-596537.9317
 20
-1160385.6286
 10
-596540.8878
 20
-1160358.4209
 10
-596543.2086
 20
-1160352.0582
 10
-596544.2382
 20
-1160344.7997
 10
-596548.031
 20
-1160318.0608
 10
-596554.0589
 20
-1160282.3757
 10
-596555.5056
 20
-1160273.2133
 10
-596557.9167
 20
-1160263.3275
 10
-596559.1223
 20
-1160257.5406
 10
-596560.0868
 20
-1160251.0306
 10
-596562.739
 20
-1160242.3505
 10
-596564.4268
 20
-1160236.5637
 10
-596565.6324
 20
-1160229.5713
 10
-596568.5258
 20
-1160223.5434
 10
-596572.8659
 20
-1160212.211
 10
-596575.5181
 20
-1160206.4242
 10
-596578.1704
 20
-1160197.744
 10
-596580.3405
 20
-1160191.4751
 10
-596582.9927
 20
-1160182.7949
 10
-596585.8861
 20
-1160177.2491
 10
-596588.0561
 20
-1160171.7035
 10
-596593.0088
 20
-1160160.4066
 10
-596598.4242
 20
-1160129.5082
 10
-596598.4242
 20
-1160123.2393
 10
-596597.9419
 20
-1160114.8002
 10
-596597.7007
 20
-1160107.5666
 10
-596595.4335
 20
-1160091.7164
 10
-596594.2458
 20
-1160081.3509
 10
-596588.6432
 20
-1160066.2015
 10
-596605.6488
 20
-1160054.9438
 10
-596605.7449
 20
-1160055.11
 10
-596609.1509
 20
-1160063.624
 10
-596612.4219
 20
-1160076.615
 10
-596616.3318
 20
-1160092.817
 10
-596617.7239
 20
-1160102.168
 10
-596618.1209
 20
-1160115.299
 10
-596617.9229
 20
-1160126.6389
 10
-596616.494
 20
-1160138.346
 10
-596615.969
 20
-1160142.6468
 10
-596611.253
 20
-1160158.3477
 10
-596605.3049
 20
-1160176.6649
 10
-596597.3844
 20
-1160200.365
 10
-596591.1629
 20
-1160218.981
 10
-596589.1351
 20
-1160226.7939
 10
-596587.1667
 20
-1160234.3781
 10
-596583.4445
 20
-1160248.7194
 10
-596580.2345
 20
-1160261.0873
 10
-596577.2663
 20
-1160274.3069
 10
-596574.957
 20
-1160286.0187
 10
-596572.4977
 20
-1160298.4909
 10
-596570.0486
 20
-1160310.9129
 10
-596568.8135
 20
-1160317.1758
 10
-596567.3692
 20
-1160327.7665
 10
-596564.9274
 20
-1160347.7964
 10
-596562.0735
 20
-1160373.2263
 10
-596559.789
 20
-1160395.0708
 10
-596558.1437
 20
-1160410.8013
 10
-596557.6797
 20
-1160419.0442
 10
-596557.4929
 20
-1160440.5298
 10
-596557.4929
 20
-1160455.629
 10
-596558.1208
 20
-1160463.626
 10
-596560.792
 20
-1160486.8068
 10
-596565.5672
 20
-1160515.2876
 10
-596569.6216
 20
-1160538.772
 10
-596571.3575
 20
-1160547.5786
 10
-596544.8936
 20
-1160551.5179
 10
-596539.3507
 20
-1160524.697
 97
0
 75
0
 76
1
 98
0
  0
HATCH
  5
20038
100
AcDbEntity
  8
plocha Q20
100
AcDbHatch
 10
0
 20
0
 30
0
210
0
220
0
230
1
  2
SOLID
 70
1
 71
0
 91
1
 92
2
 72
0
 73
1
 93
21
 10
-598411.674
 20
-1162038.2775
 10
-598434.0068
 20
-1162035.4142
 10
-598475.368
 20
-1162030.2507
 10
-598484.7053
 20
-1162029.165
 10
-598490.4121
 20
-1162028.5015
 10
-598511.2356
 20
-1162026.0801
 10
-598539.3321
 20
-1162018.5615
 10
-598552.0052
 20
-1162058.6694
 10
-598490.0936
 20
-1162073.91
 10
-598489.8439
 20
-1162074.1667
 10
-598486.3917
 20
-1162074.8214
 10
-598476.4929
 20
-1162076.6988
 10
-598448.6457
 20
-1162081.9802
 10
-598432.3267
 20
-1162085.0751
 10
-598404.7505
 20
-1162090.462
 10
-598376.9983
 20
-1162096.2037
 10
-598371.1517
 20
-1162097.3185
 10
-598361.6934
 20
-1162041.4788
 10
-598376.8161
 20
-1162038.7292
 10
-598389.1317
 20
-1162038.7292
 10
-598411.674
 20
-1162038.2775
 97
0
 75
0
 76
1
 98
0
  0
HATCH
  5
20039
100
AcDbEntity
  8
plocha Q20
100
AcDbHatch
 10
0
 20
0
 30
0
210
0
220
0
230
1
  2
SOLID
 70
1
 71
0
 91
1
 92
2
 72
0
 73
1
 93
13
 10
-597581.209
 20
-1163252.3848
 10
-597582.0555
 20
-1163237.9913
 10
-597597.7228
 20
-1163212.3539
 10
-597608.08
 20
-1163178.6992
 10
-597611.7842
 20
-1163118.9033
 10
-597610.7259
 20
-1163085.5656
 10
-597658.2457
 20
-1163085.521
 10
-597655.161
 20
-1163148.6041
 10
-597645.4363
 20
-1163227.3111
 10
-597641.0973
 20
-1163240.3286
 10
-597639.658
 20
-1163245.777
 10
-597581.4164
 20
-1163264.8695
 10
-597581.209
 20
-1163252.3848
 97
0
 75
0
 76
1
 98
0
  0
HATCH
  5
2003A
100
AcDbEntity
  8
plocha Q20
100
AcDbHatch
 10
0
 20
0
 30
0
210
0
220
0
230
1
  2
SOLID
 70
1
 71
0
 91
1
 92
2
 72
0
 73
1
 93
39
 10
-596711.7486
 20
-1161324.7193
 10
-596709.5785
 20
-1161306.8768
 10
-596702.5861
 20
-1161279.8718
 10
-596699.6927
 20
-1161261.5469
 10
-596699.1062
 20
-1161259.103
 10
-596693.9059
 20
-1161237.4355
 10
-596683.0559
 20
-1161185.1132
 10
-596675.0989
 20
-1161154.2504
 10
-596664.0076
 20
-1161102.8928
 10
-596661.484
 20
-1161092.2933
 10
-596661.3554
 20
-1161092.2837
 10
-596660.3908
 20
-1161087.7025
 10
-596656.533
 20
-1161069.3776
 10
-596648.094
 20
-1161035.1392
 10
-596637.1641
 20
-1160995.0436
 10
-596625.7408
 20
-1160943.5599
 10
-596615.1684
 20
-1160894.812
 10
-596642.7729
 20
-1160923.8419
 10
-596646.5164
 20
-1160942.1558
 10
-596650.5999
 20
-1160961.0825
 10
-596652.1291
 20
-1160968.0328
 10
-596658.0869
 20
-1160995.1119
 10
-596663.815
 20
-1161021.1461
 10
-596669.0999
 20
-1161045.1666
 10
-596672.4546
 20
-1161060.4146
 10
-596679.1023
 20
-1161090.628
 10
-596685.6576
 20
-1161120.4228
 10
-596690.5971
 20
-1161142.8734
 10
-596692.3606
 20
-1161150.8886
 10
-596699.5012
 20
-1161183.3433
 10
-596707.5058
 20
-1161219.7246
 10
-596714.985
 20
-1161253.7187
 10
-596718.0501
 20
-1161267.6494
 10
-596723.0451
 20
-1161290.3524
 10
-596726.8874
 20
-1161307.8163
 10
-596729.1319
 20
-1161318.0171
 10
-596730.7107
 20
-1161325.9072
 10
-596711.9853
 20
-1161328.0677
 10
-596711.7486
 20
-1161324.7193
 97
0
 75
0
 76
1
 98
0
  0
HATCH
  5
2003B
100
AcDbEntity
  8
plocha Q20
100
AcDbHatch
 10
0
 20
0
 30
0
210
0
220
0
230
1
  2
SOLID
 70
1
 71
0
 91
1
 92
2
 72
0
 73
1
 93
12
 10
-599221.7436
 20
-1161579.8605
 10
-599235.6193
 20
-1161578.7932
 10
-599278.1334
 20
-1161581.6711
 10
-599360.6836
 20
-1161588.5501
 10
-599389.0673
 20
-1161591.1302
 10
-599388.7476
 20
-1161628.2108
 10
-599362.1406
 20
-1161623.0192
 10
-599344.2631
 20
-1161621.6011
 10
-599307.765
 20
-1161622.3311
 10
-599222.9861
 20
-1161624.8225
 10
-599218.7211
 20
-1161625.0449
 10
-599221.7436
 20
-1161579.8605
 97
0
 75
0
 76
1
 98
0
  0
HATCH
  5
2003C
100
AcDbEntity
  8
plocha Q20
100
AcDbHatch
 10
0
 20
0
 30
0
210
0
220
0
230
1
  2
SOLID
 70
1
 71
0
 91
1
 92
2
 72
0
 73
1
 93
25
 10
-596601.3602
 20
-1160826.9299
 10
-596599.8709
 20
-1160820.3051
 10
-596596.013
 20
-1160793.3
 10
-596592.9576
 20
-1160762.4212
 10
-596592.3857
 20
-1160759.6141
 10
-596588.7704
 20
-1160741.8686
 10
-596577.6638
 20
-1160691.3124
 10
-596565.9322
 20
-1160647.9636
 10
-596565.6233
 20
-1160646.4564
 10
-596560.4693
 20
-1160629.8198
 10
-596554.5591
 20
-1160605.2253
 10
-596546.8253
 20
-1160560.8644
 10
-596574.0011
 20
-1160555.8278
 10
-596578.4605
 20
-1160582.0638
 10
-596585.0422
 20
-1160615.3556
 10
-596596.2337
 20
-1160671.964
 10
-596602.8751
 20
-1160705.5578
 10
-596606.7873
 20
-1160725.5663
 10
-596612.8885
 20
-1160757.6918
 10
-596616.1609
 20
-1160774.9219
 10
-596618.6149
 20
-1160797.7999
 10
-596620.2292
 20
-1160812.8499
 10
-596622.1809
 20
-1160831.047
 10
-596622.5318
 20
-1160832.7072
 10
-596601.3602
 20
-1160826.9299
 97
0
 75
0
 76
1
 98
0
  0
HATCH
  5
2003D
100
AcDbEntity
  8
plocha Q20
100
AcDbHatch
 10
0
 20
0
 30
0
210
0
220
0
230
1
  2
SOLID
 70
1
 71
0
 91
1
 92
2
 72
0
 73
1
 93
10
 10
-598568.6231
 20
-1162008.5024
 10
-598586.5113
 20
-1162002.3593
 10
-598630.3418
 20
-1161974.6356
 10
-598695.3887
 20
-1161916.0975
 10
-598719.7954
 20
-1161947.392
 10
-598707.889
 20
-1161958.9014
 10
-598664.6295
 20
-1161994.6203
 10
-598621.143
 20
-1162026.5719
 10
-598581.138
 20
-1162045.5439
 10
-598568.6231
 20
-1162008.5024
 97
0
 75
0
 76
1
 98
0
  0
HATCH
  5
2003E
100
AcDbEntity
  8
plocha Q20
100
AcDbHatch
 10
0
 20
0
 30
0
210
0
220
0
230
1
  2
SOLID
 70
1
 71
0
 91
1
 92
2
 72
0
 73
1
 93
18
 10
-595949.9496
 20
-1159455.306
 10
-595962.7567
 20
-1159423.2883
 10
-595972.3916
 20
-1159423.0764
 10
-595974.0029
 20
-1159423.041
 10
-596023.9658
 20
-1159426.5351
 10
-596074.4897
 20
-1159427.7062
 10
-596120.9546
 20
-1159431.756
 10
-596127.1848
 20
-1159434.4409
 10
-596125.0027
 20
-1159457.6263
 10
-596107.633
 20
-1159457.8801
 10
-596055.0696
 20
-1159457.1568
 10
-596021.1291
 20
-1159456.0024
 10
-596018.0735
 20
-1159456.3466
 10
-595997.9863
 20
-1159457.714
 10
-595980.3776
 20
-1159458.913
 10
-595973.68
 20
-1159459.369
 10
-595954.952
 20
-1159456.947
 10
-595949.9496
 20
-1159455.306
 97
0
 75
0
 76
1
 98
0
  0
HATCH
  5
2003F
100
AcDbEntity
  8
plocha Q20
100
AcDbHatch
 10
0
 20
0
 30
0
210
0
220
0
230
1
  2
SOLID
 70
1
 71
0
 91
1
 92
2
 72
0
 73
1
 93
19
 10
-596650.825
 20
-1163263.5095
 10
-596650.8864
 20
-1163260.3715
 10
-596654.8452
 20
-1163153.5828
 10
-596657.2564
 20
-1163088.2404
 10
-596658.4507
 20
-1163009.4138
 10
-596677.1661
 20
-1163008.4987
 10
-596676.5818
 20
-1163028.7061
 10
-596676.3065
 20
-1163038.2307
 10
-596675.4283
 20
-1163068.6019
 10
-596674.6305
 20
-1163096.1874
 10
-596674.1343
 20
-1163113.348
 10
-596673.645
 20
-1163130.2672
 10
-596672.8483
 20
-1163157.8222
 10
-596672.1449
 20
-1163182.1511
 10
-596671.4567
 20
-1163205.9514
 10
-596670.5542
 20
-1163237.1616
 10
-596669.8504
 20
-1163257.7868
 10
-596668.7182
 20
-1163278.6992
 10
-596650.825
 20
-1163263.5095
 97
0
 75
0
 76
1
 98
0
  0
HATCH
  5
20040
100
AcDbEntity
  8
plocha Q20
100
AcDbHatch
 10
0
 20
0
 30
0
210
0
220
0
230
1
  2
SOLID
 70
1
 71
0
 91
1
 92
2
 72
0
 73
1
 93
15
 10
-596708.354
 20
-1161582.9248
 10
-596708.8553
 20
-1161556.1904
 10
-596709.5785
 20
-1161505.074
 10
-596711.5075
 20
-1161449.8584
 10
-596711.5907
 20
-1161443.8218
 10
-596711.9897
 20
-1161414.8965
 10
-596715.944
 20
-1161354.8045
 10
-596733.7231
 20
-1161353.7559
 10
-596734.1611
 20
-1161368.7179
 10
-596733.0789
 20
-1161407.0338
 10
-596732.533
 20
-1161422.6713
 10
-596729.3655
 20
-1161513.4331
 10
-596727.8162
 20
-1161557.8291
 10
-596726.675
 20
-1161590.5226
 10
-596708.354
 20
-1161582.9248
 97
0
 75
0
 76
1
 98
0
  0
HATCH
  5
20041
100
AcDbEntity
  8
plocha Q20
100
AcDbHatch
 10
0
 20
0
 30
0
210
0
220
0
230
1
  2
SOLID
 70
1
 71
0
 91
1
 92
2
 72
0
 73
1
 93
14
 10
-596646.8884
 20
-1163469.2033
 10
-596648.3351
 20
-1163436.1704
 10
-596648.2487
 20
-1163433.012
 10
-596647.0225
 20
-1163388.1466
 10
-596648.4605
 20
-1163343.0576
 10
-596649.5371
 20
-1163309.305
 10
-596651.7148
 20
-1163293.3225
 10
-596669.3669
 20
-1163312.5793
 10
-596669.1197
 20
-1163338.7814
 10
-596667.5323
 20
-1163385.3482
 10
-596664.6219
 20
-1163490.6525
 10
-596663.0575
 20
-1163523.4949
 10
-596643.5619
 20
-1163531.8848
 10
-596646.8884
 20
-1163469.2033
 97
0
 75
0
 76
1
 98
0
  0
HATCH
  5
20042
100
AcDbEntity
  8
plocha Q20
100
AcDbHatch
 10
0
 20
0
 30
0
210
0
220
0
230
1
  2
SOLID
 70
1
 71
0
 91
1
 92
2
 72
0
 73
1
 93
21
 10
-596665.6955
 20
-1164799.4392
 10
-596656.8248
 20
-1164737.3762
 10
-596646.7613
 20
-1164681.6474
 10
-596646.0133
 20
-1164675.9762
 10
-596640.1372
 20
-1164663.9322
 10
-596639.9839
 20
-1164661.5308
 10
-596639.4138
 20
-1164652.5998
 10
-596633.3859
 20
-1164603.8944
 10
-596630.2514
 20
-1164582.4351
 10
-596629.2821
 20
-1164547.2949
 10
-596642.9839
 20
-1164537.9556
 10
-596643.5281
 20
-1164567.5018
 10
-596647.8671
 20
-1164609.8224
 10
-596653.7552
 20
-1164657.5346
 10
-596659.6241
 20
-1164697.5508
 10
-596665.8192
 20
-1164730.7813
 10
-596674.8975
 20
-1164777.3358
 10
-596679.4987
 20
-1164800.6443
 10
-596681.5194
 20
-1164812.0255
 10
-596668.7488
 20
-1164821.4509
 10
-596665.6955
 20
-1164799.4392
 97
0
 75
0
 76
1
 98
0
  0
HATCH
  5
20043
100
AcDbEntity
  8
plocha Q20
100
AcDbHatch
 10
0
 20
0
 30
0
210
0
220
0
230
1
  2
SOLID
 70
1
 71
0
 91
1
 92
2
 72
0
 73
1
 93
5
 10
-597926.7843
 20
-1162552.3298
 10
-597945.2908
 20
-1162528.1333
 10
-597968.9488
 20
-1162569.3958
 10
-597948.8129
 20
-1162594.3537
 10
-597926.7843
 20
-1162552.3298
 97
0
 75
0
 76
1
 98
0
  0
HATCH
  5
20044
100
AcDbEntity
  8
plocha Q20
100
AcDbHatch
 10
0
 20
0
 30
0
210
0
220
0
230
1
  2
SOLID
 70
1
 71
0
 91
1
 92
2
 72
0
 73
1
 93
8
 10
-596609.2489
 20
-1160866.3807
 10
-596606.8632
 20
-1160851.409
 10
-596604.2083
 20
-1160839.5994
 10
-596625.5406
 20
-1160846.9406
 10
-596627.5824
 20
-1160856.5994
 10
-596632.6331
 20
-1160878.8192
 10
-596635.5211
 20
-1160891.5245
 10
-596609.2489
 20
-1160866.3807
 97
0
 75
0
 76
1
 98
0
  0
HATCH
  5
20045
100
AcDbEntity
  8
plocha Q20
100
AcDbHatch
 10
0
 20
0
 30
0
210
0
220
0
230
1
  2
SOLID
 70
1
 71
0
 91
1
 92
2
 72
0
 73
1
 93
8
 10
-596707.3581
 20
-1161635.261
 10
-596707.4084
 20
-1161633.3476
 10
-596707.5167
 20
-1161627.5764
 10
-596707.8791
 20
-1161608.249
 10
-596725.7044
 20
-1161618.5414
 10
-596725.0529
 20
-1161637.4926
 10
-596724.8508
 20
-1161640.9152
 10
-596707.3581
 20
-1161635.261
 97
0
 75
0
 76
1
 98
0
  0
HATCH
  5
20046
100
AcDbEntity
  8
plocha Q20
100
AcDbHatch
 10
0
 20
0
 30
0
210
0
220
0
230
1
  2
SOLID
 70
1
 71
0
 91
1
 92
2
 72
0
 73
1
 93
5
 10
-596671.6015
 20
-1164842.0148
 10
-596685.8252
 20
-1164835.0371
 10
-596691.2959
 20
-1164858.7915
 10
-596674.0979
 20
-1164859.1221
 10
-596671.6015
 20
-1164842.0148
 97
0
 75
0
 76
1
 98
0
  0
HATCH
  5
20047
100
AcDbEntity
  8
plocha Q20
100
AcDbHatch
 10
0
 20
0
 30
0
210
0
220
0
230
1
  2
SOLID
 70
1
 71
0
 91
1
 92
2
 72
0
 73
1
 93
5
 10
-596686.3349
 20
-1164914.3541
 10
-596683.1294
 20
-1164898.9547
 10
-596698.7908
 20
-1164898.6592
 10
-596703.5328
 20
-1164919.6457
 10
-596686.3349
 20
-1164914.3541
 97
0
 75
0
 76
1
 98
0
  0
ENDSEC
  0
SECTION
  2
OBJECTS
  0
DICTIONARY
  5
C
330
0
100
AcDbDictionary
281
     1
  3
ACAD_GROUP
350
D
  3
ACAD_LAYOUT
350
1A
  3
ACAD_MLEADERSTYLE
350
43
  3
ACAD_PLOTSETTINGS
350
19
  3
ACAD_PLOTSTYLENAME
350
E
  3
ACAD_TABLESTYLE
350
42
  0
DICTIONARY
  5
D
102
{ACAD_REACTORS
330
C
102
}
330
C
100
AcDbDictionary
281
     1
  0
DICTIONARY
  5
1A
102
{ACAD_REACTORS
330
C
102
}
330
C
100
AcDbDictionary
281
     1
  3
Layout1
350
1E
  3
Model
350
22
  0
DICTIONARY
  5
43
102
{ACAD_REACTORS
330
C
102
}
330
C
100
AcDbDictionary
281
     1
  0
DICTIONARY
  5
19
102
{ACAD_REACTORS
330
C
102
}
330
C
100
AcDbDictionary
281
     1
  0
ACDBDICTIONARYWDFLT
  5
E
102
{ACAD_REACTORS
330
C
102
}
330
C
100
AcDbDictionary
281
     1
  3
Normal
350
F
100
AcDbDictionaryWithDefault
340
F
  0
DICTIONARY
  5
42
102
{ACAD_REACTORS
330
C
102
}
330
C
100
AcDbDictionary
281
     1
  0
LAYOUT
  5
1E
102
{ACAD_REACTORS
330
1A
102
}
330
1A
100
AcDbPlotSettings
  1

  2
none_device
  4

  6

 40
0.0
 41
0.0
 42
0.0
 43
0.0
 44
0.0
 45
0.0
 46
0.0
 47
0.0
 48
0.0
 49
0.0
140
0.0
141
0.0
142
1.0
143
1.0
 70
   688
 72
     0
 73
     0
 74
     5
  7

 75
    16
 76
     0
 77
     2
 78
   300
147
1.0
148
0.0
149
0.0
100
AcDbLayout
  1
Layout1
 70
     1
 71
     1
 10
0.0
 20
0.0
 11
12.0
 21
9.0
 12
0.0
 22
0.0
 32
0.0
 14
1.000000000000000E+20
 24
1.000000000000000E+20
 34
1.000000000000000E+20
 15
-1.000000000000000E+20
 25
-1.000000000000000E+20
 35
-1.000000000000000E+20
146
0.0
 13
0.0
 23
0.0
 33
0.0
 16
1.0
 26
0.0
 36
0.0
 17
0.0
 27
1.0
 37
0.0
 76
     0
330
1B
  0
LAYOUT
  5
22
102
{ACAD_REACTORS
330
1A
102
}
330
1A
100
AcDbPlotSettings
  1

  2
none_device
  4

  6

 40
0.0
 41
0.0
 42
0.0
 43
0.0
 44
0.0
 45
0.0
 46
0.0
 47
0.0
 48
0.0
 49
0.0
140
0.0
141
0.0
142
1.0
143
1.0
 70
  1712
 72
     0
 73
     0
 74
     0
  7

 75
     0
 76
     0
 77
     2
 78
   300
147
1.0
148
0.0
149
0.0
100
AcDbLayout
  1
Model
 70
     1
 71
     0
 10
0.0
 20
0.0
 11
12.0
 21
9.0
 12
0.0
 22
0.0
 32
0.0
 14
30.0
 24
49.75
 34
0.0
 15
130.5
 25
163.1318914119703
 35
0.0
146
0.0
 13
0.0
 23
0.0
 33
0.0
 16
1.0
 26
0.0
 36
0.0
 17
0.0
 27
1.0
 37
0.0
 76
     0
330
1F
331
29
  0
ENDSEC
  0
EOF
