  0
SECTION
  2
HEADER
  9
$ACADVER
  1
AC1018
  9
$ACADMAINTVER
 70
     0
  9
$DWGCODEPAGE
  3
ANSI_1252
  9
$EXTMIN
 10
-608298.2778
 20
-1170444.6219
 30
0.0
  9
$EXTMAX
 10
-589896.7795
 20
-1150330.5521
 30
0.0
  9
$LIMMIN
 10
0.0
 20
0.0
  9
$LIMMAX
 10
12.0
 20
9.0
  9
$ORTHOMODE
 70
     0
  9
$REGENMODE
 70
     1
  9
$FILLMODE
 70
     1
  9
$QTEXTMODE
 70
     0
  9
$MIRRTEXT
 70
     1
  9
$LTSCALE
 40
1.0
  9
$ATTMODE
 70
     1
  9
$TEXTSIZE
 40
0.2
  9
$TRACEWID
 40
0.05
  9
$TEXTSTYLE
  7
Standard
  9
$CLAYER
  8
0
  9
$CELTYPE
  6
ByLayer
  9
$CECOLOR
 62
   256
  9
$CELTSCALE
 40
1.0
  9
$DISPSILH
 70
     0
  9
$LUNITS
 70
     2
  9
$LUPREC
 70
     4
  9
$SKETCHINC
 40
0.1
  9
$FILLETRAD
 40
0.5
  9
$AUNITS
 70
     0
  9
$AUPREC
 70
     0
  9
$MENU
  1
.
  9
$ELEVATION
 40
0.0
  9
$PELEVATION
 40
0.0
  9
$THICKNESS
 40
0.0
  9
$LIMCHECK
 70
     0
  9
$CHAMFERA
 40
0.5
  9
$CHAMFERB
 40
0.5
  9
$CHAMFERC
 40
1.0
  9
$CHAMFERD
 40
0.0
  9
$SKPOLY
 70
     0
  9
$ANGBASE
 50
0.0
  9
$ANGDIR
 70
     0
  9
$PDMODE
 70
     0
  9
$PDSIZE
 40
0.0
  9
$PLINEWID
 40
0.0
  9
$SPLFRAME
 70
     0
  9
$SPLINETYPE
 70
     6
  9
$SPLINESEGS
 70
     8
  9
$HANDSEED
  5
0002004A
  9
$SURFTAB1
 70
     6
  9
$SURFTAB2
 70
     6
  9
$SURFTYPE
 70
     6
  9
$SURFU
 70
     6
  9
$SURFV
 70
     6
  9
$UCSBASE
  2

  9
$UCSNAME
  2

  9
$UCSORG
 10
0.0
 20
0.0
 30
0.0
  9
$UCSXDIR
 10
1.0
 20
0.0
 30
0.0
  9
$UCSYDIR
 10
0.0
 20
1.0
 30
0.0
  9
$UCSORTHOREF
  2

  9
$UCSORTHOVIEW
 70
     0
  9
$UCSORGTOP
 10
0.0
 20
0.0
 30
0.0
  9
$UCSORGBOTTOM
 10
0.0
 20
0.0
 30
0.0
  9
$UCSORGLEFT
 10
0.0
 20
0.0
 30
0.0
  9
$UCSORGRIGHT
 10
0.0
 20
0.0
 30
0.0
  9
$UCSORGFRONT
 10
0.0
 20
0.0
 30
0.0
  9
$UCSORGBACK
 10
0.0
 20
0.0
 30
0.0
  9
$PUCSBASE
  2

  9
$PUCSNAME
  2

  9
$PUCSORG
 10
0.0
 20
0.0
 30
0.0
  9
$PUCSXDIR
 10
1.0
 20
0.0
 30
0.0
  9
$PUCSYDIR
 10
0.0
 20
1.0
 30
0.0
  9
$PUCSORTHOREF
  2

  9
$PUCSORTHOVIEW
 70
     0
  9
$PUCSORGTOP
 10
0.0
 20
0.0
 30
0.0
  9
$PUCSORGBOTTOM
 10
0.0
 20
0.0
 30
0.0
  9
$PUCSORGLEFT
 10
0.0
 20
0.0
 30
0.0
  9
$PUCSORGRIGHT
 10
0.0
 20
0.0
 30
0.0
  9
$PUCSORGFRONT
 10
0.0
 20
0.0
 30
0.0
  9
$PUCSORGBACK
 10
0.0
 20
0.0
 30
0.0
  9
$WORLDVIEW
 70
     1
  9
$SHADEDGE
 70
     3
  9
$SHADEDIF
 70
    70
  9
$TILEMODE
 70
     1
  9
$MAXACTVP
 70
    64
  9
$PINSBASE
 10
0.0
 20
0.0
 30
0.0
  9
$PLIMCHECK
 70
     0
  9
$PEXTMIN
 10
1.000000000000000E+20
 20
1.000000000000000E+20
 30
1.000000000000000E+20
  9
$PEXTMAX
 10
-1.000000000000000E+20
 20
-1.000000000000000E+20
 30
-1.000000000000000E+20
  9
$PLIMMIN
 10
0.0
 20
0.0
  9
$PLIMMAX
 10
12.0
 20
9.0
  9
$UNITMODE
 70
     0
  9
$VISRETAIN
 70
     1
  9
$PLINEGEN
 70
     0
  9
$PSLTSCALE
 70
     1
  9
$TREEDEPTH
 70
  3020
  9
$CMLSTYLE
  2
Standard
  9
$CMLJUST
 70
     0
  9
$CMLSCALE
 40
1.0
  9
$PROXYGRAPHICS
 70
     1
  9
$MEASUREMENT
 70
     0
  9
$CELWEIGHT
370
    -1
  9
$ENDCAPS
280
     0
  9
$JOINSTYLE
280
     0
  9
$LWDISPLAY
290
     0
  9
$INSUNITS
 70
     1
  9
$HYPERLINKBASE
  1

  9
$STYLESHEET
  1

  9
$XEDIT
290
     1
  9
$CEPSNTYPE
380
     0
  9
$PSTYLEMODE
290
     1
  9
$EXTNAMES
290
     1
  9
$PSVPSCALE
 40
0.0
  9
$OLESTARTUP
290
     0
  9
$SORTENTS
280
   127
  9
$INDEXCTL
280
     0
  9
$HIDETEXT
280
     1
  9
$XCLIPFRAME
290
     0
  9
$HALOGAP
280
     0
  9
$OBSCOLOR
 70
   257
  9
$OBSLTYPE
280
     0
  9
$INTERSECTIONDISPLAY
280
     0
  9
$INTERSECTIONCOLOR
 70
   257
  9
$DIMASSOC
280
     2
  9
$PROJECTNAME
  1

  0
ENDSEC
  0
SECTION
  2
CLASSES
  0
CLASS
  1
ACDBDICTIONARYWDFLT
  2
AcDbDictionaryWithDefault
  3
ObjectDBX Classes
 90
        0
 91
        4
280
     0
281
     0
  0
ENDSEC
  0
SECTION
  2
TABLES
  0
TABLE
  2
VPORT
  5
8
330
0
100
AcDbSymbolTable
 70
     1
  0
VPORT
  5
29
330
8
100
AcDbSymbolTableRecord
100
AcDbViewportTableRecord
  2
*Active
 70
     0
 10
0.0
 20
0.0
 11
1.0
 21
1.0
 12
80.25
 22
106.4409457059851
 13
0.0
 23
0.0
 14
0.5
 24
0.5
 15
0.5
 25
0.5
 16
0.0
 26
0.0
 36
1.0
 17
0.0
 27
0.0
 37
0.0
 40
113.3818914119703
 41
0.8863849310366128
 42
50.0
 43
0.0
 44
0.0
 50
0.0
 51
0.0
 71
     0
 72
  1000
 73
     1
 74
     3
 75
     0
 76
     0
 77
     0
 78
     0
281
     0
 65
     1
110
0.0
120
0.0
130
0.0
111
1.0
121
0.0
131
0.0
112
0.0
122
1.0
132
0.0
 79
     0
146
0.0
  0
ENDTAB
  0
TABLE
  2
LTYPE
  5
5
330
0
100
AcDbSymbolTable
 70
     1
  0
LTYPE
  5
14
330
5
100
AcDbSymbolTableRecord
100
AcDbLinetypeTableRecord
  2
ByBlock
 70
     0
  3

 72
    65
 73
     0
 40
0.0
  0
LTYPE
  5
15
330
5
100
AcDbSymbolTableRecord
100
AcDbLinetypeTableRecord
  2
ByLayer
 70
     0
  3

 72
    65
 73
     0
 40
0.0
  0
LTYPE
  5
16
330
5
100
AcDbSymbolTableRecord
100
AcDbLinetypeTableRecord
  2
Continuous
 70
     0
  3
Solid line
 72
    65
 73
     0
 40
0.0
  0
ENDTAB
  0
TABLE
  2
LAYER
  5
2
330
0
100
AcDbSymbolTable
 70
     1
  0
LAYER
  5
10
330
2
100
AcDbSymbolTableRecord
100
AcDbLayerTableRecord
  2
0
 70
     0
 62
     7
  6
Continuous
370
    -3
390
F
  0
LAYER
  5
20049
330
2
100
AcDbSymbolTableRecord
100
AcDbLayerTableRecord
  2
plocha Q5
 70
     0
 62
     7
  6
Continuous
370
    -3
390
F
  0
ENDTAB
  0
TABLE
  2
STYLE
  5
3
330
0
100
AcDbSymbolTable
 70
     1
  0
STYLE
  5
11
330
3
100
AcDbSymbolTableRecord
100
AcDbTextStyleTableRecord
  2
Standard
 70
     0
 40
0.0
 41
1.0
 50
0.0
 71
     0
 42
0.2
  3
txt
  4

  0
ENDTAB
  0
TABLE
  2
VIEW
  5
6
330
0
100
AcDbSymbolTable
 70
     0
  0
ENDTAB
  0
TABLE
  2
UCS
  5
7
330
0
100
AcDbSymbolTable
 70
     0
  0
ENDTAB
  0
TABLE
  2
APPID
  5
9
330
0
100
AcDbSymbolTable
 70
     1
  0
APPID
  5
12
330
9
100
AcDbSymbolTableRecord
100
AcDbRegAppTableRecord
  2
ACAD
 70
     0
  0
ENDTAB
  0
TABLE
  2
DIMSTYLE
  5
A
330
0
100
AcDbSymbolTable
 70
     1
100
AcDbDimStyleTable
  0
DIMSTYLE
105
27
330
A
100
AcDbSymbolTableRecord
100
AcDbDimStyleTableRecord
  2
Standard
 70
     0
340
11
  0
ENDTAB
  0
TABLE
  2
BLOCK_RECORD
  5
1
330
0
100
AcDbSymbolTable
 70
     1
  0
BLOCK_RECORD
  5
1F
330
1
100
AcDbSymbolTableRecord
100
AcDbBlockTableRecord
  2
*Model_Space
340
22
  0
BLOCK_RECORD
  5
1B
330
1
100
AcDbSymbolTableRecord
100
AcDbBlockTableRecord
  2
*Paper_Space
340
1E
  0
ENDTAB
  0
ENDSEC
  0
SECTION
  2
BLOCKS
  0
BLOCK
  5
20
330
1F
100
AcDbEntity
  8
0
100
AcDbBlockBegin
  2
*Model_Space
 70
     0
 10
0.0
 20
0.0
 30
0.0
  3
*Model_Space
  1

  0
ENDBLK
  5
21
330
1F
100
AcDbEntity
  8
0
100
AcDbBlockEnd
  0
BLOCK
  5
1C
330
1B
100
AcDbEntity
 67
     1
  8
0
100
AcDbBlockBegin
  2
*Paper_Space
 70
     0
 10
0.0
 20
0.0
 30
0.0
  3
*Paper_Space
  1

  0
ENDBLK
  5
1D
330
1B
100
AcDbEntity
 67
     1
  8
0
100
AcDbBlockEnd
  0
ENDSEC
  0
SECTION
  2
ENTITIES
  0
HATCH
  5
20000
100
AcDbEntity
  8
plocha Q5
100
AcDbHatch
 10
0
 20
0
 30
0
210
0
220
0
230
1
  2
SOLID
 70
1
 71
0
 91
1
 92
2
 72
0
 73
1
 93
60
 10
-604120.8729
 20
-1162477.582
 10
-604122.557
 20
-1162476.139
 10
-604126.465
 20
-1162475.117
 10
-604130.7339
 20
-1162475.297
 10
-604133.921
 20
-1162476.199
 10
-604135.846
 20
-1162477.1609
 10
-604136.9059
 20
-1162479.3849
 10
-604136.748
 20
-1162481.5509
 10
-604137.0109
 20
-1162484.562
 10
-604135.8179
 20
-1162487.0709
 10
-604133.8279
 20
-1162487.206
 10
-604133.163
 20
-1162487.2199
 10
-604128.0889
 20
-1162486.6019
 10
-604123.2679
 20
-1162486.247
 10
-604117.325
 20
-1162487.203
 10
-604109.515
 20
-1162487.7279
 10
-604102.045
 20
-1162488.483
 10
-604095.868
 20
-1162489.517
 10
-604090.9649
 20
-1162491.318
 10
-604086.839
 20
-1162493.336
 10
-604076.8569
 20
-1162499.5299
 10
-604068.7389
 20
-1162504.701
 10
-604057.435
 20
-1162509.8719
 10
-604048.535
 20
-1162514.262
 10
-604038.9739
 20
-1162518.231
 10
-604029.3529
 20
-1162522.38
 10
-604022.198
 20
-1162524.424
 10
-604016.0039
 20
-1162526.408
 10
-604015.042
 20
-1162526.2879
 10
-604014.321
 20
-1162525.687
 10
-604013.1779
 20
-1162526.408
 10
-604009.6899
 20
-1162527.31
 10
-604007.8859
 20
-1162527.7909
 10
-604002.609
 20
-1162528.6129
 10
-603999.6299
 20
-1162528.872
 10
-603998.566
 20
-1162527.852
 10
-603998.987
 20
-1162526.2879
 10
-604001.272
 20
-1162525.326
 10
-604004.279
 20
-1162524.785
 10
-604006.443
 20
-1162524.3039
 10
-604013.5989
 20
-1162522.5599
 10
-604020.3939
 20
-1162519.794
 10
-604024.1219
 20
-1162518.3509
 10
-604030.376
 20
-1162515.585
 10
-604038.072
 20
-1162511.7969
 10
-604043.1829
 20
-1162508.79
 10
-604047.5729
 20
-1162506.7459
 10
-604052.744
 20
-1162504.1599
 10
-604058.156
 20
-1162500.7929
 10
-604069.521
 20
-1162494.599
 10
-604075.654
 20
-1162491.352
 10
-604080.044
 20
-1162487.985
 10
-604087.2419
 20
-1162483.11
 10
-604091.469
 20
-1162482.152
 10
-604099.91
 20
-1162479.02
 10
-604103.916
 20
-1162478.5439
 10
-604109.207
 20
-1162478.183
 10
-604114.0779
 20
-1162477.822
 10
-604118.107
 20
-1162478.604
 10
-604120.8729
 20
-1162477.582
 97
0
 75
0
 76
1
 98
0
  0
HATCH
  5
20001
100
AcDbEntity
  8
plocha Q5
100
AcDbHatch
 10
0
 20
0
 30
0
210
0
220
0
230
1
  2
SOLID
 70
1
 71
0
 91
1
 92
2
 72
0
 73
1
 93
67
 10
-604175.351
 20
-1162476.1439
 10
-604183.2309
 20
-1162474.774
 10
-604188.797
 20
-1162471.862
 10
-604193.079
 20
-1162466.9799
 10
-604197.105
 20
-1162461.927
 10
-604203.613
 20
-1162456.103
 10
-604213.291
 20
-1162445.998
 10
-604216.1169
 20
-1162442.743
 10
-604220.2589
 20
-1162434.814
 10
-604225.709
 20
-1162424.5009
 10
-604227.9769
 20
-1162418.738
 10
-604229.906
 20
-1162411.912
 10
-604232.7089
 20
-1162406.2499
 10
-604235.729
 20
-1162397.267
 10
-604240.269
 20
-1162388.103
 10
-604246.007
 20
-1162374.486
 10
-604250.888
 20
-1162367.035
 10
-604254.828
 20
-1162356.758
 10
-604256.541
 20
-1162347.937
 10
-604259.11
 20
-1162340.914
 10
-604261.0919
 20
-1162337.181
 10
-604262.9739
 20
-1162335.8439
 10
-604267.0809
 20
-1162337.011
 10
-604268.102
 20
-1162339.116
 10
-604268.0139
 20
-1162342.396
 10
-604267.3489
 20
-1162344.0049
 10
-604265.5869
 20
-1162348.6599
 10
-604264.504
 20
-1162353.4549
 10
-604263.116
 20
-1162358.892
 10
-604261.024
 20
-1162363.662
 10
-604256.864
 20
-1162372.461
 10
-604254.684
 20
-1162378.8949
 10
-604252.215
 20
-1162386.0369
 10
-604250.4
 20
-1162391.4549
 10
-604249.0329
 20
-1162393.619
 10
-604245.835
 20
-1162397.6039
 10
-604243.703
 20
-1162401.475
 10
-604240.481
 20
-1162408.291
 10
-604238.6769
 20
-1162413.384
 10
-604235.661
 20
-1162419.3379
 10
-604233.6469
 20
-1162422.973
 10
-604232.6449
 20
-1162425.0599
 10
-604231.949
 20
-1162427.9989
 10
-604227.936
 20
-1162437.052
 10
-604218.6489
 20
-1162450.6559
 10
-604213.004
 20
-1162457.1509
 10
-604208.983
 20
-1162462.177
 10
-604203.0279
 20
-1162466.977
 10
-604198.776
 20
-1162472.1529
 10
-604194.194
 20
-1162476.328
 10
-604190.2499
 20
-1162479.1509
 10
-604185.185
 20
-1162482.669
 10
-604180.7389
 20
-1162483.9449
 10
-604171.399
 20
-1162485.3009
 10
-604161.639
 20
-1162486.342
 10
-604156.226
 20
-1162486.574
 10
-604150.625
 20
-1162487.486
 10
-604148.9969
 20
-1162487.6479
 10
-604147.101
 20
-1162486.9219
 10
-604146.792
 20
-1162485.724
 10
-604146.6759
 20
-1162481.703
 10
-604146.637
 20
-1162480.0789
 10
-604148.171
 20
-1162478.347
 10
-604150.5809
 20
-1162477.991
 10
-604155.6849
 20
-1162477.334
 10
-604163.019
 20
-1162477.4279
 10
-604175.351
 20
-1162476.1439
 97
0
 75
0
 76
1
 98
0
  0
HATCH
  5
20002
100
AcDbEntity
  8
plocha Q5
100
AcDbHatch
 10
0
 20
0
 30
0
210
0
220
0
230
1
  2
SOLID
 70
1
 71
0
 91
1
 92
2
 72
0
 73
1
 93
31
 10
-604292.758
 20
-1162262.818
 10
-604286.176
 20
-1162260.1319
 10
-604285.5769
 20
-1162257.916
 10
-604286.1949
 20
-1162254.882
 10
-604288.459
 20
-1162247.774
 10
-604297.5929
 20
-1162234.7449
 10
-604305.115
 20
-1162225.88
 10
-604315.592
 20
-1162214.194
 10
-604327.2779
 20
-1162205.463
 10
-604342.994
 20
-1162192.433
 10
-604352.397
 20
-1162184.374
 10
-604356.0569
 20
-1162182.119
 10
-604358.2769
 20
-1162183.1089
 10
-604361.592
 20
-1162186.663
 10
-604362.3089
 20
-1162187.654
 10
-604362.7399
 20
-1162189.613
 10
-604362.337
 20
-1162192.1649
 10
-604361.9339
 20
-1162194.4479
 10
-604359.654
 20
-1162194.482
 10
-604355.755
 20
-1162197
 10
-604352.128
 20
-1162197.9409
 10
-604348.914
 20
-1162200.774
 10
-604346.8899
 20
-1162205.1939
 10
-604345.009
 20
-1162207.612
 10
-604339.233
 20
-1162211.7759
 10
-604320.294
 20
-1162227.7599
 10
-604309.9509
 20
-1162240.118
 10
-604302.429
 20
-1162250.1919
 10
-604299.65
 20
-1162259.889
 10
-604297.19
 20
-1162262.9529
 10
-604292.758
 20
-1162262.818
 97
0
 75
0
 76
1
 98
0
  0
HATCH
  5
20003
100
AcDbEntity
  8
plocha Q5
100
AcDbHatch
 10
0
 20
0
 30
0
210
0
220
0
230
1
  2
SOLID
 70
1
 71
0
 91
1
 92
2
 72
0
 73
1
 93
87
 10
-604372.7299
 20
-1162182.684
 10
-604367.997
 20
-1162174.5529
 10
-604367.7539
 20
-1162172.4899
 10
-604368.8469
 20
-1162171.7009
 10
-604373.883
 20
-1162170.124
 10
-604380.679
 20
-1162167.272
 10
-604391.783
 20
-1162157.9879
 10
-604400.1059
 20
-1162151.339
 10
-604404.9159
 20
-1162147.9039
 10
-604418.194
 20
-1162139.277
 10
-604428.065
 20
-1162132.524
 10
-604435.826
 20
-1162127.041
 10
-604442.071
 20
-1162122.7459
 10
-604446.5639
 20
-1162119.6799
 10
-604453.0649
 20
-1162115.399
 10
-604462.5699
 20
-1162110.072
 10
-604469.5549
 20
-1162104.882
 10
-604476.743
 20
-1162099.8079
 10
-604482.24
 20
-1162096.214
 10
-604486.4679
 20
-1162093.254
 10
-604492.9159
 20
-1162089.3429
 10
-604498.994
 20
-1162085.537
 10
-604507.345
 20
-1162080.728
 10
-604512.577
 20
-1162077.239
 10
-604519.659
 20
-1162071.901
 10
-604524.892
 20
-1162068.043
 10
-604530.177
 20
-1162063.9729
 10
-604536.731
 20
-1162058.7409
 10
-604542.588
 20
-1162053.1
 10
-604547.032
 20
-1162049.4869
 10
-604550.1809
 20
-1162046.5219
 10
-604556.184
 20
-1162039.75
 10
-604559.186
 20
-1162036.2719
 10
-604560.76
 20
-1162034.258
 10
-604563.1399
 20
-1162031.5129
 10
-604566.215
 20
-1162028.365
 10
-604569.2899
 20
-1162024.2279
 10
-604572.768
 20
-1162019.6149
 10
-604574.488
 20
-1162017.7119
 10
-604576.0619
 20
-1162016.6499
 10
-604576.978
 20
-1162016.6869
 10
-604578.0029
 20
-1162017.675
 10
-604578.1489
 20
-1162018.151
 10
-604577.3799
 20
-1162019.432
 10
-604574.525
 20
-1162023.1299
 10
-604571.377
 20
-1162027.047
 10
-604569.3269
 20
-1162029.6089
 10
-604566.5809
 20
-1162033.197
 10
-604563.6519
 20
-1162036.5279
 10
-604561.8589
 20
-1162038.7609
 10
-604560.358
 20
-1162041.1039
 10
-604558.674
 20
-1162043.7759
 10
-604557.1729
 20
-1162045.534
 10
-604554.2809
 20
-1162048.3889
 10
-604550.728
 20
-1162051.7439
 10
-604546.337
 20
-1162056.077
 10
-604542.752
 20
-1162059.523
 10
-604539.821
 20
-1162061.971
 10
-604534.934
 20
-1162065.8229
 10
-604528.1689
 20
-1162071.6369
 10
-604523.095
 20
-1162075.39
 10
-604517.0169
 20
-1162080.094
 10
-604508.7719
 20
-1162085.59
 10
-604501.425
 20
-1162090.03
 10
-604491.2249
 20
-1162096.742
 10
-604485.3579
 20
-1162100.6
 10
-604479.703
 20
-1162104.5119
 10
-604473.36
 20
-1162108.7929
 10
-604466.701
 20
-1162113.127
 10
-604461.3099
 20
-1162116.615
 10
-604453.6989
 20
-1162121.5299
 10
-604449.27
 20
-1162124.339
 10
-604445.3479
 20
-1162127.3439
 10
-604438.8469
 20
-1162132.259
 10
-604431.8179
 20
-1162137.3329
 10
-604420.7719
 20
-1162143.8869
 10
-604413.115
 20
-1162149.7209
 10
-604407.8749
 20
-1162153.1889
 10
-604405.3269
 20
-1162155.31
 10
-604403.12
 20
-1162158.119
 10
-604399.8229
 20
-1162162.3569
 10
-604393.755
 20
-1162168.4249
 10
-604387.687
 20
-1162174.007
 10
-604383.804
 20
-1162177.89
 10
-604377.736
 20
-1162181.288
 10
-604373.761
 20
-1162184.019
 10
-604372.7299
 20
-1162182.684
 97
0
 75
0
 76
1
 98
0
  0
HATCH
  5
20004
100
AcDbEntity
  8
plocha Q5
100
AcDbHatch
 10
0
 20
0
 30
0
210
0
220
0
230
1
  2
SOLID
 70
1
 71
0
 91
1
 92
2
 72
0
 73
1
 93
154
 10
-605073.3909
 20
-1161426.582
 10
-605069.736
 20
-1161419.651
 10
-605062.8049
 20
-1161414.4849
 10
-605056.301
 20
-1161411.665
 10
-605051.8279
 20
-1161409.283
 10
-605046.658
 20
-1161405.4489
 10
-605043.579
 20
-1161401.441
 10
-605041.415
 20
-1161397.799
 10
-605042.011
 20
-1161391.043
 10
-605045.147
 20
-1161388.3129
 10
-605048.459
 20
-1161385.815
 10
-605049.7369
 20
-1161382.039
 10
-605052.2339
 20
-1161379.425
 10
-605057.463
 20
-1161371.176
 10
-605060.658
 20
-1161365.6579
 10
-605062.5159
 20
-1161364.6119
 10
-605063.6779
 20
-1161364.38
 10
-605064.375
 20
-1161364.844
 10
-605065.1889
 20
-1161366.355
 10
-605064.55
 20
-1161368.62
 10
-605063.0969
 20
-1161372.919
 10
-605059.089
 20
-1161381.2259
 10
-605059.496
 20
-1161385.5829
 10
-605062.865
 20
-1161390.23
 10
-605065.014
 20
-1161392.0309
 10
-605067.036
 20
-1161400.0049
 10
-605075.976
 20
-1161405.624
 10
-605084.823
 20
-1161408.354
 10
-605092.2919
 20
-1161414.001
 10
-605096.704
 20
-1161418.139
 10
-605099.728
 20
-1161420.534
 10
-605102.4999
 20
-1161422.9279
 10
-605109.9349
 20
-1161426.456
 10
-605117.767
 20
-1161430.715
 10
-605126.8209
 20
-1161432.883
 10
-605130.6019
 20
-1161434.269
 10
-605130.854
 20
-1161435.025
 10
-605123.419
 20
-1161434.5209
 10
-605110.061
 20
-1161430.7409
 10
-605098.3239
 20
-1161429.58
 10
-605090.0249
 20
-1161432.1269
 10
-605081.96
 20
-1161437.1679
 10
-605074.273
 20
-1161447.7529
 10
-605066.5099
 20
-1161461.939
 10
-605058.5639
 20
-1161475.42
 10
-605049.056
 20
-1161488.9009
 10
-605040.4
 20
-1161499.543
 10
-605031.8859
 20
-1161508.2
 10
-605023.655
 20
-1161516.572
 10
-605006.065
 20
-1161527.846
 10
-604994.5649
 20
-1161537.2899
 10
-604986.902
 20
-1161547.507
 10
-604982.503
 20
-1161552.899
 10
-604968.951
 20
-1161576.1009
 10
-604959.869
 20
-1161590.007
 10
-604950.22
 20
-1161596.251
 10
-604925.8119
 20
-1161614.4149
 10
-604904.582
 20
-1161629.7859
 10
-604885.371
 20
-1161643.847
 10
-604877.8539
 20
-1161649.651
 10
-604872.5309
 20
-1161657.777
 10
-604867.6039
 20
-1161663.804
 10
-604860.439
 20
-1161669.277
 10
-604855.0389
 20
-1161674.535
 10
-604853.933
 20
-1161679.084
 10
-604852.088
 20
-1161684.493
 10
-604847.4169
 20
-1161690.2709
 10
-604839.917
 20
-1161697.0329
 10
-604824.304
 20
-1161705.639
 10
-604818.402
 20
-1161707.852
 10
-604812.993
 20
-1161711.0489
 10
-604807.952
 20
-1161713.139
 10
-604802.5009
 20
-1161714.9429
 10
-604795.943
 20
-1161718.642
 10
-604791.067
 20
-1161723.182
 10
-604783.703
 20
-1161730.0309
 10
-604777.622
 20
-1161740.6869
 10
-604770.216
 20
-1161750.423
 10
-604759.7899
 20
-1161763.539
 10
-604755.25
 20
-1161770.6009
 10
-604752.754
 20
-1161773.815
 10
-604748.157
 20
-1161780.3669
 10
-604741.0439
 20
-1161790.0569
 10
-604735.992
 20
-1161794.7999
 10
-604730.1159
 20
-1161801.6039
 10
-604726.6109
 20
-1161804.594
 10
-604722.384
 20
-1161811.192
 10
-604718.157
 20
-1161818.099
 10
-604715.992
 20
-1161821.6039
 10
-604714.033
 20
-1161825.7279
 10
-604711.6619
 20
-1161828.615
 10
-604707.6629
 20
-1161835.419
 10
-604702.1849
 20
-1161841.0279
 10
-604695.0129
 20
-1161850.412
 10
-604691.058
 20
-1161856.3779
 10
-604688.3769
 20
-1161861.473
 10
-604686.114
 20
-1161864.5589
 10
-604684.288
 20
-1161866.232
 10
-604682.855
 20
-1161867.8399
 10
-604680.79
 20
-1161865.821
 10
-604680.502
 20
-1161861.431
 10
-604680.9369
 20
-1161860.2659
 10
-604681.8749
 20
-1161858.2549
 10
-604688.578
 20
-1161850.882
 10
-604693.606
 20
-1161844.045
 10
-604700.912
 20
-1161836.403
 10
-604706.198
 20
-1161830.883
 10
-604708.5309
 20
-1161827.395
 10
-604713.1889
 20
-1161818.0799
 10
-604715.4759
 20
-1161813.975
 10
-604720.631
 20
-1161806.243
 10
-604728.8789
 20
-1161795.6249
 10
-604736.508
 20
-1161785.831
 10
-604745.74
 20
-1161773.564
 10
-604752.896
 20
-1161764.043
 10
-604763.233
 20
-1161751.1509
 10
-604774.408
 20
-1161734.6329
 10
-604779.5559
 20
-1161727.195
 10
-604785.672
 20
-1161718.946
 10
-604792.433
 20
-1161711.4239
 10
-604799.3219
 20
-1161705.667
 10
-604804.0779
 20
-1161700.689
 10
-604809.44
 20
-1161696.75
 10
-604815.1389
 20
-1161694.173
 10
-604823.6519
 20
-1161688.7359
 10
-604829.969
 20
-1161685.234
 10
-604836.673
 20
-1161676.295
 10
-604842.502
 20
-1161671.4279
 10
-604843.6519
 20
-1161669.9509
 10
-604850.082
 20
-1161668.3719
 10
-604856.176
 20
-1161663.4969
 10
-604863.896
 20
-1161657.1989
 10
-604874.797
 20
-1161645.654
 10
-604891.0979
 20
-1161631.004
 10
-604909.7419
 20
-1161617.99
 10
-604925.528
 20
-1161604.482
 10
-604939.435
 20
-1161592.562
 10
-604950.22
 20
-1161582.061
 10
-604960.1529
 20
-1161572.695
 10
-604966.68
 20
-1161561.3429
 10
-604971.8599
 20
-1161551.7639
 10
-604974.272
 20
-1161547.649
 10
-604979.665
 20
-1161541.6889
 10
-604993.8549
 20
-1161529.3429
 10
-605002.2279
 20
-1161521.822
 10
-605009.7479
 20
-1161514.727
 10
-605022.662
 20
-1161503.942
 10
-605037.5619
 20
-1161491.8809
 10
-605045.2249
 20
-1161481.238
 10
-605054.023
 20
-1161469.318
 10
-605059.7809
 20
-1161456.07
 10
-605065.074
 20
-1161447.3749
 10
-605071.627
 20
-1161436.664
 10
-605073.3909
 20
-1161426.582
 97
0
 75
0
 76
1
 98
0
  0
HATCH
  5
20005
100
AcDbEntity
  8
plocha Q5
100
AcDbHatch
 10
0
 20
0
 30
0
210
0
220
0
230
1
  2
SOLID
 70
1
 71
0
 91
1
 92
2
 72
0
 73
1
 93
23
 10
-605072.711
 20
-1161350.614
 10
-605072.4349
 20
-1161349.601
 10
-605072.711
 20
-1161348.0359
 10
-605072.8949
 20
-1161346.379
 10
-605073.5399
 20
-1161344.6289
 10
-605075.2889
 20
-1161342.972
 10
-605078.05
 20
-1161340.77
 10
-605084.44
 20
-1161332.5219
 10
-605088.1799
 20
-1161325.569
 10
-605092.232
 20
-1161319.5839
 10
-605095.0859
 20
-1161315.0719
 10
-605095.64
 20
-1161313.67
 10
-605097.296
 20
-1161315.0719
 10
-605098.28
 20
-1161315.6899
 10
-605098.2169
 20
-1161317.19
 10
-605093.521
 20
-1161323.819
 10
-605084.7729
 20
-1161336.526
 10
-605080.6599
 20
-1161342.92
 10
-605079.27
 20
-1161346.55
 10
-605076.486
 20
-1161349.601
 10
-605074.184
 20
-1161350.982
 10
-605073.079
 20
-1161351.075
 10
-605072.711
 20
-1161350.614
 97
0
 75
0
 76
1
 98
0
  0
HATCH
  5
20006
100
AcDbEntity
  8
plocha Q5
100
AcDbHatch
 10
0
 20
0
 30
0
210
0
220
0
230
1
  2
SOLID
 70
1
 71
0
 91
1
 92
2
 72
0
 73
1
 93
81
 10
-605101.008
 20
-1161311.208
 10
-605099.8609
 20
-1161310.4369
 10
-605100.0139
 20
-1161310.413
 10
-605098.904
 20
-1161309.442
 10
-605099.2509
 20
-1161307.4289
 10
-605103.974
 20
-1161300.363
 10
-605107.3169
 20
-1161295.4169
 10
-605112.5419
 20
-1161286.4999
 10
-605117.628
 20
-1161279.394
 10
-605126.9429
 20
-1161266.487
 10
-605130.285
 20
-1161261.916
 10
-605133.874
 20
-1161256.46
 10
-605138.183
 20
-1161250.4629
 10
-605147.2099
 20
-1161238.478
 10
-605149.234
 20
-1161234.898
 10
-605151.88
 20
-1161228.6719
 10
-605153.592
 20
-1161223.3799
 10
-605155.4599
 20
-1161217.4649
 10
-605159.5459
 20
-1161211.979
 10
-605163.3589
 20
-1161207.387
 10
-605167.0169
 20
-1161202.0949
 10
-605172.454
 20
-1161197.766
 10
-605178.4149
 20
-1161193.25
 10
-605180.763
 20
-1161189.276
 10
-605188.711
 20
-1161181.5089
 10
-605193.723
 20
-1161175.1409
 10
-605196.9749
 20
-1161172.7029
 10
-605201.3099
 20
-1161168.2769
 10
-605205.1939
 20
-1161161.5029
 10
-605204.471
 20
-1161157.891
 10
-605199.798
 20
-1161155.448
 10
-605200.9489
 20
-1161145.969
 10
-605205.4649
 20
-1161144.524
 10
-605214.225
 20
-1161144.162
 10
-605218.9219
 20
-1161142.898
 10
-605221.9019
 20
-1161139.5559
 10
-605222.534
 20
-1161135.6729
 10
-605224.2499
 20
-1161130.9759
 10
-605235.3589
 20
-1161122.486
 10
-605240.508
 20
-1161119.325
 10
-605247.01
 20
-1161113.635
 10
-605250.7129
 20
-1161106.952
 10
-605252.52
 20
-1161099.185
 10
-605262.093
 20
-1161082.657
 10
-605267.693
 20
-1161079.405
 10
-605273.0219
 20
-1161078.502
 10
-605286.4789
 20
-1161091.869
 10
-605280.9699
 20
-1161096.5649
 10
-605270.402
 20
-1161105.868
 10
-605263.719
 20
-1161113.5449
 10
-605256.945
 20
-1161122.7569
 10
-605244.12
 20
-1161136.5759
 10
-605233.192
 20
-1161147.414
 10
-605225.9659
 20
-1161155.723
 10
-605219.373
 20
-1161164.845
 10
-605212.3289
 20
-1161173.8769
 10
-605207.8129
 20
-1161179.747
 10
-605203.568
 20
-1161183.8119
 10
-605193.046
 20
-1161194.514
 10
-605190.8779
 20
-1161199.211
 10
-605186.5429
 20
-1161203.004
 10
-605183.472
 20
-1161206.797
 10
-605180.092
 20
-1161209.8769
 10
-605175.266
 20
-1161212.679
 10
-605170.6749
 20
-1161217.037
 10
-605166.316
 20
-1161219.761
 10
-605163.2029
 20
-1161223.341
 10
-605160.7129
 20
-1161226.1429
 10
-605155.4599
 20
-1161233.186
 10
-605147.2099
 20
-1161245.015
 10
-605141.1399
 20
-1161253.576
 10
-605136.528
 20
-1161260.343
 10
-605134.7089
 20
-1161263.046
 10
-605125.291
 20
-1161275.144
 10
-605116.94
 20
-1161287.2199
 10
-605111.5669
 20
-1161295.7649
 10
-605108.502
 20
-1161300.781
 10
-605103.901
 20
-1161308.609
 10
-605102.305
 20
-1161310.622
 10
-605101.92
 20
-1161311.82
 10
-605101.008
 20
-1161311.208
 97
0
 75
0
 76
1
 98
0
  0
HATCH
  5
20007
100
AcDbEntity
  8
plocha Q5
100
AcDbHatch
 10
0
 20
0
 30
0
210
0
220
0
230
1
  2
SOLID
 70
1
 71
0
 91
1
 92
2
 72
0
 73
1
 93
232
 10
-589961.4
 20
-1159548.62
 10
-589956.51
 20
-1159538.47
 10
-589944.55
 20
-1159513.83
 10
-589928.61
 20
-1159481.7601
 10
-589914.84
 20
-1159456.21
 10
-589905.96
 20
-1159441.54
 10
-589900.71
 20
-1159432.3
 10
-589897.5
 20
-1159426.13
 10
-589896.93
 20
-1159424.79
 10
-589896.7795
 20
-1159423.2496
 10
-589897.3601
 20
-1159422.47
 10
-589897.9786
 20
-1159421.9021
 10
-589899.1086
 20
-1159421.6922
 10
-589903.9
 20
-1159421.7
 10
-589908.69
 20
-1159421.8401
 10
-589918.2401
 20
-1159422.06
 10
-589923.32
 20
-1159422.3301
 10
-589928.93
 20
-1159422.86
 10
-589934.55
 20
-1159424.47
 10
-589938.82
 20
-1159426.87
 10
-589940.9601
 20
-1159428.74
 10
-589943.9
 20
-1159432.75
 10
-589947.11
 20
-1159437.56
 10
-589950.05
 20
-1159442.91
 10
-589952.99
 20
-1159449.0501
 10
-589956.2
 20
-1159457.6101
 10
-589960.2
 20
-1159466.1601
 10
-589965.55
 20
-1159478.7201
 10
-589970.63
 20
-1159491.2801
 10
-589975.17
 20
-1159500.6401
 10
-589981.8501
 20
-1159513.47
 10
-589987.2001
 20
-1159520.42
 10
-589992.54
 20
-1159528.1701
 10
-589998.42
 20
-1159536.7201
 10
-590002.9701
 20
-1159541.26
 10
-590007.78
 20
-1159545
 10
-590015
 20
-1159548.21
 10
-590020.34
 20
-1159550.0801
 10
-590026.4901
 20
-1159551.6901
 10
-590033.4401
 20
-1159552.22
 10
-590041.19
 20
-1159552.22
 10
-590048.67
 20
-1159551.15
 10
-590056.9601
 20
-1159549.2801
 10
-590064.44
 20
-1159546.8801
 10
-590073.26
 20
-1159542.87
 10
-590081.55
 20
-1159538.3201
 10
-590091.17
 20
-1159531.91
 10
-590096.2501
 20
-1159528.43
 10
-590104.0001
 20
-1159523.09
 10
-590109.88
 20
-1159518.8101
 10
-590114.69
 20
-1159514.54
 10
-590122.1701
 20
-1159509.19
 10
-590128.85
 20
-1159504.38
 10
-590132.59
 20
-1159502.78
 10
-590139.81
 20
-1159500.91
 10
-590145.6901
 20
-1159499.3
 10
-590150.23
 20
-1159498.23
 10
-590156.6501
 20
-1159497.43
 10
-590168.94
 20
-1159496.63
 10
-590188.45
 20
-1159496.36
 10
-590201.2801
 20
-1159496.36
 10
-590214.38
 20
-1159496.63
 10
-590223.73
 20
-1159496.9
 10
-590232.29
 20
-1159496.63
 10
-590238.1701
 20
-1159495.83
 10
-590245.38
 20
-1159494.4901
 10
-590252.6
 20
-1159492.35
 10
-590260.0801
 20
-1159489.95
 10
-590268.37
 20
-1159484.87
 10
-590277.19
 20
-1159478.7201
 10
-590282.53
 20
-1159476.3201
 10
-590288.68
 20
-1159473.64
 10
-590292.69
 20
-1159472.84
 10
-590296.9701
 20
-1159472.84
 10
-590300.98
 20
-1159473.11
 10
-590307.39
 20
-1159474.45
 10
-590315.6801
 20
-1159476.85
 10
-590323.96
 20
-1159479.5201
 10
-590329.0401
 20
-1159482.2
 10
-590334.38
 20
-1159485.94
 10
-590338.39
 20
-1159489.15
 10
-590342.4001
 20
-1159492.8901
 10
-590346.14
 20
-1159497.16
 10
-590349.62
 20
-1159502.51
 10
-590351.7601
 20
-1159506.79
 10
-590354.7
 20
-1159513.2001
 10
-590357.3701
 20
-1159519.6101
 10
-590360.18
 20
-1159525.49
 10
-590362.71
 20
-1159530.5701
 10
-590364.18
 20
-1159534.31
 10
-590366.19
 20
-1159538.59
 10
-590368.46
 20
-1159543.8
 10
-590370.3301
 20
-1159547.14
 10
-590372.34
 20
-1159550.35
 10
-590374.8801
 20
-1159553.96
 10
-590376.21
 20
-1159555.83
 10
-590377.55
 20
-1159557.3
 10
-590379.42
 20
-1159559.0401
 10
-590382.23
 20
-1159561.4401
 10
-590384.76
 20
-1159563.8501
 10
-590387.8401
 20
-1159566.39
 10
-590389.71
 20
-1159567.86
 10
-590390.91
 20
-1159568.52
 10
-590393.72
 20
-1159569.59
 10
-590396.66
 20
-1159570.93
 10
-590399.73
 20
-1159572.6
 10
-590403.94
 20
-1159574.8101
 10
-590406.5994
 20
-1159576.5022
 10
-590411.5994
 20
-1159579.9123
 10
-590412.86
 20
-1159581.01
 10
-590416.27
 20
-1159583.73
 10
-590418.76
 20
-1159586.23
 10
-590420.35
 20
-1159587.81
 10
-590422.1601
 20
-1159590.31
 10
-590423.98
 20
-1159593.94
 10
-590426.93
 20
-1159597.8
 10
-590428.9701
 20
-1159600.52
 10
-590432.6
 20
-1159603.9201
 10
-590436.46
 20
-1159607.33
 10
-590439.18
 20
-1159608.92
 10
-590441
 20
-1159609.6001
 10
-590446.44
 20
-1159610.7301
 10
-590450.98
 20
-1159612.0901
 10
-590457.11
 20
-1159613.91
 10
-590462.3301
 20
-1159616.18
 10
-590468.0001
 20
-1159619.58
 10
-590474.58
 20
-1159624.12
 10
-590479.57
 20
-1159628.43
 10
-590485.47
 20
-1159633.19
 10
-590491.82
 20
-1159639.32
 10
-590495.4501
 20
-1159642.95
 10
-590502.03
 20
-1159649.3
 10
-590503.62
 20
-1159651.34
 10
-590503.62
 20
-1159652.03
 10
-590501.81
 20
-1159652.93
 10
-590497.0401
 20
-1159655.2001
 10
-590485.9201
 20
-1159661.1
 10
-590465.0501
 20
-1159671.7701
 10
-590460.5701
 20
-1159673.82
 10
-590454.95
 20
-1159676.1701
 10
-590451.87
 20
-1159677.4401
 10
-590451.15
 20
-1159677.62
 10
-590450.6
 20
-1159677.8
 10
-590449.7
 20
-1159676.9
 10
-590447.7
 20
-1159673.09
 10
-590444.0801
 20
-1159667.48
 10
-590441.18
 20
-1159663.49
 10
-590437.9201
 20
-1159659.14
 10
-590434.4801
 20
-1159656.06
 10
-590429.0401
 20
-1159652.62
 10
-590423.79
 20
-1159650.26
 10
-590415.09
 20
-1159648.45
 10
-590409.47
 20
-1159648.27
 10
-590398.78
 20
-1159648.63
 10
-590388.0901
 20
-1159648.99
 10
-590380.4801
 20
-1159649.54
 10
-590371.42
 20
-1159650.8101
 10
-590364.7201
 20
-1159651.35
 10
-590360.7301
 20
-1159651.17
 10
-590356.02
 20
-1159650.26
 10
-590352.04
 20
-1159648.99
 10
-590347.33
 20
-1159647.18
 10
-590342.8001
 20
-1159645.19
 10
-590338.99
 20
-1159642.29
 10
-590335.19
 20
-1159639.2101
 10
-590330.4801
 20
-1159634.14
 10
-590325.58
 20
-1159627.6101
 10
-590320.69
 20
-1159620.37
 10
-590316.71
 20
-1159613.3
 10
-590310.7301
 20
-1159601.34
 10
-590305.65
 20
-1159590.83
 10
-590300.76
 20
-1159581.59
 10
-590296.05
 20
-1159573.4401
 10
-590291.16
 20
-1159565.11
 10
-590286.99
 20
-1159558.22
 10
-590281.01
 20
-1159548.07
 10
-590277.39
 20
-1159542.46
 10
-590274.31
 20
-1159537.9301
 10
-590269.78
 20
-1159532.13
 10
-590266.1601
 20
-1159528.69
 10
-590262.53
 20
-1159526.15
 10
-590257.46
 20
-1159523.98
 10
-590252.02
 20
-1159522.53
 10
-590248.58
 20
-1159522.1701
 10
-590243.87
 20
-1159522.35
 10
-590239.88
 20
-1159522.71
 10
-590236.44
 20
-1159523.6101
 10
-590230.1
 20
-1159525.97
 10
-590225.03
 20
-1159528.51
 10
-590214.7
 20
-1159534.12
 10
-590204.0101
 20
-1159539.38
 10
-590198.39
 20
-1159542.46
 10
-590190.9601
 20
-1159547.35
 10
-590185.5301
 20
-1159551.34
 10
-590177.9201
 20
-1159556.95
 10
-590173.9301
 20
-1159560.03
 10
-590169.22
 20
-1159564.74
 10
-590164.69
 20
-1159569.4501
 10
-590160.8901
 20
-1159574.1701
 10
-590156.54
 20
-1159579.06
 10
-590151.2801
 20
-1159585.94
 10
-590144.4001
 20
-1159595
 10
-590140.23
 20
-1159600.62
 10
-590137.33
 20
-1159604.6
 10
-590134.07
 20
-1159607.6801
 10
-590129.18
 20
-1159611.67
 10
-590120.3
 20
-1159616.92
 10
-590115.23
 20
-1159618.92
 10
-590109.25
 20
-1159621.4501
 10
-590102.36
 20
-1159623.63
 10
-590096.5701
 20
-1159624.53
 10
-590090.59
 20
-1159625.08
 10
-590084.61
 20
-1159625.26
 10
-590073.19
 20
-1159625.4401
 10
-590065.0401
 20
-1159625.4401
 10
-590057.25
 20
-1159625.4401
 10
-590043.8401
 20
-1159624.1701
 10
-590035.51
 20
-1159623.09
 10
-590028.44
 20
-1159622.18
 10
-590019.9301
 20
-1159620.7301
 10
-590013.58
 20
-1159619.46
 10
-590007.6101
 20
-1159617.2901
 10
-590003.98
 20
-1159615.2901
 10
-589999.09
 20
-1159612.4001
 10
-589995.1
 20
-1159608.95
 10
-589991.48
 20
-1159604.9701
 10
-589987.31
 20
-1159598.63
 10
-589982.9601
 20
-1159592.46
 10
-589979.34
 20
-1159587.03
 10
-589973
 20
-1159574.35
 10
-589968.6501
 20
-1159564.02
 10
-589961.4
 20
-1159548.62
 97
0
 75
0
 76
1
 98
0
  0
HATCH
  5
20008
100
AcDbEntity
  8
plocha Q5
100
AcDbHatch
 10
0
 20
0
 30
0
210
0
220
0
230
1
  2
SOLID
 70
1
 71
0
 91
1
 92
2
 72
0
 73
1
 93
211
 10
-590375.8
 20
-1160002.68
 10
-590374.4001
 20
-1160002.44
 10
-590373.2901
 20
-1160001.6801
 10
-590371.6001
 20
-1160000.1701
 10
-590369.56
 20
-1159998.07
 10
-590367.9201
 20
-1159996.2
 10
-590367.0501
 20
-1159994.92
 10
-590367.0501
 20
-1159994.27
 10
-590367.4
 20
-1159993.75
 10
-590368.27
 20
-1159992.82
 10
-590369.51
 20
-1159991.6801
 10
-590372.1701
 20
-1159989.03
 10
-590376.06
 20
-1159985.49
 10
-590381.01
 20
-1159980.54
 10
-590390.92
 20
-1159970.63
 10
-590398.36
 20
-1159963.3701
 10
-590407.38
 20
-1159954.1701
 10
-590411.27
 20
-1159949.75
 10
-590414.6501
 20
-1159946.0801
 10
-590417.75
 20
-1159942.35
 10
-590419.91
 20
-1159938.79
 10
-590421.3669
 20
-1159935.9018
 10
-590423.48
 20
-1159930.99
 10
-590424.7201
 20
-1159926.39
 10
-590425.96
 20
-1159921.79
 10
-590426.67
 20
-1159918.42
 10
-590427.2001
 20
-1159913.82
 10
-590427.55
 20
-1159906.5701
 10
-590427.2001
 20
-1159901.4401
 10
-590427.2001
 20
-1159893.83
 10
-590427.38
 20
-1159883.2101
 10
-590427.38
 20
-1159876.4801
 10
-590427.55
 20
-1159871.18
 10
-590428.0901
 20
-1159867.64
 10
-590428.44
 20
-1159865.51
 10
-590429.6801
 20
-1159861.8
 10
-590430.92
 20
-1159858.9701
 10
-590431.98
 20
-1159856.84
 10
-590433.0401
 20
-1159855.25
 10
-590434.46
 20
-1159853.48
 10
-590436.05
 20
-1159851.89
 10
-590438.53
 20
-1159848.8801
 10
-590441.18
 20
-1159846.05
 10
-590443.3
 20
-1159843.0401
 10
-590444.54
 20
-1159840.5601
 10
-590445.43
 20
-1159838.62
 10
-590446.14
 20
-1159836.14
 10
-590446.4901
 20
-1159834.02
 10
-590446.84
 20
-1159831.3601
 10
-590447.2001
 20
-1159827.64
 10
-590447.3701
 20
-1159822.87
 10
-590447.3701
 20
-1159817.73
 10
-590447.9
 20
-1159813.31
 10
-590448.79
 20
-1159808.71
 10
-590449.67
 20
-1159805.7
 10
-590450.5601
 20
-1159804.11
 10
-590452.3301
 20
-1159801.81
 10
-590454.63
 20
-1159798.8001
 10
-590457.46
 20
-1159795.62
 10
-590461.35
 20
-1159791.55
 10
-590464.8901
 20
-1159786.77
 10
-590467.55
 20
-1159783.23
 10
-590469.32
 20
-1159780.04
 10
-590470.38
 20
-1159777.39
 10
-590471.26
 20
-1159774.2
 10
-590471.62
 20
-1159771.73
 10
-590471.4401
 20
-1159768.0101
 10
-590471.26
 20
-1159765
 10
-590471.09
 20
-1159761.46
 10
-590471.09
 20
-1159759.87
 10
-590471.09
 20
-1159755.98
 10
-590470.7301
 20
-1159751.02
 10
-590470.5601
 20
-1159744.83
 10
-590470.38
 20
-1159740.23
 10
-590471.26
 20
-1159736.69
 10
-590472.68
 20
-1159734.21
 10
-590473.65
 20
-1159732.44
 10
-590475.24
 20
-1159730.05
 10
-590477.19
 20
-1159727.4
 10
-590478.1601
 20
-1159725.19
 10
-590479.14
 20
-1159722.53
 10
-590479.49
 20
-1159719.88
 10
-590479.67
 20
-1159717.22
 10
-590479.67
 20
-1159715.4501
 10
-590479.49
 20
-1159714.13
 10
-590479.0501
 20
-1159712.45
 10
-590478.61
 20
-1159711.03
 10
-590477.72
 20
-1159709.26
 10
-590477.1
 20
-1159708.2
 10
-590476.31
 20
-1159706.52
 10
-590475.07
 20
-1159704.75
 10
-590473.48
 20
-1159702.36
 10
-590471.97
 20
-1159699.97
 10
-590471.17
 20
-1159698.7301
 10
-590470.6401
 20
-1159697.58
 10
-590470.47
 20
-1159697.0501
 10
-590470.47
 20
-1159696.78
 10
-590470.7301
 20
-1159696.52
 10
-590471
 20
-1159696.34
 10
-590471.97
 20
-1159695.72
 10
-590474.63
 20
-1159694.4001
 10
-590477.63
 20
-1159692.8001
 10
-590479
 20
-1159692.14
 10
-590480.74
 20
-1159691.27
 10
-590481.32
 20
-1159690.98
 10
-590481.71
 20
-1159690.98
 10
-590482.29
 20
-1159691.3701
 10
-590483.35
 20
-1159693.01
 10
-590487.2101
 20
-1159698.03
 10
-590490.2
 20
-1159702.5701
 10
-590492.3301
 20
-1159705.95
 10
-590493.78
 20
-1159708.1701
 10
-590494.1601
 20
-1159709.0401
 10
-590494.74
 20
-1159710.3
 10
-590495.23
 20
-1159712.52
 10
-590495.23
 20
-1159714.26
 10
-590495.23
 20
-1159715.9
 10
-590494.94
 20
-1159717.73
 10
-590494.74
 20
-1159719.66
 10
-590494.26
 20
-1159721.31
 10
-590493.97
 20
-1159722.37
 10
-590493.58
 20
-1159723.24
 10
-590492.8101
 20
-1159724.78
 10
-590491.8501
 20
-1159726.71
 10
-590490.4001
 20
-1159729.32
 10
-590489.24
 20
-1159731.35
 10
-590488.0801
 20
-1159733.18
 10
-590487.31
 20
-1159735.11
 10
-590486.53
 20
-1159737.34
 10
-590486.05
 20
-1159739.56
 10
-590485.86
 20
-1159741.49
 10
-590485.7601
 20
-1159743.32
 10
-590485.7601
 20
-1159748.05
 10
-590486.34
 20
-1159754.3301
 10
-590486.82
 20
-1159763.2101
 10
-590487.02
 20
-1159767.08
 10
-590487.02
 20
-1159770.75
 10
-590486.92
 20
-1159775.48
 10
-590486.82
 20
-1159780.11
 10
-590486.44
 20
-1159782.7201
 10
-590486.15
 20
-1159784.46
 10
-590485.67
 20
-1159786.29
 10
-590484.8001
 20
-1159788.13
 10
-590484.12
 20
-1159789.2901
 10
-590483.35
 20
-1159790.54
 10
-590482.19
 20
-1159791.7
 10
-590481.03
 20
-1159793.25
 10
-590479.58
 20
-1159794.98
 10
-590477.46
 20
-1159797.01
 10
-590475.43
 20
-1159799.23
 10
-590473.2101
 20
-1159801.26
 10
-590471.66
 20
-1159802.71
 10
-590470.5
 20
-1159804.06
 10
-590469.83
 20
-1159804.83
 10
-590469.25
 20
-1159805.99
 10
-590468.38
 20
-1159807.25
 10
-590467.22
 20
-1159809.8501
 10
-590466.6401
 20
-1159811.4
 10
-590465.87
 20
-1159813.81
 10
-590465.39
 20
-1159816.71
 10
-590464.52
 20
-1159820.86
 10
-590463.94
 20
-1159824.7301
 10
-590463.17
 20
-1159828.59
 10
-590462.59
 20
-1159833.22
 10
-590461.91
 20
-1159836.6
 10
-590460.5601
 20
-1159841.72
 10
-590459.11
 20
-1159845.39
 10
-590457.2801
 20
-1159848.58
 10
-590455.25
 20
-1159852.05
 10
-590451.39
 20
-1159857.07
 10
-590448.87
 20
-1159860.45
 10
-590447.14
 20
-1159862.58
 10
-590445.49
 20
-1159864.9
 10
-590444.53
 20
-1159866.2501
 10
-590443.7601
 20
-1159868.47
 10
-590443.27
 20
-1159871.56
 10
-590443.27
 20
-1159875.1301
 10
-590443.3701
 20
-1159880.06
 10
-590443.7601
 20
-1159886.7201
 10
-590444.14
 20
-1159892.51
 10
-590444.82
 20
-1159904.4901
 10
-590445.11
 20
-1159908.6401
 10
-590445.11
 20
-1159912.7
 10
-590445.2001
 20
-1159914.82
 10
-590444.82
 20
-1159919.8401
 10
-590444.34
 20
-1159923.03
 10
-590443.47
 20
-1159926.21
 10
-590442.31
 20
-1159929.4
 10
-590440.5701
 20
-1159933.65
 10
-590438.74
 20
-1159937.6101
 10
-590433.81
 20
-1159947.07
 10
-590431.11
 20
-1159952.58
 10
-590428.5
 20
-1159957.02
 10
-590424.54
 20
-1159962.52
 10
-590421.26
 20
-1159966.39
 10
-590415.66
 20
-1159972.18
 10
-590409.67
 20
-1159977.59
 10
-590406.29
 20
-1159980.39
 10
-590400.8801
 20
-1159984.83
 10
-590396.92
 20
-1159988.11
 10
-590393.25
 20
-1159990.91
 10
-590388.8101
 20
-1159994.39
 10
-590385.62
 20
-1159997
 10
-590383.5489
 20
-1159998.6443
 10
-590382.0524
 20
-1159999.9891
 10
-590381.1836
 20
-1160000.8747
 10
-590380.12
 20
-1160001.6801
 10
-590379.1548
 20
-1160002.3199
 10
-590378.1648
 20
-1160002.7299
 10
-590376.9701
 20
-1160002.7301
 10
-590375.8
 20
-1160002.68
 97
0
 75
0
 76
1
 98
0
  0
HATCH
  5
20009
100
AcDbEntity
  8
plocha Q5
100
AcDbHatch
 10
0
 20
0
 30
0
210
0
220
0
230
1
  2
SOLID
 70
1
 71
0
 91
1
 92
2
 72
0
 73
1
 93
350
 10
-590061.0401
 20
-1160181.6001
 10
-590063.78
 20
-1160178.23
 10
-590066.74
 20
-1160174.85
 10
-590074.13
 20
-1160167.25
 10
-590079.83
 20
-1160161.33
 10
-590085.32
 20
-1160155.42
 10
-590091.02
 20
-1160150.14
 10
-590093.7701
 20
-1160147.82
 10
-590096.51
 20
-1160145.9201
 10
-590099.47
 20
-1160143.6001
 10
-590102.85
 20
-1160141.48
 10
-590106.86
 20
-1160139.16
 10
-590110.2401
 20
-1160137.26
 10
-590114.67
 20
-1160134.94
 10
-590120.58
 20
-1160132.19
 10
-590126.5
 20
-1160129.24
 10
-590134.1
 20
-1160125.65
 10
-590142.12
 20
-1160121.8501
 10
-590148.8801
 20
-1160118.47
 10
-590154.79
 20
-1160115.72
 10
-590160.91
 20
-1160112.77
 10
-590166.83
 20
-1160110.02
 10
-590173.16
 20
-1160107.2801
 10
-590180.13
 20
-1160104.3201
 10
-590187.31
 20
-1160101.3601
 10
-590192.8001
 20
-1160099.0401
 10
-590198.0801
 20
-1160096.51
 10
-590205.26
 20
-1160093.34
 10
-590210.75
 20
-1160090.8101
 10
-590218.5601
 20
-1160087.43
 10
-590223.2101
 20
-1160085.5301
 10
-590227.64
 20
-1160083.2001
 10
-590233.98
 20
-1160080.04
 10
-590242.42
 20
-1160075.81
 10
-590249.81
 20
-1160072.0101
 10
-590257.2001
 20
-1160068.21
 10
-590263.96
 20
-1160064.62
 10
-590274.1
 20
-1160059.1301
 10
-590278.53
 20
-1160056.6
 10
-590284.02
 20
-1160053.43
 10
-590289.3
 20
-1160050.05
 10
-590293.31
 20
-1160047.5201
 10
-590299.43
 20
-1160043.51
 10
-590304.92
 20
-1160040.13
 10
-590310.2
 20
-1160036.75
 10
-590318.44
 20
-1160031.6801
 10
-590322.2401
 20
-1160029.3601
 10
-590327.1
 20
-1160025.98
 10
-590331.95
 20
-1160022.6
 10
-590337.86
 20
-1160018.8001
 10
-590343.78
 20
-1160014.58
 10
-590348.21
 20
-1160011.41
 10
-590351.35
 20
-1160008.87
 10
-590352.53
 20
-1160007.94
 10
-590353.56
 20
-1160007.1201
 10
-590354.9
 20
-1160006.0901
 10
-590355.62
 20
-1160005.58
 10
-590355.98
 20
-1160005.3701
 10
-590356.39
 20
-1160005.32
 10
-590356.75
 20
-1160005.48
 10
-590357.16
 20
-1160005.73
 10
-590357.67
 20
-1160006.04
 10
-590358.1701
 20
-1160006.46
 10
-590359.9301
 20
-1160007.8
 10
-590360.98
 20
-1160008.78
 10
-590361.94
 20
-1160009.82
 10
-590362.34
 20
-1160010.54
 10
-590362.58
 20
-1160010.95
 10
-590362.66
 20
-1160011.91
 10
-590362.58
 20
-1160012.63
 10
-590362.02
 20
-1160013.35
 10
-590360.5
 20
-1160015.19
 10
-590356.8901
 20
-1160019.2001
 10
-590354.1701
 20
-1160021.7601
 10
-590351.9201
 20
-1160023.6001
 10
-590345.35
 20
-1160028.0101
 10
-590336.14
 20
-1160033.3
 10
-590322.36
 20
-1160041.15
 10
-590310.98
 20
-1160048.68
 10
-590297.6801
 20
-1160056.69
 10
-590287.11
 20
-1160063.26
 10
-590272.79
 20
-1160072.18
 10
-590259.8
 20
-1160079.8401
 10
-590250.44
 20
-1160084.95
 10
-590238.3
 20
-1160090.4901
 10
-590230.6401
 20
-1160094.11
 10
-590218.93
 20
-1160100.28
 10
-590208.29
 20
-1160105.6001
 10
-590197.86
 20
-1160110.5
 10
-590182.53
 20
-1160117.31
 10
-590169.1201
 20
-1160124.12
 10
-590155.08
 20
-1160129.87
 10
-590144.86
 20
-1160134.12
 10
-590137.41
 20
-1160137.96
 10
-590129.96
 20
-1160141.57
 10
-590119.95
 20
-1160146.04
 10
-590113.57
 20
-1160149.24
 10
-590106.9701
 20
-1160153.07
 10
-590102.71
 20
-1160155.8401
 10
-590095.47
 20
-1160162.22
 10
-590090.79
 20
-1160167.33
 10
-590089.3629
 20
-1160168.9523
 10
-590085.47
 20
-1160173.9301
 10
-590083.98
 20
-1160176.06
 10
-590083.1301
 20
-1160177.7601
 10
-590082.4901
 20
-1160179.6801
 10
-590082.4901
 20
-1160180.31
 10
-590082.4901
 20
-1160181.38
 10
-590082.7
 20
-1160182.44
 10
-590083.34
 20
-1160182.87
 10
-590083.98
 20
-1160182.87
 10
-590085.0401
 20
-1160182.66
 10
-590086.75
 20
-1160181.59
 10
-590091.22
 20
-1160178.19
 10
-590096.9601
 20
-1160174.14
 10
-590101.86
 20
-1160170.74
 10
-590105.0501
 20
-1160168.61
 10
-590108.8801
 20
-1160166.4801
 10
-590118.46
 20
-1160162.0101
 10
-590124.21
 20
-1160159.4501
 10
-590131.4501
 20
-1160156.9
 10
-590137.2001
 20
-1160155.41
 10
-590143.16
 20
-1160153.9201
 10
-590147.2001
 20
-1160153.2801
 10
-590152.52
 20
-1160152.86
 10
-590155.71
 20
-1160153.2801
 10
-590157.42
 20
-1160154.5601
 10
-590158.27
 20
-1160155.8401
 10
-590158.91
 20
-1160157.33
 10
-590159.1201
 20
-1160159.4501
 10
-590159.1201
 20
-1160161.3701
 10
-590158.27
 20
-1160163.71
 10
-590156.5701
 20
-1160166.69
 10
-590151.67
 20
-1160173.08
 10
-590147.63
 20
-1160177.55
 10
-590144.0101
 20
-1160182.87
 10
-590139.32
 20
-1160190.11
 10
-590134.43
 20
-1160197.34
 10
-590128.04
 20
-1160206.71
 10
-590124.21
 20
-1160212.67
 10
-590119.1
 20
-1160219.48
 10
-590114.21
 20
-1160226.93
 10
-590105.9
 20
-1160238.85
 10
-590101.65
 20
-1160245.66
 10
-590097.39
 20
-1160252.9
 10
-590090.79
 20
-1160262.4801
 10
-590087.17
 20
-1160267.16
 10
-590084.62
 20
-1160268.6501
 10
-590082.92
 20
-1160268.86
 10
-590080.02
 20
-1160270.46
 10
-590075.5301
 20
-1160274.06
 10
-590071.27
 20
-1160281.6901
 10
-590067.23
 20
-1160287.97
 10
-590063.64
 20
-1160293.81
 10
-590059.14
 20
-1160299.73
 10
-590054.15
 20
-1160306.9601
 10
-590050.62
 20
-1160313.11
 10
-590048.6
 20
-1160316.93
 10
-590047.25
 20
-1160320.07
 10
-590045.91
 20
-1160322.3201
 10
-590043.89
 20
-1160326.58
 10
-590042.31
 20
-1160331.2901
 10
-590040.606
 20
-1160334.8477
 10
-590039.4501
 20
-1160340.85
 10
-590039.8401
 20
-1160347.6801
 10
-590040.74
 20
-1160353.5201
 10
-590042.31
 20
-1160361.15
 10
-590044.11
 20
-1160371.25
 10
-590046.13
 20
-1160377.5301
 10
-590056.6501
 20
-1160400.6501
 10
-590062.63
 20
-1160408.13
 10
-590073.8401
 20
-1160418.1
 10
-590083.31
 20
-1160423.83
 10
-590089.6801
 20
-1160426.92
 10
-590100.4106
 20
-1160432.3242
 10
-590107.5406
 20
-1160436.5341
 10
-590114.21
 20
-1160440.77
 10
-590122.9
 20
-1160448.2401
 10
-590134.4444
 20
-1160457.6963
 10
-590148.5844
 20
-1160472.5063
 10
-590160.06
 20
-1160486.8801
 10
-590164.2
 20
-1160492.91
 10
-590167.79
 20
-1160498.52
 10
-590171.03
 20
-1160507.31
 10
-590172.52
 20
-1160513.79
 10
-590174.02
 20
-1160521.01
 10
-590174.77
 20
-1160528.99
 10
-590174.75
 20
-1160534.43
 10
-590174.52
 20
-1160541.8401
 10
-590174.3
 20
-1160549.47
 10
-590174.75
 20
-1160556.66
 10
-590174.75
 20
-1160564.9601
 10
-590176.0901
 20
-1160574.1601
 10
-590177.4401
 20
-1160580.45
 10
-590179.01
 20
-1160586.51
 10
-590181.26
 20
-1160592.35
 10
-590186.6401
 20
-1160605.14
 10
-590191.58
 20
-1160615.47
 10
-590194.95
 20
-1160623.32
 10
-590198.3201
 20
-1160630.51
 10
-590201.01
 20
-1160635.89
 10
-590202.99
 20
-1160638.76
 10
-590205.42
 20
-1160641.94
 10
-590208.5514
 20
-1160645.5728
 10
-590210.7315
 20
-1160648.4328
 10
-590211.98
 20
-1160649.88
 10
-590212.7201
 20
-1160650.91
 10
-590213.65
 20
-1160652.11
 10
-590214.58
 20
-1160653.41
 10
-590215.6001
 20
-1160654.8901
 10
-590216.71
 20
-1160656.66
 10
-590217.27
 20
-1160657.86
 10
-590217.64
 20
-1160658.98
 10
-590217.9201
 20
-1160660.37
 10
-590218.0101
 20
-1160661.7601
 10
-590217.82
 20
-1160663.06
 10
-590217.54
 20
-1160664.1701
 10
-590216.99
 20
-1160665.1
 10
-590216.71
 20
-1160665.2901
 10
-590216.2501
 20
-1160665.66
 10
-590215.6901
 20
-1160665.66
 10
-590214.76
 20
-1160665.19
 10
-590213.7
 20
-1160664.44
 10
-590211.22
 20
-1160662.85
 10
-590207.86
 20
-1160659.8401
 10
-590206.1
 20
-1160658.2501
 10
-590204.68
 20
-1160656.13
 10
-590202.03
 20
-1160652.59
 10
-590199.56
 20
-1160648.8801
 10
-590195.67
 20
-1160642.87
 10
-590193.19
 20
-1160638.63
 10
-590189.66
 20
-1160632.62
 10
-590185.06
 20
-1160624.31
 10
-590180.82
 20
-1160615.2901
 10
-590177.11
 20
-1160606.99
 10
-590173.0401
 20
-1160597.62
 10
-590169.6801
 20
-1160590.19
 10
-590166.5
 20
-1160583.1201
 10
-590164.38
 20
-1160578.1701
 10
-590162.61
 20
-1160574.28
 10
-590159.6101
 20
-1160568.1
 10
-590156.6
 20
-1160562.44
 10
-590153.7701
 20
-1160557.31
 10
-590150.06
 20
-1160552.19
 10
-590147.94
 20
-1160549.3601
 10
-590145.11
 20
-1160545.65
 10
-590142.28
 20
-1160542.46
 10
-590139.4501
 20
-1160539.46
 10
-590136.27
 20
-1160536.28
 10
-590132.5601
 20
-1160532.92
 10
-590128.85
 20
-1160529.2101
 10
-590122.4801
 20
-1160522.14
 10
-590118.42
 20
-1160517.3601
 10
-590113.64
 20
-1160512.2401
 10
-590108.1601
 20
-1160506.23
 10
-590100.21
 20
-1160498.0901
 10
-590094.38
 20
-1160491.91
 10
-590088.54
 20
-1160485.54
 10
-590083.06
 20
-1160479.5301
 10
-590078.11
 20
-1160473.35
 10
-590074.22
 20
-1160467.87
 10
-590070.69
 20
-1160462.74
 10
-590067.86
 20
-1160458.67
 10
-590064.86
 20
-1160454.43
 10
-590061.8501
 20
-1160450.0101
 10
-590059.02
 20
-1160445.7701
 10
-590055.1301
 20
-1160440.11
 10
-590053.19
 20
-1160436.93
 10
-590051.24
 20
-1160433.22
 10
-590049.1201
 20
-1160428.0901
 10
-590045.94
 20
-1160419.96
 10
-590042.4101
 20
-1160411.1201
 10
-590038.87
 20
-1160402.28
 10
-590036.7
 20
-1160396.55
 10
-590035.02
 20
-1160391.14
 10
-590032.7301
 20
-1160383.4401
 10
-590031.17
 20
-1160377.91
 10
-590029.8501
 20
-1160373.1
 10
-590027.32
 20
-1160364.93
 10
-590026.2401
 20
-1160360.7201
 10
-590024.8001
 20
-1160355.07
 10
-590023.72
 20
-1160350.38
 10
-590022.39
 20
-1160343.89
 10
-590021.43
 20
-1160338.7201
 10
-590020.35
 20
-1160333.18
 10
-590019.51
 20
-1160326.21
 10
-590018.91
 20
-1160318.6401
 10
-590018.43
 20
-1160314.31
 10
-590018.07
 20
-1160309.86
 10
-590017.46
 20
-1160301.08
 10
-590017.46
 20
-1160295.79
 10
-590017.7
 20
-1160291.34
 10
-590017.95
 20
-1160286.53
 10
-590018.55
 20
-1160281.6001
 10
-590019.39
 20
-1160275.59
 10
-590019.99
 20
-1160270.9
 10
-590020.83
 20
-1160265.25
 10
-590021.03
 20
-1160262.87
 10
-590021.9
 20
-1160255.97
 10
-590022.91
 20
-1160249.6001
 10
-590023.58
 20
-1160246.6501
 10
-590023.8501
 20
-1160245.98
 10
-590024.3201
 20
-1160245.51
 10
-590024.59
 20
-1160245.24
 10
-590024.99
 20
-1160245.0401
 10
-590025.72
 20
-1160245.0401
 10
-590026.13
 20
-1160245.18
 10
-590026.8001
 20
-1160245.31
 10
-590027.47
 20
-1160245.65
 10
-590028.22
 20
-1160246.05
 10
-590029.98
 20
-1160247.23
 10
-590033.22
 20
-1160249.4401
 10
-590035.0401
 20
-1160250.8101
 10
-590036.91
 20
-1160252.39
 10
-590039.56
 20
-1160254.45
 10
-590041.47
 20
-1160255.63
 10
-590042.21
 20
-1160256.03
 10
-590043.15
 20
-1160256.37
 10
-590044.0901
 20
-1160256.37
 10
-590045.7601
 20
-1160255.97
 10
-590047.4408
 20
-1160254.9744
 10
-590049.8008
 20
-1160253.2044
 10
-590050.31
 20
-1160252.53
 10
-590051.34
 20
-1160251.3601
 10
-590051.9301
 20
-1160250.03
 10
-590052.37
 20
-1160248.5601
 10
-590052.37
 20
-1160247.5301
 10
-590051.49
 20
-1160246.35
 10
-590049.57
 20
-1160244.7301
 10
-590045.15
 20
-1160241.19
 10
-590039.7
 20
-1160236.92
 10
-590036.02
 20
-1160234.27
 10
-590033.19
 20
-1160232.2
 10
-590032.23
 20
-1160231.09
 10
-590032.0101
 20
-1160230.8001
 10
-590032.0101
 20
-1160230.5
 10
-590032.0101
 20
-1160230.14
 10
-590032.05
 20
-1160229.56
 10
-590032.78
 20
-1160227.94
 10
-590033.67
 20
-1160225.58
 10
-590034.6401
 20
-1160223.8401
 10
-590036.3301
 20
-1160220.03
 10
-590038.02
 20
-1160216.23
 10
-590040.34
 20
-1160212.22
 10
-590042.67
 20
-1160208.0001
 10
-590045.41
 20
-1160203.56
 10
-590050.06
 20
-1160196.8101
 10
-590053.22
 20
-1160191.95
 10
-590057.4501
 20
-1160186.46
 10
-590061.0401
 20
-1160181.6001
 97
0
 75
0
 76
1
 98
0
  0
HATCH
  5
2000A
100
AcDbEntity
  8
plocha Q5
100
AcDbHatch
 10
0
 20
0
 30
0
210
0
220
0
230
1
  2
SOLID
 70
1
 71
0
 91
1
 92
2
 72
0
 73
1
 93
154
 10
-602560.849
 20
-1163678.4409
 10
-602578.252
 20
-1163663.2519
 10
-602592.3339
 20
-1163650.595
 10
-602608.3139
 20
-1163636.8299
 10
-602621.964
 20
-1163625.6149
 10
-602632.68
 20
-1163616.732
 10
-602659.7159
 20
-1163594.9329
 10
-602677.517
 20
-1163579.5089
 10
-602693.329
 20
-1163567.6139
 10
-602711.921
 20
-1163551.451
 10
-602725.174
 20
-1163538.4779
 10
-602747.0269
 20
-1163519.687
 10
-602752.1049
 20
-1163513.3809
 10
-602765.218
 20
-1163504.216
 10
-602781.9499
 20
-1163493.6479
 10
-602795.2509
 20
-1163485.463
 10
-602814.0299
 20
-1163475.222
 10
-602850.24
 20
-1163454.584
 10
-602867.12
 20
-1163445.933
 10
-602889.088
 20
-1163433.0449
 10
-602902.2919
 20
-1163425.5779
 10
-602925.815
 20
-1163411.1569
 10
-602942.0299
 20
-1163401.851
 10
-602952.605
 20
-1163396.211
 10
-602981.2629
 20
-1163381.336
 10
-602994.023
 20
-1163374.9909
 10
-603010.9429
 20
-1163365.6849
 10
-603020.672
 20
-1163360.962
 10
-603029.484
 20
-1163356.2379
 10
-603036.1109
 20
-1163351.7969
 10
-603041.2569
 20
-1163349.259
 10
-603047.046
 20
-1163345.708
 10
-603051.057
 20
-1163344.0419
 10
-603052.2549
 20
-1163343.971
 10
-603057.0489
 20
-1163345.3809
 10
-603064.029
 20
-1163347.6369
 10
-603064.029
 20
-1163348.6239
 10
-603052.5959
 20
-1163354.317
 10
-603024.695
 20
-1163367.7269
 10
-603006.311
 20
-1163377.8919
 10
-602985.547
 20
-1163389.139
 10
-602962.4039
 20
-1163401.2519
 10
-602944.0189
 20
-1163411.201
 10
-602923.472
 20
-1163422.0149
 10
-602899.031
 20
-1163434.776
 10
-602857.937
 20
-1163458.135
 10
-602829.6029
 20
-1163475.0059
 10
-602800.786
 20
-1163491.5829
 10
-602779.208
 20
-1163506.584
 10
-602760.1739
 20
-1163520.427
 10
-602748.9269
 20
-1163530.808
 10
-602725
 20
-1163555
 10
-602712.807
 20
-1163567.1449
 10
-602693.341
 20
-1163582.7179
 10
-602677.984
 20
-1163596.1279
 10
-602665.223
 20
-1163606.2929
 10
-602638.4039
 20
-1163627.2729
 10
-602627.1569
 20
-1163637.4389
 10
-602624.994
 20
-1163641.548
 10
-602629.752
 20
-1163646.523
 10
-602637.9709
 20
-1163650.2
 10
-602673.991
 20
-1163671.5289
 10
-602701.019
 20
-1163681.345
 10
-602721.35
 20
-1163691.2949
 10
-602726.109
 20
-1163696.918
 10
-602727.4059
 20
-1163700.379
 10
-602718.322
 20
-1163702.9739
 10
-602698.856
 20
-1163692.1599
 10
-602684.5809
 20
-1163687.4009
 10
-602677.66
 20
-1163689.564
 10
-602669.008
 20
-1163694.323
 10
-602661.222
 20
-1163702.5419
 10
-602658.194
 20
-1163709.03
 10
-602650.84
 20
-1163712.491
 10
-602648.2449
 20
-1163717.682
 10
-602647.3799
 20
-1163726.333
 10
-602649.543
 20
-1163733.255
 10
-602649.26
 20
-1163739.9199
 10
-602655.68
 20
-1163754.2499
 10
-602648.6769
 20
-1163766.13
 10
-602633.97
 20
-1163768.2929
 10
-602617.532
 20
-1163779.9729
 10
-602608.88
 20
-1163786.4619
 10
-602587.2509
 20
-1163792.0849
 10
-602576.0039
 20
-1163790.355
 10
-602564.7569
 20
-1163784.731
 10
-602548.231
 20
-1163773.654
 10
-602530.584
 20
-1163779.5399
 10
-602524.528
 20
-1163792.0849
 10
-602522.365
 20
-1163802.034
 10
-602512.848
 20
-1163807.6579
 10
-602497.275
 20
-1163811.5509
 10
-602489.921
 20
-1163827.1239
 10
-602489.489
 20
-1163837.938
 10
-602477.377
 20
-1163843.5619
 10
-602462.669
 20
-1163847.8879
 10
-602453.104
 20
-1163851.0549
 10
-602444.2429
 20
-1163850.897
 10
-602434.434
 20
-1163848.998
 10
-602426.049
 20
-1163845.992
 10
-602419.72
 20
-1163845.043
 10
-602414.182
 20
-1163844.8839
 10
-602407.537
 20
-1163842.0359
 10
-602402.791
 20
-1163837.923
 10
-602400.418
 20
-1163831.752
 10
-602399.1339
 20
-1163828.423
 10
-602401.5249
 20
-1163817.0379
 10
-602402.316
 20
-1163812.7659
 10
-602399.623
 20
-1163811.1089
 10
-602391.713
 20
-1163810.2169
 10
-602389.2899
 20
-1163811.6479
 10
-602384.754
 20
-1163813.874
 10
-602383.014
 20
-1163816.722
 10
-602381.026
 20
-1163819.112
 10
-602374.312
 20
-1163818.779
 10
-602369.4069
 20
-1163818.9369
 10
-602366.296
 20
-1163817.052
 10
-602363.202
 20
-1163813.841
 10
-602358.743
 20
-1163811.9839
 10
-602351.793
 20
-1163810.755
 10
-602347.3479
 20
-1163808.262
 10
-602340.512
 20
-1163807.0119
 10
-602331.1389
 20
-1163804.7929
 10
-602312.88
 20
-1163800.6389
 10
-602306.172
 20
-1163799.2259
 10
-602304.722
 20
-1163798.237
 10
-602305.3159
 20
-1163797.196
 10
-602306.6539
 20
-1163796.379
 10
-602308.7339
 20
-1163795.4869
 10
-602312.2179
 20
-1163794.296
 10
-602313.558
 20
-1163792.555
 10
-602314.8629
 20
-1163792.1329
 10
-602316.92
 20
-1163793.7419
 10
-602318.3939
 20
-1163794.4469
 10
-602320.178
 20
-1163794.6699
 10
-602325.809
 20
-1163796.449
 10
-602335.126
 20
-1163798.984
 10
-602343.724
 20
-1163799.651
 10
-602349.019
 20
-1163801.587
 10
-602356.1579
 20
-1163802.577
 10
-602365.4
 20
-1163805.155
 10
-602373.12
 20
-1163805.907
 10
-602387.6729
 20
-1163802.6389
 10
-602404.214
 20
-1163801.255
 10
-602418.6119
 20
-1163793.7809
 10
-602430.162
 20
-1163787.927
 10
-602441.554
 20
-1163780.4899
 10
-602454.5269
 20
-1163769.7319
 10
-602472.257
 20
-1163754.396
 10
-602500.8849
 20
-1163730.3359
 10
-602526.5159
 20
-1163708.1859
 10
-602538.3819
 20
-1163698.2179
 10
-602549.6149
 20
-1163687.7759
 10
-602560.849
 20
-1163678.4409
 97
0
 75
0
 76
1
 98
0
  0
HATCH
  5
2000B
100
AcDbEntity
  8
plocha Q5
100
AcDbHatch
 10
0
 20
0
 30
0
210
0
220
0
230
1
  2
SOLID
 70
1
 71
0
 91
1
 92
2
 72
0
 73
1
 93
350
 10
-590129.81
 20
-1161121.03
 10
-590135.02
 20
-1161107.1201
 10
-590140.36
 20
-1161092.29
 10
-590144.4101
 20
-1161081.62
 10
-590147.66
 20
-1161072.0001
 10
-590151.02
 20
-1161062.5
 10
-590154.15
 20
-1161053.34
 10
-590156.93
 20
-1161045.46
 10
-590160.18
 20
-1161035.8401
 10
-590162.26
 20
-1161029.11
 10
-590165.7
 20
-1161018.7
 10
-590167.2907
 20
-1161014.488
 10
-590168.52
 20
-1161010.5701
 10
-590170.03
 20
-1161006.05
 10
-590171.65
 20
-1160999.9
 10
-590173.4282
 20
-1160993.1324
 10
-590174.8782
 20
-1160987.9123
 10
-590175.7811
 20
-1160983.3223
 10
-590176.5511
 20
-1160979.6423
 10
-590176.75
 20
-1160977.65
 10
-590177.1631
 20
-1160974.0755
 10
-590177.3331
 20
-1160971.9356
 10
-590177.33
 20
-1160969.42
 10
-590177.22
 20
-1160966.87
 10
-590177.1946
 20
-1160965.065
 10
-590177.7701
 20
-1160963.46
 10
-590177.3
 20
-1160959.6799
 10
-590176.5698
 20
-1160953.7812
 10
-590176.4415
 20
-1160947.7235
 10
-590176.022
 20
-1160942.5841
 10
-590175.9604
 20
-1160936.8979
 10
-590175.6204
 20
-1160930.0579
 10
-590175.6769
 20
-1160926.7809
 10
-590175.7669
 20
-1160922.331
 10
-590175.8725
 20
-1160918.1942
 10
-590176.0424
 20
-1160914.0842
 10
-590176.1701
 20
-1160910.77
 10
-590176.29
 20
-1160904.51
 10
-590176.29
 20
-1160901.49
 10
-590176.2274
 20
-1160898.4958
 10
-590176.3974
 20
-1160895.9258
 10
-590176.82
 20
-1160892.99
 10
-590177.25
 20
-1160890.76
 10
-590177.6801
 20
-1160889.14
 10
-590178.28
 20
-1160887.34
 10
-590178.9601
 20
-1160885.38
 10
-590179.9
 20
-1160883.5
 10
-590180.76
 20
-1160881.87
 10
-590181.6101
 20
-1160879.82
 10
-590182.12
 20
-1160878.02
 10
-590182.6401
 20
-1160876.23
 10
-590183.15
 20
-1160873.83
 10
-590183.49
 20
-1160872.04
 10
-590183.66
 20
-1160870.07
 10
-590183.9201
 20
-1160868.36
 10
-590184.26
 20
-1160864.6
 10
-590184.6
 20
-1160861.26
 10
-590185.1201
 20
-1160856.3
 10
-590185.46
 20
-1160851.7701
 10
-590185.72
 20
-1160848.95
 10
-590185.89
 20
-1160846.47
 10
-590186.5701
 20
-1160841.51
 10
-590187.26
 20
-1160836.38
 10
-590187.8501
 20
-1160832.1
 10
-590188.79
 20
-1160825.09
 10
-590189.56
 20
-1160820.21
 10
-590190.5
 20
-1160812.69
 10
-590191.19
 20
-1160807.64
 10
-590191.7
 20
-1160804.9
 10
-590192.22
 20
-1160801.4
 10
-590192.6401
 20
-1160798.23
 10
-590192.98
 20
-1160794.9
 10
-590193.58
 20
-1160789.94
 10
-590194.0101
 20
-1160786.0001
 10
-590194.44
 20
-1160780.45
 10
-590194.78
 20
-1160775.74
 10
-590195.1201
 20
-1160770.95
 10
-590195.46
 20
-1160764.37
 10
-590195.64
 20
-1160760.52
 10
-590195.98
 20
-1160753.7601
 10
-590196.23
 20
-1160747.18
 10
-590196.353
 20
-1160743.7907
 10
-590198.3199
 20
-1160732.37
 10
-590196.8741
 20
-1160724.8568
 10
-590196.92
 20
-1160722.7201
 10
-590196.75
 20
-1160718.87
 10
-590196.66
 20
-1160716.05
 10
-590196.58
 20
-1160713.23
 10
-590195.98
 20
-1160708.53
 10
-590194.7
 20
-1160701.09
 10
-590193.8401
 20
-1160694.4101
 10
-590192.7301
 20
-1160686.21
 10
-590192.3
 20
-1160682.27
 10
-590192.04
 20
-1160679.11
 10
-590191.96
 20
-1160675.6901
 10
-590192.22
 20
-1160671.8401
 10
-590192.5601
 20
-1160669.87
 10
-590192.9
 20
-1160668.76
 10
-590193.5
 20
-1160667.99
 10
-590194.0101
 20
-1160667.48
 10
-590194.7
 20
-1160666.9601
 10
-590195.46
 20
-1160666.62
 10
-590196.15
 20
-1160666.54
 10
-590196.83
 20
-1160666.62
 10
-590197.5201
 20
-1160666.9601
 10
-590197.94
 20
-1160667.22
 10
-590199.14
 20
-1160668.1601
 10
-590200.1701
 20
-1160669.02
 10
-590202.05
 20
-1160670.6401
 10
-590204.26
 20
-1160672.85
 10
-590206.07
 20
-1160674.82
 10
-590206.98
 20
-1160675.89
 10
-590207.72
 20
-1160677.0401
 10
-590208.29
 20
-1160678.19
 10
-590208.46
 20
-1160679.26
 10
-590208.46
 20
-1160680.91
 10
-590208.29
 20
-1160683.2901
 10
-590208.21
 20
-1160685.18
 10
-590208.13
 20
-1160688.6401
 10
-590208.21
 20
-1160691.8401
 10
-590208.46
 20
-1160695.0501
 10
-590209.01
 20
-1160703.0401
 10
-590209.55
 20
-1160708.55
 10
-590209.9
 20
-1160713.17
 10
-590210.0801
 20
-1160716.7301
 10
-590209.9
 20
-1160720.8101
 10
-590209.73
 20
-1160726.68
 10
-590209.19
 20
-1160732.7301
 10
-590208.3
 20
-1160739.3
 10
-590207.7701
 20
-1160745.35
 10
-590207.06
 20
-1160750.15
 10
-590207.06
 20
-1160754.4101
 10
-590207.95
 20
-1160757.26
 10
-590209.01
 20
-1160758.68
 10
-590209.55
 20
-1160759.2101
 10
-590210.26
 20
-1160760.1
 10
-590210.44
 20
-1160760.63
 10
-590210.61
 20
-1160761.5201
 10
-590209.9
 20
-1160762.59
 10
-590209.01
 20
-1160763.48
 10
-590208.13
 20
-1160764.19
 10
-590207.06
 20
-1160764.9
 10
-590205.81
 20
-1160766.5
 10
-590204.75
 20
-1160768.8101
 10
-590204.39
 20
-1160772.37
 10
-590203.5
 20
-1160787.83
 10
-590202.61
 20
-1160798.85
 10
-590202.0801
 20
-1160810.05
 10
-590201.01
 20
-1160822.5
 10
-590200.3
 20
-1160835.3
 10
-590200.4801
 20
-1160841.7
 10
-590200.3
 20
-1160848.45
 10
-590200.84
 20
-1160852.36
 10
-590201.3701
 20
-1160855.2101
 10
-590202.44
 20
-1160858.05
 10
-590204.04
 20
-1160860.0101
 10
-590207.59
 20
-1160862.67
 10
-590213.46
 20
-1160866.23
 10
-590217.01
 20
-1160868.54
 10
-590219.15
 20
-1160870.4901
 10
-590222.35
 20
-1160874.23
 10
-590223.7701
 20
-1160877.43
 10
-590224.66
 20
-1160881.51
 10
-590224.84
 20
-1160885.25
 10
-590224.3
 20
-1160888.98
 10
-590223.59
 20
-1160891.2901
 10
-590221.64
 20
-1160893.96
 10
-590218.61
 20
-1160896.8001
 10
-590215.59
 20
-1160899.2901
 10
-590213.64
 20
-1160901.78
 10
-590212.77
 20
-1160903.7701
 10
-590212.42
 20
-1160904.93
 10
-590211.99
 20
-1160907.16
 10
-590211.73
 20
-1160909.38
 10
-590211.39
 20
-1160914.07
 10
-590210.2401
 20
-1160923.17
 10
-590207.9
 20
-1160933.9301
 10
-590206.86
 20
-1160939.6001
 10
-590205.6801
 20
-1160945.14
 10
-590204.9701
 20
-1160948.69
 10
-590204.445
 20
-1160953.606
 10
-590204.345
 20
-1160956.4159
 10
-590204.2
 20
-1160961.33
 10
-590204.34
 20
-1160977.07
 10
-590204.68
 20
-1160984.51
 10
-590205.17
 20
-1160992.7301
 10
-590206.1601
 20
-1161000.99
 10
-590207.1
 20
-1161005.6801
 10
-590207.2801
 20
-1161011.11
 10
-590207.1
 20
-1161014.86
 10
-590206.35
 20
-1161018.23
 10
-590205.22
 20
-1161022.92
 10
-590203.54
 20
-1161027.79
 10
-590201.1
 20
-1161031.35
 10
-590198.37
 20
-1161034.69
 10
-590195.48
 20
-1161038.28
 10
-590191.3601
 20
-1161042.4001
 10
-590188.36
 20
-1161045.78
 10
-590186.11
 20
-1161048.59
 10
-590183.67
 20
-1161051.7701
 10
-590181.0501
 20
-1161054.91
 10
-590178.9
 20
-1161058.1701
 10
-590175.43
 20
-1161064.52
 10
-590172.43
 20
-1161069.7601
 10
-590168.12
 20
-1161078.19
 10
-590164.5601
 20
-1161085.5
 10
-590161.56
 20
-1161092.62
 10
-590154.4801
 20
-1161112.61
 10
-590151.22
 20
-1161123.48
 10
-590149.0401
 20
-1161129.35
 10
-590148.77
 20
-1161130.3201
 10
-590149.0401
 20
-1161131.09
 10
-590149.72
 20
-1161131.1301
 10
-590150.13
 20
-1161130.66
 10
-590151
 20
-1161129.14
 10
-590152.9601
 20
-1161123.9201
 10
-590155.35
 20
-1161116.9601
 10
-590157.09
 20
-1161111.95
 10
-590158.83
 20
-1161106.95
 10
-590160.5701
 20
-1161101.73
 10
-590162.0901
 20
-1161097.82
 10
-590163.83
 20
-1161093.9
 10
-590165.57
 20
-1161089.55
 10
-590173.19
 20
-1161072.1701
 10
-590176.79
 20
-1161066.28
 10
-590181.0401
 20
-1161058.43
 10
-590183.98
 20
-1161054.5
 10
-590188.5601
 20
-1161048.29
 10
-590193.22
 20
-1161043.58
 10
-590200.0101
 20
-1161035.5301
 10
-590204.1665
 20
-1161029.6394
 10
-590205.755
 20
-1161026.6958
 10
-590206.55
 20
-1161024.4801
 10
-590207.67
 20
-1161020.37
 10
-590208.42
 20
-1161017.39
 10
-590208.9142
 20
-1161013.951
 10
-590209.1292
 20
-1161011.2648
 10
-590209.7738
 20
-1161009.4382
 10
-590210.5259
 20
-1161008.3637
 10
-590212.46
 20
-1161008.1488
 10
-590213.5345
 20
-1161008.4711
 10
-590216.8655
 20
-1161010.5127
 10
-590220.0889
 20
-1161012.8766
 10
-590224.1601
 20
-1161017.24
 10
-590226.9657
 20
-1161020.398
 10
-590229.437
 20
-1161023.729
 10
-590231.8009
 20
-1161028.1345
 10
-590233.4127
 20
-1161031.8951
 10
-590233.9499
 20
-1161035.0111
 10
-590234.0574
 20
-1161038.2346
 10
-590233.3052
 20
-1161042.3178
 10
-590230.1893
 20
-1161051.451
 10
-590228.255
 20
-1161055.7489
 10
-590225.4614
 20
-1161062.4107
 10
-590222.6677
 20
-1161067.8908
 10
-590219.24
 20
-1161075.25
 10
-590216.22
 20
-1161082.18
 10
-590211.06
 20
-1161095.08
 10
-590206.6501
 20
-1161105.6901
 10
-590202.79
 20
-1161116.78
 10
-590200.63
 20
-1161122.47
 10
-590198.69
 20
-1161128.07
 10
-590197.4
 20
-1161133.02
 10
-590196.54
 20
-1161137.97
 10
-590196.11
 20
-1161143.1301
 10
-590195.6801
 20
-1161149.3701
 10
-590195.89
 20
-1161156.2501
 10
-590196.3201
 20
-1161165.51
 10
-590197.18
 20
-1161177.99
 10
-590197.18
 20
-1161185.5201
 10
-590196.9701
 20
-1161194.55
 10
-590196.3201
 20
-1161199.2901
 10
-590195.38
 20
-1161207.49
 10
-590195.7
 20
-1161216.12
 10
-590196.66
 20
-1161222.51
 10
-590199.22
 20
-1161229.54
 10
-590202.0901
 20
-1161237.2101
 10
-590205.6101
 20
-1161246.1601
 10
-590208.8001
 20
-1161254.79
 10
-590211.6801
 20
-1161262.46
 10
-590213.9201
 20
-1161269.17
 10
-590215.67
 20
-1161274.76
 10
-590217.59
 20
-1161282.27
 10
-590219.03
 20
-1161288.83
 10
-590219.99
 20
-1161294.42
 10
-590220.63
 20
-1161298.7301
 10
-590220.79
 20
-1161304.1701
 10
-590221.11
 20
-1161311.0401
 10
-590221.59
 20
-1161318.71
 10
-590221.91
 20
-1161329.09
 10
-590222.39
 20
-1161336.12
 10
-590222.55
 20
-1161343.47
 10
-590222.71
 20
-1161349.87
 10
-590223.02
 20
-1161354.18
 10
-590223.34
 20
-1161359.2901
 10
-590223.82
 20
-1161363.9301
 10
-590224.62
 20
-1161367.7601
 10
-590225.74
 20
-1161371.4401
 10
-590227.34
 20
-1161376.23
 10
-590228.78
 20
-1161381.51
 10
-590230.22
 20
-1161387.26
 10
-590231.17
 20
-1161392.21
 10
-590231.65
 20
-1161396.53
 10
-590232.13
 20
-1161401.64
 10
-590232.13
 20
-1161405.47
 10
-590231.97
 20
-1161409.63
 10
-590231.49
 20
-1161414.58
 10
-590230.85
 20
-1161421.7701
 10
-590230.06
 20
-1161428.6401
 10
-590228.78
 20
-1161435.2001
 10
-590226.7
 20
-1161447.34
 10
-590225.58
 20
-1161452.13
 10
-590224.46
 20
-1161457.41
 10
-590223.18
 20
-1161462.68
 10
-590220.79
 20
-1161472.27
 10
-590220.4771
 20
-1161473.2281
 10
-590219.74
 20
-1161472.7999
 10
-590208.98
 20
-1161466.5701
 10
-590172.7395
 20
-1161445.1862
 10
-590173.63
 20
-1161438.23
 10
-590174.02
 20
-1161431.94
 10
-590174.42
 20
-1161422.7
 10
-590173.83
 20
-1161410.31
 10
-590171.86
 20
-1161401.27
 10
-590167.9301
 20
-1161386.13
 10
-590162.82
 20
-1161373.15
 10
-590158.1
 20
-1161361.3601
 10
-590156.13
 20
-1161355.46
 10
-590151.22
 20
-1161344.45
 10
-590147.09
 20
-1161334.62
 10
-590142.9601
 20
-1161323.22
 10
-590138.83
 20
-1161312.0101
 10
-590136.67
 20
-1161304.34
 10
-590134.11
 20
-1161295.89
 10
-590131.3601
 20
-1161285.86
 10
-590129
 20
-1161276.03
 10
-590125.86
 20
-1161263.06
 10
-590123.89
 20
-1161253.23
 10
-590122.3201
 20
-1161242.02
 10
-590121.33
 20
-1161229.24
 10
-590120.35
 20
-1161214.8901
 10
-590119.3701
 20
-1161200.34
 10
-590118.98
 20
-1161189.9301
 10
-590118.19
 20
-1161176.95
 10
-590118.19
 20
-1161167.71
 10
-590119.3701
 20
-1161160.04
 10
-590120.94
 20
-1161152.38
 10
-590122.71
 20
-1161143.72
 10
-590125.86
 20
-1161132.7201
 10
-590129.81
 20
-1161121.03
 97
0
 75
0
 76
1
 98
0
  0
HATCH
  5
2000C
100
AcDbEntity
  8
plocha Q5
100
AcDbHatch
 10
0
 20
0
 30
0
210
0
220
0
230
1
  2
SOLID
 70
1
 71
0
 91
1
 92
2
 72
0
 73
1
 93
27
 10
-590065.2799
 20
-1161674.84
 10
-590091.3
 20
-1161651.01
 10
-590119.3701
 20
-1161628.5599
 10
-590169.39
 20
-1161584.02
 10
-590181.03
 20
-1161569.48
 10
-590183.1441
 20
-1161566.7743
 10
-590180.63
 20
-1161571.2901
 10
-590175.91
 20
-1161577.98
 10
-590170.0101
 20
-1161586.44
 10
-590165.88
 20
-1161591.95
 10
-590161.55
 20
-1161596.67
 10
-590155.4501
 20
-1161603.16
 10
-590150.7301
 20
-1161607.2901
 10
-590146.59
 20
-1161611.23
 10
-590140.2561
 20
-1161616.8406
 10
-590133.9562
 20
-1161622.1506
 10
-590124.95
 20
-1161629.72
 10
-590115.9
 20
-1161637.59
 10
-590107.64
 20
-1161644.4799
 10
-590101.74
 20
-1161649.1999
 10
-590091.9
 20
-1161656.28
 10
-590081.67
 20
-1161663.96
 10
-590074.19
 20
-1161668.87
 10
-590070.45
 20
-1161671.24
 10
-590065.34
 20
-1161674.9701
 10
-590063.9132
 20
-1161676.0046
 10
-590065.2799
 20
-1161674.84
 97
0
 75
0
 76
1
 98
0
  0
HATCH
  5
2000D
100
AcDbEntity
  8
plocha Q5
100
AcDbHatch
 10
0
 20
0
 30
0
210
0
220
0
230
1
  2
SOLID
 70
1
 71
0
 91
1
 92
2
 72
0
 73
1
 93
144
 10
-599810.797
 20
-1164229.654
 10
-599821.309
 20
-1164223.671
 10
-599831.416
 20
-1164217.6939
 10
-599842.0409
 20
-1164213.0009
 10
-599868.759
 20
-1164202.748
 10
-599882.31
 20
-1164196.802
 10
-599904.6269
 20
-1164186.6819
 10
-599963.681
 20
-1164159.371
 10
-599976.487
 20
-1164152.433
 10
-599990.134
 20
-1164144.171
 10
-600003.857
 20
-1164136.4799
 10
-600020.7
 20
-1164127.5249
 10
-600038.183
 20
-1164118.972
 10
-600044.4039
 20
-1164115.2369
 10
-600056.022
 20
-1164110.616
 10
-600064.076
 20
-1164107.117
 10
-600074.704
 20
-1164104.6079
 10
-600081.762
 20
-1164102.9909
 10
-600085.596
 20
-1164100.9109
 10
-600088.369
 20
-1164099.789
 10
-600090.018
 20
-1164100.315
 10
-600090.8739
 20
-1164104.6609
 10
-600091.005
 20
-1164107.6889
 10
-600090.6389
 20
-1164109.315
 10
-600088.898
 20
-1164109.533
 10
-600086.2649
 20
-1164109.731
 10
-600083.302
 20
-1164111.245
 10
-600076.059
 20
-1164113.2199
 10
-600066.8409
 20
-1164114.998
 10
-600054.6329
 20
-1164118.728
 10
-600046.0349
 20
-1164123.2939
 10
-600039.912
 20
-1164127.3099
 10
-600031.616
 20
-1164131.458
 10
-600021.937
 20
-1164136.6599
 10
-600015.2209
 20
-1164140.742
 10
-600008.1099
 20
-1164145.351
 10
-600003.041
 20
-1164148.7089
 10
-599990.333
 20
-1164156.412
 10
-599980.3249
 20
-1164161.746
 10
-599973.0169
 20
-1164166.091
 10
-599966.1689
 20
-1164171.095
 10
-599960.573
 20
-1164175.836
 10
-599948.589
 20
-1164181.959
 10
-599939.174
 20
-1164186.173
 10
-599933.314
 20
-1164188.5429
 10
-599926.269
 20
-1164191.9669
 10
-599919.4219
 20
-1164195.127
 10
-599902.434
 20
-1164200.3289
 10
-599895.192
 20
-1164205.201
 10
-599889.398
 20
-1164208.296
 10
-599880.443
 20
-1164211.522
 10
-599873.7269
 20
-1164213.3649
 10
-599871.0279
 20
-1164213.8919
 10
-599867.538
 20
-1164216.065
 10
-599857.794
 20
-1164218.2379
 10
-599848.1809
 20
-1164223.6369
 10
-599830.9629
 20
-1164231.4059
 10
-599825.3009
 20
-1164236.147
 10
-599818.4529
 20
-1164240.492
 10
-599788.2979
 20
-1164254.7139
 10
-599776.4459
 20
-1164260.508
 10
-599756.957
 20
-1164266.829
 10
-599738.1259
 20
-1164272.36
 10
-599723.2369
 20
-1164276.2339
 10
-599668.992
 20
-1164291.586
 10
-599655.5609
 20
-1164295.6679
 10
-599637.2569
 20
-1164300.54
 10
-599628.3019
 20
-1164303.3049
 10
-599614.08
 20
-1164306.861
 10
-599586.427
 20
-1164313.9719
 10
-599571.81
 20
-1164318.712
 10
-599561.144
 20
-1164320.556
 10
-599549.5559
 20
-1164323.453
 10
-599531.778
 20
-1164328.3249
 10
-599512.157
 20
-1164333.5929
 10
-599464.093
 20
-1164347.1559
 10
-599441.048
 20
-1164352.95
 10
-599414.9749
 20
-1164359.666
 10
-599386.0049
 20
-1164367.699
 10
-599373.1
 20
-1164370.859
 10
-599347.421
 20
-1164378.102
 10
-599338.599
 20
-1164380.3399
 10
-599313.315
 20
-1164387.5829
 10
-599302.6489
 20
-1164391.4019
 10
-599299.256
 20
-1164392.5439
 10
-599295.185
 20
-1164392.371
 10
-599293.799
 20
-1164392.934
 10
-599293.063
 20
-1164394.017
 10
-599291.331
 20
-1164396.4419
 10
-599290.802
 20
-1164397.883
 10
-599288.646
 20
-1164397.915
 10
-599285.3739
 20
-1164397.858
 10
-599282.482
 20
-1164395.219
 10
-599281.4809
 20
-1164393.863
 10
-599280.114
 20
-1164391.4179
 10
-599278.1849
 20
-1164389.891
 10
-599274.8299
 20
-1164387.131
 10
-599276.199
 20
-1164385.6089
 10
-599279.1179
 20
-1164385.6149
 10
-599290.898
 20
-1164384.2289
 10
-599298.6929
 20
-1164382.237
 10
-599309.217
 20
-1164379.4649
 10
-599338.2769
 20
-1164370.1109
 10
-599343.5609
 20
-1164367.772
 10
-599355.186
 20
-1164364.3079
 10
-599388.4209
 20
-1164355.195
 10
-599395.19
 20
-1164347.2159
 10
-599399.6209
 20
-1164336.696
 10
-599402.806
 20
-1164335.091
 10
-599407.8929
 20
-1164335.5089
 10
-599414.12
 20
-1164331.5239
 10
-599425.5779
 20
-1164328.2859
 10
-599438.032
 20
-1164326.2929
 10
-599452.971
 20
-1164324.3509
 10
-599461.6849
 20
-1164331.8119
 10
-599466.7729
 20
-1164331.307
 10
-599474.203
 20
-1164319.7529
 10
-599476.6429
 20
-1164317.9879
 10
-599479.878
 20
-1164315.5829
 10
-599485.6619
 20
-1164314.429
 10
-599498.31
 20
-1164309.106
 10
-599510.5149
 20
-1164308.1099
 10
-599519.6689
 20
-1164308.1099
 10
-599529.5079
 20
-1164307.1139
 10
-599545.698
 20
-1164303.751
 10
-599554.541
 20
-1164302.257
 10
-599562.636
 20
-1164297.4
 10
-599580.9909
 20
-1164290.401
 10
-599597.009
 20
-1164284.8209
 10
-599611.207
 20
-1164286.689
 10
-599621.793
 20
-1164290.923
 10
-599629.3899
 20
-1164289.304
 10
-599635.8659
 20
-1164289.8019
 10
-599664.5109
 20
-1164281.5829
 10
-599677.24
 20
-1164277.9299
 10
-599699.2579
 20
-1164272.865
 10
-599755.426
 20
-1164254.557
 10
-599764.0189
 20
-1164251.0699
 10
-599773.485
 20
-1164247.5829
 10
-599786.6859
 20
-1164238.7399
 10
-599793.7849
 20
-1164235.1289
 10
-599798.268
 20
-1164236.125
 10
-599802.6269
 20
-1164236.374
 10
-599810.797
 20
-1164229.654
 97
0
 75
0
 76
1
 98
0
  0
HATCH
  5
2000E
100
AcDbEntity
  8
plocha Q5
100
AcDbHatch
 10
0
 20
0
 30
0
210
0
220
0
230
1
  2
SOLID
 70
1
 71
0
 91
1
 92
2
 72
0
 73
1
 93
110
 10
-601222.1909
 20
-1164074.659
 10
-601224.1639
 20
-1164074.598
 10
-601229.0869
 20
-1164073.8439
 10
-601234.347
 20
-1164073.217
 10
-601241.611
 20
-1164072.5209
 10
-601248.876
 20
-1164071.362
 10
-601299.725
 20
-1164065.9519
 10
-601306.912
 20
-1164065.18
 10
-601318.194
 20
-1164063.7109
 10
-601332.568
 20
-1164062.166
 10
-601346.4779
 20
-1164059.693
 10
-601376.1529
 20
-1164052.8149
 10
-601382.46
 20
-1164051.091
 10
-601401.346
 20
-1164046.4779
 10
-601424.2979
 20
-1164039.446
 10
-601448.7179
 20
-1164031.254
 10
-601455.905
 20
-1164028.3179
 10
-601473.138
 20
-1164022.8309
 10
-601483.725
 20
-1164016.881
 10
-601534.034
 20
-1163990.838
 10
-601546.0889
 20
-1163984.269
 10
-601559.149
 20
-1163976.6179
 10
-601606.2119
 20
-1163948.1799
 10
-601615.7169
 20
-1163942.539
 10
-601633.259
 20
-1163930.792
 10
-601644.001
 20
-1163923.683
 10
-601649.874
 20
-1163918.9689
 10
-601654.6649
 20
-1163914.641
 10
-601657.4169
 20
-1163913.0499
 10
-601658.9159
 20
-1163915.105
 10
-601659.611
 20
-1163917.191
 10
-601660.071
 20
-1163919.213
 10
-601660.4569
 20
-1163921.377
 10
-601659.2209
 20
-1163924.0049
 10
-601657.9069
 20
-1163925.3959
 10
-601654.893
 20
-1163927.56
 10
-601650.796
 20
-1163930.2649
 10
-601647.4179
 20
-1163932.4939
 10
-601632.0899
 20
-1163942.209
 10
-601611.5819
 20
-1163953.65
 10
-601580.496
 20
-1163972.647
 10
-601558.2599
 20
-1163987.111
 10
-601528.2609
 20
-1164004.3349
 10
-601484.646
 20
-1164024.4579
 10
-601463.64
 20
-1164032.4039
 10
-601435.858
 20
-1164043.0239
 10
-601415.0749
 20
-1164050.269
 10
-601396.514
 20
-1164055.329
 10
-601371.5069
 20
-1164062.493
 10
-601341.4649
 20
-1164068.2809
 10
-601308.328
 20
-1164072.707
 10
-601255.5979
 20
-1164077.739
 10
-601237.52
 20
-1164079.939
 10
-601208.161
 20
-1164081.558
 10
-601173.6199
 20
-1164085.0119
 10
-601135.9499
 20
-1164087.171
 10
-601117.0599
 20
-1164088.034
 10
-601085.3259
 20
-1164090.625
 10
-601048.519
 20
-1164093.431
 10
-601019.6989
 20
-1164095.698
 10
-600983.1079
 20
-1164099.0439
 10
-600947.3799
 20
-1164102.2819
 10
-600902.694
 20
-1164105.8439
 10
-600884.344
 20
-1164106.492
 10
-600860.598
 20
-1164108.434
 10
-600839.792
 20
-1164111.0329
 10
-600815.864
 20
-1164112.397
 10
-600798.209
 20
-1164113.1839
 10
-600773.815
 20
-1164115.558
 10
-600755.944
 20
-1164116.326
 10
-600737.8709
 20
-1164117.393
 10
-600710.7779
 20
-1164119.228
 10
-600701.064
 20
-1164119.336
 10
-600695.3429
 20
-1164117.1779
 10
-600692.9689
 20
-1164116.53
 10
-600690.594
 20
-1164115.558
 10
-600690.2699
 20
-1164114.263
 10
-600690.3779
 20
-1164111.457
 10
-600691.7809
 20
-1164108.5419
 10
-600693.5079
 20
-1164107.6789
 10
-600697.1829
 20
-1164108.2559
 10
-600700.848
 20
-1164108.758
 10
-600725.026
 20
-1164109.5139
 10
-600738.77
 20
-1164107.346
 10
-600753.34
 20
-1164102.1849
 10
-600781.2679
 20
-1164101.2739
 10
-600819.819
 20
-1164099.1499
 10
-600851.133
 20
-1164098.4199
 10
-600885.6899
 20
-1164095.81
 10
-600917.26
 20
-1164094.2929
 10
-600941.58
 20
-1164088.76
 10
-600957.633
 20
-1164088.2219
 10
-600987.6849
 20
-1164086.3999
 10
-601002.55
 20
-1164089.291
 10
-601007.1869
 20
-1164088.518
 10
-601024.961
 20
-1164087.9
 10
-601040.262
 20
-1164085.89
 10
-601092.348
 20
-1164082.1809
 10
-601103.9399
 20
-1164080.635
 10
-601118.7769
 20
-1164079.708
 10
-601141.072
 20
-1164078.5489
 10
-601152.2
 20
-1164078.3939
 10
-601161.0869
 20
-1164077.699
 10
-601173.3739
 20
-1164077.003
 10
-601185.0429
 20
-1164076.771
 10
-601205.2899
 20
-1164074.376
 10
-601210.0039
 20
-1164074.299
 10
-601215.259
 20
-1164075.149
 10
-601218.582
 20
-1164075.921
 10
-601222.1909
 20
-1164074.659
 97
0
 75
0
 76
1
 98
0
  0
HATCH
  5
2000F
100
AcDbEntity
  8
plocha Q5
100
AcDbHatch
 10
0
 20
0
 30
0
210
0
220
0
230
1
  2
SOLID
 70
1
 71
0
 91
1
 92
2
 72
0
 73
1
 93
41
 10
-601751.1449
 20
-1163875.6199
 10
-601749.1089
 20
-1163870.0739
 10
-601748.7019
 20
-1163868.1919
 10
-601748.855
 20
-1163867.48
 10
-601749.8219
 20
-1163865.699
 10
-601751.483
 20
-1163863.88
 10
-601753.739
 20
-1163862.5439
 10
-601758.268
 20
-1163860.1529
 10
-601762.694
 20
-1163857.7109
 10
-601772.31
 20
-1163852.012
 10
-601790.423
 20
-1163841.2259
 10
-601802.685
 20
-1163834.561
 10
-601818.966
 20
-1163826.166
 10
-601831.431
 20
-1163817.975
 10
-601840.9959
 20
-1163812.225
 10
-601848.577
 20
-1163808.46
 10
-601855.344
 20
-1163804.034
 10
-601857.6849
 20
-1163801.083
 10
-601861.724
 20
-1163797.638
 10
-601863.062
 20
-1163797.2159
 10
-601864.4519
 20
-1163797.6739
 10
-601865.723
 20
-1163800.065
 10
-601866.864
 20
-1163802.1749
 10
-601867.453
 20
-1163804.4409
 10
-601867.606
 20
-1163807.901
 10
-601866.8939
 20
-1163809.8339
 10
-601863.1289
 20
-1163813.8019
 10
-601858.3459
 20
-1163816.3459
 10
-601853.309
 20
-1163818.941
 10
-601844.812
 20
-1163823.266
 10
-601831.2789
 20
-1163830.236
 10
-601824.461
 20
-1163834.6119
 10
-601815.659
 20
-1163838.53
 10
-601803.601
 20
-1163846.2119
 10
-601783.911
 20
-1163856.998
 10
-601775.312
 20
-1163861.6789
 10
-601763.8129
 20
-1163868.344
 10
-601758.268
 20
-1163873.025
 10
-601755.062
 20
-1163875.5179
 10
-601752.518
 20
-1163876.434
 10
-601751.1449
 20
-1163875.6199
 97
0
 75
0
 76
1
 98
0
  0
HATCH
  5
20010
100
AcDbEntity
  8
plocha Q5
100
AcDbHatch
 10
0
 20
0
 30
0
210
0
220
0
230
1
  2
SOLID
 70
1
 71
0
 91
1
 92
2
 72
0
 73
1
 93
97
 10
-602024.417
 20
-1163734.365
 10
-602036.253
 20
-1163730.887
 10
-602045.889
 20
-1163728.7819
 10
-602062.1219
 20
-1163723.8879
 10
-602066.7409
 20
-1163723.1979
 10
-602071.741
 20
-1163723.3059
 10
-602072.428
 20
-1163724.37
 10
-602074.358
 20
-1163726.4039
 10
-602076.0679
 20
-1163729.0239
 10
-602077.432
 20
-1163731.19
 10
-602077.512
 20
-1163732.795
 10
-602076.3889
 20
-1163734.7199
 10
-602076.2339
 20
-1163736.7349
 10
-602079.116
 20
-1163738.812
 10
-602083.8499
 20
-1163743.8659
 10
-602088.743
 20
-1163749.1609
 10
-602095.563
 20
-1163755.2579
 10
-602100.7769
 20
-1163759.591
 10
-602105.5729
 20
-1163762.3879
 10
-602116.4209
 20
-1163769.137
 10
-602129.659
 20
-1163776.358
 10
-602141.051
 20
-1163780.931
 10
-602149.7959
 20
-1163783.0169
 10
-602155.9729
 20
-1163785.0219
 10
-602160.1849
 20
-1163786.827
 10
-602168.248
 20
-1163787.75
 10
-602171.376
 20
-1163789.675
 10
-602171.136
 20
-1163790.5579
 10
-602168.328
 20
-1163790.077
 10
-602158.781
 20
-1163788.8729
 10
-602153.9669
 20
-1163787.1079
 10
-602143.057
 20
-1163784.621
 10
-602133.7169
 20
-1163782.5219
 10
-602128.455
 20
-1163782.856
 10
-602125.163
 20
-1163782.616
 10
-602124.685
 20
-1163784.621
 10
-602124.918
 20
-1163786.145
 10
-602127.6529
 20
-1163787.91
 10
-602127.4119
 20
-1163789.996
 10
-602122.198
 20
-1163790.7989
 10
-602117.7849
 20
-1163791.601
 10
-602114.0949
 20
-1163789.1939
 10
-602109.8429
 20
-1163789.1139
 10
-602105.912
 20
-1163787.991
 10
-602101.82
 20
-1163782.455
 10
-602104.9489
 20
-1163777
 10
-602109.816
 20
-1163773.4329
 10
-602109.9229
 20
-1163771.9449
 10
-602104.4679
 20
-1163767.132
 10
-602098.13
 20
-1163763.361
 10
-602087.9409
 20
-1163754.7769
 10
-602076.4689
 20
-1163743.7859
 10
-602068.6069
 20
-1163736.967
 10
-602066.022
 20
-1163737.163
 10
-602063.472
 20
-1163738.331
 10
-602061.547
 20
-1163739.6139
 10
-602049.112
 20
-1163738.652
 10
-602042.694
 20
-1163739.4539
 10
-602031.3009
 20
-1163742.1809
 10
-602020.471
 20
-1163745.3909
 10
-601991.1079
 20
-1163751.4069
 10
-601984.541
 20
-1163754.3359
 10
-601969.527
 20
-1163757.585
 10
-601960.381
 20
-1163759.992
 10
-601939.202
 20
-1163764.8849
 10
-601928.4509
 20
-1163767.533
 10
-601917.5409
 20
-1163770.1799
 10
-601910.882
 20
-1163772.0259
 10
-601902.3779
 20
-1163775.475
 10
-601894.8369
 20
-1163780.449
 10
-601890.5849
 20
-1163783.819
 10
-601885.771
 20
-1163787.3489
 10
-601884.407
 20
-1163788.231
 10
-601883.8289
 20
-1163788.236
 10
-601882.8299
 20
-1163787.478
 10
-601881.968
 20
-1163785.203
 10
-601881.072
 20
-1163781.756
 10
-601881.382
 20
-1163779.9979
 10
-601882.657
 20
-1163777.448
 10
-601884.7939
 20
-1163775.6899
 10
-601891.239
 20
-1163772.519
 10
-601895.686
 20
-1163770.279
 10
-601898.7879
 20
-1163768.418
 10
-601903.7159
 20
-1163766.0739
 10
-601906.68
 20
-1163765.1089
 10
-601913.298
 20
-1163762.903
 10
-601921.122
 20
-1163761.042
 10
-601931.7369
 20
-1163758.492
 10
-601939.906
 20
-1163756.3889
 10
-601947.1779
 20
-1163754.321
 10
-601952.348
 20
-1163753.011
 10
-601977.336
 20
-1163746.566
 10
-601987.745
 20
-1163743.7749
 10
-601991.191
 20
-1163742.982
 10
-601999.463
 20
-1163740.9479
 10
-602014.3179
 20
-1163737.0879
 10
-602024.417
 20
-1163734.365
 97
0
 75
0
 76
1
 98
0
  0
HATCH
  5
20011
100
AcDbEntity
  8
plocha Q5
100
AcDbHatch
 10
0
 20
0
 30
0
210
0
220
0
230
1
  2
SOLID
 70
1
 71
0
 91
1
 92
2
 72
0
 73
1
 93
57
 10
-602088.7129
 20
-1163723.1659
 10
-602087.488
 20
-1163722.129
 10
-602082.5899
 20
-1163716.8299
 10
-602081.8339
 20
-1163714.402
 10
-602082.683
 20
-1163711.1979
 10
-602084.85
 20
-1163709.4079
 10
-602086.3299
 20
-1163708.62
 10
-602104.23
 20
-1163708.4299
 10
-602110.764
 20
-1163708.748
 10
-602120.941
 20
-1163709.5019
 10
-602123.4859
 20
-1163710.8209
 10
-602129.0449
 20
-1163714.779
 10
-602140.1899
 20
-1163723.512
 10
-602149.3789
 20
-1163728.6649
 10
-602156.1629
 20
-1163733.56
 10
-602162.69
 20
-1163738.283
 10
-602169.2089
 20
-1163744.699
 10
-602176.081
 20
-1163750.5599
 10
-602181.735
 20
-1163755.803
 10
-602185.857
 20
-1163759.41
 10
-602193.744
 20
-1163763.857
 10
-602203.291
 20
-1163767.655
 10
-602211.355
 20
-1163770.0939
 10
-602218.8349
 20
-1163771.09
 10
-602226.3069
 20
-1163773.2799
 10
-602238.674
 20
-1163774.9969
 10
-602244.8999
 20
-1163775.942
 10
-602251.3699
 20
-1163776.6219
 10
-602258.3829
 20
-1163776.801
 10
-602263.622
 20
-1163777.917
 10
-602272.52
 20
-1163779.014
 10
-602278.3939
 20
-1163780.0639
 10
-602281.6139
 20
-1163782.04
 10
-602281.6139
 20
-1163782.4689
 10
-602281.099
 20
-1163783.2849
 10
-602279.0379
 20
-1163784.8309
 10
-602274.2589
 20
-1163787.622
 10
-602271.527
 20
-1163788.8469
 10
-602269.4539
 20
-1163788.941
 10
-602262.6059
 20
-1163787.3279
 10
-602248.722
 20
-1163784.795
 10
-602238.918
 20
-1163782.449
 10
-602220.923
 20
-1163779.9889
 10
-602208.7669
 20
-1163776.973
 10
-602195.4059
 20
-1163773.175
 10
-602187.659
 20
-1163769.5289
 10
-602178.0469
 20
-1163763.027
 10
-602168.1099
 20
-1163755.644
 10
-602161.709
 20
-1163751.085
 10
-602153.9089
 20
-1163744.571
 10
-602149.6249
 20
-1163741.3539
 10
-602144.2169
 20
-1163737.489
 10
-602131.307
 20
-1163729.48
 10
-602123.58
 20
-1163726.1809
 10
-602107.1829
 20
-1163723.26
 10
-602094.637
 20
-1163723.543
 10
-602088.7129
 20
-1163723.1659
 97
0
 75
0
 76
1
 98
0
  0
HATCH
  5
20012
100
AcDbEntity
  8
plocha Q5
100
AcDbHatch
 10
0
 20
0
 30
0
210
0
220
0
230
1
  2
SOLID
 70
1
 71
0
 91
1
 92
2
 72
0
 73
1
 93
157
 10
-603622.684
 20
-1162841.2249
 10
-603626.1319
 20
-1162836.1269
 10
-603631.755
 20
-1162828.4799
 10
-603635.729
 20
-1162822.8569
 10
-603640.6019
 20
-1162816.4089
 10
-603644.3499
 20
-1162810.787
 10
-603654.7709
 20
-1162793.468
 10
-603658.37
 20
-1162788.295
 10
-603665.192
 20
-1162779.149
 10
-603676.738
 20
-1162763.105
 10
-603681.686
 20
-1162756.957
 10
-603688.059
 20
-1162748.0359
 10
-603693.0819
 20
-1162740.763
 10
-603697.43
 20
-1162733.566
 10
-603701.179
 20
-1162729.518
 10
-603706.2769
 20
-1162725.619
 10
-603709.351
 20
-1162722.62
 10
-603715.1979
 20
-1162719.0969
 10
-603719.756
 20
-1162716.824
 10
-603722.395
 20
-1162717.778
 10
-603723.9299
 20
-1162719.91
 10
-603724.05
 20
-1162721.848
 10
-603723.334
 20
-1162723.2799
 10
-603718.9209
 20
-1162726.6489
 10
-603713.9409
 20
-1162728.766
 10
-603709.804
 20
-1162731.996
 10
-603703.2729
 20
-1162738.083
 10
-603698.4029
 20
-1162741.6249
 10
-603689.328
 20
-1162755.128
 10
-603681.8009
 20
-1162766.749
 10
-603671.84
 20
-1162781.9129
 10
-603659.4439
 20
-1162798.625
 10
-603648.044
 20
-1162814.785
 10
-603642.8419
 20
-1162822.754
 10
-603634.651
 20
-1162834.929
 10
-603625.9069
 20
-1162846.993
 10
-603619.931
 20
-1162851.0879
 10
-603600.8939
 20
-1162860.717
 10
-603592.2599
 20
-1162864.1489
 10
-603570.124
 20
-1162874.5529
 10
-603550.7549
 20
-1162883.739
 10
-603530.39
 20
-1162893.036
 10
-603512.017
 20
-1162901.448
 10
-603492.316
 20
-1162911.299
 10
-603475.0489
 20
-1162920.374
 10
-603450.257
 20
-1162933.324
 10
-603438.635
 20
-1162939.965
 10
-603424.358
 20
-1162948.2659
 10
-603408.087
 20
-1162961.7689
 10
-603394.0309
 20
-1162973.8329
 10
-603364.258
 20
-1163000.507
 10
-603348.32
 20
-1163014.4529
 10
-603332.05
 20
-1163028.8419
 10
-603316.444
 20
-1163042.787
 10
-603300.395
 20
-1163056.6229
 10
-603292.8689
 20
-1163062.4889
 10
-603287.777
 20
-1163067.8009
 10
-603280.14
 20
-1163074.8849
 10
-603272.3929
 20
-1163083.8499
 10
-603266.859
 20
-1163091.266
 10
-603259.4429
 20
-1163104.326
 10
-603256.7869
 20
-1163109.7489
 10
-603253.688
 20
-1163119.047
 10
-603246.8249
 20
-1163140.2969
 10
-603242.288
 20
-1163155.1289
 10
-603237.0859
 20
-1163168.9639
 10
-603230.3339
 20
-1163190.104
 10
-603224.5789
 20
-1163210.5799
 10
-603224.5789
 20
-1163215.56
 10
-603225.575
 20
-1163218.2169
 10
-603227.346
 20
-1163218.881
 10
-603229.116
 20
-1163219.656
 10
-603230.445
 20
-1163220.541
 10
-603230.3339
 20
-1163221.6479
 10
-603227.788
 20
-1163223.308
 10
-603222.6969
 20
-1163226.075
 10
-603212.957
 20
-1163230.945
 10
-603205.874
 20
-1163233.601
 10
-603203.66
 20
-1163232.716
 10
-603204.103
 20
-1163231.83
 10
-603205.431
 20
-1163230.502
 10
-603208.973
 20
-1163227.1819
 10
-603210.6329
 20
-1163223.751
 10
-603211.186
 20
-1163221.2049
 10
-603213.8429
 20
-1163212.904
 10
-603216.9419
 20
-1163203.3849
 10
-603219.9299
 20
-1163192.871
 10
-603222.5859
 20
-1163183.463
 10
-603228.8669
 20
-1163165.4769
 10
-603231.136
 20
-1163155.848
 10
-603233.848
 20
-1163149.8709
 10
-603237.5559
 20
-1163138.36
 10
-603240.7659
 20
-1163133.2139
 10
-603244.363
 20
-1163123.0859
 10
-603247.24
 20
-1163115.0069
 10
-603254.988
 20
-1163098.349
 10
-603258.8619
 20
-1163093.645
 10
-603264.396
 20
-1163087.3369
 10
-603267.9929
 20
-1163082.024
 10
-603274.4679
 20
-1163074.9959
 10
-603279.1719
 20
-1163069.462
 10
-603283.963
 20
-1163065.464
 10
-603287.4119
 20
-1163061.8659
 10
-603292.4349
 20
-1163056.8419
 10
-603299.5569
 20
-1163050.62
 10
-603305.18
 20
-1163044.6969
 10
-603325.7969
 20
-1163025.804
 10
-603335.244
 20
-1163018.232
 10
-603350.763
 20
-1163004.662
 10
-603369.281
 20
-1162988.6929
 10
-603373.704
 20
-1162984.3449
 10
-603379.1769
 20
-1162979.0969
 10
-603384.05
 20
-1162974.749
 10
-603400.2439
 20
-1162960.579
 10
-603406.9909
 20
-1162954.2819
 10
-603414.6379
 20
-1162948.659
 10
-603422.7349
 20
-1162942.5109
 10
-603429.0329
 20
-1162938.3129
 10
-603438.929
 20
-1162933.0649
 10
-603447.176
 20
-1162927.217
 10
-603476.1899
 20
-1162912.972
 10
-603486.8359
 20
-1162907.949
 10
-603499.656
 20
-1162902.701
 10
-603510.9009
 20
-1162897.228
 10
-603534.2179
 20
-1162885.383
 10
-603539.4659
 20
-1162883.059
 10
-603542.3139
 20
-1162880.135
 10
-603544.4889
 20
-1162878.1109
 10
-603545.538
 20
-1162876.6859
 10
-603546.2129
 20
-1162874.587
 10
-603546.738
 20
-1162873.0129
 10
-603546.888
 20
-1162873.0129
 10
-603547.4869
 20
-1162873.238
 10
-603547.4129
 20
-1162873.912
 10
-603547.4129
 20
-1162875.037
 10
-603548.162
 20
-1162875.937
 10
-603549.137
 20
-1162877.286
 10
-603550.411
 20
-1162877.286
 10
-603553.8599
 20
-1162876.311
 10
-603563.831
 20
-1162872.413
 10
-603570.6539
 20
-1162869.414
 10
-603586.023
 20
-1162861.842
 10
-603591.6459
 20
-1162858.993
 10
-603607.5399
 20
-1162852.0209
 10
-603612.9369
 20
-1162848.572
 10
-603614.737
 20
-1162846.923
 10
-603614.962
 20
-1162845.048
 10
-603614.4369
 20
-1162844.449
 10
-603613.837
 20
-1162843.8489
 10
-603613.762
 20
-1162843.0239
 10
-603613.9869
 20
-1162842.125
 10
-603614.587
 20
-1162841.5999
 10
-603615.112
 20
-1162841.825
 10
-603616.7609
 20
-1162842.424
 10
-603618.2599
 20
-1162842.8739
 10
-603620.135
 20
-1162843.474
 10
-603622.684
 20
-1162841.2249
 97
0
 75
0
 76
1
 98
0
  0
HATCH
  5
20013
100
AcDbEntity
  8
plocha Q5
100
AcDbHatch
 10
0
 20
0
 30
0
210
0
220
0
230
1
  2
SOLID
 70
1
 71
0
 91
1
 92
2
 72
0
 73
1
 93
84
 10
-603733.944
 20
-1162722.221
 10
-603732.4249
 20
-1162721.158
 10
-603731.179
 20
-1162714.808
 10
-603731.1179
 20
-1162713.9569
 10
-603732.364
 20
-1162713.411
 10
-603734.604
 20
-1162712.771
 10
-603737.484
 20
-1162711.971
 10
-603744.0419
 20
-1162710.4519
 10
-603757.319
 20
-1162708.0519
 10
-603776.994
 20
-1162703.494
 10
-603802.0619
 20
-1162698.701
 10
-603822.823
 20
-1162693.336
 10
-603833.2999
 20
-1162690.6169
 10
-603849.456
 20
-1162687.0179
 10
-603861.613
 20
-1162683.099
 10
-603868.091
 20
-1162680.379
 10
-603875.5299
 20
-1162675.66
 10
-603882.168
 20
-1162671.581
 10
-603891.446
 20
-1162664.0629
 10
-603897.9239
 20
-1162658.545
 10
-603907.522
 20
-1162649.107
 10
-603917.5189
 20
-1162639.9089
 10
-603924.797
 20
-1162633.191
 10
-603932.156
 20
-1162626.952
 10
-603939.6739
 20
-1162618.155
 10
-603945.352
 20
-1162610.876
 10
-603950.551
 20
-1162607.437
 10
-603956.31
 20
-1162602.318
 10
-603960.7089
 20
-1162596.3199
 10
-603966.3069
 20
-1162589.042
 10
-603970.706
 20
-1162581.1239
 10
-603975.745
 20
-1162575.0449
 10
-603979.824
 20
-1162567.367
 10
-603984.8629
 20
-1162562.408
 10
-603990.061
 20
-1162557.9289
 10
-603996.86
 20
-1162550.651
 10
-603999.179
 20
-1162547.692
 10
-604002.4579
 20
-1162546.172
 10
-604009.6299
 20
-1162545.079
 10
-604011.576
 20
-1162545.852
 10
-604011.976
 20
-1162547.772
 10
-604009.976
 20
-1162550.571
 10
-604006.3769
 20
-1162553.131
 10
-604001.659
 20
-1162556.7299
 10
-603997.819
 20
-1162560.5689
 10
-603992.941
 20
-1162567.687
 10
-603990.541
 20
-1162571.126
 10
-603983.1029
 20
-1162582.963
 10
-603976.785
 20
-1162590.161
 10
-603972.226
 20
-1162596.3199
 10
-603967.1869
 20
-1162602.718
 10
-603961.6679
 20
-1162609.597
 10
-603955.67
 20
-1162615.915
 10
-603950.791
 20
-1162620.1539
 10
-603943.9129
 20
-1162626.1529
 10
-603938.3939
 20
-1162630.472
 10
-603930.956
 20
-1162636.95
 10
-603916.6389
 20
-1162649.427
 10
-603909.761
 20
-1162655.905
 10
-603905.042
 20
-1162659.9039
 10
-603899.1239
 20
-1162665.3429
 10
-603890.838
 20
-1162673.9989
 10
-603884.475
 20
-1162678.9489
 10
-603876.129
 20
-1162684.467
 10
-603869.351
 20
-1162687.921
 10
-603865.371
 20
-1162690.139
 10
-603862.1209
 20
-1162691.779
 10
-603855.741
 20
-1162693.724
 10
-603841.462
 20
-1162697.2479
 10
-603832.651
 20
-1162699.496
 10
-603826.0579
 20
-1162700.9539
 10
-603812.0829
 20
-1162703.506
 10
-603802.939
 20
-1162705.4809
 10
-603792.822
 20
-1162707.821
 10
-603782.128
 20
-1162710.129
 10
-603774.8669
 20
-1162711.436
 10
-603765.5399
 20
-1162713.563
 10
-603755.696
 20
-1162715.932
 10
-603750.8049
 20
-1162716.9649
 10
-603744.7289
 20
-1162718.1799
 10
-603740.2329
 20
-1162719.5779
 10
-603736.982
 20
-1162721.462
 10
-603735.463
 20
-1162722.494
 10
-603733.944
 20
-1162722.221
 97
0
 75
0
 76
1
 98
0
  0
HATCH
  5
20014
100
AcDbEntity
  8
plocha Q5
100
AcDbHatch
 10
0
 20
0
 30
0
210
0
220
0
230
1
  2
SOLID
 70
1
 71
0
 91
1
 92
2
 72
0
 73
1
 93
15
 10
-608071.23
 20
-1150350.58
 10
-608068.84
 20
-1150350.0899
 10
-608067.11
 20
-1150348.94
 10
-608066.68
 20
-1150347.02
 10
-608066.8201
 20
-1150345.1999
 10
-608067.5301
 20
-1150343.1199
 10
-608069.6
 20
-1150338.74
 10
-608073.4388
 20
-1150330.5521
 10
-608074.6601
 20
-1150331.5099
 10
-608082.0206
 20
-1150337.266
 10
-608080.03
 20
-1150342.1
 10
-608077.23
 20
-1150347.95
 10
-608075.34
 20
-1150350.0099
 10
-608073.5301
 20
-1150350.58
 10
-608071.23
 20
-1150350.58
 97
0
 75
0
 76
1
 98
0
  0
HATCH
  5
20015
100
AcDbEntity
  8
plocha Q5
100
AcDbHatch
 10
0
 20
0
 30
0
210
0
220
0
230
1
  2
SOLID
 70
1
 71
0
 91
1
 92
2
 72
0
 73
1
 93
43
 10
-608218.4201
 20
-1150596.51
 10
-608217.34
 20
-1150596.22
 10
-608215.79
 20
-1150594.9499
 10
-608187.81
 20
-1150565.26
 10
-608186.4201
 20
-1150562.46
 10
-608186
 20
-1150560.4799
 10
-608186.2501
 20
-1150558.51
 10
-608187.07
 20
-1150556.94
 10
-608188.14
 20
-1150555.46
 10
-608191.752
 20
-1150552.3436
 10
-608198.0057
 20
-1150547.6245
 10
-608203.6172
 20
-1150543.39
 10
-608209.1616
 20
-1150539.2061
 10
-608217.4926
 20
-1150532.9224
 10
-608225.2261
 20
-1150527.3466
 10
-608231.4021
 20
-1150523.1519
 10
-608237.8839
 20
-1150518.9466
 10
-608244.3722
 20
-1150514.8985
 10
-608251.515
 20
-1150510.5844
 10
-608257.5215
 20
-1150507.0399
 10
-608262.7897
 20
-1150503.9723
 10
-608267.9026
 20
-1150501.0348
 10
-608298.2778
 20
-1150536.0708
 10
-608294.4929
 20
-1150537.3064
 10
-608289.1493
 20
-1150539.3154
 10
-608284.64
 20
-1150541.2943
 10
-608279.33
 20
-1150543.983
 10
-608275.8273
 20
-1150545.9876
 10
-608271.4648
 20
-1150548.7706
 10
-608267.1276
 20
-1150551.8932
 10
-608263.1514
 20
-1150555.1204
 10
-608260.2217
 20
-1150557.7622
 10
-608256.0969
 20
-1150561.9414
 10
-608251.0799
 20
-1150567.3168
 10
-608244.1742
 20
-1150574.7157
 10
-608236.3407
 20
-1150583.1088
 10
-608231.6736
 20
-1150588.1094
 10
-608226.32
 20
-1150593.6799
 10
-608224.54
 20
-1150594.77
 10
-608222.61
 20
-1150595.7499
 10
-608220.77
 20
-1150596.3199
 10
-608219.4601
 20
-1150596.51
 10
-608218.4201
 20
-1150596.51
 97
0
 75
0
 76
1
 98
0
  0
HATCH
  5
20016
100
AcDbEntity
  8
plocha Q5
100
AcDbHatch
 10
0
 20
0
 30
0
210
0
220
0
230
1
  2
SOLID
 70
1
 71
0
 91
1
 92
2
 72
0
 73
1
 93
59
 10
-608107.6901
 20
-1150664.9499
 10
-608100.06
 20
-1150647.09
 10
-608091.57
 20
-1150623.5999
 10
-608080.04
 20
-1150584.8799
 10
-608074.03
 20
-1150561.16
 10
-608068.85
 20
-1150540.2499
 10
-608065.15
 20
-1150517.4499
 10
-608060.21
 20
-1150494.4799
 10
-608055.03
 20
-1150468.05
 10
-608048.85
 20
-1150426.0899
 10
-608047.12
 20
-1150413.1199
 10
-608046.68
 20
-1150394.3299
 10
-608047.5401
 20
-1150388.28
 10
-608049.56
 20
-1150381.8
 10
-608052.3
 20
-1150375.7499
 10
-608056.5001
 20
-1150369.39
 10
-608059.88
 20
-1150362.4699
 10
-608061.6901
 20
-1150358.4099
 10
-608062.64
 20
-1150356.61
 10
-608063.67
 20
-1150355.34
 10
-608064.61
 20
-1150354.3999
 10
-608065.51
 20
-1150353.88
 10
-608066.59
 20
-1150353.88
 10
-608068.14
 20
-1150354.11
 10
-608070.21
 20
-1150354.6299
 10
-608072.51
 20
-1150355.1
 10
-608074.44
 20
-1150355.6699
 10
-608075.9
 20
-1150356.51
 10
-608077.2101
 20
-1150357.97
 10
-608078.53
 20
-1150360.2299
 10
-608079.57
 20
-1150363.7599
 10
-608081.4501
 20
-1150371.56
 10
-608084.19
 20
-1150379.1999
 10
-608087.36
 20
-1150386.3999
 10
-608090.24
 20
-1150393.7499
 10
-608091.56
 20
-1150398.8099
 10
-608092.3
 20
-1150404.91
 10
-608093.3701
 20
-1150414.21
 10
-608095.02
 20
-1150425.16
 10
-608096.5001
 20
-1150432.7299
 10
-608098.72
 20
-1150439.48
 10
-608101.7701
 20
-1150449.1999
 10
-608103.58
 20
-1150456.2
 10
-608106.54
 20
-1150468.6299
 10
-608109.67
 20
-1150483.3699
 10
-608114.6
 20
-1150501.48
 10
-608120.53
 20
-1150517.95
 10
-608125.0501
 20
-1150528.3999
 10
-608135.34
 20
-1150546.93
 10
-608144.55
 20
-1150559.0299
 10
-608153.6
 20
-1150568.5
 10
-608166.03
 20
-1150581.42
 10
-608147.9401
 20
-1150604.21
 10
-608129.5401
 20
-1150627.39
 10
-608115.11
 20
-1150645.7
 10
-608111.57
 20
-1150658.11
 10
-608112.84
 20
-1150671.5199
 10
-608114.4901
 20
-1150680.3099
 10
-608107.6901
 20
-1150664.9499
 97
0
 75
0
 76
1
 98
0
  0
HATCH
  5
20017
100
AcDbEntity
  8
plocha Q5
100
AcDbHatch
 10
0
 20
0
 30
0
210
0
220
0
230
1
  2
SOLID
 70
1
 71
0
 91
1
 92
2
 72
0
 73
1
 93
69
 10
-598813.447
 20
-1164736.124
 10
-598816.454
 20
-1164734.119
 10
-598819.1829
 20
-1164731.948
 10
-598821.66
 20
-1164729.0599
 10
-598823.2519
 20
-1164728.082
 10
-598825.0289
 20
-1164727.2139
 10
-598830.988
 20
-1164722.481
 10
-598837.224
 20
-1164716.8569
 10
-598840.3179
 20
-1164712.967
 10
-598840.979
 20
-1164712.029
 10
-598842.7929
 20
-1164711.5669
 10
-598842.658
 20
-1164711.409
 10
-598845.202
 20
-1164712.7929
 10
-598845.8599
 20
-1164712.971
 10
-598843.9079
 20
-1164716.4529
 10
-598843.1179
 20
-1164718.61
 10
-598841.622
 20
-1164721.116
 10
-598838.8949
 20
-1164722.9269
 10
-598838.2389
 20
-1164724.621
 10
-598833.895
 20
-1164729.128
 10
-598831.043
 20
-1164731.6689
 10
-598827.09
 20
-1164733.841
 10
-598826.31
 20
-1164734.787
 10
-598823.7489
 20
-1164736.235
 10
-598820.129
 20
-1164739.409
 10
-598819.073
 20
-1164740.627
 10
-598817.1499
 20
-1164744.1419
 10
-598814.3659
 20
-1164750.268
 10
-598809.132
 20
-1164756.504
 10
-598802.672
 20
-1164761.8499
 10
-598797.661
 20
-1164767.7529
 10
-598790.422
 20
-1164771.985
 10
-598785
 20
-1164775
 10
-598781.846
 20
-1164776.662
 10
-598778.06
 20
-1164777.1079
 10
-598774.6069
 20
-1164778.333
 10
-598769.32
 20
-1164784.119
 10
-598763.787
 20
-1164790.503
 10
-598758.125
 20
-1164793.479
 10
-598750.774
 20
-1164801.052
 10
-598746.7929
 20
-1164803.1879
 10
-598738.5579
 20
-1164809.067
 10
-598725.549
 20
-1164818.555
 10
-598718.609
 20
-1164824.3289
 10
-598713.323
 20
-1164830.3889
 10
-598711.264
 20
-1164831.857
 10
-598703.836
 20
-1164833.91
 10
-598702.2069
 20
-1164831.6479
 10
-598701.837
 20
-1164826.151
 10
-598703.249
 20
-1164822.8579
 10
-598704.301
 20
-1164821.7489
 10
-598706.8369
 20
-1164822.091
 10
-598714.408
 20
-1164819.0239
 10
-598722.0099
 20
-1164811.531
 10
-598746.6819
 20
-1164792.6759
 10
-598757.9719
 20
-1164782.637
 10
-598763.361
 20
-1164777.756
 10
-598770.7089
 20
-1164769.869
 10
-598774.941
 20
-1164759.2889
 10
-598776.6119
 20
-1164751.6039
 10
-598777.6139
 20
-1164749.8219
 10
-598780.621
 20
-1164749.154
 10
-598785
 20
-1164745
 10
-598787.9719
 20
-1164743.474
 10
-598792.4259
 20
-1164739.688
 10
-598798.552
 20
-1164736.792
 10
-598804.12
 20
-1164736.347
 10
-598809.243
 20
-1164736.5689
 10
-598813.447
 20
-1164736.124
 97
0
 75
0
 76
1
 98
0
  0
HATCH
  5
20018
100
AcDbEntity
  8
plocha Q5
100
AcDbHatch
 10
0
 20
0
 30
0
210
0
220
0
230
1
  2
SOLID
 70
1
 71
0
 91
1
 92
2
 72
0
 73
1
 93
132
 10
-599089.243
 20
-1164473.526
 10
-599093.618
 20
-1164471.917
 10
-599102.1329
 20
-1164469.7849
 10
-599116.0839
 20
-1164466.771
 10
-599123.392
 20
-1164464.859
 10
-599131.115
 20
-1164463.148
 10
-599144.56
 20
-1164459.821
 10
-599152.375
 20
-1164458.003
 10
-599155.179
 20
-1164457.3689
 10
-599157.213
 20
-1164457.309
 10
-599160.6069
 20
-1164456.3929
 10
-599164.9009
 20
-1164454.6929
 10
-599167.0709
 20
-1164454.134
 10
-599167.832
 20
-1164454.514
 10
-599168.5699
 20
-1164455.811
 10
-599168.9049
 20
-1164458.182
 10
-599168.9049
 20
-1164460.5529
 10
-599167.8539
 20
-1164461.515
 10
-599166.914
 20
-1164461.873
 10
-599163.2689
 20
-1164463.058
 10
-599162.7499
 20
-1164463.1449
 10
-599156.5959
 20
-1164464.492
 10
-599146.915
 20
-1164466.7999
 10
-599144.632
 20
-1164467.751
 10
-599141.623
 20
-1164467.837
 10
-599124.22
 20
-1164471.992
 10
-599109.6139
 20
-1164474.7819
 10
-599108.1419
 20
-1164475.5459
 10
-599107.4819
 20
-1164476.855
 10
-599104.625
 20
-1164476.8249
 10
-599101.021
 20
-1164477.688
 10
-599095.82
 20
-1164479.686
 10
-599086.065
 20
-1164485.3969
 10
-599077.0119
 20
-1164492.8689
 10
-599069.5989
 20
-1164500.7779
 10
-599062.227
 20
-1164511.868
 10
-599054.4049
 20
-1164526.2289
 10
-599049.149
 20
-1164536.23
 10
-599045.302
 20
-1164542.577
 10
-599037.5189
 20
-1164554.098
 10
-599030.0529
 20
-1164563.6679
 10
-599024.118
 20
-1164570.9159
 10
-599019.0809
 20
-1164575.6569
 10
-599013.953
 20
-1164580.914
 10
-599008.102
 20
-1164586.1809
 10
-599000.9379
 20
-1164590.723
 10
-598994.0149
 20
-1164595.0179
 10
-598986.642
 20
-1164599.378
 10
-598979.3529
 20
-1164602.691
 10
-598977.9239
 20
-1164601.948
 10
-598974.7819
 20
-1164603.096
 10
-598966.64
 20
-1164605.276
 10
-598954.587
 20
-1164607.3269
 10
-598949.394
 20
-1164609.122
 10
-598944.5219
 20
-1164609.571
 10
-598941.3169
 20
-1164611.366
 10
-598939.009
 20
-1164611.238
 10
-598936.637
 20
-1164611.366
 10
-598932.918
 20
-1164613.0969
 10
-598927.661
 20
-1164616.0459
 10
-598922.9809
 20
-1164618.098
 10
-598916.1219
 20
-1164619.9569
 10
-598910.737
 20
-1164620.726
 10
-598906.7619
 20
-1164623.483
 10
-598905
 20
-1164625
 10
-598903.1719
 20
-1164623.996
 10
-598898.428
 20
-1164627.842
 10
-598894.2119
 20
-1164632.4259
 10
-598891.7689
 20
-1164636.0149
 10
-598889.597
 20
-1164639.734
 10
-598888.2819
 20
-1164641.6259
 10
-598887.3849
 20
-1164642.203
 10
-598884.019
 20
-1164643.26
 10
-598880.365
 20
-1164644.0299
 10
-598878.9219
 20
-1164643.9659
 10
-598878.7299
 20
-1164643.517
 10
-598878.3449
 20
-1164641.1129
 10
-598877.2519
 20
-1164639.9339
 10
-598876.711
 20
-1164639.35
 10
-598875.923
 20
-1164639.1359
 10
-598873.686
 20
-1164639.046
 10
-598871.661
 20
-1164636.571
 10
-598873.0599
 20
-1164634.4839
 10
-598875.655
 20
-1164634.1259
 10
-598880.091
 20
-1164636.515
 10
-598880.6649
 20
-1164634.3939
 10
-598881.202
 20
-1164630.9049
 10
-598886.123
 20
-1164624.8209
 10
-598896.227
 20
-1164617.1129
 10
-598900.562
 20
-1164613.8239
 10
-598906.189
 20
-1164611.427
 10
-598915.169
 20
-1164608.1599
 10
-598918.667
 20
-1164607.4969
 10
-598922.755
 20
-1164607.3109
 10
-598926.368
 20
-1164606.3879
 10
-598930.6919
 20
-1164604.306
 10
-598940.534
 20
-1164602.306
 10
-598945.352
 20
-1164602.1849
 10
-598950.899
 20
-1164601.6479
 10
-598955.82
 20
-1164600.395
 10
-598961.986
 20
-1164598.6719
 10
-598965.7429
 20
-1164598.2759
 10
-598969.235
 20
-1164597.382
 10
-598970.7619
 20
-1164595.2949
 10
-598973.267
 20
-1164591.627
 10
-598977.293
 20
-1164586.1689
 10
-598980.7819
 20
-1164584.738
 10
-598987.761
 20
-1164581.249
 10
-598997.603
 20
-1164574.359
 10
-599006.55
 20
-1164568.1859
 10
-599012.455
 20
-1164565.233
 10
-599019.344
 20
-1164562.907
 10
-599032.787
 20
-1164547.0709
 10
-599036.321
 20
-1164541.703
 10
-599038.8259
 20
-1164538.7499
 10
-599040.9739
 20
-1164535.9769
 10
-599041.958
 20
-1164533.7849
 10
-599043.971
 20
-1164529.1769
 10
-599045.224
 20
-1164525.419
 10
-599047.773
 20
-1164520.23
 10
-599049.7419
 20
-1164515.8009
 10
-599052.336
 20
-1164511.82
 10
-599056.5859
 20
-1164504.7509
 10
-599058.866
 20
-1164500.635
 10
-599063.789
 20
-1164494.1489
 10
-599067.904
 20
-1164487.484
 10
-599071.08
 20
-1164484.397
 10
-599076.091
 20
-1164480.7289
 10
-599083.83
 20
-1164475.3599
 10
-599085.859
 20
-1164473.9129
 10
-599087.446
 20
-1164474.2499
 10
-599089.243
 20
-1164473.526
 97
0
 75
0
 76
1
 98
0
  0
HATCH
  5
20019
100
AcDbEntity
  8
plocha Q5
100
AcDbHatch
 10
0
 20
0
 30
0
210
0
220
0
230
1
  2
SOLID
 70
1
 71
0
 91
1
 92
2
 72
0
 73
1
 93
23
 10
-599292.518
 20
-1164426.8369
 10
-599289.9729
 20
-1164424.376
 10
-599286.631
 20
-1164421.7529
 10
-599284.151
 20
-1164419.884
 10
-599281.8869
 20
-1164418.051
 10
-599282.317
 20
-1164417.032
 10
-599284.3669
 20
-1164414.098
 10
-599286.128
 20
-1164412.4799
 10
-599287.203
 20
-1164411.0289
 10
-599290.4039
 20
-1164410.072
 10
-599291.9139
 20
-1164409.7489
 10
-599292.92
 20
-1164409.9289
 10
-599294.466
 20
-1164410.827
 10
-599295.4
 20
-1164411.4379
 10
-599295.6519
 20
-1164412.9119
 10
-599294.502
 20
-1164414.493
 10
-599293.244
 20
-1164415.6789
 10
-599292.3449
 20
-1164418.6979
 10
-599292.022
 20
-1164422.4359
 10
-599293.1719
 20
-1164424.4839
 10
-599294.573
 20
-1164426.7129
 10
-599294.1059
 20
-1164427.0719
 10
-599292.518
 20
-1164426.8369
 97
0
 75
0
 76
1
 98
0
  0
HATCH
  5
2001A
100
AcDbEntity
  8
plocha Q5
100
AcDbHatch
 10
0
 20
0
 30
0
210
0
220
0
230
1
  2
SOLID
 70
1
 71
0
 91
1
 92
2
 72
0
 73
1
 93
48
 10
-600561.6619
 20
-1164105.7799
 10
-600563.3149
 20
-1164105.2089
 10
-600566.2229
 20
-1164104.9809
 10
-600587.944
 20
-1164104.867
 10
-600605.3899
 20
-1164105.495
 10
-600623.2349
 20
-1164105.7799
 10
-600642.391
 20
-1164105.894
 10
-600654.4779
 20
-1164106.1219
 10
-600668.0469
 20
-1164105.6089
 10
-600676.2
 20
-1164106.4639
 10
-600679.1069
 20
-1164108.003
 10
-600681.0329
 20
-1164110.4529
 10
-600681.3329
 20
-1164113.853
 10
-600679.7909
 20
-1164117.809
 10
-600678.1379
 20
-1164119.4059
 10
-600675.915
 20
-1164119.9189
 10
-600671.468
 20
-1164120.0899
 10
-600666.108
 20
-1164119.235
 10
-600659.894
 20
-1164118.151
 10
-600655.3899
 20
-1164118.379
 10
-600646.7239
 20
-1164117.2959
 10
-600634.752
 20
-1164117.809
 10
-600620.2699
 20
-1164117.2959
 10
-600608.64
 20
-1164117.809
 10
-600592.6759
 20
-1164117.2959
 10
-600579.4489
 20
-1164116.9539
 10
-600570.556
 20
-1164118.151
 10
-600566.28
 20
-1164119.862
 10
-600565.3099
 20
-1164122.427
 10
-600565.4809
 20
-1164125.0499
 10
-600565.995
 20
-1164126.8739
 10
-600565.709
 20
-1164128.1279
 10
-600565.367
 20
-1164129.0979
 10
-600563.372
 20
-1164127.558
 10
-600561.6049
 20
-1164123.681
 10
-600559.2099
 20
-1164120.6599
 10
-600556.188
 20
-1164118.2649
 10
-600551.228
 20
-1164117.809
 10
-600548.834
 20
-1164118.4359
 10
-600546.7239
 20
-1164119.4059
 10
-600546.268
 20
-1164118.379
 10
-600545.926
 20
-1164116.897
 10
-600548.2069
 20
-1164113.533
 10
-600549.974
 20
-1164111.937
 10
-600552.141
 20
-1164111.2529
 10
-600555.96
 20
-1164109.9409
 10
-600558.07
 20
-1164108.459
 10
-600561.6619
 20
-1164105.7799
 97
0
 75
0
 76
1
 98
0
  0
HATCH
  5
2001B
100
AcDbEntity
  8
plocha Q5
100
AcDbHatch
 10
0
 20
0
 30
0
210
0
220
0
230
1
  2
SOLID
 70
1
 71
0
 91
1
 92
2
 72
0
 73
1
 93
34
 10
-604261.9619
 20
-1162324.0209
 10
-604261.2
 20
-1162323.159
 10
-604260.439
 20
-1162320.3679
 10
-604259.8809
 20
-1162317.121
 10
-604260.135
 20
-1162312.3509
 10
-604262.3669
 20
-1162302.102
 10
-604264.636
 20
-1162296.146
 10
-604266.2809
 20
-1162291.933
 10
-604268.689
 20
-1162286.958
 10
-604270.936
 20
-1162283.186
 10
-604274.226
 20
-1162276.1649
 10
-604276.9539
 20
-1162274.1589
 10
-604278.679
 20
-1162273.4769
 10
-604281.328
 20
-1162273.3959
 10
-604283.7749
 20
-1162273.918
 10
-604287.266
 20
-1162275.563
 10
-604288.3089
 20
-1162276.727
 10
-604290.1949
 20
-1162278.9329
 10
-604290.957
 20
-1162280.819
 10
-604289.713
 20
-1162284.5109
 10
-604285.9019
 20
-1162288.2019
 10
-604283.28
 20
-1162292.966
 10
-604281.0069
 20
-1162296.989
 10
-604278.9629
 20
-1162301.107
 10
-604276.0029
 20
-1162310.1959
 10
-604275.3109
 20
-1162312.514
 10
-604273.073
 20
-1162317.222
 10
-604272.667
 20
-1162320.571
 10
-604272.87
 20
-1162322.093
 10
-604271.6529
 20
-1162323.6149
 10
-604270.4349
 20
-1162323.9199
 10
-604267.7969
 20
-1162324.478
 10
-604264.701
 20
-1162324.63
 10
-604261.9619
 20
-1162324.0209
 97
0
 75
0
 76
1
 98
0
  0
HATCH
  5
2001C
100
AcDbEntity
  8
plocha Q5
100
AcDbHatch
 10
0
 20
0
 30
0
210
0
220
0
230
1
  2
SOLID
 70
1
 71
0
 91
1
 92
2
 72
0
 73
1
 93
43
 10
-603082.173
 20
-1163329.6679
 10
-603076.118
 20
-1163328.876
 10
-603076.348
 20
-1163327.004
 10
-603077.18
 20
-1163325.8389
 10
-603079.51
 20
-1163324.7569
 10
-603085.419
 20
-1163323.259
 10
-603100.0669
 20
-1163318.349
 10
-603111.6349
 20
-1163315.852
 10
-603121.04
 20
-1163314.354
 10
-603127.282
 20
-1163312.024
 10
-603145.5079
 20
-1163308.3619
 10
-603155.1619
 20
-1163304.534
 10
-603166.13
 20
-1163301.5879
 10
-603180.4419
 20
-1163297.062
 10
-603188.0299
 20
-1163291.5719
 10
-603195.4389
 20
-1163284.6969
 10
-603199.1709
 20
-1163278.145
 10
-603199.2509
 20
-1163274.1799
 10
-603201.019
 20
-1163268.4139
 10
-603201.6849
 20
-1163266.749
 10
-603207.0109
 20
-1163264.003
 10
-603212.555
 20
-1163261.051
 10
-603214.502
 20
-1163262.172
 10
-603215.084
 20
-1163263.0869
 10
-603214.5849
 20
-1163265.501
 10
-603211.436
 20
-1163270.411
 10
-603209.259
 20
-1163272.742
 10
-603209.009
 20
-1163276.5699
 10
-603205.68
 20
-1163284.476
 10
-603202.5169
 20
-1163289.2199
 10
-603199.0219
 20
-1163294.38
 10
-603193.1129
 20
-1163299.041
 10
-603186.205
 20
-1163303.618
 10
-603179.7969
 20
-1163306.531
 10
-603172.306
 20
-1163309.361
 10
-603165.117
 20
-1163311.6789
 10
-603141.68
 20
-1163316.3519
 10
-603128.53
 20
-1163318.515
 10
-603118.7089
 20
-1163321.345
 10
-603099.8169
 20
-1163327.004
 10
-603090.662
 20
-1163329.751
 10
-603086.5009
 20
-1163330.2499
 10
-603082.173
 20
-1163329.6679
 97
0
 75
0
 76
1
 98
0
  0
HATCH
  5
2001D
100
AcDbEntity
  8
plocha Q5
100
AcDbHatch
 10
0
 20
0
 30
0
210
0
220
0
230
1
  2
SOLID
 70
1
 71
0
 91
1
 92
2
 72
0
 73
1
 93
129
 10
-600314.6379
 20
-1164073.171
 10
-600319.7099
 20
-1164072.4529
 10
-600328.8509
 20
-1164071.687
 10
-600335.5499
 20
-1164071.927
 10
-600341.628
 20
-1164073.362
 10
-600344.167
 20
-1164072.466
 10
-600344.2809
 20
-1164071.762
 10
-600345.552
 20
-1164071.831
 10
-600347.083
 20
-1164072.8359
 10
-600349.7629
 20
-1164073.841
 10
-600354.4529
 20
-1164076.4729
 10
-600360.4349
 20
-1164079.057
 10
-600368.5699
 20
-1164082.742
 10
-600378.62
 20
-1164087.192
 10
-600384.7929
 20
-1164090.5419
 10
-600388.2859
 20
-1164093.27
 10
-600391.7319
 20
-1164096.524
 10
-600403.9349
 20
-1164101.692
 10
-600410.252
 20
-1164104.659
 10
-600417.43
 20
-1164106.0949
 10
-600421.3059
 20
-1164106.908
 10
-600426.379
 20
-1164107.291
 10
-600431.308
 20
-1164107.291
 10
-600436.667
 20
-1164107.7219
 10
-600441.692
 20
-1164108.2
 10
-600446.1899
 20
-1164108.1529
 10
-600459.159
 20
-1164108.631
 10
-600463.5139
 20
-1164108.392
 10
-600471.506
 20
-1164108.535
 10
-600479.019
 20
-1164108.631
 10
-600485.336
 20
-1164108.823
 10
-600501.415
 20
-1164108.0569
 10
-600509.933
 20
-1164107.8649
 10
-600521.6569
 20
-1164107.8179
 10
-600525.3419
 20
-1164107.196
 10
-600533.478
 20
-1164106.3819
 10
-600539.842
 20
-1164106.1909
 10
-600541.804
 20
-1164107.1
 10
-600541.804
 20
-1164108.1049
 10
-600540.9429
 20
-1164109.3489
 10
-600538.9809
 20
-1164111.885
 10
-600538.2219
 20
-1164112.547
 10
-600536.646
 20
-1164113.127
 10
-600534.3239
 20
-1164113.542
 10
-600531.1729
 20
-1164114.205
 10
-600528.187
 20
-1164114.5369
 10
-600526.279
 20
-1164115.1179
 10
-600519.645
 20
-1164115.035
 10
-600511.6829
 20
-1164115.4489
 10
-600506.1269
 20
-1164115.698
 10
-600497.585
 20
-1164116.5269
 10
-600480.5009
 20
-1164116.9419
 10
-600466.4849
 20
-1164118.103
 10
-600456.0349
 20
-1164117.357
 10
-600434.224
 20
-1164115.698
 10
-600414.193
 20
-1164111.746
 10
-600408.5149
 20
-1164110.971
 10
-600402.295
 20
-1164109.5609
 10
-600398.812
 20
-1164107.3219
 10
-600395.826
 20
-1164105
 10
-600391.68
 20
-1164102.678
 10
-600384.464
 20
-1164098.531
 10
-600374.1809
 20
-1164094.3839
 10
-600370.221
 20
-1164092.0619
 10
-600365.825
 20
-1164089.491
 10
-600356.288
 20
-1164085.635
 10
-600343.682
 20
-1164080.9489
 10
-600337.649
 20
-1164078.3939
 10
-600329.2029
 20
-1164078.4259
 10
-600323.281
 20
-1164079.3739
 10
-600317.8659
 20
-1164080.226
 10
-600311.421
 20
-1164081.1569
 10
-600300.8889
 20
-1164082.525
 10
-600281.483
 20
-1164083.976
 10
-600275.719
 20
-1164084.267
 10
-600271.3649
 20
-1164084.018
 10
-600268.379
 20
-1164084.4319
 10
-600264.0669
 20
-1164085.179
 10
-600256.976
 20
-1164086.05
 10
-600251.005
 20
-1164086.547
 10
-600241.592
 20
-1164086.423
 10
-600237.4869
 20
-1164086.5059
 10
-600231.516
 20
-1164087.4179
 10
-600225.8759
 20
-1164088.7449
 10
-600218.3709
 20
-1164088.9109
 10
-600209.538
 20
-1164089.243
 10
-600204.5629
 20
-1164089.947
 10
-600195.1079
 20
-1164090.652
 10
-600189.676
 20
-1164091.191
 10
-600181.0929
 20
-1164092.7669
 10
-600175.495
 20
-1164094.467
 10
-600170.9329
 20
-1164095.794
 10
-600154.2219
 20
-1164098.199
 10
-600148.168
 20
-1164099.153
 10
-600136.848
 20
-1164100.024
 10
-600132.411
 20
-1164100.936
 10
-600124.5319
 20
-1164102.47
 10
-600115.244
 20
-1164105.041
 10
-600102.6379
 20
-1164107.2799
 10
-600097.206
 20
-1164108.0679
 10
-600096.3349
 20
-1164107.612
 10
-600095.672
 20
-1164106.907
 10
-600094.8419
 20
-1164105.083
 10
-600094.013
 20
-1164101.3919
 10
-600094.3029
 20
-1164099.3599
 10
-600095.6299
 20
-1164097.9089
 10
-600097.3049
 20
-1164097.4809
 10
-600099.1239
 20
-1164097.1939
 10
-600103.814
 20
-1164097.672
 10
-600107.9289
 20
-1164097.768
 10
-600114.5329
 20
-1164096.907
 10
-600121.328
 20
-1164096.141
 10
-600130.7079
 20
-1164094.323
 10
-600141.8169
 20
-1164091.2529
 10
-600154.635
 20
-1164090.1109
 10
-600183.7309
 20
-1164085.804
 10
-600194.1629
 20
-1164084.8469
 10
-600207.4169
 20
-1164082.567
 10
-600216.535
 20
-1164082.55
 10
-600222.674
 20
-1164081.8279
 10
-600229.265
 20
-1164081.6889
 10
-600242.3769
 20
-1164081.115
 10
-600251.703
 20
-1164079.8919
 10
-600257.595
 20
-1164079.7269
 10
-600262.189
 20
-1164078.578
 10
-600268.4579
 20
-1164077.9559
 10
-600274.344
 20
-1164077.191
 10
-600296.4049
 20
-1164074.8459
 10
-600314.6379
 20
-1164073.171
 97
0
 75
0
 76
1
 98
0
  0
HATCH
  5
2001E
100
AcDbEntity
  8
plocha Q5
100
AcDbHatch
 10
0
 20
0
 30
0
210
0
220
0
230
1
  2
SOLID
 70
1
 71
0
 91
1
 92
2
 72
0
 73
1
 93
34
 10
-601677.2629
 20
-1163916.4139
 10
-601675.7689
 20
-1163915.032
 10
-601674.5369
 20
-1163913.052
 10
-601671.661
 20
-1163907.7109
 10
-601671.437
 20
-1163906.4789
 10
-601671.81
 20
-1163905.5079
 10
-601673.4539
 20
-1163904.2009
 10
-601676.6279
 20
-1163902.333
 10
-601683.09
 20
-1163899.158
 10
-601690.9699
 20
-1163894.8629
 10
-601709.271
 20
-1163883.4339
 10
-601712.9319
 20
-1163881.4549
 10
-601716.443
 20
-1163881.3059
 10
-601719.02
 20
-1163880.4089
 10
-601727.2739
 20
-1163875.367
 10
-601730.448
 20
-1163872.529
 10
-601732.951
 20
-1163870.6979
 10
-601734.407
 20
-1163870.923
 10
-601735.64
 20
-1163872.454
 10
-601736.4619
 20
-1163874.284
 10
-601736.872
 20
-1163876.338
 10
-601736.9469
 20
-1163877.16
 10
-601735.453
 20
-1163879.5879
 10
-601733.138
 20
-1163883.3969
 10
-601729.851
 20
-1163886.796
 10
-601722.904
 20
-1163891.5769
 10
-601717.824
 20
-1163894.5269
 10
-601711.8489
 20
-1163896.9169
 10
-601700.2699
 20
-1163903.267
 10
-601693.884
 20
-1163907.5989
 10
-601687.3099
 20
-1163912.044
 10
-601682.903
 20
-1163915.256
 10
-601679.056
 20
-1163916.9739
 10
-601677.2629
 20
-1163916.4139
 97
0
 75
0
 76
1
 98
0
  0
HATCH
  5
2001F
100
AcDbEntity
  8
plocha Q5
100
AcDbHatch
 10
0
 20
0
 30
0
210
0
220
0
230
1
  2
SOLID
 70
1
 71
0
 91
2
 92
2
 72
0
 73
1
 93
1125
 10
-598670.4351
 20
-1164819.0776
 10
-598670.4351
 20
-1164820.5362
 10
-598670.9365
 20
-1164822.0404
 10
-598671.771
 20
-1164822.8154
 10
-598672.8509
 20
-1164823.8181
 10
-598671.8936
 20
-1164825.55
 10
-598670.8909
 20
-1164827.0999
 10
-598670.663
 20
-1164828.0114
 10
-598670.9821
 20
-1164829.151
 10
-598672.7119
 20
-1164830.727
 10
-598674.8819
 20
-1164832.6009
 10
-598675.7089
 20
-1164834.255
 10
-598675.6962
 20
-1164835.7942
 10
-598674.229
 20
-1164836.3673
 10
-598672.1672
 20
-1164838.4038
 10
-598671.8481
 20
-1164839.9535
 10
-598670.6173
 20
-1164840.7285
 10
-598668.6881
 20
-1164840.7285
 10
-598666.4649
 20
-1164840.4725
 10
-598663.4157
 20
-1164839.8168
 10
-598662.0938
 20
-1164839.5433
 10
-598660.6353
 20
-1164838.7684
 10
-598658.4473
 20
-1164839.3154
 10
-598656.836
 20
-1164838.4099
 10
-598656.892
 20
-1164836.5009
 10
-598655.7808
 20
-1164835.8785
 10
-598654.6491
 20
-1164835.6783
 10
-598641.6195
 20
-1164841.4633
 10
-598641.7232
 20
-1164843.1902
 10
-598640.8598
 20
-1164844.1916
 10
-598636.9573
 20
-1164846.4365
 10
-598633.6988
 20
-1164848.6686
 10
-598626.185
 20
-1164853.813
 10
-598622.867
 20
-1164856.0598
 10
-598617.3939
 20
-1164859.6129
 10
-598615.0369
 20
-1164863.8689
 10
-598613.7147
 20
-1164867.4686
 10
-598611.4873
 20
-1164870.8532
 10
-598609.3626
 20
-1164874.1628
 10
-598607.5562
 20
-1164877.5151
 10
-598606.4625
 20
-1164880.954
 10
-598605.281
 20
-1164884.67
 10
-598603.8743
 20
-1164887.0614
 10
-598602.2905
 20
-1164889.7545
 10
-598601.2342
 20
-1164891.8177
 10
-598599.6595
 20
-1164895.3134
 10
-598598.2946
 20
-1164898.3435
 10
-598596.7495
 20
-1164901.7808
 10
-598585.5962
 20
-1164926.5946
 10
-598579.4354
 20
-1164937.1248
 10
-598563.0893
 20
-1164965.8437
 10
-598559.3264
 20
-1164972.687
 10
-598557.8846
 20
-1164975.2005
 10
-598553.6659
 20
-1164981.4229
 10
-598548.7989
 20
-1164987.1527
 10
-598543.341
 20
-1164992.3227
 10
-598537.3562
 20
-1164996.8722
 10
-598534.5074
 20
-1164998.7039
 10
-598524.232
 20
-1165003.5921
 10
-598517.8996
 20
-1165005.9894
 10
-598511.4389
 20
-1165008.2765
 10
-598500.5095
 20
-1165012.5631
 10
-598493.836
 20
-1165015.3779
 10
-598485.1615
 20
-1165020.9491
 10
-598485.1751
 20
-1165021.0589
 10
-598483.1772
 20
-1165022.2234
 10
-598481.2561
 20
-1165023.3432
 10
-598463.9966
 20
-1165033.4039
 10
-598457.424
 20
-1165037.2456
 10
-598449.844
 20
-1165042.9937
 10
-598443.0072
 20
-1165048.1784
 10
-598438.0376
 20
-1165051.4283
 10
-598430.3577
 20
-1165055.6982
 10
-598421.9459
 20
-1165059.3156
 10
-598414.5629
 20
-1165063.8886
 10
-598410.74
 20
-1165066.4698
 10
-598406.0427
 20
-1165068.493
 10
-598396.4
 20
-1165072.646
 10
-598389.2794
 20
-1165077.0594
 10
-598382.1718
 20
-1165081.0919
 10
-598374.8625
 20
-1165084.9063
 10
-598369.4778
 20
-1165087.7164
 10
-598349.9676
 20
-1165102.5028
 10
-598344.5981
 20
-1165107.4663
 10
-598330.6352
 20
-1165121.6475
 10
-598324.8235
 20
-1165129.3795
 10
-598318.0277
 20
-1165138.6616
 10
-598311.8437
 20
-1165147.7136
 10
-598309.3341
 20
-1165152.5277
 10
-598306.2053
 20
-1165156.8399
 10
-598296.8803
 20
-1165172.9114
 10
-598295.8033
 20
-1165175.264
 10
-598292.1178
 20
-1165180.7265
 10
-598290.1009
 20
-1165183.7157
 10
-598288.4406
 20
-1165185.9117
 10
-598286.5991
 20
-1165188.3473
 10
-598284.6228
 20
-1165191.4688
 10
-598281.997
 20
-1165195.616
 10
-598279.1943
 20
-1165198.9243
 10
-598270.6823
 20
-1165208.9903
 10
-598267.7083
 20
-1165212.5112
 10
-598265.961
 20
-1165214.208
 10
-598259.2059
 20
-1165219.9759
 10
-598245.284
 20
-1165231.3709
 10
-598238.2868
 20
-1165237.5556
 10
-598229.5349
 20
-1165244.8645
 10
-598221.2242
 20
-1165250.5907
 10
-598211.2313
 20
-1165257.0874
 10
-598205.1131
 20
-1165260.2592
 10
-598202.7762
 20
-1165261.33
 10
-598198.9812
 20
-1165263.224
 10
-598193.594
 20
-1165266.0437
 10
-598190.4453
 20
-1165267.6915
 10
-598189.085
 20
-1165268.3009
 10
-598189.1109
 20
-1165268.39
 10
-598187.49
 20
-1165269.0154
 10
-598181.8465
 20
-1165271.1927
 10
-598175.9349
 20
-1165273.3766
 10
-598168.6468
 20
-1165275.6998
 10
-598159.3037
 20
-1165278.5517
 10
-598147.3306
 20
-1165281.5194
 10
-598142.6917
 20
-1165282.6307
 10
-598133.979
 20
-1165284.6779
 10
-598126.5656
 20
-1165287.1727
 10
-598113.4934
 20
-1165289.7719
 10
-598105.354
 20
-1165291.6167
 10
-598093.8371
 20
-1165293.8261
 10
-598084.4908
 20
-1165296.1112
 10
-598082.1738
 20
-1165296.8117
 10
-598075.2495
 20
-1165299.8889
 10
-598064.31
 20
-1165305.4342
 10
-598058.9269
 20
-1165308.3637
 10
-598054.9516
 20
-1165310.5687
 10
-598053.6663
 20
-1165311.2815
 10
-598051.1088
 20
-1165312.7003
 10
-598049.5839
 20
-1165313.546
 10
-598045.5759
 20
-1165314.6656
 10
-598035.1124
 20
-1165317.3137
 10
-598024.5579
 20
-1165319.1793
 10
-598009.8734
 20
-1165321.5673
 10
-597996.7264
 20
-1165324.202
 10
-597983.1858
 20
-1165328.0644
 10
-597979.3228
 20
-1165329.2276
 10
-597974.0681
 20
-1165331.9563
 10
-597969.1345
 20
-1165335.0827
 10
-597965.5152
 20
-1165337.4486
 10
-597962.0933
 20
-1165339.3877
 10
-597956.624
 20
-1165341.8925
 10
-597951.9282
 20
-1165344.0429
 10
-597946.5349
 20
-1165346.513
 10
-597943.0471
 20
-1165347.3849
 10
-597935.9624
 20
-1165349.1559
 10
-597928.4123
 20
-1165350.2221
 10
-597923.2815
 20
-1165350.5391
 10
-597917.208
 20
-1165350.6114
 10
-597911.1394
 20
-1165350.9148
 10
-597908.6418
 20
-1165351.0396
 10
-597907.0252
 20
-1165351.1205
 10
-597904.8189
 20
-1165350.2722
 10
-597901.5319
 20
-1165349.2413
 10
-597897.4966
 20
-1165348.217
 10
-597884.7259
 20
-1165345.4565
 10
-597873.7275
 20
-1165343.5852
 10
-597867.5746
 20
-1165342.0046
 10
-597864.422
 20
-1165341.1949
 10
-597858.9329
 20
-1165339.7848
 10
-597857.4497
 20
-1165339.5897
 10
-597852.7689
 20
-1165338.9739
 10
-597848.3724
 20
-1165338.4939
 10
-597846.4924
 20
-1165338.7253
 10
-597840.5173
 20
-1165339.4699
 10
-597833.4936
 20
-1165340.38
 10
-597828.3806
 20
-1165341.6286
 10
-597821.7312
 20
-1165343.4597
 10
-597812.4405
 20
-1165346.1654
 10
-597803.893
 20
-1165348.682
 10
-597794.2
 20
-1165352.037
 10
-597774.9547
 20
-1165359.0631
 10
-597769.5977
 20
-1165360.9263
 10
-597764.059
 20
-1165363.1361
 10
-597760.2561
 20
-1165365.8654
 10
-597755.7993
 20
-1165369.9646
 10
-597752.6388
 20
-1165373.1782
 10
-597747.7233
 20
-1165378.4254
 10
-597741.2362
 20
-1165387.2925
 10
-597734.9165
 20
-1165396.0274
 10
-597730.3927
 20
-1165402.2879
 10
-597726.963
 20
-1165407.1509
 10
-597722.2583
 20
-1165410.7257
 10
-597715.0238
 20
-1165415.6739
 10
-597708.1514
 20
-1165418.4785
 10
-597692.2594
 20
-1165425.2925
 10
-597682.4829
 20
-1165428.8286
 10
-597661.9641
 20
-1165432.8544
 10
-597654.8136
 20
-1165434.0182
 10
-597648.1536
 20
-1165434.0594
 10
-597639.8375
 20
-1165434.1289
 10
-597633.3874
 20
-1165434.1939
 10
-597630.9248
 20
-1165434.026
 10
-597625.7345
 20
-1165433.6722
 10
-597621.8469
 20
-1165433.2634
 10
-597614.7633
 20
-1165432.0405
 10
-597606.9759
 20
-1165430.6962
 10
-597596.6103
 20
-1165428.6611
 10
-597587.812
 20
-1165426.6916
 10
-597579.442
 20
-1165425.8649
 10
-597565.6005
 20
-1165425.0609
 10
-597554.5423
 20
-1165424.5631
 10
-597542.7068
 20
-1165424.1106
 10
-597530.136
 20
-1165423.8578
 10
-597510.0525
 20
-1165424.3967
 10
-597504.2344
 20
-1165424.8172
 10
-597496.8679
 20
-1165424.0049
 10
-597490.6704
 20
-1165424.1881
 10
-597488.2716
 20
-1165424.259
 10
-597486.51
 20
-1165423.1239
 10
-597468.9174
 20
-1165420.1158
 10
-597464.8464
 20
-1165419.7039
 10
-597460.0057
 20
-1165418.9537
 10
-597451.7931
 20
-1165417.681
 10
-597440.3786
 20
-1165413.9893
 10
-597429.5363
 20
-1165410.9547
 10
-597417.1402
 20
-1165406.5752
 10
-597391.7685
 20
-1165397.9269
 10
-597383.2323
 20
-1165395.1235
 10
-597377.2259
 20
-1165392.914
 10
-597373.512
 20
-1165392.15
 10
-597364.2984
 20
-1165388.7968
 10
-597352.0415
 20
-1165385.5962
 10
-597350.5145
 20
-1165385.2461
 10
-597348.1259
 20
-1165383.439
 10
-597346.124
 20
-1165381.9808
 10
-597342.4976
 20
-1165381.8637
 10
-597342.4389
 20
-1165381.8775
 10
-597340.5738
 20
-1165381.8775
 10
-597340.382
 20
-1165381.829
 10
-597337.6278
 20
-1165381.0616
 10
-597332.628
 20
-1165380.202
 10
-597329.113
 20
-1165380.021
 10
-597327.862
 20
-1165380.2899
 10
-597326.337
 20
-1165381.1799
 10
-597323.8969
 20
-1165385.3369
 10
-597319.5765
 20
-1165400.1341
 10
-597318.4442
 20
-1165407.6105
 10
-597313.1498
 20
-1165439.9858
 10
-597311.0029
 20
-1165453.1136
 10
-597304.9069
 20
-1165490.39
 10
-597296.3306
 20
-1165532.8455
 10
-597282.5266
 20
-1165597.8943
 10
-597265.8289
 20
-1165665.2881
 10
-597249.1616
 20
-1165732.5583
 10
-597238.2597
 20
-1165776.56
 10
-597231.8452
 20
-1165802.4494
 10
-597226.0977
 20
-1165825.6467
 10
-597215.6462
 20
-1165863.5297
 10
-597206.2492
 20
-1165895.5128
 10
-597198.5023
 20
-1165922.8988
 10
-597192.4379
 20
-1165946.248
 10
-597187.8552
 20
-1165963.8926
 10
-597185.584
 20
-1165972.6379
 10
-597183.2088
 20
-1165992.067
 10
-597181.4801
 20
-1166006.2075
 10
-597181.0571
 20
-1166009.6671
 10
-597178.2743
 20
-1166032.4312
 10
-597181.542
 20
-1166040.2027
 10
-597188.016
 20
-1166073.689
 10
-597190.4717
 20
-1166084.8511
 10
-597197.8386
 20
-1166101.8175
 10
-597216.5911
 20
-1166136.6434
 10
-597235.0169
 20
-1166163.2051
 10
-597236.2739
 20
-1166165.5417
 10
-597270.4303
 20
-1166229.0321
 10
-597285.241
 20
-1166273.4641
 10
-597288.3628
 20
-1166282.8293
 10
-597293.6039
 20
-1166313.5274
 10
-597300.8067
 20
-1166355.7151
 10
-597310.3079
 20
-1166418.1674
 10
-597312.2725
 20
-1166442.7265
 10
-597333.1937
 20
-1166448.7041
 10
-597377.7451
 20
-1166444.3925
 10
-597412.3952
 20
-1166450.1984
 10
-597419.723
 20
-1166453.5569
 10
-597424.182
 20
-1166455.6006
 10
-597454.5617
 20
-1166469.7872
 10
-597469.8018
 20
-1166477.4073
 10
-597487.1135
 20
-1166486.063
 10
-597507.702
 20
-1166489.2801
 10
-597551.0791
 20
-1166495.398
 10
-597573.7868
 20
-1166498.0182
 10
-597585.9616
 20
-1166504.5738
 10
-597595.8306
 20
-1166509.888
 10
-597612.6404
 20
-1166518.9392
 10
-597617.0909
 20
-1166530.7963
 10
-597618.922
 20
-1166533.1899
 10
-597622.4031
 20
-1166542.5674
 10
-597626.3032
 20
-1166556.1212
 10
-597630.62
 20
-1166574.3649
 10
-597636.403
 20
-1166607.1715
 10
-597639.9256
 20
-1166638.9455
 10
-597641.2644
 20
-1166658.9071
 10
-597636.724
 20
-1166684.265
 10
-597629.2195
 20
-1166713.7591
 10
-597620.374
 20
-1166744.877
 10
-597609.8268
 20
-1166764.7423
 10
-597600.3656
 20
-1166780.5133
 10
-597589.9771
 20
-1166795.7018
 10
-597586.9528
 20
-1166800.1235
 10
-597586.6953
 20
-1166800.1089
 10
-597580.7546
 20
-1166808.0867
 10
-597566.99
 20
-1166823.1035
 10
-597547.107
 20
-1166842.1126
 10
-597537.5618
 20
-1166851.2379
 10
-597530.1469
 20
-1166858.327
 10
-597524.2218
 20
-1166864.9663
 10
-597514.5048
 20
-1166876.5512
 10
-597508.1054
 20
-1166885.7387
 10
-597507.83
 20
-1166893.8119
 10
-597516.6726
 20
-1166899.6587
 10
-597540.7035
 20
-1166908.8601
 10
-597558.264
 20
-1166920.42
 10
-597573.6491
 20
-1166932.6588
 10
-597581.4787
 20
-1166939.1392
 10
-597589.9663
 20
-1166946.1641
 10
-597599.8347
 20
-1166954.3317
 10
-597617.955
 20
-1166969.3293
 10
-597629.788
 20
-1166979.7457
 10
-597642.8227
 20
-1166992.6429
 10
-597660.9705
 20
-1167019.0014
 10
-597670.663
 20
-1167033.471
 10
-597673.6126
 20
-1167044.0901
 10
-597679.4723
 20
-1167056.6129
 10
-597688.1439
 20
-1167072.9929
 10
-597691.3261
 20
-1167081.9866
 10
-597695.0646
 20
-1167092.5518
 10
-597697.7137
 20
-1167098.1131
 10
-597699.0916
 20
-1167101.0056
 10
-597703.472
 20
-1167104.2163
 10
-597709.2763
 20
-1167109.5741
 10
-597716.4201
 20
-1167116.7178
 10
-597720.6617
 20
-1167120.5129
 10
-597728.0286
 20
-1167125.2011
 10
-597736.9583
 20
-1167130.1124
 10
-597745.8881
 20
-1167134.5772
 10
-597753.0318
 20
-1167140.8279
 10
-597759.0594
 20
-1167145.2928
 10
-597765.087
 20
-1167155.7852
 10
-597769.5518
 20
-1167167.6171
 10
-597773.1237
 20
-1167184.3603
 10
-597774.9096
 20
-1167207.1311
 10
-597774.0167
 20
-1167233.697
 10
-597770.2885
 20
-1167252.6621
 10
-597770.1668
 20
-1167259.7177
 10
-597770.0808
 20
-1167264.7138
 10
-597769.6745
 20
-1167288.2843
 10
-597769.275
 20
-1167311.4568
 10
-597771.6684
 20
-1167326.4163
 10
-597773.835
 20
-1167339.958
 10
-597782.765
 20
-1167361.429
 10
-597794.5449
 20
-1167372.45
 10
-597813.6173
 20
-1167378.2218
 10
-597830.5839
 20
-1167378.2218
 10
-597868.0886
 20
-1167375.8405
 10
-597880.8878
 20
-1167377.6264
 10
-597898.4495
 20
-1167381.7936
 10
-597960.3623
 20
-1167417.5125
 10
-597977.6264
 20
-1167430.6093
 10
-598007.0944
 20
-1167452.0407
 10
-598034.7765
 20
-1167486.8665
 10
-598042.8131
 20
-1167496.6891
 10
-598061.8632
 20
-1167508.8931
 10
-598069.9
 20
-1167513.0602
 10
-598076.7461
 20
-1167515.144
 10
-598091.9265
 20
-1167518.4181
 10
-598101.5568
 20
-1167521.7677
 10
-598105.6186
 20
-1167523.1806
 10
-598119.6303
 20
-1167528.4982
 10
-598132.5226
 20
-1167533.8559
 10
-598142.0663
 20
-1167538.879
 10
-598164.3347
 20
-1167552.7759
 10
-598183.5894
 20
-1167564.6634
 10
-598197.1514
 20
-1167575.3791
 10
-598214.8991
 20
-1167590.6154
 10
-598223.1032
 20
-1167600.9962
 10
-598226.9543
 20
-1167608.0283
 10
-598228.4612
 20
-1167614.7256
 10
-598230.6378
 20
-1167630.9666
 10
-598229.9069
 20
-1167649.3817
 10
-598229.8006
 20
-1167652.063
 10
-598229.2983
 20
-1167660.4345
 10
-598228.796
 20
-1167680.5264
 10
-598229.1309
 20
-1167690.9071
 10
-598235.4933
 20
-1167698.7764
 10
-598250.7295
 20
-1167713.1756
 10
-598265.1288
 20
-1167728.5794
 10
-598277.0165
 20
-1167744.6528
 10
-598289.4063
 20
-1167763.0702
 10
-598291.0807
 20
-1167769.4327
 10
-598292.1278
 20
-1167780.9513
 10
-598292.4202
 20
-1167784.1668
 10
-598292.4202
 20
-1167801.7471
 10
-598289.239
 20
-1167815.3092
 10
-598287.7321
 20
-1167821.3365
 10
-598284.5509
 20
-1167830.2105
 10
-598278.6908
 20
-1167841.7633
 10
-598272.8307
 20
-1167853.3162
 10
-598265.4636
 20
-1167868.385
 10
-598257.9292
 20
-1167882.4494
 10
-598252.4038
 20
-1167891.993
 10
-598250.7295
 20
-1167900.3646
 10
-598250.2993
 20
-1167903.4627
 10
-598249.8924
 20
-1167906.3922
 10
-598250.3947
 20
-1167911.75
 10
-598252.0691
 20
-1167916.2706
 10
-598255.7526
 20
-1167921.7958
 10
-598269.1471
 20
-1167937.3671
 10
-598280.6999
 20
-1167949.0873
 10
-598289.9087
 20
-1167959.3006
 10
-598294.5968
 20
-1167964.8258
 10
-598296.7734
 20
-1167971.5232
 10
-598300.6244
 20
-1167979.0576
 10
-598301.9638
 20
-1167983.0759
 10
-598303.9729
 20
-1167986.5921
 10
-598306.1496
 20
-1167990.6104
 10
-598314.1863
 20
-1167996.9729
 10
-598320.7162
 20
-1168002.3307
 10
-598329.59
 20
-1168008.0233
 10
-598341.6452
 20
-1168015.2229
 10
-598350.8539
 20
-1168020.7482
 10
-598358.2208
 20
-1168025.6037
 10
-598360.3976
 20
-1168027.4454
 10
-598364.4159
 20
-1168032.8032
 10
-598365.8677
 20
-1168036.1535
 10
-598366.5926
 20
-1168037.8262
 10
-598367.7645
 20
-1168040.5052
 10
-598367.7645
 20
-1168044.8583
 10
-598368.0994
 20
-1168056.5786
 10
-598368.9366
 20
-1168071.4801
 10
-598368.4343
 20
-1168082.0283
 10
-598367.2622
 20
-1168091.237
 10
-598365.0857
 20
-1168101.2829
 10
-598361.9045
 20
-1168114.6774
 10
-598357.5512
 20
-1168127.9047
 10
-598352.3608
 20
-1168142.3037
 10
-598347.8402
 20
-1168151.345
 10
-598341.8126
 20
-1168161.2235
 10
-598337.7941
 20
-1168165.7442
 10
-598329.925
 20
-1168171.102
 10
-598325.0694
 20
-1168173.9485
 10
-598314.5211
 20
-1168177.4644
 10
-598308.9959
 20
-1168178.6366
 10
-598300.6244
 20
-1168178.804
 10
-598283.138
 20
-1168170.565
 10
-598266.9822
 20
-1168161.3307
 10
-598259.193
 20
-1168156.532
 10
-598247.7158
 20
-1168153.6891
 10
-598234.5002
 20
-1168146.5879
 10
-598225.1059
 20
-1168145.0222
 10
-598217.7208
 20
-1168143.7914
 10
-598213.5335
 20
-1168145.6813
 10
-598208.4351
 20
-1168154.7018
 10
-598194.8048
 20
-1168178.9063
 10
-598186.0842
 20
-1168195.5545
 10
-598181.398
 20
-1168204.5011
 10
-598179.0055
 20
-1168209.0684
 10
-598170.3351
 20
-1168217.3777
 10
-598166.1776
 20
-1168221.362
 10
-598151.7075
 20
-1168235.2292
 10
-598143.1407
 20
-1168243.439
 10
-598126.2606
 20
-1168250.778
 10
-598108.7702
 20
-1168258.3826
 10
-598077.8659
 20
-1168256.5096
 10
-598063.5588
 20
-1168255.6425
 10
-598056.9919
 20
-1168254.4859
 10
-598038.7288
 20
-1168247.7575
 10
-598028.2712
 20
-1168242.6997
 10
-598017.1393
 20
-1168233.7941
 10
-597998.8095
 20
-1168214.1414
 10
-597982.1408
 20
-1168199.4568
 10
-597962.3223
 20
-1168189.6418
 10
-597950.3908
 20
-1168180.4069
 10
-597928.5626
 20
-1168177.232
 10
-597907.0307
 20
-1168182.1699
 10
-597895.1346
 20
-1168186.3686
 10
-597881.6265
 20
-1168191.1361
 10
-597871.159
 20
-1168193.3792
 10
-597864.8123
 20
-1168196.8512
 10
-597873.1503
 20
-1168199.3526
 10
-597881.8161
 20
-1168201.9524
 10
-597890.5927
 20
-1168204.5854
 10
-597896.6361
 20
-1168207.1035
 10
-597903.0894
 20
-1168209.7924
 10
-597908.5251
 20
-1168212.0572
 10
-597914.5025
 20
-1168231.484
 10
-597917.9269
 20
-1168252.0298
 10
-597918.9857
 20
-1168272.8791
 10
-597911.5138
 20
-1168289.7644
 10
-597892.0871
 20
-1168300.2249
 10
-597882.1659
 20
-1168290.3036
 10
-597863.6941
 20
-1168250.9107
 10
-597851.4887
 20
-1168225.4828
 10
-597845.7617
 20
-1168213.5515
 10
-597836.7954
 20
-1168209.0684
 10
-597828.9157
 20
-1168225.9537
 10
-597826.3349
 20
-1168231.484
 10
-597829.1897
 20
-1168239.5725
 10
-597834.531
 20
-1168254.7063
 10
-597838.5462
 20
-1168266.0825
 10
-597844.2672
 20
-1168282.2925
 10
-597848.305
 20
-1168309.9881
 10
-597846.7418
 20
-1168323.2747
 10
-597845.9102
 20
-1168330.344
 10
-597830.818
 20
-1168342.0672
 10
-597844.2672
 20
-1168343.5616
 10
-597868.1772
 20
-1168337.584
 10
-597882.0494
 20
-1168363.1944
 10
-597895.4309
 20
-1168388.5009
 10
-597901.5521
 20
-1168400.2722
 10
-597907.0307
 20
-1168410.8081
 10
-597911.567
 20
-1168421.0149
 10
-597912.9909
 20
-1168424.2185
 10
-597916.0186
 20
-1168431.0308
 10
-597921.6061
 20
-1168441.5499
 10
-597934.3268
 20
-1168460.2069
 10
-597947.3137
 20
-1168479.9445
 10
-597969.8401
 20
-1168517.1234
 10
-597977.8353
 20
-1168528.9273
 10
-597984.0694
 20
-1168535.6665
 10
-598007.5409
 20
-1168553.0733
 10
-598022.6222
 20
-1168573.3141
 10
-598026.5801
 20
-1168594.6152
 10
-598030.8125
 20
-1168637.2498
 10
-598028.8117
 20
-1168674.1405
 10
-598025.2524
 20
-1168689.7122
 10
-598017.6139
 20
-1168723.1307
 10
-598006.3879
 20
-1168749.6649
 10
-597990.7152
 20
-1168785.8942
 10
-597960.828
 20
-1168796.3548
 10
-597918.9857
 20
-1168800.8378
 10
-597899.6619
 20
-1168794.5861
 10
-597879.8388
 20
-1168788.1728
 10
-597862.4198
 20
-1168783.0713
 10
-597848.7504
 20
-1168779.9168
 10
-597845.3183
 20
-1168774.9005
 10
-597837.7835
 20
-1168763.8884
 10
-597803.5467
 20
-1168757.0675
 10
-597772.1935
 20
-1168760.2424
 10
-597743.2216
 20
-1168772.5457
 10
-597726.1559
 20
-1168768.1799
 10
-597719.8059
 20
-1168756.6705
 10
-597716.6309
 20
-1168735.6361
 10
-597719.0122
 20
-1168718.9673
 10
-597719.409
 20
-1168706.6643
 10
-597715.0434
 20
-1168697.5362
 10
-597705.9152
 20
-1168689.9955
 10
-597695.507
 20
-1168679.8171
 10
-597686.0312
 20
-1168673.787
 10
-597681.3812
 20
-1168670.8279
 10
-597674.1361
 20
-1168664.1402
 10
-597668.4338
 20
-1168658.8764
 10
-597661.9545
 20
-1168652.8954
 10
-597659.0435
 20
-1168647.536
 10
-597653.7622
 20
-1168637.8123
 10
-597649.5781
 20
-1168630.1091
 10
-597649.2271
 20
-1168628.0706
 10
-597639.3765
 20
-1168561.3953
 10
-597630.6771
 20
-1168506.1637
 10
-597629.9486
 20
-1168501.4704
 10
-597624.1473
 20
-1168464.0965
 10
-597615.5423
 20
-1168413.3265
 10
-597615.1673
 20
-1168410.2953
 10
-597613.533
 20
-1168397.0857
 10
-597612.6959
 20
-1168384.0259
 10
-597614.2028
 20
-1168372.9754
 10
-597619.0584
 20
-1168359.0786
 10
-597623.7465
 20
-1168352.2139
 10
-597640.3222
 20
-1168334.8009
 10
-597663.7627
 20
-1168312.6999
 10
-597683.3523
 20
-1168297.1288
 10
-597707.6299
 20
-1168280.3856
 10
-597713.2947
 20
-1168276.7858
 10
-597725.573
 20
-1168270.0885
 10
-597732.2703
 20
-1168266.2934
 10
-597731.7656
 20
-1168264.1648
 10
-597730.2611
 20
-1168262.4983
 10
-597721.3314
 20
-1168266.5166
 10
-597711.9552
 20
-1168270.9815
 10
-597700.5699
 20
-1168276.5624
 10
-597690.7472
 20
-1168283.0366
 10
-597683.1569
 20
-1168290.1802
 10
-597667.0835
 20
-1168302.9051
 10
-597649.8659
 20
-1168316.8858
 10
-597637.9782
 20
-1168325.5921
 10
-597632.118
 20
-1168331.9546
 10
-597623.0767
 20
-1168341.4983
 10
-597615.7097
 20
-1168350.8744
 10
-597611.189
 20
-1168357.4043
 10
-597605.4964
 20
-1168373.9801
 10
-597605.6638
 20
-1168386.8723
 10
-597607.338
 20
-1168399.5971
 10
-597608.8613
 20
-1168406.3673
 10
-597610.3519
 20
-1168412.9917
 10
-597615.8244
 20
-1168453.4575
 10
-597623.762
 20
-1168506.6388
 10
-597636.8588
 20
-1168585.2202
 10
-597651.9402
 20
-1168683.2486
 10
-597653.3166
 20
-1168694.8502
 10
-597654.7183
 20
-1168706.6643
 10
-597669.1355
 20
-1168856.9615
 10
-597689.263
 20
-1168973.1978
 10
-597691.6637
 20
-1168987.0619
 10
-597693.747
 20
-1168998.8972
 10
-597707.4983
 20
-1169082.2627
 10
-597719.8871
 20
-1169159.7505
 10
-597733.934
 20
-1169233.7349
 10
-597753.248
 20
-1169304.312
 10
-597765.7741
 20
-1169332.6868
 10
-597791.8369
 20
-1169385.7983
 10
-597794.7316
 20
-1169391.697
 10
-597794.6458
 20
-1169391.7103
 10
-597796.6858
 20
-1169396.0041
 10
-597818.9184
 20
-1169445.9563
 10
-597839.898
 20
-1169499.9162
 10
-597860.5842
 20
-1169551.6717
 10
-597876.33
 20
-1169592.2309
 10
-597895.7332
 20
-1169639.2059
 10
-597918.641
 20
-1169695.2451
 10
-597930.679
 20
-1169725.7429
 10
-597950.6422
 20
-1169775.0558
 10
-597951.9273
 20
-1169778.2303
 10
-597951.8827
 20
-1169778.2271
 10
-597958.4671
 20
-1169795.0596
 10
-597969.0708
 20
-1169830.4938
 10
-597978.1817
 20
-1169870.5258
 10
-597979.4646
 20
-1169890.7093
 10
-597978.6526
 20
-1169916.7339
 10
-597971.965
 20
-1169955.1197
 10
-597956.8985
 20
-1170014.7944
 10
-597947.346
 20
-1170042.491
 10
-597936.2734
 20
-1170081.5317
 10
-597922.2484
 20
-1170130.4474
 10
-597918.1472
 20
-1170144.7728
 10
-597914.0257
 20
-1170159.1693
 10
-597896.6673
 20
-1170225.2443
 10
-597882.6339
 20
-1170279.3619
 10
-597872.726
 20
-1170325.7603
 10
-597862.417
 20
-1170366.4859
 10
-597853.5183
 20
-1170407.5471
 10
-597847.0393
 20
-1170441.8915
 10
-597811.327
 20
-1170444.6219
 10
-597813.429
 20
-1170408.0909
 10
-597829.0803
 20
-1170359.5649
 10
-597858.3615
 20
-1170268.2167
 10
-597878.1292
 20
-1170205.8632
 10
-597888.8299
 20
-1170172.394
 10
-597892.403
 20
-1170161.2181
 10
-597897.6995
 20
-1170143.9369
 10
-597913.7281
 20
-1170091.6415
 10
-597926.549
 20
-1170049.739
 10
-597935.245
 20
-1170028.719
 10
-597942.564
 20
-1170000.741
 10
-597949.7409
 20
-1169968.5997
 10
-597956.4255
 20
-1169920.5071
 10
-597957.0656
 20
-1169898.158
 10
-597953.941
 20
-1169866.9379
 10
-597944.1319
 20
-1169821.0944
 10
-597935.6536
 20
-1169793.6797
 10
-597928.0055
 20
-1169773.7353
 10
-597893.4948
 20
-1169697.1804
 10
-597875.0307
 20
-1169656.0213
 10
-597844.3396
 20
-1169578.2692
 10
-597811.879
 20
-1169494.6429
 10
-597794.9155
 20
-1169459.6475
 10
-597779.5703
 20
-1169427.3402
 10
-597767.1701
 20
-1169395.9959
 10
-597763.7893
 20
-1169387.3825
 10
-597751.566
 20
-1169356.2399
 10
-597729.5219
 20
-1169307.692
 10
-597723.047
 20
-1169284.816
 10
-597716.6144
 20
-1169260.0995
 10
-597702.9826
 20
-1169198.8415
 10
-597697.4519
 20
-1169167.4981
 10
-597691.478
 20
-1169126.3535
 10
-597687.3131
 20
-1169095.1595
 10
-597683.499
 20
-1169066.5919
 10
-597676.5891
 20
-1169024.6084
 10
-597670.493
 20
-1168987.335
 10
-597668.3507
 20
-1168976.8556
 10
-597639.2401
 20
-1168834.4582
 10
-597635.43
 20
-1168806.1748
 10
-597633.4074
 20
-1168794.088
 10
-597629.7896
 20
-1168772.4667
 10
-597623.6626
 20
-1168735.8505
 10
-597618.5371
 20
-1168705.2206
 10
-597617.3849
 20
-1168698.3343
 10
-597605.9276
 20
-1168629.8636
 10
-597597.9699
 20
-1168580.457
 10
-597591.4453
 20
-1168535.0103
 10
-597583.0946
 20
-1168476.8428
 10
-597579.2102
 20
-1168449.7862
 10
-597577.0805
 20
-1168434.9518
 10
-597575.2646
 20
-1168422.3025
 10
-597573.823
 20
-1168413.7489
 10
-597572.0034
 20
-1168402.9527
 10
-597563.6035
 20
-1168353.1134
 10
-597559.2985
 20
-1168327.571
 10
-597552.1578
 20
-1168285.2025
 10
-597551.1377
 20
-1168279.1494
 10
-597546.4307
 20
-1168248.7202
 10
-597541.3101
 20
-1168214.583
 10
-597538.83
 20
-1168198.0481
 10
-597531.6164
 20
-1168149.9574
 10
-597529.0284
 20
-1168132.7043
 10
-597527.6136
 20
-1168123.2726
 10
-597526.9754
 20
-1168119.018
 10
-597526.1144
 20
-1168113.2779
 10
-597525.1849
 20
-1168107.0804
 10
-597519.3612
 20
-1168068.7899
 10
-597513.202
 20
-1168029.0354
 10
-597507.9457
 20
-1167995.1085
 10
-597498.1887
 20
-1167932.1314
 10
-597494.3449
 20
-1167907.3219
 10
-597487.9824
 20
-1167859.629
 10
-597486.0384
 20
-1167846.1711
 10
-597484.5765
 20
-1167836.0497
 10
-597481.5094
 20
-1167814.8165
 10
-597475.8324
 20
-1167775.5138
 10
-597472.1525
 20
-1167750.0378
 10
-597463.6934
 20
-1167691.4754
 10
-597458.8218
 20
-1167657.748
 10
-597453.1504
 20
-1167619.78
 10
-597448.6149
 20
-1167591.6748
 10
-597445.8711
 20
-1167574.6718
 10
-597445.1211
 20
-1167570.0247
 10
-597444.0866
 20
-1167563.6138
 10
-597440.881
 20
-1167543.7494
 10
-597437.9151
 20
-1167525.3712
 10
-597434.9134
 20
-1167506.771
 10
-597431.3015
 20
-1167484.3887
 10
-597428.0673
 20
-1167464.3468
 10
-597424.0741
 20
-1167439.6024
 10
-597421.1369
 20
-1167421.4015
 10
-597416.0161
 20
-1167389.6696
 10
-597409.7141
 20
-1167350.6173
 10
-597405.1499
 20
-1167322.3345
 10
-597402.1496
 20
-1167299.2736
 10
-597401.6947
 20
-1167294.5945
 10
-597397.3106
 20
-1167249.501
 10
-597397.7042
 20
-1167199.8712
 10
-597388.6314
 20
-1167144.2986
 10
-597380.5169
 20
-1167090.9448
 10
-597375.5272
 20
-1167054.5395
 10
-597371.6039
 20
-1167025.0856
 10
-597370.4114
 20
-1167016.134
 10
-597369.7431
 20
-1167011.1165
 10
-597367.2058
 20
-1166992.0699
 10
-597362.5562
 20
-1166961.333
 10
-597354.6613
 20
-1166912.2503
 10
-597349.5844
 20
-1166880.6877
 10
-597346.1989
 20
-1166857.6999
 10
-597343.8562
 20
-1166848.0098
 10
-597340.044
 20
-1166832.2422
 10
-597338.5769
 20
-1166826.174
 10
-597338.2641
 20
-1166824.8802
 10
-597337.4345
 20
-1166821.4493
 10
-597336.5425
 20
-1166817.7602
 10
-597334.804
 20
-1166810.5689
 10
-597328.8057
 20
-1166798.834
 10
-597325.3078
 20
-1166791.9905
 10
-597313.9768
 20
-1166768.6447
 10
-597301.3802
 20
-1166740.6322
 10
-597266.4347
 20
-1166662.9194
 10
-597254.8079
 20
-1166637.0634
 10
-597249.4
 20
-1166625.037
 10
-597247.505
 20
-1166620.8232
 10
-597245.422
 20
-1166616.1911
 10
-597210.8525
 20
-1166539.3144
 10
-597183.8872
 20
-1166479.8446
 10
-597167.4607
 20
-1166447.0469
 10
-597155.0622
 20
-1166422.2914
 10
-597154.2139
 20
-1166420.5979
 10
-597148.5479
 20
-1166409.2848
 10
-597140.7967
 20
-1166389.4048
 10
-597127.3399
 20
-1166354.8913
 10
-597121.6314
 20
-1166340.2505
 10
-597108.4364
 20
-1166308.5986
 10
-597095.6167
 20
-1166279.8123
 10
-597085.1796
 20
-1166256.4065
 10
-597076.1942
 20
-1166236.399
 10
-597091.1378
 20
-1166173.8228
 10
-597096.0366
 20
-1166186.6824
 10
-597100.8316
 20
-1166199.2694
 10
-597103.0612
 20
-1166205.1222
 10
-597103.7616
 20
-1166221.23
 10
-597104.5556
 20
-1166239.4926
 10
-597110.8599
 20
-1166259.1061
 10
-597117.4146
 20
-1166279.4983
 10
-597125.0357
 20
-1166303.4317
 10
-597131.9853
 20
-1166325.2734
 10
-597135.5678
 20
-1166336.5329
 10
-597140.0782
 20
-1166350.7083
 10
-597142.4863
 20
-1166358.2765
 10
-597144.5156
 20
-1166364.6543
 10
-597148.3969
 20
-1166376.8528
 10
-597151.8966
 20
-1166383.9969
 10
-597160.6236
 20
-1166398.0227
 10
-597170.4188
 20
-1166413.7649
 10
-597172.0487
 20
-1166416.3843
 10
-597175.129
 20
-1166421.335
 10
-597191.2288
 20
-1166447.2096
 10
-597209.1613
 20
-1166459.1645
 10
-597239.0486
 20
-1166454.6815
 10
-597251.227
 20
-1166451.2986
 10
-597257.9351
 20
-1166448.6816
 10
-597260.5721
 20
-1166447.4571
 10
-597261.8906
 20
-1166446.0445
 10
-597262.9267
 20
-1166444.7259
 10
-597263.9626
 20
-1166442.9366
 10
-597264.151
 20
-1166441.6179
 10
-597264.5077
 20
-1166438.5724
 10
-597263.4494
 20
-1166432.2226
 10
-597260.8321
 20
-1166416.5191
 10
-597257.886
 20
-1166398.8421
 10
-597256.7091
 20
-1166382.8098
 10
-597256.2199
 20
-1166363.7316
 10
-597255.7475
 20
-1166345.3043
 10
-597254.439
 20
-1166328.4973
 10
-597250.9293
 20
-1166306.2694
 10
-597247.5183
 20
-1166284.6666
 10
-597242.3858
 20
-1166276.5373
 10
-597217.7075
 20
-1166265.7404
 10
-597195.1666
 20
-1166255.8788
 10
-597179.3437
 20
-1166248.9563
 10
-597174.4912
 20
-1166239.4767
 10
-597173.7517
 20
-1166220.9856
 10
-597170.1107
 20
-1166192.084
 10
-597166.1342
 20
-1166174.8704
 10
-597164.6941
 20
-1166168.6357
 10
-597163.4657
 20
-1166164.8483
 10
-597161.7005
 20
-1166159.4054
 10
-597159.3048
 20
-1166152.0189
 10
-597156.0576
 20
-1166142.0064
 10
-597151.5514
 20
-1166128.1125
 10
-597146.2003
 20
-1166112.3342
 10
-597140.2002
 20
-1166095.1907
 10
-597139.1774
 20
-1166089.6652
 10
-597139.6608
 20
-1166086.0387
 10
-597140.6903
 20
-1166078.3178
 10
-597142.0552
 20
-1166068.0818
 10
-597143.5331
 20
-1166056.9976
 10
-597144.2135
 20
-1166051.8943
 10
-597144.9035
 20
-1166046.7192
 10
-597145.135
 20
-1166038.8495
 10
-597145.574
 20
-1166023.9248
 10
-597146.0498
 20
-1166007.7453
 10
-597146.0864
 20
-1166006.5008
 10
-597146.2075
 20
-1166002.3825
 10
-597146.3602
 20
-1165997.1917
 10
-597145.7539
 20
-1165988.8269
 10
-597143.5389
 20
-1165964.4614
 10
-597141.8155
 20
-1165956.6599
 10
-597139.3631
 20
-1165946.8503
 10
-597136.6447
 20
-1165935.977
 10
-597136.9114
 20
-1165931.0775
 10
-597139.0211
 20
-1165926.5943
 10
-597142.9232
 20
-1165918.3019
 10
-597143.9349
 20
-1165916.1524
 10
-597145.0584
 20
-1165913.765
 10
-597152.6241
 20
-1165898.6738
 10
-597161.4887
 20
-1165881.683
 10
-597168.5062
 20
-1165868.2775
 10
-597174.8065
 20
-1165856.3071
 10
-597178.2302
 20
-1165849.8022
 10
-597180.7683
 20
-1165844.9796
 10
-597183.1975
 20
-1165837.9958
 10
-597188.9016
 20
-1165821.5963
 10
-597191.4947
 20
-1165814.141
 10
-597192.7232
 20
-1165810.6092
 10
-597203.2957
 20
-1165788.7488
 10
-597207.7606
 20
-1165776.9168
 10
-597244.2968
 20
-1165654.2113
 10
-597275.1217
 20
-1165501.0938
 10
-597279.453
 20
-1165478.448
 10
-597284.0902
 20
-1165445.402
 10
-597285.0161
 20
-1165438.5561
 10
-597294.4217
 20
-1165367.5312
 10
-597299.635
 20
-1165328.4749
 10
-597306.9752
 20
-1165296.2606
 10
-597318.6708
 20
-1165244.8333
 10
-597322.87
 20
-1165227.2367
 10
-597351.5047
 20
-1165234.9126
 10
-597344.942
 20
-1165265.21
 10
-597333.6311
 20
-1165306.4023
 10
-597326.7833
 20
-1165352.5495
 10
-597326.2931
 20
-1165355.7864
 10
-597329.013
 20
-1165366.9349
 10
-597330.112
 20
-1165369.5959
 10
-597330.2465
 20
-1165369.8633
 10
-597330.507
 20
-1165370.2353
 10
-597330.828
 20
-1165370.5564
 10
-597331.1999
 20
-1165370.8168
 10
-597331.6115
 20
-1165371.0086
 10
-597332.0501
 20
-1165371.1263
 10
-597332.116
 20
-1165371.1369
 10
-597335.5214
 20
-1165371.6477
 10
-597343.753
 20
-1165374.2529
 10
-597344.1165
 20
-1165374.5124
 10
-597347.4413
 20
-1165376.8889
 10
-597349.9633
 20
-1165377.3442
 10
-597350.3169
 20
-1165376.0566
 10
-597354.1377
 20
-1165375.8588
 10
-597365.1198
 20
-1165379.9272
 10
-597397.1557
 20
-1165390.7949
 10
-597410.9625
 20
-1165395.5346
 10
-597424.4953
 20
-1165399.8838
 10
-597433.413
 20
-1165402.624
 10
-597443.1115
 20
-1165405.5527
 10
-597457.8302
 20
-1165408.9239
 10
-597462.6593
 20
-1165409.579
 10
-597464.3208
 20
-1165409.8045
 10
-597464.3305
 20
-1165409.9868
 10
-597468.764
 20
-1165411.0689
 10
-597469.2636
 20
-1165412.7476
 10
-597485.8158
 20
-1165415.5522
 10
-597487.4719
 20
-1165413.327
 10
-597504.956
 20
-1165414.58
 10
-597531.473
 20
-1165414.9839
 10
-597551.8549
 20
-1165415.8661
 10
-597559.9637
 20
-1165416.077
 10
-597569.7412
 20
-1165415.9369
 10
-597576.1947
 20
-1165416.0301
 10
-597583.309
 20
-1165416.6895
 10
-597591.4957
 20
-1165417.9059
 10
-597601.6851
 20
-1165418.6777
 10
-597610.8344
 20
-1165420.578
 10
-597617.2876
 20
-1165421.6729
 10
-597622.8433
 20
-1165422.5375
 10
-597629.2408
 20
-1165423.0165
 10
-597637.5485
 20
-1165423.1935
 10
-597645.244
 20
-1165423.3281
 10
-597653.1729
 20
-1165422.399
 10
-597658.5416
 20
-1165421.9379
 10
-597663.8756
 20
-1165422.1103
 10
-597678.8292
 20
-1165415.4755
 10
-597683.9207
 20
-1165413.4391
 10
-597690.1322
 20
-1165412.828
 10
-597696.2418
 20
-1165411.708
 10
-597704.2487
 20
-1165408.8103
 10
-597710.2318
 20
-1165405.5324
 10
-597716.9956
 20
-1165400.1067
 10
-597720.7533
 20
-1165396.1925
 10
-597723.0924
 20
-1165393.2054
 10
-597726.3944
 20
-1165388.55
 10
-597732.636
 20
-1165380.881
 10
-597740.3333
 20
-1165372.1989
 10
-597744.3057
 20
-1165368.443
 10
-597745.9338
 20
-1165366.9038
 10
-597746.9896
 20
-1165365.9616
 10
-597750.7434
 20
-1165362.8738
 10
-597755.6341
 20
-1165359.5997
 10
-597758.9791
 20
-1165357.3605
 10
-597759.2655
 20
-1165357.1711
 10
-597763.7168
 20
-1165354.7621
 10
-597766.6165
 20
-1165353.6617
 10
-597784.8289
 20
-1165347.3391
 10
-597799.4952
 20
-1165341.9559
 10
-597813.6372
 20
-1165338.1981
 10
-597824.635
 20
-1165334.5295
 10
-597839.1839
 20
-1165332.2286
 10
-597842.0634
 20
-1165331.839
 10
-597849.351
 20
-1165331.4297
 10
-597856.1147
 20
-1165331.782
 10
-597873.241
 20
-1165334.9143
 10
-597900.1915
 20
-1165339.8077
 10
-597902.0037
 20
-1165340.374
 10
-597906.1912
 20
-1165341.4324
 10
-597912.2291
 20
-1165342.2452
 10
-597917.1605
 20
-1165342.5667
 10
-597921.3769
 20
-1165342.3257
 10
-597926.067
 20
-1165342.0578
 10
-597928.8117
 20
-1165341.4276
 10
-597933.3596
 20
-1165340.3832
 10
-597937.9052
 20
-1165339.3394
 10
-597942.2349
 20
-1165338.0005
 10
-597947.0953
 20
-1165336.1928
 10
-597951.0312
 20
-1165334.7288
 10
-597952.7936
 20
-1165334.0732
 10
-597956.5135
 20
-1165332.6896
 10
-597958.3879
 20
-1165331.6353
 10
-597962.3136
 20
-1165329.427
 10
-597968.7747
 20
-1165326.3808
 10
-597974.0615
 20
-1165324.0409
 10
-597980.4863
 20
-1165321.5304
 10
-597990.7472
 20
-1165317.6841
 10
-597998.2686
 20
-1165315.4131
 10
-598005.2439
 20
-1165313.6444
 10
-598013.3235
 20
-1165311.9952
 10
-598025.507
 20
-1165309.7229
 10
-598032.2244
 20
-1165308.343
 10
-598036.5733
 20
-1165307.4449
 10
-598040.3308
 20
-1165306.2816
 10
-598048.5656
 20
-1165302.7524
 10
-598052.3885
 20
-1165301.5124
 10
-598053.5559
 20
-1165301.1338
 10
-598056.1009
 20
-1165300.3084
 10
-598060.3906
 20
-1165298.0882
 10
-598066.2171
 20
-1165295.0726
 10
-598070.224
 20
-1165292.999
 10
-598074.291
 20
-1165291.2129
 10
-598083.3615
 20
-1165289.1402
 10
-598095.3435
 20
-1165286.3557
 10
-598101.7423
 20
-1165285.1557
 10
-598110.0043
 20
-1165283.8662
 10
-598113.5546
 20
-1165283.3123
 10
-598116.562
 20
-1165282.843
 10
-598120.154
 20
-1165281.321
 10
-598123.325
 20
-1165280.208
 10
-598126.5846
 20
-1165279.7189
 10
-598129.931
 20
-1165279.217
 10
-598134.3926
 20
-1165277.4343
 10
-598139.2492
 20
-1165276.1051
 10
-598145.576
 20
-1165275.0299
 10
-598150.6988
 20
-1165272.815
 10
-598153.651
 20
-1165271.0688
 10
-598156.9103
 20
-1165269.4547
 10
-598158.3465
 20
-1165269.0259
 10
-598163.2237
 20
-1165268.7418
 10
-598165.8837
 20
-1165268.7165
 10
-598169.6214
 20
-1165267.8279
 10
-598175.9462
 20
-1165265.5511
 10
-598180.3343
 20
-1165263.9337
 10
-598185.3653
 20
-1165262.0558
 10
-598189.0229
 20
-1165260.6792
 10
-598192.797
 20
-1165259.249
 10
-598198.6496
 20
-1165256.214
 10
-598205.7114
 20
-1165252.1884
 10
-598210.1142
 20
-1165249.1922
 10
-598215.9323
 20
-1165245.1077
 10
-598221.9161
 20
-1165240.183
 10
-598231.1714
 20
-1165232.3597
 10
-598234.11
 20
-1165229.8099
 10
-598238.5543
 20
-1165226.7956
 10
-598242.797
 20
-1165223.918
 10
-598249.679
 20
-1165218.64
 10
-598258.4552
 20
-1165211.1211
 10
-598265.3172
 20
-1165205.2423
 10
-598268.391
 20
-1165202.609
 10
-598272.371
 20
-1165198.1582
 10
-598277.0219
 20
-1165192.9568
 10
-598279.3944
 20
-1165189.3985
 10
-598280.3786
 20
-1165187.9226
 10
-598286.3794
 20
-1165178.9225
 10
-598289.3994
 20
-1165173.5822
 10
-598292.9558
 20
-1165165.2372
 10
-598298.0507
 20
-1165153.1556
 10
-598304.8281
 20
-1165143.1291
 10
-598315.6484
 20
-1165128.4676
 10
-598322.9148
 20
-1165120.1993
 10
-598329.6812
 20
-1165113.2309
 10
-598339.3327
 20
-1165104.6384
 10
-598343.0436
 20
-1165100.7132
 10
-598346.4504
 20
-1165096.4028
 10
-598348.0745
 20
-1165094.348
 10
-598354.7506
 20
-1165090.0735
 10
-598358.5056
 20
-1165087.7588
 10
-598365.7688
 20
-1165083.2785
 10
-598372.7786
 20
-1165078.9523
 10
-598377.2139
 20
-1165076.2152
 10
-598382.1292
 20
-1165072.8695
 10
-598387.6939
 20
-1165068.052
 10
-598399.0584
 20
-1165061.3266
 10
-598414.0117
 20
-1165052.2334
 10
-598423.4449
 20
-1165046.6149
 10
-598433.2656
 20
-1165041.3189
 10
-598438.7365
 20
-1165038.3686
 10
-598446.4109
 20
-1165033.4461
 10
-598457.0506
 20
-1165026.6217
 10
-598463.2333
 20
-1165022.7444
 10
-598476.7809
 20
-1165015.0887
 10
-598478.0694
 20
-1165014.4034
 10
-598483.9668
 20
-1165011.2673
 10
-598488.5097
 20
-1165008.7729
 10
-598495.2132
 20
-1165005.0919
 10
-598502.3253
 20
-1165001.1866
 10
-598508.0547
 20
-1164998.0839
 10
-598511.068
 20
-1164996.4681
 10
-598516.59
 20
-1164994.5567
 10
-598520.6875
 20
-1164993.1382
 10
-598530.7695
 20
-1164991.0109
 10
-598532.1856
 20
-1164990.6117
 10
-598534.8521
 20
-1164989.2301
 10
-598536.416
 20
-1164987.891
 10
-598542.778
 20
-1164980.0102
 10
-598549.0902
 20
-1164970.5408
 10
-598556.1355
 20
-1164959.1756
 10
-598563.4921
 20
-1164946.0811
 10
-598569.1694
 20
-1164937.6675
 10
-598578.2337
 20
-1164918.8899
 10
-598586.5089
 20
-1164900.0227
 10
-598587.6407
 20
-1164897.4423
 10
-598589.7784
 20
-1164890.6973
 10
-598591.5944
 20
-1164886.0401
 10
-598595.5104
 20
-1164878.0695
 10
-598599.6243
 20
-1164869.4026
 10
-598601.9275
 20
-1164865.9884
 10
-598606.8356
 20
-1164859.0926
 10
-598614.1438
 20
-1164851.1307
 10
-598620.0455
 20
-1164846.6852
 10
-598628.0924
 20
-1164841.2884
 10
-598632.5022
 20
-1164838.2862
 10
-598635.9903
 20
-1164838.3552
 10
-598639.9964
 20
-1164837.4572
 10
-598652.7165
 20
-1164833.1316
 10
-598652.9235
 20
-1164831.4889
 10
-598654.8146
 20
-1164831.0749
 10
-598657.08
 20
-1164829.2422
 10
-598659.8604
 20
-1164827.51
 10
-598661.8327
 20
-1164827.032
 10
-598664.3729
 20
-1164826.4162
 10
-598665.9226
 20
-1164825.2766
 10
-598667.1077
 20
-1164822.6786
 10
-598667.3293
 20
-1164821.0533
 10
-598667.5178
 20
-1164819.6702
 10
-598668.3839
 20
-1164818.713
 10
-598669.6603
 20
-1164819.2144
 10
-598670.4351
 20
-1164819.0776
 97
0
 92
2
 72
0
 73
1
 93
289
 10
-597615.9126
 20
-1166545.2998
 10
-597614.7075
 20
-1166541.5835
 10
-597614.1071
 20
-1166540.3803
 10
-597615.9126
 20
-1166545.2998
 10
-597605.1685
 20
-1166539.8603
 10
-597601.5064
 20
-1166537.6902
 10
-597591.2042
 20
-1166531.5851
 10
-597572.2315
 20
-1166520.3421
 10
-597567.1414
 20
-1166516.9868
 10
-597563.2057
 20
-1166516.054
 10
-597558.5803
 20
-1166514.9577
 10
-597526.9948
 20
-1166509.9327
 10
-597485.6709
 20
-1166503.0219
 10
-597437.032
 20
-1166494.4668
 10
-597420.7633
 20
-1166492.7238
 10
-597408.8883
 20
-1166491.4514
 10
-597400.4403
 20
-1166490.5463
 10
-597361.5866
 20
-1166502.5013
 10
-597345.1486
 20
-1166520.4336
 10
-597349.6318
 20
-1166541.3548
 10
-597355.2235
 20
-1166557.4311
 10
-597361.5866
 20
-1166575.7253
 10
-597364.2072
 20
-1166588.1722
 10
-597367.5642
 20
-1166604.1183
 10
-597369.9818
 20
-1166614.1338
 10
-597371.0993
 20
-1166618.7635
 10
-597375.1905
 20
-1166635.713
 10
-597378.7716
 20
-1166650.691
 10
-597382.5078
 20
-1166666.8815
 10
-597375.9191
 20
-1166682.2553
 10
-597372.0064
 20
-1166690.2975
 10
-597366.692
 20
-1166698.9334
 10
-597361.5866
 20
-1166707.2296
 10
-597364.6879
 20
-1166732.0392
 10
-597366.4409
 20
-1166749.774
 10
-597367.4243
 20
-1166767.4758
 10
-597368.8653
 20
-1166793.4132
 10
-597371.0848
 20
-1166825.258
 10
-597372.0472
 20
-1166838.7338
 10
-597370.7962
 20
-1166849.8093
 10
-597372.7935
 20
-1166878.9374
 10
-597380.5858
 20
-1166908.2823
 10
-597390.1109
 20
-1166968.872
 10
-597395.4592
 20
-1167021.2863
 10
-597399.0055
 20
-1167049.0339
 10
-597406.9679
 20
-1167105.2489
 10
-597419.5866
 20
-1167185.3514
 10
-597442.2228
 20
-1167237.6375
 10
-597449.8847
 20
-1167293.4
 10
-597450.4687
 20
-1167297.6501
 10
-597450.8214
 20
-1167300.2164
 10
-597451.6778
 20
-1167306.4488
 10
-597455.3784
 20
-1167333.3816
 10
-597459.1288
 20
-1167359.6974
 10
-597463.9051
 20
-1167391.6301
 10
-597469.2105
 20
-1167427.1004
 10
-597472.1726
 20
-1167446.9043
 10
-597477.7515
 20
-1167484.2032
 10
-597483.0053
 20
-1167519.3282
 10
-597487.135
 20
-1167546.9384
 10
-597490.4019
 20
-1167568.3661
 10
-597491.3881
 20
-1167574.8347
 10
-597491.8167
 20
-1167577.6454
 10
-597492.8921
 20
-1167584.6984
 10
-597497.5614
 20
-1167615.3236
 10
-597506.3823
 20
-1167673.179
 10
-597518.8236
 20
-1167753.3629
 10
-597528.1248
 20
-1167809.7902
 10
-597533.8881
 20
-1167844.7538
 10
-597534.3684
 20
-1167847.6675
 10
-597535.6145
 20
-1167855.2271
 10
-597540.8203
 20
-1167886.809
 10
-597540.9108
 20
-1167937.0936
 10
-597550.9876
 20
-1167998.1848
 10
-597560.4824
 20
-1168055.7473
 10
-597569.697
 20
-1168113.2221
 10
-597570.6109
 20
-1168118.9221
 10
-597576.8402
 20
-1168158.5929
 10
-597581.2348
 20
-1168186.5797
 10
-597585.6224
 20
-1168214.5215
 10
-597592.5965
 20
-1168258.9359
 10
-597596.9721
 20
-1168283.1611
 10
-597599.3117
 20
-1168295.7954
 10
-597600.6855
 20
-1168303.2137
 10
-597603.6049
 20
-1168306.133
 10
-597609.6516
 20
-1168312.1798
 10
-597625.4123
 20
-1168291.274
 10
-597631.7667
 20
-1168282.8454
 10
-597641.7794
 20
-1168269.564
 10
-597661.234
 20
-1168254.8257
 10
-597674.8276
 20
-1168244.5274
 10
-597681.3734
 20
-1168239.5685
 10
-597700.7068
 20
-1168231.3488
 10
-597727.85
 20
-1168219.8084
 10
-597753.1109
 20
-1168209.0684
 10
-597787.7726
 20
-1168198.1227
 10
-597799.9666
 20
-1168194.2719
 10
-597809.8969
 20
-1168191.1361
 10
-597830.9311
 20
-1168180.4069
 10
-597830.818
 20
-1168170.2149
 10
-597824.0107
 20
-1168159.6258
 10
-597817.3687
 20
-1168149.2939
 10
-597814.38
 20
-1168135.8445
 10
-597819.971
 20
-1168128.8556
 10
-597826.3349
 20
-1168120.9009
 10
-597842.7729
 20
-1168122.3951
 10
-597854.0228
 20
-1168130.8326
 10
-597873.5808
 20
-1168145.5011
 10
-597878.6377
 20
-1168149.2939
 10
-597900.5773
 20
-1168155.0673
 10
-597914.5104
 20
-1168155.9344
 10
-597939.3536
 20
-1168155.2373
 10
-597958.5535
 20
-1168160.4066
 10
-597972.7829
 20
-1168164.2375
 10
-597988.9365
 20
-1168177.2848
 10
-598004.5117
 20
-1168189.8646
 10
-598017.2303
 20
-1168200.8401
 10
-598029.1507
 20
-1168211.9658
 10
-598034.0518
 20
-1168216.5404
 10
-598046.0377
 20
-1168223.6665
 10
-598063.8972
 20
-1168229.2227
 10
-598083.3441
 20
-1168233.9851
 10
-598106.7598
 20
-1168230.8101
 10
-598116.2848
 20
-1168228.0321
 10
-598128.1911
 20
-1168223.2695
 10
-598137.1632
 20
-1168215.046
 10
-598151.0932
 20
-1168197.4013
 10
-598159.5788
 20
-1168186.653
 10
-598163.0859
 20
-1168178.7619
 10
-598165.3062
 20
-1168173.7662
 10
-598166.9155
 20
-1168170.1451
 10
-598171.5337
 20
-1168159.7543
 10
-598186.4853
 20
-1168133.8383
 10
-598192.4504
 20
-1168123.4989
 10
-598195.3328
 20
-1168120.4396
 10
-598209.9998
 20
-1168115.5507
 10
-598218.7398
 20
-1168112.6374
 10
-598224.589
 20
-1168114.6068
 10
-598235.9448
 20
-1168122.7183
 10
-598248.9005
 20
-1168131.9723
 10
-598252.2295
 20
-1168134.3501
 10
-598259.843
 20
-1168149.3499
 10
-598265.0416
 20
-1168152.1854
 10
-598277.1839
 20
-1168156.2007
 10
-598286.7274
 20
-1168160.5539
 10
-598296.2711
 20
-1168165.242
 10
-598301.9638
 20
-1168167.0837
 10
-598307.489
 20
-1168166.5815
 10
-598315.3584
 20
-1168164.7396
 10
-598321.5164
 20
-1168162.737
 10
-598322.4806
 20
-1168162.0135
 10
-598323.4716
 20
-1168161.2699
 10
-598331.717
 20
-1168155.0829
 10
-598340.727
 20
-1168142.506
 10
-598344.2675
 20
-1168129.7307
 10
-598349.8743
 20
-1168111.206
 10
-598353.1454
 20
-1168094.1798
 10
-598354.9005
 20
-1168079.9879
 10
-598355.9209
 20
-1168064.4289
 10
-598356.215
 20
-1168059.9449
 10
-598355.1584
 20
-1168047.7816
 10
-598354.6832
 20
-1168045.6238
 10
-598352.9467
 20
-1168041.0631
 10
-598351.577
 20
-1168037.466
 10
-598350.3597
 20
-1168036.3213
 10
-598344.328
 20
-1168030.6499
 10
-598333.7428
 20
-1168025.0164
 10
-598315.3379
 20
-1168015.2208
 10
-598308.448
 20
-1168011.5539
 10
-598300.848
 20
-1168005.093
 10
-598295.6585
 20
-1167997.4817
 10
-598290.5976
 20
-1167987.1648
 10
-598280.328
 20
-1167965.571
 10
-598271.2589
 20
-1167954.8762
 10
-598265.1543
 20
-1167948.2761
 10
-598256.7575
 20
-1167941.078
 10
-598250.2844
 20
-1167933.3727
 10
-598246.887
 20
-1167929.0889
 10
-598242.701
 20
-1167921.4019
 10
-598240.771
 20
-1167915.8159
 10
-598239.8933
 20
-1167910.6801
 10
-598239.5678
 20
-1167906.0644
 10
-598239.396
 20
-1167906.059
 10
-598239.4502
 20
-1167904.3976
 10
-598239.611
 20
-1167899.4859
 10
-598244.4433
 20
-1167884.874
 10
-598246.1339
 20
-1167879.7619
 10
-598252.8974
 20
-1167868.1153
 10
-598261.4188
 20
-1167853.4413
 10
-598268.357
 20
-1167841.4939
 10
-598271.9804
 20
-1167832.0731
 10
-598277.3703
 20
-1167818.0597
 10
-598281.65
 20
-1167800.7219
 10
-598282.4074
 20
-1167785.3486
 10
-598282.239
 20
-1167781.1727
 10
-598280.49
 20
-1167769.221
 10
-598268.997
 20
-1167749.3467
 10
-598258.857
 20
-1167737.748
 10
-598247.5176
 20
-1167727.4945
 10
-598233.6642
 20
-1167714.968
 10
-598227.126
 20
-1167709.0558
 10
-598220.286
 20
-1167698.4159
 10
-598217.626
 20
-1167688.5349
 10
-598218.1623
 20
-1167660.1076
 10
-598218.3079
 20
-1167652.3863
 10
-598218.3391
 20
-1167650.7346
 10
-598218.3859
 20
-1167648.253
 10
-598217.3769
 20
-1167632.9338
 10
-598216.429
 20
-1167618.544
 10
-598212.9359
 20
-1167609.909
 10
-598208.826
 20
-1167603.7419
 10
-598198.14
 20
-1167593.668
 10
-598178.1753
 20
-1167578.4809
 10
-598162.8764
 20
-1167568.1971
 10
-598143.3709
 20
-1167555.0856
 10
-598136.1019
 20
-1167551.1475
 10
-598119.434
 20
-1167542.476
 10
-598109.513
 20
-1167538.9103
 10
-598099.7412
 20
-1167535.6223
 10
-598087.3447
 20
-1167532.25
 10
-598071.8421
 20
-1167528.5332
 10
-598068.275
 20
-1167527.6779
 10
-598051.546
 20
-1167521.24
 10
-598034.0628
 20
-1167506.6957
 10
-598015.7475
 20
-1167481.7728
 10
-597995.132
 20
-1167459.192
 10
-597974.916
 20
-1167445.8459
 10
-597940.9443
 20
-1167423.4188
 10
-597910.4885
 20
-1167403.3129
 10
-597894.0122
 20
-1167395.3587
 10
-597885.12
 20
-1167391.357
 10
-597875.88
 20
-1167389.9196
 10
-597849.7115
 20
-1167389.7214
 10
-597832.299
 20
-1167392.4979
 10
-597813.1764
 20
-1167389.8895
 10
-597807.219
 20
-1167389.077
 10
-597795.8189
 20
-1167385.2769
 10
-597783.658
 20
-1167376.917
 10
-597774.2387
 20
-1167362.4732
 10
-597766.558
 20
-1167350.6949
 10
-597764.2995
 20
-1167338.4986
 10
-597761.3551
 20
-1167310.0061
 10
-597759.8064
 20
-1167283.4451
 10
-597760.1311
 20
-1167272.3421
 10
-597760.3994
 20
-1167263.1649
 10
-597760.5252
 20
-1167258.8599
 10
-597761.8869
 20
-1167212.2895
 10
-597761.1709
 20
-1167180.9939
 10
-597758.388
 20
-1167165.054
 10
-597744.327
 20
-1167145.6729
 10
-597729.4102
 20
-1167136.4321
 10
-597701.387
 20
-1167119.072
 10
-597690.8472
 20
-1167101.725
 10
-597688.5339
 20
-1167097.5313
 10
-597680.9906
 20
-1167083.8562
 10
-597667.8739
 20
-1167052.2493
 10
-597659.3838
 20
-1167034.1585
 10
-597646.4943
 20
-1167011.105
 10
-597641.4264
 20
-1167003.2213
 10
-597628.065
 20
-1166987.1729
 10
-597614.9616
 20
-1166976.0926
 10
-597592.219
 20
-1166956.8609
 10
-597566.7352
 20
-1166935.3113
 10
-597554.4264
 20
-1166925.3544
 10
-597535.8939
 20
-1166913.289
 10
-597515.4359
 20
-1166905.9448
 10
-597508.0399
 20
-1166903.2899
 10
-597502.9379
 20
-1166898.9159
 10
-597500.145
 20
-1166892.961
 10
-597500.752
 20
-1166885.427
 10
-597505.683
 20
-1166876.6169
 10
-597531.8765
 20
-1166847.5236
 10
-597556.3791
 20
-1166823.225
 10
-597567.3014
 20
-1166810.8573
 10
-597572.7698
 20
-1166803.5479
 10
-597576.7678
 20
-1166798.1805
 10
-597581.1772
 20
-1166792.1785
 10
-597588.1596
 20
-1166782.6743
 10
-597594.662
 20
-1166774.2848
 10
-597603.1295
 20
-1166758.2085
 10
-597610.2089
 20
-1166741.349
 10
-597619.0678
 20
-1166710.8154
 10
-597625.768
 20
-1166687.0579
 10
-597630.44
 20
-1166667.8116
 10
-597632.5608
 20
-1166652.0176
 10
-597631.369
 20
-1166625.6259
 10
-597627.3773
 20
-1166593.1472
 10
-597620.4891
 20
-1166559.4128
 10
-597615.9126
 20
-1166545.2998
 97
0
 75
0
 76
1
 98
0
  0
HATCH
  5
20020
100
AcDbEntity
  8
plocha Q5
100
AcDbHatch
 10
0
 20
0
 30
0
210
0
220
0
230
1
  2
SOLID
 70
1
 71
0
 91
2
 92
2
 72
0
 73
1
 93
337
 10
-594899.9342
 20
-1157423.0859
 10
-594910.6317
 20
-1157418.2549
 10
-594914.6834
 20
-1157416.4251
 10
-594923.7176
 20
-1157413.2978
 10
-594934.5407
 20
-1157409.5513
 10
-594940.0749
 20
-1157407.6357
 10
-594944.8571
 20
-1157405.9804
 10
-594950.958
 20
-1157401.3149
 10
-594964.5861
 20
-1157390.8935
 10
-594983.8228
 20
-1157383.4126
 10
-594988.4718
 20
-1157382.8578
 10
-594997.1955
 20
-1157383.1145
 10
-595010.9575
 20
-1157383.5193
 10
-595024.9336
 20
-1157383.9302
 10
-595037.2723
 20
-1157385.5395
 10
-595051.6257
 20
-1157387.4118
 10
-595069.0337
 20
-1157402.4988
 10
-595078.2606
 20
-1157426.8241
 10
-595081.7995
 20
-1157436.154
 10
-595092.1809
 20
-1157437.6372
 10
-595106.1706
 20
-1157439.6357
 10
-595121.3322
 20
-1157440.3409
 10
-595134.2812
 20
-1157440.9431
 10
-595152.2463
 20
-1157441.7787
 10
-595163.8139
 20
-1157443.303
 10
-595182.7655
 20
-1157446.5988
 10
-595229.1867
 20
-1157446.5988
 10
-595253.5686
 20
-1157453.3716
 10
-595266.5597
 20
-1157456.9803
 10
-595277.9171
 20
-1157460.8408
 10
-595285.5024
 20
-1157463.7181
 10
-595297.1394
 20
-1157468.1321
 10
-595304.6209
 20
-1157470.9698
 10
-595311.3167
 20
-1157472.7422
 10
-595317.5128
 20
-1157474.3825
 10
-595319.9998
 20
-1157475.0408
 10
-595333.1627
 20
-1157478.5252
 10
-595344.0789
 20
-1157481.4145
 10
-595349.6413
 20
-1157482.2093
 10
-595364.0134
 20
-1157484.2624
 10
-595376.5738
 20
-1157486.0569
 10
-595383.537
 20
-1157495.3411
 10
-595382.6057
 20
-1157507.9134
 10
-595384.4632
 20
-1157511.4362
 10
-595396.1216
 20
-1157506.8435
 10
-595410.0738
 20
-1157501.4495
 10
-595424.9458
 20
-1157495.9673
 10
-595437.9279
 20
-1157491.5681
 10
-595453.737
 20
-1157486.937
 10
-595479.864
 20
-1157486.5899
 10
-595493.1554
 20
-1157488.384
 10
-595506.45
 20
-1157491.261
 10
-595524.4387
 20
-1157497.6014
 10
-595537.012
 20
-1157502.0329
 10
-595549.8164
 20
-1157508.8885
 10
-595563.4821
 20
-1157516.2052
 10
-595573.4466
 20
-1157522.4742
 10
-595594.2199
 20
-1157536.4459
 10
-595601.1397
 20
-1157542.7031
 10
-595609.455
 20
-1157550.222
 10
-595616.6047
 20
-1157559.1592
 10
-595630.7512
 20
-1157576.9781
 10
-595649.2737
 20
-1157601.4155
 10
-595656.7702
 20
-1157611.0201
 10
-595665.614
 20
-1157623.348
 10
-595671.9734
 20
-1157634.645
 10
-595676.242
 20
-1157642.2279
 10
-595678.1367
 20
-1157648.7422
 10
-595683.8116
 20
-1157668.2533
 10
-595686.7589
 20
-1157678.3869
 10
-595681.8308
 20
-1157693.6776
 10
-595679.865
 20
-1157699.8448
 10
-595677.158
 20
-1157705.5494
 10
-595669.085
 20
-1157722.5629
 10
-595665.4466
 20
-1157732.1452
 10
-595661.464
 20
-1157742.6338
 10
-595658.6912
 20
-1157755.5931
 10
-595656.9115
 20
-1157765.9357
 10
-595655.734
 20
-1157774.5949
 10
-595656.4092
 20
-1157777.9993
 10
-595659.1062
 20
-1157786.0475
 10
-595665.1062
 20
-1157794.0411
 10
-595676.4392
 20
-1157803.2753
 10
-595686.2353
 20
-1157811.2665
 10
-595694.314
 20
-1157818.709
 10
-595699.0152
 20
-1157824.4396
 10
-595704.73
 20
-1157831.4057
 10
-595709.65
 20
-1157835.9177
 10
-595713.236
 20
-1157838.5539
 10
-595720.2999
 20
-1157841.5744
 10
-595726.6942
 20
-1157843.3039
 10
-595738.0125
 20
-1157845.6327
 10
-595744.5676
 20
-1157848.0988
 10
-595766.7977
 20
-1157858.6086
 10
-595777.7769
 20
-1157865.8349
 10
-595782.8301
 20
-1157871.7748
 10
-595788.02
 20
-1157881.525
 10
-595789.414
 20
-1157893.269
 10
-595787.917
 20
-1157907.111
 10
-595780.774
 20
-1157915.9899
 10
-595774.5298
 20
-1157920.1806
 10
-595768.5385
 20
-1157923.8363
 10
-595760.439
 20
-1157928.2639
 10
-595753.374
 20
-1157933.7459
 10
-595750.5051
 20
-1157937.5818
 10
-595746.6414
 20
-1157943.2229
 10
-595744.144
 20
-1157947.7039
 10
-595742.5918
 20
-1157953.3047
 10
-595740.5436
 20
-1157962.4912
 10
-595738.0774
 20
-1157973.8203
 10
-595736.1223
 20
-1157986.2257
 10
-595736.3521
 20
-1157995.9956
 10
-595737.0629
 20
-1158002.791
 10
-595739.8502
 20
-1158013.39
 10
-595741.796
 20
-1158024.9873
 10
-595743.3918
 20
-1158038.0135
 10
-595743.7879
 20
-1158045.8264
 10
-595743.4849
 20
-1158052.378
 10
-595742.6859
 20
-1158058.6544
 10
-595740.5635
 20
-1158067.7109
 10
-595740.2029
 20
-1158073.3856
 10
-595741.6928
 20
-1158077.2594
 10
-595739.8726
 20
-1158090.0004
 10
-595738.6608
 20
-1158098.4831
 10
-595736.523
 20
-1158113.4479
 10
-595735.1577
 20
-1158123.0046
 10
-595733.8612
 20
-1158132.0798
 10
-595731.6599
 20
-1158147.4893
 10
-595731.0508
 20
-1158150.9469
 10
-595727.5257
 20
-1158159.9554
 10
-595724.6253
 20
-1158167.3676
 10
-595723.849
 20
-1158173.4219
 10
-595719.883
 20
-1158183.3919
 10
-595716.1035
 20
-1158189.1454
 10
-595711.6845
 20
-1158200.4384
 10
-595707.1523
 20
-1158212.0208
 10
-595704.3336
 20
-1158219.2242
 10
-595699.6115
 20
-1158225.8351
 10
-595690.1544
 20
-1158239.0749
 10
-595679.8393
 20
-1158253.5162
 10
-595673.2783
 20
-1158262.7016
 10
-595668.6659
 20
-1158269.159
 10
-595666.9744
 20
-1158271.5271
 10
-595664.096
 20
-1158280.4237
 10
-595659.5105
 20
-1158294.5973
 10
-595655.5243
 20
-1158306.9181
 10
-595652.2516
 20
-1158317.0342
 10
-595650.5364
 20
-1158322.3355
 10
-595650.5364
 20
-1158338.9402
 10
-595650.5364
 20
-1158351.6403
 10
-595650.5364
 20
-1158385.7715
 10
-595650.5364
 20
-1158401.537
 10
-595651.676
 20
-1158403.3401
 10
-595652.0376
 20
-1158416.7213
 10
-595652.2863
 20
-1158425.9217
 10
-595648.5655
 20
-1158442.2362
 10
-595645.0372
 20
-1158457.7058
 10
-595644.3521
 20
-1158460.7097
 10
-595642.9081
 20
-1158463.0565
 10
-595633.0243
 20
-1158479.1177
 10
-595625.0935
 20
-1158492.0051
 10
-595619.9396
 20
-1158500.3803
 10
-595608.5778
 20
-1158513.2851
 10
-595601.6214
 20
-1158521.1863
 10
-595590.9577
 20
-1158533.2979
 10
-595584.2638
 20
-1158540.901
 10
-595576.2418
 20
-1158550.0123
 10
-595568.5388
 20
-1158558.1901
 10
-595558.0362
 20
-1158567.0655
 10
-595540.4486
 20
-1158581.9283
 10
-595527.1715
 20
-1158593.1485
 10
-595518.865
 20
-1158600.8256
 10
-595511.3087
 20
-1158607.8094
 10
-595497.7011
 20
-1158620.3861
 10
-595486.8905
 20
-1158630.3776
 10
-595475.1019
 20
-1158641.3533
 10
-595469.1914
 20
-1158646.8563
 10
-595462.9729
 20
-1158658.0495
 10
-595456.9851
 20
-1158668.8277
 10
-595456.9851
 20
-1158683.9576
 10
-595456.9851
 20
-1158698.1228
 10
-595458.3681
 20
-1158708.4955
 10
-595460.3206
 20
-1158723.14
 10
-595461.8677
 20
-1158734.7418
 10
-595430.1312
 20
-1158743.286
 10
-595427.0795
 20
-1158710.9394
 10
-595426.7462
 20
-1158696.9384
 10
-595426.4693
 20
-1158685.3061
 10
-595427.3236
 20
-1158669.9288
 10
-595427.6898
 20
-1158663.3347
 10
-595429.2264
 20
-1158656.1647
 10
-595430.7634
 20
-1158648.9914
 10
-595431.3518
 20
-1158646.2459
 10
-595436.8982
 20
-1158636.1318
 10
-595439.2335
 20
-1158631.8734
 10
-595441.7271
 20
-1158627.326
 10
-595448.0384
 20
-1158620.7404
 10
-595458.7371
 20
-1158609.4475
 10
-595465.4184
 20
-1158602.1852
 10
-595469.8017
 20
-1158597.4206
 10
-595470.961
 20
-1158586.7556
 10
-595471.5863
 20
-1158581.0028
 10
-595472.8532
 20
-1158569.346
 10
-595473.2692
 20
-1158561.4449
 10
-595473.8261
 20
-1158550.863
 10
-595473.3029
 20
-1158540.9495
 10
-595470.6875
 20
-1158523.2964
 10
-595469.1914
 20
-1158510.3906
 10
-595469.1914
 20
-1158496.7185
 10
-595472.3243
 20
-1158488.6624
 10
-595477.7359
 20
-1158474.747
 10
-595487.4582
 20
-1158468.4406
 10
-595500.3175
 20
-1158460.0994
 10
-595516.082
 20
-1158457.5914
 10
-595527.1715
 20
-1158455.8272
 10
-595541.1928
 20
-1158455.2177
 10
-595552.8929
 20
-1158454.709
 10
-595565.6806
 20
-1158453.3023
 10
-595577.6316
 20
-1158451.8084
 10
-595587.7918
 20
-1158449.2313
 10
-595594.3266
 20
-1158447.3641
 10
-595598.2335
 20
-1158444.8736
 10
-595603.018
 20
-1158434.7068
 10
-595604.583
 20
-1158431.381
 10
-595609.5958
 20
-1158420.7287
 10
-595611.5746
 20
-1158410.1128
 10
-595612.8914
 20
-1158401.2238
 10
-595614.3164
 20
-1158391.606
 10
-595616.1659
 20
-1158379.1216
 10
-595615.3524
 20
-1158372.2072
 10
-595614.072
 20
-1158361.3232
 10
-595613.1772
 20
-1158353.7173
 10
-595610.0179
 20
-1158336.025
 10
-595607.7841
 20
-1158323.5159
 10
-595606.3778
 20
-1158315.6405
 10
-595600.9768
 20
-1158300.0536
 10
-595596.0136
 20
-1158287.6455
 10
-595591.8167
 20
-1158277.1534
 10
-595588.244
 20
-1158271.5139
 10
-595580.537
 20
-1158262.3248
 10
-595572.2668
 20
-1158252.4643
 10
-595556.9409
 20
-1158234.1912
 10
-595547.3747
 20
-1158224.1342
 10
-595540.5456
 20
-1158218.0239
 10
-595529.4628
 20
-1158208.1078
 10
-595515.3637
 20
-1158195.4928
 10
-595509.5169
 20
-1158190.2614
 10
-595498.0717
 20
-1158175.1629
 10
-595490.1342
 20
-1158164.5794
 10
-595487.3249
 20
-1158133.891
 10
-595481.6132
 20
-1158099.1927
 10
-595479.7868
 20
-1158081.7571
 10
-595480.6479
 20
-1158060.3785
 10
-595482.539
 20
-1158036.617
 10
-595486.4798
 20
-1158019.498
 10
-595490.7997
 20
-1158000.7326
 10
-595493.7459
 20
-1157987.9339
 10
-595497.2218
 20
-1157977.0667
 10
-595500.5382
 20
-1157966.6979
 10
-595503.1085
 20
-1157958.6624
 10
-595506.477
 20
-1157948.1309
 10
-595508.2666
 20
-1157939.6016
 10
-595511.549
 20
-1157923.9583
 10
-595514.913
 20
-1157907.927
 10
-595517.8907
 20
-1157883.7552
 10
-595520.5916
 20
-1157861.8303
 10
-595521.3549
 20
-1157855.6339
 10
-595519.1632
 20
-1157837.7951
 10
-595516.5941
 20
-1157816.8835
 10
-595512.4721
 20
-1157783.3327
 10
-595506.5384
 20
-1157758.4433
 10
-595498.8654
 20
-1157724.3118
 10
-595494.8967
 20
-1157706.0555
 10
-595490.1342
 20
-1157691.7681
 10
-595482.9904
 20
-1157673.7764
 10
-595473.4654
 20
-1157659.2243
 10
-595463.6758
 20
-1157644.4076
 10
-595448.9374
 20
-1157626.8609
 10
-595436.4874
 20
-1157615.2789
 10
-595420.2733
 20
-1157601.7188
 10
-595406.4736
 20
-1157590.1781
 10
-595400.111
 20
-1157584.857
 10
-595391.8637
 20
-1157580.0893
 10
-595380.7082
 20
-1157573.7777
 10
-595377.8443
 20
-1157573.4866
 10
-595362.3402
 20
-1157571.9117
 10
-595340.5974
 20
-1157563.8122
 10
-595310.4237
 20
-1157546.4043
 10
-595294.1762
 20
-1157524.3542
 10
-595279.7973
 20
-1157516.1377
 10
-595250.0905
 20
-1157499.6577
 10
-595229.1867
 20
-1157490.6989
 10
-595206.84
 20
-1157489.1028
 10
-595174.2003
 20
-1157486.1287
 10
-595153.0042
 20
-1157484.3418
 10
-595122.853
 20
-1157482.4181
 10
-595082.96
 20
-1157479.0937
 10
-595067.3838
 20
-1157474.1092
 10
-595053.9468
 20
-1157469.8093
 10
-595044.3088
 20
-1157468.7386
 10
-595033.0573
 20
-1157467.4883
 10
-595021.2272
 20
-1157488.1908
 10
-595012.6513
 20
-1157502.7395
 10
-595008.7843
 20
-1157508.5399
 10
-595002.8836
 20
-1157517.391
 10
-594975.0309
 20
-1157526.6753
 10
-594951.8203
 20
-1157518.5516
 10
-594941.3755
 20
-1157505.7858
 10
-594938.3588
 20
-1157494.4729
 10
-594934.4124
 20
-1157476.7726
 10
-594933.8271
 20
-1157463.8962
 10
-594933.4555
 20
-1157455.7229
 10
-594929.9891
 20
-1157451.4328
 10
-594920.7606
 20
-1157451.9757
 10
-594913.5228
 20
-1157452.4015
 10
-594906.1975
 20
-1157453.1135
 10
-594894.0266
 20
-1157459.1988
 10
-594877.887
 20
-1157470.5759
 10
-594864.9224
 20
-1157476.1322
 10
-594839.6897
 20
-1157486.0511
 10
-594832.2859
 20
-1157488.3778
 10
-594823.1933
 20
-1157489.0513
 10
-594813.5838
 20
-1157489.7631
 10
-594800.9516
 20
-1157490.6989
 10
-594805.0711
 20
-1157455.0708
 10
-594812.5568
 20
-1157450.0805
 10
-594831.9018
 20
-1157445.4376
 10
-594841.57
 20
-1157443.1173
 10
-594811.0567
 20
-1157424.5912
 10
-594817.1989
 20
-1157409.4619
 10
-594829.6818
 20
-1157416.6889
 10
-594849.898
 20
-1157427.1086
 10
-594862.2426
 20
-1157432.7664
 10
-594867.1016
 20
-1157434.9936
 10
-594878.7069
 20
-1157432.6725
 10
-594889.4565
 20
-1157427.8178
 10
-594899.9342
 20
-1157423.0859
 97
0
 92
2
 72
0
 73
1
 93
172
 10
-595454.937
 20
-1157494.921
 10
-595435.3339
 20
-1157500.664
 10
-595413.833
 20
-1157508.5908
 10
-595395.771
 20
-1157515.6532
 10
-595381.6463
 20
-1157520.8658
 10
-595381.2159
 20
-1157526.6753
 10
-595380.8786
 20
-1157530.2343
 10
-595380.5803
 20
-1157533.3821
 10
-595386.7887
 20
-1157542.7365
 10
-595390.8015
 20
-1157549.1215
 10
-595393.4856
 20
-1157554.0584
 10
-595396.993
 20
-1157560.5099
 10
-595405.5629
 20
-1157567.783
 10
-595416.3069
 20
-1157576.9013
 10
-595427.1673
 20
-1157586.1184
 10
-595434.0985
 20
-1157592.0009
 10
-595437.2729
 20
-1157594.6949
 10
-595444.6428
 20
-1157602.0808
 10
-595453.6817
 20
-1157611.5301
 10
-595461.9563
 20
-1157620.1805
 10
-595472.1674
 20
-1157630.8554
 10
-595481.3142
 20
-1157640.2506
 10
-595491.3985
 20
-1157650.8698
 10
-595493.974
 20
-1157654.0449
 10
-595500.021
 20
-1157662.981
 10
-595505.6422
 20
-1157676.3539
 10
-595510.9328
 20
-1157689.9578
 10
-595514.7777
 20
-1157707.8624
 10
-595519.8758
 20
-1157731.6028
 10
-595523.5268
 20
-1157751.1469
 10
-595525.9084
 20
-1157766.0301
 10
-595528.4268
 20
-1157783.1379
 10
-595530.0886
 20
-1157794.4264
 10
-595531.0866
 20
-1157803.5999
 10
-595531.8991
 20
-1157812.9279
 10
-595532.9193
 20
-1157824.6421
 10
-595534.5302
 20
-1157843.1378
 10
-595535.2204
 20
-1157851.0614
 10
-595535.926
 20
-1157859.163
 10
-595535.5805
 20
-1157865.5533
 10
-595535.0623
 20
-1157875.1362
 10
-595534.51
 20
-1157885.3537
 10
-595534.086
 20
-1157893.1959
 10
-595532.5498
 20
-1157903.3271
 10
-595530.5568
 20
-1157916.4712
 10
-595528.8859
 20
-1157927.4907
 10
-595528.0273
 20
-1157932.3015
 10
-595524.1835
 20
-1157948.4708
 10
-595521.1563
 20
-1157961.2058
 10
-595517.9957
 20
-1157974.5015
 10
-595515.782
 20
-1157983.8148
 10
-595512.9785
 20
-1157995.6078
 10
-595510.1866
 20
-1158007.3535
 10
-595507.6228
 20
-1158017.8366
 10
-595503.3103
 20
-1158033.5704
 10
-595500.2066
 20
-1158044.8945
 10
-595502.0404
 20
-1158076.2084
 10
-595503.0988
 20
-1158099.7563
 10
-595506.0092
 20
-1158115.3669
 10
-595506.5384
 20
-1158119.071
 10
-595520.2967
 20
-1158148.1753
 10
-595535.1134
 20
-1158163.5212
 10
-595547.4249
 20
-1158174.3933
 10
-595562.4526
 20
-1158182.408
 10
-595576.9406
 20
-1158190.1349
 10
-595592.256
 20
-1158198.303
 10
-595602.0874
 20
-1158199.0594
 10
-595611.6828
 20
-1158199.7975
 10
-595614.6715
 20
-1158190.8313
 10
-595608.5416
 20
-1158176.1193
 10
-595607.1997
 20
-1158172.8988
 10
-595601.4745
 20
-1158164.7199
 10
-595597.8573
 20
-1158159.5525
 10
-595597.2941
 20
-1158156.2904
 10
-595598.6699
 20
-1158152.1629
 10
-595602.1565
 20
-1158149.3725
 10
-595609.1265
 20
-1158150.4729
 10
-595620.2133
 20
-1158152.2235
 10
-595626.0556
 20
-1158153.1459
 10
-595630.0337
 20
-1158155.1298
 10
-595634.093
 20
-1158158.6479
 10
-595645.8482
 20
-1158168.8358
 10
-595650.5364
 20
-1158172.8988
 10
-595657.2784
 20
-1158175.7079
 10
-595666.0331
 20
-1158179.3559
 10
-595669.9809
 20
-1158178.5837
 10
-595675.6713
 20
-1158171.8587
 10
-595680.2878
 20
-1158166.4027
 10
-595683.1981
 20
-1158162.9631
 10
-595684.9068
 20
-1158160.9438
 10
-595686.3612
 20
-1158152.9446
 10
-595691.5131
 20
-1158124.6089
 10
-595693.1769
 20
-1158115.4585
 10
-595698.5004
 20
-1158098.1333
 10
-595702.5451
 20
-1158086.3362
 10
-595707.0767
 20
-1158073.1186
 10
-595709.4911
 20
-1158066.0769
 10
-595711.0937
 20
-1158061.4026
 10
-595713.966
 20
-1158059.183
 10
-595718.7777
 20
-1158058.8622
 10
-595725.4157
 20
-1158058.4196
 10
-595729.8471
 20
-1158055.3063
 10
-595730.9055
 20
-1158048.9562
 10
-595729.8471
 20
-1158034.9333
 10
-595727.7306
 20
-1158026.4666
 10
-595726.4075
 20
-1158016.1479
 10
-595726.4075
 20
-1158002.3895
 10
-595726.9367
 20
-1157975.4019
 10
-595729.2119
 20
-1157973.895
 10
-595730.437
 20
-1157968.4139
 10
-595730.6408
 20
-1157958.204
 10
-595732.7577
 20
-1157951.3249
 10
-595736.69
 20
-1157944.6439
 10
-595739.4723
 20
-1157939.6522
 10
-595740.9529
 20
-1157936.9958
 10
-595743.028
 20
-1157934.222
 10
-595747.6019
 20
-1157928.1078
 10
-595755.187
 20
-1157921.946
 10
-595762.5133
 20
-1157917.9886
 10
-595775.304
 20
-1157910.0259
 10
-595780.215
 20
-1157903.921
 10
-595780.482
 20
-1157901.4507
 10
-595781.362
 20
-1157893.3108
 10
-595780.5592
 20
-1157886.5437
 10
-595778.879
 20
-1157880.9195
 10
-595775.6957
 20
-1157875.7355
 10
-595770.7255
 20
-1157870.6984
 10
-595767.5125
 20
-1157868.4933
 10
-595758.0414
 20
-1157862.9749
 10
-595747.2985
 20
-1157857.9529
 10
-595737.081
 20
-1157853.6079
 10
-595726.7459
 20
-1157851.4825
 10
-595717.5633
 20
-1157849.1057
 10
-595709.242
 20
-1157845.546
 10
-595701.032
 20
-1157839.511
 10
-595698.1366
 20
-1157835.9815
 10
-595692.0793
 20
-1157828.5975
 10
-595688.484
 20
-1157824.215
 10
-595683.6026
 20
-1157819.7188
 10
-595676.899
 20
-1157813.5439
 10
-595668.7296
 20
-1157807.5374
 10
-595656.581
 20
-1157797.006
 10
-595649.948
 20
-1157786.5419
 10
-595648.4527
 20
-1157779.0069
 10
-595647.86
 20
-1157773.1206
 10
-595648.9701
 20
-1157764.9614
 10
-595651.5608
 20
-1157750.682
 10
-595653.768
 20
-1157740.364
 10
-595654.7772
 20
-1157737.7056
 10
-595659.2984
 20
-1157725.7983
 10
-595663.7227
 20
-1157715.2006
 10
-595672.411
 20
-1157696.893
 10
-595678.445
 20
-1157678.1089
 10
-595670.302
 20
-1157645.417
 10
-595660.45
 20
-1157627.0249
 10
-595656.3565
 20
-1157621.9193
 10
-595652.62
 20
-1157617.2588
 10
-595641.064
 20
-1157602.4539
 10
-595627.9309
 20
-1157584.9743
 10
-595620.6055
 20
-1157575.8535
 10
-595614.0407
 20
-1157568.1382
 10
-595604.73
 20
-1157557.196
 10
-595596.8662
 20
-1157549.8578
 10
-595589.228
 20
-1157542.73
 10
-595580.0368
 20
-1157536.5475
 10
-595574.6151
 20
-1157532.9008
 10
-595562.508
 20
-1157524.7569
 10
-595540.7813
 20
-1157513.1252
 10
-595528.6006
 20
-1157507.5505
 10
-595504.414
 20
-1157499.025
 10
-595480.3512
 20
-1157494.7987
 10
-595454.937
 20
-1157494.921
 97
0
 75
0
 76
1
 98
0
  0
HATCH
  5
20021
100
AcDbEntity
  8
plocha Q5
100
AcDbHatch
 10
0
 20
0
 30
0
210
0
220
0
230
1
  2
SOLID
 70
1
 71
0
 91
1
 92
2
 72
0
 73
1
 93
123
 10
-601433.2841
 20
-1158959.4058
 10
-601459.715
 20
-1158943.1436
 10
-601469.2105
 20
-1158935.4415
 10
-601482.2116
 20
-1158905.1055
 10
-601499.0504
 20
-1158855.3989
 10
-601500.6379
 20
-1158834.2321
 10
-601502.2254
 20
-1158826.2946
 10
-601508.5754
 20
-1158813.0654
 10
-601520.7462
 20
-1158787.1362
 10
-601529.7421
 20
-1158773.3778
 10
-601543.5005
 20
-1158756.4446
 10
-601559.6608
 20
-1158740.1602
 10
-601571.7158
 20
-1158730.3375
 10
-601584.664
 20
-1158722.9706
 10
-601602.3001
 20
-1158712.4781
 10
-601630.652
 20
-1158695.9581
 10
-601644.7458
 20
-1158702.2008
 10
-601672.9682
 20
-1158741.1915
 10
-601661.0662
 20
-1158752.3199
 10
-601646.2484
 20
-1158766.7144
 10
-601616.05
 20
-1158796.05
 10
-601602.6005
 20
-1158827.4316
 10
-601605.5894
 20
-1158858.8134
 10
-601626.5105
 20
-1158869.274
 10
-601693.7571
 20
-1158869.274
 10
-601702.7232
 20
-1158875.2514
 10
-601711.6612
 20
-1158898.2869
 10
-601713.1837
 20
-1158905.1387
 10
-601713.1837
 20
-1158917.8406
 10
-601711.6078
 20
-1158935.679
 10
-601708.1726
 20
-1158965.183
 10
-601704.3468
 20
-1158995.0644
 10
-601701.7365
 20
-1159009.8563
 10
-601686.2852
 20
-1159032.1599
 10
-601654.9035
 20
-1159032.1599
 10
-601625.0161
 20
-1159021.6993
 10
-601598.3186
 20
-1159013.3565
 10
-601556.2752
 20
-1159000.7783
 10
-601519.0529
 20
-1159008.963
 10
-601509.9499
 20
-1159011.2389
 10
-601493.0033
 20
-1159021.8304
 10
-601486.0399
 20
-1159026.1825
 10
-601482.6488
 20
-1159039.1819
 10
-601477.0738
 20
-1159060.553
 10
-601481.7187
 20
-1159086.4318
 10
-601486.3595
 20
-1159112.2878
 10
-601487.5344
 20
-1159118.8333
 10
-601485.0134
 20
-1159133.9593
 10
-601480.8438
 20
-1159164.7155
 10
-601478.3971
 20
-1159185.7576
 10
-601474.6689
 20
-1159227.2902
 10
-601469.9959
 20
-1159265.6436
 10
-601462.8112
 20
-1159303.855
 10
-601453.1639
 20
-1159339.9995
 10
-601442.7021
 20
-1159356.1679
 10
-601436.7259
 20
-1159365.4038
 10
-601410.6953
 20
-1159380.4046
 10
-601397.7819
 20
-1159389.2824
 10
-601388.8174
 20
-1159397.0649
 10
-601375.578
 20
-1159410.8557
 10
-601355.9991
 20
-1159428.6808
 10
-601344.0026
 20
-1159438.2755
 10
-601338.3103
 20
-1159442.8282
 10
-601323.323
 20
-1159453.6559
 10
-601298.4857
 20
-1159467.6281
 10
-601266.1021
 20
-1159485.8456
 10
-601245.096
 20
-1159499.4907
 10
-601219.3639
 20
-1159516.9391
 10
-601200.6768
 20
-1159533.8302
 10
-601181.8952
 20
-1159549.356
 10
-601150.102
 20
-1159575.9958
 10
-601116.9077
 20
-1159605.4074
 10
-601100.6248
 20
-1159619.8349
 10
-601080.4329
 20
-1159601.1327
 10
-601100.7791
 20
-1159581.2349
 10
-601132.052
 20
-1159552.4699
 10
-601145.6717
 20
-1159539.7405
 10
-601165.6477
 20
-1159504.508
 10
-601183.4276
 20
-1159494.348
 10
-601200.885
 20
-1159483.6473
 10
-601227.9694
 20
-1159465.0267
 10
-601236.9077
 20
-1159458.8817
 10
-601252.7272
 20
-1159449.6868
 10
-601273.3111
 20
-1159438.9047
 10
-601291.7199
 20
-1159429.2621
 10
-601309.8579
 20
-1159418.4806
 10
-601313.4717
 20
-1159415.5896
 10
-601318.1181
 20
-1159411.8725
 10
-601330.8493
 20
-1159401.0451
 10
-601342.7557
 20
-1159389.1388
 10
-601353.0413
 20
-1159378.8532
 10
-601360.5271
 20
-1159366.6887
 10
-601364.9962
 20
-1159359.4264
 10
-601366.6306
 20
-1159349.6202
 10
-601368.4387
 20
-1159334.2354
 10
-601369.4793
 20
-1159317.584
 10
-601367.2818
 20
-1159304.3987
 10
-601363.4302
 20
-1159278.157
 10
-601360.5132
 20
-1159254.8207
 10
-601357.5245
 20
-1159230.9107
 10
-601353.4603
 20
-1159219.125
 10
-601348.2755
 20
-1159204.089
 10
-601344.5696
 20
-1159193.342
 10
-601342.5808
 20
-1159187.5741
 10
-601339.9392
 20
-1159171.7249
 10
-601338.1229
 20
-1159160.827
 10
-601336.6032
 20
-1159151.7093
 10
-601329.3662
 20
-1159140.8539
 10
-601321.6596
 20
-1159129.2939
 10
-601320.1653
 20
-1159106.8783
 10
-601322.8733
 20
-1159095.3693
 10
-601326.1427
 20
-1159081.4741
 10
-601327.0382
 20
-1159069.8315
 10
-601327.637
 20
-1159062.0472
 10
-601331.6541
 20
-1159052.8654
 10
-601338.0976
 20
-1159038.1375
 10
-601355.3816
 20
-1159029.4955
 10
-601379.993
 20
-1159018.3941
 10
-601385.9174
 20
-1159015.7218
 10
-601390.2288
 20
-1159007.0989
 10
-601401.0239
 20
-1158985.5089
 10
-601405.3441
 20
-1158976.8684
 10
-601433.2841
 20
-1158959.4058
 97
0
 75
0
 76
1
 98
0
  0
HATCH
  5
20022
100
AcDbEntity
  8
plocha Q5
100
AcDbHatch
 10
0
 20
0
 30
0
210
0
220
0
230
1
  2
SOLID
 70
1
 71
0
 91
1
 92
2
 72
0
 73
1
 93
618
 10
-592900.6529
 20
-1156231.3019
 10
-592890.2608
 20
-1156225.5023
 10
-592876.2591
 20
-1156215.9862
 10
-592867.718
 20
-1156209.914
 10
-592860.9538
 20
-1156204.123
 10
-592852.5387
 20
-1156196.9189
 10
-592848.4624
 20
-1156193.4293
 10
-592846.5499
 20
-1156191.7919
 10
-592843.0059
 20
-1156186.7466
 10
-592840.0026
 20
-1156182.4713
 10
-592837.27
 20
-1156178.5809
 10
-592835.5396
 20
-1156171.6382
 10
-592834.0629
 20
-1156165.713
 10
-592833.6417
 20
-1156156.6947
 10
-592833.635
 20
-1156146.7619
 10
-592834.5059
 20
-1156135.9219
 10
-592834.9994
 20
-1156123.9755
 10
-592835.0014
 20
-1156112.3031
 10
-592834.4569
 20
-1156100.023
 10
-592833.2924
 20
-1156088.3809
 10
-592831.8655
 20
-1156081.0149
 10
-592830.3809
 20
-1156075.201
 10
-592825.102
 20
-1156064.55
 10
-592819.0913
 20
-1156057.2088
 10
-592815.074
 20
-1156052.3019
 10
-592808.8728
 20
-1156043.3454
 10
-592804.2815
 20
-1156036.7139
 10
-592800.1776
 20
-1156031.149
 10
-592792.9956
 20
-1156022.4193
 10
-592788.4565
 20
-1156016.4521
 10
-592782.2577
 20
-1156005.9947
 10
-592777.0219
 20
-1155997.365
 10
-592774.604
 20
-1155993.434
 10
-592770.6604
 20
-1155982.069
 10
-592766.5559
 20
-1155970.1196
 10
-592762.5074
 20
-1155957.8894
 10
-592758.0789
 20
-1155946.3508
 10
-592752.1952
 20
-1155932.209
 10
-592747.6809
 20
-1155921.9831
 10
-592745.294
 20
-1155916.0038
 10
-592741.5792
 20
-1155905.4103
 10
-592738.8827
 20
-1155897.3753
 10
-592735.927
 20
-1155886.9198
 10
-592732.527
 20
-1155874.6118
 10
-592729.1695
 20
-1155862.0834
 10
-592723.159
 20
-1155838.6249
 10
-592720.701
 20
-1155825.2299
 10
-592719.9688
 20
-1155816.297
 10
-592718.868
 20
-1155801.4113
 10
-592718.185
 20
-1155790.427
 10
-592717.2627
 20
-1155765.6494
 10
-592716.516
 20
-1155750.4279
 10
-592715.133
 20
-1155728.191
 10
-592712.878
 20
-1155712.3219
 10
-592712.9521
 20
-1155701.916
 10
-592712.9842
 20
-1155697.4032
 10
-592713.0747
 20
-1155684.7039
 10
-592728.8389
 20
-1155684.6895
 10
-592727.9931
 20
-1155703.2865
 10
-592729.0541
 20
-1155732.9253
 10
-592729.8411
 20
-1155745.5764
 10
-592731.162
 20
-1155771.4379
 10
-592732.4439
 20
-1155800.5959
 10
-592733.8097
 20
-1155818.6715
 10
-592735.1701
 20
-1155828.728
 10
-592735.904
 20
-1155832.7296
 10
-592738.7685
 20
-1155844.8572
 10
-592741.142
 20
-1155854.2198
 10
-592746.3769
 20
-1155873.7554
 10
-592751.2572
 20
-1155891.1575
 10
-592753.7291
 20
-1155898.961
 10
-592758.928
 20
-1155913.783
 10
-592763.7758
 20
-1155924.7655
 10
-592768.8845
 20
-1155936.7371
 10
-592772.9651
 20
-1155946.9588
 10
-592775.4087
 20
-1155953.5877
 10
-592778.5906
 20
-1155963.1998
 10
-592781.3932
 20
-1155971.5148
 10
-592783.9686
 20
-1155978.9366
 10
-592786.966
 20
-1155987.5739
 10
-592791.982
 20
-1155995.7289
 10
-592794.6624
 20
-1156000.2508
 10
-592800.576
 20
-1156010.2269
 10
-592805.0127
 20
-1156015.6198
 10
-592812.622
 20
-1156024.869
 10
-592818.8449
 20
-1156033.8568
 10
-592825.0271
 20
-1156042.7857
 10
-592830.9144
 20
-1156050.181
 10
-592836.602
 20
-1156057.128
 10
-592839.919
 20
-1156064.1089
 10
-592843.2434
 20
-1156071.6189
 10
-592845.3325
 20
-1156079.4361
 10
-592847.1775
 20
-1156092.0446
 10
-592848.3675
 20
-1156106.7292
 10
-592848.7124
 20
-1156121.5159
 10
-592848.2401
 20
-1156132.961
 10
-592847.4187
 20
-1156145.0276
 10
-592847.195
 20
-1156155.3692
 10
-592847.4043
 20
-1156159.8573
 10
-592847.585
 20
-1156163.7329
 10
-592849.854
 20
-1156172.8349
 10
-592854.1467
 20
-1156178.9466
 10
-592857.678
 20
-1156183.974
 10
-592866.9863
 20
-1156192.0602
 10
-592880.2824
 20
-1156202.8953
 10
-592891.8144
 20
-1156211.0947
 10
-592900.5468
 20
-1156216.3558
 10
-592906.8759
 20
-1156219.8879
 10
-592912.4575
 20
-1156222.3999
 10
-592925.0907
 20
-1156226.5711
 10
-592932.8504
 20
-1156228.7714
 10
-592942.3473
 20
-1156230.5757
 10
-592952.07
 20
-1156232.4228
 10
-592961.8644
 20
-1156232.2904
 10
-592973.348
 20
-1156232.135
 10
-592985.8048
 20
-1156229.5859
 10
-592997.603
 20
-1156227.172
 10
-593012.8189
 20
-1156221.7528
 10
-593031.2177
 20
-1156215.5618
 10
-593046.3677
 20
-1156210.3355
 10
-593056.9195
 20
-1156205.4835
 10
-593067.3855
 20
-1156200.8595
 10
-593084.1123
 20
-1156192.6967
 10
-593095.0672
 20
-1156187.1518
 10
-593105.4069
 20
-1156181.1742
 10
-593115.2537
 20
-1156174.6088
 10
-593122.2606
 20
-1156169.1749
 10
-593128.5186
 20
-1156163.8697
 10
-593134.1569
 20
-1156159.09
 10
-593143.2819
 20
-1156154.7014
 10
-593153.355
 20
-1156149.857
 10
-593173.491
 20
-1156143.6669
 10
-593192.547
 20
-1156144.2458
 10
-593205.8158
 20
-1156146.6697
 10
-593220.3678
 20
-1156152.7551
 10
-593228.3054
 20
-1156161.4865
 10
-593238.3596
 20
-1156173.1281
 10
-593248.6782
 20
-1156185.0344
 10
-593259.5263
 20
-1156196.1468
 10
-593268.2575
 20
-1156205.9365
 10
-593274.8722
 20
-1156212.0219
 10
-593283.6034
 20
-1156219.1656
 10
-593295.7743
 20
-1156230.0135
 10
-593304.2409
 20
-1156236.6283
 10
-593312.443
 20
-1156242.449
 10
-593322.7617
 20
-1156249.8574
 10
-593332.5514
 20
-1156256.2075
 10
-593349.7493
 20
-1156269.9659
 10
-593365.0952
 20
-1156279.4908
 10
-593372.5036
 20
-1156286.37
 10
-593385.9974
 20
-1156296.9532
 10
-593397.1099
 20
-1156306.7429
 10
-593407.1641
 20
-1156316.2679
 10
-593415.1016
 20
-1156325.2638
 10
-593419.8641
 20
-1156331.0847
 10
-593425.1558
 20
-1156335.5826
 10
-593434.4162
 20
-1156344.8431
 10
-593446.5871
 20
-1156354.8972
 10
-593458.4932
 20
-1156363.8932
 10
-593464.8433
 20
-1156368.1264
 10
-593473.0454
 20
-1156384.7953
 10
-593474.633
 20
-1156395.3786
 10
-593474.3684
 20
-1156405.6974
 10
-593472.2517
 20
-1156426.3348
 10
-593470.6642
 20
-1156432.9496
 10
-593469.3413
 20
-1156441.6808
 10
-593468.2829
 20
-1156447.5016
 10
-593467.7538
 20
-1156451.4704
 10
-593466.4309
 20
-1156457.5558
 10
-593465.3725
 20
-1156468.6683
 10
-593464.5788
 20
-1156474.2245
 10
-593465.3725
 20
-1156483.2204
 10
-593466.4309
 20
-1156492.2162
 10
-593468.5474
 20
-1156498.8307
 10
-593472.7808
 20
-1156521.8496
 10
-593475.6913
 20
-1156535.608
 10
-593482.3059
 20
-1156574.5018
 10
-593486.2746
 20
-1156600.1665
 10
-593489.4497
 20
-1156618.1582
 10
-593490.7725
 20
-1156627.4187
 10
-593490.7725
 20
-1156646.4687
 10
-593490.2434
 20
-1156665.2541
 10
-593487.5976
 20
-1156677.6895
 10
-593483.8933
 20
-1156686.95
 10
-593475.4267
 20
-1156709.9688
 10
-593461.542
 20
-1156732.728
 10
-593453.2239
 20
-1156743.0597
 10
-593443.776
 20
-1156753.301
 10
-593433.466
 20
-1156761.3625
 10
-593421.734
 20
-1156770.5359
 10
-593407.07
 20
-1156779.56
 10
-593398.4657
 20
-1156784.067
 10
-593387.2161
 20
-1156790.2519
 10
-593380.7645
 20
-1156794.7205
 10
-593374.0501
 20
-1156800.1511
 10
-593368.2351
 20
-1156808.2678
 10
-593363.04
 20
-1156817.8338
 10
-593358.8329
 20
-1156839.628
 10
-593356.382
 20
-1156856.472
 10
-593354.071
 20
-1156867.1349
 10
-593352.4284
 20
-1156870.5869
 10
-593349.2949
 20
-1156875.1864
 10
-593344.036
 20
-1156880.9879
 10
-593333.349
 20
-1156888.5179
 10
-593320.1556
 20
-1156896.4941
 10
-593302.9408
 20
-1156906.5118
 10
-593297.9995
 20
-1156909.3871
 10
-593287.533
 20
-1156915.4779
 10
-593264.111
 20
-1156926.7579
 10
-593249.9409
 20
-1156931.856
 10
-593230.202
 20
-1156936.368
 10
-593218.965
 20
-1156937.0929
 10
-593209.9249
 20
-1156935.177
 10
-593202.922
 20
-1156933.9243
 10
-593194.249
 20
-1156933.573
 10
-593179.087
 20
-1156934.1468
 10
-593166.5375
 20
-1156935.7963
 10
-593154.896
 20
-1156941.4869
 10
-593144.0277
 20
-1156946.5398
 10
-593130.1784
 20
-1156952.9785
 10
-593118.8323
 20
-1156958.3733
 10
-593109.7766
 20
-1156963.2194
 10
-593104.3249
 20
-1156965.8301
 10
-593098.8545
 20
-1156968.0197
 10
-593093.0686
 20
-1156968.7064
 10
-593088.833
 20
-1156969.2089
 10
-593079.6206
 20
-1156969.0648
 10
-593072.4579
 20
-1156968.9527
 10
-593065.0738
 20
-1156969.0755
 10
-593057.9135
 20
-1156969.5269
 10
-593055.736
 20
-1156969.7906
 10
-593049.0864
 20
-1156974.2914
 10
-593041.467
 20
-1156981.3499
 10
-593033.8773
 20
-1156988.1803
 10
-593028.0645
 20
-1156993.4115
 10
-593024.1212
 20
-1156997.5959
 10
-593018.762
 20
-1157003.2829
 10
-593013.994
 20
-1157010.9321
 10
-593010.6971
 20
-1157016.2213
 10
-593007.584
 20
-1157023.5487
 10
-593006.6784
 20
-1157029.6782
 10
-593006.3059
 20
-1157032.1989
 10
-593007.0127
 20
-1157038.329
 10
-593007.4799
 20
-1157042.382
 10
-593012.6444
 20
-1157051.9778
 10
-593016.5604
 20
-1157059.2407
 10
-593019.9979
 20
-1157065.6126
 10
-593022.5219
 20
-1157070.2857
 10
-593029.6673
 20
-1157079.2768
 10
-593038.7269
 20
-1157089.8316
 10
-593045.4526
 20
-1157097.5052
 10
-593052.2414
 20
-1157105.6142
 10
-593056.1352
 20
-1157110.4896
 10
-593058.7365
 20
-1157113.7468
 10
-593060.5503
 20
-1157116.1754
 10
-593063.8446
 20
-1157120.7917
 10
-593066.6743
 20
-1157124.9097
 10
-593070.7298
 20
-1157129.6493
 10
-593074.4244
 20
-1157133.967
 10
-593077.6795
 20
-1157137.7713
 10
-593089.7186
 20
-1157148.8535
 10
-593105.148
 20
-1157162.4614
 10
-593119.2401
 20
-1157174.3285
 10
-593128.373
 20
-1157181.943
 10
-593140.5872
 20
-1157189.6555
 10
-593155.3626
 20
-1157197.1799
 10
-593171.3709
 20
-1157205.0863
 10
-593182.151
 20
-1157210.2749
 10
-593194.3975
 20
-1157216.1692
 10
-593209.252
 20
-1157223.3189
 10
-593222.0556
 20
-1157230.4363
 10
-593226.867
 20
-1157233.111
 10
-593234.6469
 20
-1157240.1165
 10
-593241.5291
 20
-1157246.3139
 10
-593250.6498
 20
-1157252.9528
 10
-593264.5839
 20
-1157260.2906
 10
-593276.5224
 20
-1157267.5447
 10
-593288.5133
 20
-1157275.3524
 10
-593305.631
 20
-1157284.8043
 10
-593327.0689
 20
-1157295.8578
 10
-593349.4701
 20
-1157307.6627
 10
-593362.6392
 20
-1157314.9515
 10
-593369.0667
 20
-1157318.5653
 10
-593373.5885
 20
-1157321.1075
 10
-593378.5163
 20
-1157324.2658
 10
-593383.43
 20
-1157327.58
 10
-593390.2728
 20
-1157333.0142
 10
-593401.072
 20
-1157342.2605
 10
-593411.8686
 20
-1157351.7768
 10
-593419.2885
 20
-1157358.317
 10
-593425.6627
 20
-1157365.7757
 10
-593430.754
 20
-1157372.133
 10
-593440.228
 20
-1157384.7373
 10
-593445.5686
 20
-1157392.5416
 10
-593450.1959
 20
-1157400.5627
 10
-593453.3043
 20
-1157406.7917
 10
-593463.3274
 20
-1157429.1113
 10
-593468.0731
 20
-1157439.7823
 10
-593478.0725
 20
-1157456.6245
 10
-593493.9475
 20
-1157484.6703
 10
-593497.6367
 20
-1157492.5677
 10
-593505.9959
 20
-1157503.0255
 10
-593509.2119
 20
-1157507.0489
 10
-593513.1373
 20
-1157515.4207
 10
-593515.7561
 20
-1157521.0061
 10
-593518.7088
 20
-1157527.3033
 10
-593525.1013
 20
-1157542.367
 10
-593527.733
 20
-1157549.5638
 10
-593531.3171
 20
-1157564.1065
 10
-593536.2134
 20
-1157580.2856
 10
-593542.508
 20
-1157600.227
 10
-593543.2567
 20
-1157603.8231
 10
-593545.5974
 20
-1157615.0636
 10
-593550.4608
 20
-1157630.3936
 10
-593557.0073
 20
-1157650.184
 10
-593562.4124
 20
-1157666.1927
 10
-593569.004
 20
-1157682.8279
 10
-593575.6345
 20
-1157691.5032
 10
-593585.4235
 20
-1157704.3987
 10
-593599.6521
 20
-1157723.5718
 10
-593622.3377
 20
-1157751.2223
 10
-593642.338
 20
-1157775.8517
 10
-593653.5116
 20
-1157789.8948
 10
-593660.9207
 20
-1157799.3003
 10
-593671.572
 20
-1157812.8549
 10
-593681.6204
 20
-1157824.2685
 10
-593695.0471
 20
-1157837.3898
 10
-593701.5283
 20
-1157843.3546
 10
-593712.2193
 20
-1157853.201
 10
-593731.2808
 20
-1157870.7263
 10
-593748.1737
 20
-1157885.9087
 10
-593759.8531
 20
-1157895.3904
 10
-593769.6029
 20
-1157902.6259
 10
-593777.365
 20
-1157906.8119
 10
-593785.4521
 20
-1157908.2383
 10
-593802.324
 20
-1157904.8909
 10
-593816.3073
 20
-1157901.3624
 10
-593825.0962
 20
-1157896.9774
 10
-593831.8736
 20
-1157891.252
 10
-593841.6416
 20
-1157881.8432
 10
-593850.5188
 20
-1157872.993
 10
-593859.9016
 20
-1157863.3021
 10
-593866.45
 20
-1157856.4829
 10
-593870.939
 20
-1157849.0279
 10
-593876.0235
 20
-1157840.4955
 10
-593885.1316
 20
-1157829.1679
 10
-593914.1206
 20
-1157824.0706
 10
-593908.5803
 20
-1157834.2786
 10
-593900.8494
 20
-1157847.8144
 10
-593895.911
 20
-1157856.461
 10
-593891.4027
 20
-1157864.3042
 10
-593886.8563
 20
-1157872.2137
 10
-593880.2497
 20
-1157883.708
 10
-593874.1514
 20
-1157894.3174
 10
-593870.253
 20
-1157901.0999
 10
-593862.2031
 20
-1157913.7237
 10
-593856.705
 20
-1157922.3459
 10
-593849.2
 20
-1157933.2799
 10
-593842.599
 20
-1157942.8972
 10
-593838.9197
 20
-1157948.4301
 10
-593832.362
 20
-1157958.7999
 10
-593821.349
 20
-1157968.5909
 10
-593815.2038
 20
-1157970.582
 10
-593805.0829
 20
-1157973.8613
 10
-593796.1022
 20
-1157976.7964
 10
-593782.6086
 20
-1157976.7964
 10
-593775.2002
 20
-1157975.2088
 10
-593758.796
 20
-1157970.4464
 10
-593750.0647
 20
-1157965.6838
 10
-593742.3918
 20
-1157960.6567
 10
-593737.1001
 20
-1157956.1588
 10
-593726.7011
 20
-1157940.2582
 10
-593717.4907
 20
-1157926.2087
 10
-593714.3151
 20
-1157921.2071
 10
-593709.8141
 20
-1157911.9719
 10
-593702.1998
 20
-1157895.6811
 10
-593695.2828
 20
-1157880.8822
 10
-593689.807
 20
-1157869.167
 10
-593682.4491
 20
-1157858.1814
 10
-593670.5667
 20
-1157840.4406
 10
-593661.0526
 20
-1157826.2357
 10
-593649.122
 20
-1157808.4229
 10
-593639.4182
 20
-1157796.49
 10
-593627.0001
 20
-1157781.2517
 10
-593616.3449
 20
-1157768.4362
 10
-593607.3079
 20
-1157757.567
 10
-593595.1118
 20
-1157742.8718
 10
-593585.0963
 20
-1157730.8038
 10
-593572.839
 20
-1157716.0348
 10
-593565.8238
 20
-1157707.2587
 10
-593560.395
 20
-1157700.4669
 10
-593555.039
 20
-1157687.217
 10
-593548.6804
 20
-1157669.5323
 10
-593538.6962
 20
-1157639.2583
 10
-593532.401
 20
-1157618.118
 10
-593530.459
 20
-1157611.4979
 10
-593526.5552
 20
-1157601.2885
 10
-593519.682
 20
-1157582.3691
 10
-593513.7739
 20
-1157565.2928
 10
-593507.6208
 20
-1157547.5077
 10
-593503.0147
 20
-1157534.1943
 10
-593498.6278
 20
-1157524.1788
 10
-593490.5456
 20
-1157505.6336
 10
-593485.404
 20
-1157495.1828
 10
-593481.7525
 20
-1157488.6006
 10
-593473.8383
 20
-1157475.4103
 10
-593465.4107
 20
-1157461.364
 10
-593456.773
 20
-1157446.9675
 10
-593451.6837
 20
-1157438.4853
 10
-593444.2832
 20
-1157426.1509
 10
-593436.3314
 20
-1157414.6261
 10
-593426.3634
 20
-1157400.7642
 10
-593419.5062
 20
-1157392.6542
 10
-593412.4498
 20
-1157384.8518
 10
-593406.3022
 20
-1157378.054
 10
-593394.6021
 20
-1157365.1168
 10
-593382.5123
 20
-1157353.0193
 10
-593369.137
 20
-1157343.6189
 10
-593355.7287
 20
-1157334.2362
 10
-593338.7921
 20
-1157322.5754
 10
-593320.4683
 20
-1157312.2193
 10
-593312.3161
 20
-1157308.3091
 10
-593303.8952
 20
-1157305.19
 10
-593296.5081
 20
-1157303.1145
 10
-593287.124
 20
-1157300.4779
 10
-593273.4262
 20
-1157295.2271
 10
-593262.5311
 20
-1157290.5298
 10
-593252.0439
 20
-1157285.5962
 10
-593234.4972
 20
-1157277.3415
 10
-593219.9195
 20
-1157270.4834
 10
-593203.281
 20
-1157262.7004
 10
-593189.8369
 20
-1157256.6925
 10
-593181.4059
 20
-1157252.4931
 10
-593169.8939
 20
-1157247.002
 10
-593157.711
 20
-1157242.089
 10
-593150.2868
 20
-1157239.498
 10
-593136.575
 20
-1157234.7129
 10
-593127.6056
 20
-1157228.9456
 10
-593120.365
 20
-1157224.2899
 10
-593108.9144
 20
-1157210.9912
 10
-593101.4999
 20
-1157200.7242
 10
-593095.4529
 20
-1157191.4029
 10
-593087.906
 20
-1157179.9089
 10
-593081.2415
 20
-1157171.2271
 10
-593073.8437
 20
-1157161.5895
 10
-593068.5887
 20
-1157154.7437
 10
-593062.494
 20
-1157146.804
 10
-593053.6702
 20
-1157138.3519
 10
-593040.6796
 20
-1157125.9087
 10
-593029.5534
 20
-1157115.6317
 10
-593027.352
 20
-1157113.682
 10
-593019.4859
 20
-1157105.1151
 10
-593010.3749
 20
-1157094.7797
 10
-593005.6276
 20
-1157088.6519
 10
-592995.3192
 20
-1157072.3036
 10
-592989.6308
 20
-1157063.3923
 10
-592984.3787
 20
-1157055.1649
 10
-592979.6939
 20
-1157045.9529
 10
-592977.676
 20
-1157039.3539
 10
-592977.417
 20
-1157032.788
 10
-592978.565
 20
-1157025.0559
 10
-592981.722
 20
-1157015.7169
 10
-592985.639
 20
-1157005.8559
 10
-592991.9712
 20
-1156997.5869
 10
-593000.8539
 20
-1156987.1711
 10
-593009.3897
 20
-1156977.734
 10
-593016.3812
 20
-1156971.0608
 10
-593022.612
 20
-1156965.2029
 10
-593029.7205
 20
-1156959.381
 10
-593033.0511
 20
-1156957.1454
 10
-593043.6616
 20
-1156951.4142
 10
-593051.2683
 20
-1156947.7349
 10
-593060.3709
 20
-1156944.8209
 10
-593076.5216
 20
-1156941.3582
 10
-593087.789
 20
-1156939.217
 10
-593107.3499
 20
-1156936.685
 10
-593121.0818
 20
-1156935.5486
 10
-593133.2849
 20
-1156934.2682
 10
-593146.526
 20
-1156932.8789
 10
-593160.4024
 20
-1156931.1148
 10
-593170.9167
 20
-1156929.778
 10
-593178.5756
 20
-1156929.0417
 10
-593193.1284
 20
-1156928.8215
 10
-593205.2152
 20
-1156929.3697
 10
-593211.174
 20
-1156930.4759
 10
-593217.6809
 20
-1156932.2509
 10
-593224.6349
 20
-1156931.6761
 10
-593228.8924
 20
-1156929.499
 10
-593232.9611
 20
-1156921.8097
 10
-593236.6992
 20
-1156913.2599
 10
-593238.199
 20
-1156909.83
 10
-593243.7669
 20
-1156905.5133
 10
-593246.7652
 20
-1156904.1283
 10
-593251.2779
 20
-1156902.0437
 10
-593255.0239
 20
-1156899.7595
 10
-593259.7325
 20
-1156896.2477
 10
-593265.3315
 20
-1156892.0717
 10
-593271.1465
 20
-1156887.7344
 10
-593276.5151
 20
-1156883.0088
 10
-593281.4773
 20
-1156878.2119
 10
-593286.3778
 20
-1156873.087
 10
-593291.5543
 20
-1156867.6735
 10
-593303.1475
 20
-1156854.3487
 10
-593313.7935
 20
-1156841.6796
 10
-593321.1879
 20
-1156834.239
 10
-593333.9962
 20
-1156826.3529
 10
-593350.4862
 20
-1156816.163
 10
-593360.5152
 20
-1156811.1905
 10
-593363.8701
 20
-1156804.9466
 10
-593367.203
 20
-1156799.6749
 10
-593370.2874
 20
-1156796.4085
 10
-593372.528
 20
-1156794.036
 10
-593378.7889
 20
-1156789.912
 10
-593383.749
 20
-1156786.6449
 10
-593390.671
 20
-1156782.8495
 10
-593399.05
 20
-1156778.4519
 10
-593410.0145
 20
-1156772.0146
 10
-593418.5589
 20
-1156766.6129
 10
-593426.8117
 20
-1156760.3104
 10
-593435.27
 20
-1156753.851
 10
-593442.7259
 20
-1156746.5919
 10
-593448.255
 20
-1156741.2089
 10
-593453.5798
 20
-1156733.5963
 10
-593463.115
 20
-1156719.9649
 10
-593467.9232
 20
-1156709.1328
 10
-593473.6598
 20
-1156695.7198
 10
-593478.2093
 20
-1156681.46
 10
-593480.9085
 20
-1156672.999
 10
-593482.658
 20
-1156667.516
 10
-593484.1643
 20
-1156650.7264
 10
-593484.1911
 20
-1156637.2018
 10
-593482.4992
 20
-1156624.3388
 10
-593480.0402
 20
-1156608.8374
 10
-593476.5382
 20
-1156586.7609
 10
-593474.1229
 20
-1156571.5336
 10
-593471.0947
 20
-1156553.5156
 10
-593466.1
 20
-1156527.9541
 10
-593460.7457
 20
-1156500.553
 10
-593458.9237
 20
-1156491.229
 10
-593457.383
 20
-1156483.344
 10
-593456.53
 20
-1156470.394
 10
-593457.2895
 20
-1156463.8277
 10
-593458.4348
 20
-1156453.9259
 10
-593459.8249
 20
-1156446.9243
 10
-593462.1978
 20
-1156436.0882
 10
-593463.6323
 20
-1156428.5229
 10
-593464.5015
 20
-1156423.939
 10
-593465.8079
 20
-1156417.0489
 10
-593466.2594
 20
-1156407.0244
 10
-593466.622
 20
-1156398.972
 10
-593465.455
 20
-1156390.2959
 10
-593461.9506
 20
-1156382.5748
 10
-593458.7158
 20
-1156377.0647
 10
-593456.046
 20
-1156373.7482
 10
-593449.253
 20
-1156366.8909
 10
-593443.3211
 20
-1156362.3436
 10
-593438.4441
 20
-1156358.6048
 10
-593434.283
 20
-1156355.4149
 10
-593428.9264
 20
-1156349.7945
 10
-593420.7232
 20
-1156341.6208
 10
-593414.818
 20
-1156337.3669
 10
-593411.8557
 20
-1156333.7892
 10
-593406.952
 20
-1156327.8662
 10
-593405.002
 20
-1156325.5109
 10
-593404.015
 20
-1156323.145
 10
-593399.0051
 20
-1156318.7473
 10
-593393.637
 20
-1156314.035
 10
-593389.7849
 20
-1156310.6536
 10
-593383.5932
 20
-1156305.2183
 10
-593374.6718
 20
-1156297.3871
 10
-593367.0749
 20
-1156290.718
 10
-593359.6839
 20
-1156285.6303
 10
-593349.9638
 20
-1156278.9397
 10
-593331.2184
 20
-1156266.0367
 10
-593324.0234
 20
-1156261.0842
 10
-593319.1738
 20
-1156257.7461
 10
-593313.3706
 20
-1156253.7515
 10
-593300.838
 20
-1156244.1217
 10
-593289.6018
 20
-1156235.1498
 10
-593278.0142
 20
-1156225.5297
 10
-593270.3494
 20
-1156218.4417
 10
-593257.4749
 20
-1156206.537
 10
-593246.8783
 20
-1156196.0868
 10
-593233.4319
 20
-1156183.6591
 10
-593225.0476
 20
-1156176.1014
 10
-593215.0059
 20
-1156167.05
 10
-593206.29
 20
-1156163.6216
 10
-593199.1533
 20
-1156160.8144
 10
-593189.893
 20
-1156157.172
 10
-593175.2509
 20
-1156156.7269
 10
-593164.6489
 20
-1156159.9863
 10
-593158.109
 20
-1156161.997
 10
-593146.8607
 20
-1156167.4056
 10
-593141.2329
 20
-1156170.1119
 10
-593135.3963
 20
-1156175.4885
 10
-593132.631
 20
-1156178.036
 10
-593125.373
 20
-1156183.2226
 10
-593116.4141
 20
-1156189.6245
 10
-593108.1113
 20
-1156194.6264
 10
-593094.4826
 20
-1156202.0757
 10
-593085.4636
 20
-1156206.5268
 10
-593074.7
 20
-1156211.839
 10
-593061.3496
 20
-1156217.8899
 10
-593049.038
 20
-1156223.419
 10
-593032.7058
 20
-1156228.751
 10
-593019.1682
 20
-1156233.2906
 10
-593009.6798
 20
-1156236.67
 10
-593001.105
 20
-1156239.724
 10
-592991.5614
 20
-1156241.6769
 10
-592979.158
 20
-1156244.2152
 10
-592968.7393
 20
-1156245.1982
 10
-592958.1686
 20
-1156245.3411
 10
-592948.9608
 20
-1156245.0641
 10
-592938.3581
 20
-1156243.05
 10
-592927.003
 20
-1156240.8929
 10
-592908.1903
 20
-1156234.681
 10
-592904.559
 20
-1156233.4819
 10
-592900.6529
 20
-1156231.3019
 97
0
 75
0
 76
1
 98
0
  0
HATCH
  5
20023
100
AcDbEntity
  8
plocha Q5
100
AcDbHatch
 10
0
 20
0
 30
0
210
0
220
0
230
1
  2
SOLID
 70
1
 71
0
 91
1
 92
2
 72
0
 73
1
 93
187
 10
-600543.026
 20
-1161933.8023
 10
-600576.9284
 20
-1161920.1446
 10
-600601.3353
 20
-1161904.3248
 10
-600621.1356
 20
-1161892.6692
 10
-600641.533
 20
-1161881.327
 10
-600659.6829
 20
-1161871.9783
 10
-600683.2311
 20
-1161860.3313
 10
-600698.2898
 20
-1161852.8832
 10
-600713.5945
 20
-1161844.1707
 10
-600729.9591
 20
-1161833.0002
 10
-600747.653
 20
-1161820.9223
 10
-600752.62
 20
-1161817.5318
 10
-600764.926
 20
-1161809.836
 10
-600777.671
 20
-1161799.5029
 10
-600788.3988
 20
-1161782.8179
 10
-600799.674
 20
-1161759.534
 10
-600815.7146
 20
-1161726.2703
 10
-600846.6292
 20
-1161666.7062
 10
-600869.5177
 20
-1161638.6317
 10
-600894.3159
 20
-1161608.2144
 10
-600907.4009
 20
-1161591.9108
 10
-600918.0991
 20
-1161578.4467
 10
-600928.8501
 20
-1161564.9159
 10
-600937.0976
 20
-1161553.6435
 10
-600949.0739
 20
-1161533.6269
 10
-600963.8482
 20
-1161507.2172
 10
-600976.4796
 20
-1161478.904
 10
-600984.728
 20
-1161457.4498
 10
-600986.0778
 20
-1161453.939
 10
-600997.163
 20
-1161425.1069
 10
-601013.565
 20
-1161392.913
 10
-601028.5028
 20
-1161364.8966
 10
-601044.45
 20
-1161334.9869
 10
-601058.6641
 20
-1161314.2212
 10
-601069.1026
 20
-1161298.9716
 10
-601080.8271
 20
-1161281.8431
 10
-601091.2656
 20
-1161266.5933
 10
-601096.399
 20
-1161259.0938
 10
-601112.2781
 20
-1161247.6306
 10
-601130.101
 20
-1161234.7639
 10
-601142.9967
 20
-1161215.6946
 10
-601158.676
 20
-1161192.5088
 10
-601174.132
 20
-1161170.0319
 10
-601195.5221
 20
-1161188.2297
 10
-601182.4528
 20
-1161205.344
 10
-601171.473
 20
-1161223.59
 10
-601156.544
 20
-1161249.7269
 10
-601145.4765
 20
-1161264.2909
 10
-601135.1049
 20
-1161272.9407
 10
-601127.355
 20
-1161277.7902
 10
-601123.921
 20
-1161279.9389
 10
-601111.7675
 20
-1161298.0772
 10
-601102.751
 20
-1161311.5339
 10
-601091.5952
 20
-1161329.6676
 10
-601080.0244
 20
-1161348.476
 10
-601069.0163
 20
-1161366.3698
 10
-601054.059
 20
-1161390.683
 10
-601044.288
 20
-1161411.529
 10
-601037.2775
 20
-1161430.6472
 10
-601031.7649
 20
-1161442.216
 10
-601031.2909
 20
-1161447.7021
 10
-601030.5827
 20
-1161455.8987
 10
-601029.7816
 20
-1161465.1715
 10
-601028.631
 20
-1161478.4889
 10
-601020.9234
 20
-1161495.6316
 10
-601015.973
 20
-1161506.642
 10
-601000.379
 20
-1161526.9379
 10
-600985.545
 20
-1161535.4369
 10
-600979.206
 20
-1161541.526
 10
-600971.4467
 20
-1161553.61
 10
-600953.1041
 20
-1161580.124
 10
-600937.6612
 20
-1161601.6709
 10
-600909.8907
 20
-1161640.4181
 10
-600889.4978
 20
-1161670.2516
 10
-600869.1909
 20
-1161700.8051
 10
-600856.6685
 20
-1161718.5707
 10
-600844.635
 20
-1161734.9689
 10
-600835.2668
 20
-1161751.8258
 10
-600829.8333
 20
-1161764.4593
 10
-600823.465
 20
-1161779.267
 10
-600813.043
 20
-1161795.2269
 10
-600797.409
 20
-1161811.839
 10
-600786.8239
 20
-1161820.6329
 10
-600775.2696
 20
-1161828.9597
 10
-600764.676
 20
-1161836.5938
 10
-600749.0461
 20
-1161845.5588
 10
-600737.5801
 20
-1161851.3072
 10
-600715.9977
 20
-1161860.7616
 10
-600711.0056
 20
-1161863.3924
 10
-600700.7583
 20
-1161868.7927
 10
-600684.7747
 20
-1161877.216
 10
-600670.5371
 20
-1161884.7193
 10
-600658.5646
 20
-1161892.301
 10
-600644.3602
 20
-1161902.5034
 10
-600630.9467
 20
-1161913.255
 10
-600617.3389
 20
-1161924.1624
 10
-600605.899
 20
-1161933.3319
 10
-600586.032
 20
-1161941.149
 10
-600567.4112
 20
-1161945.4939
 10
-600552.2995
 20
-1161949.3886
 10
-600526.6496
 20
-1161957.5123
 10
-600510.2139
 20
-1161961.5782
 10
-600474.6176
 20
-1161962.0939
 10
-600443.3438
 20
-1161961.0793
 10
-600395.7173
 20
-1161959.5339
 10
-600327.6934
 20
-1161955.4343
 10
-600298.249
 20
-1161952.4579
 10
-600271.6289
 20
-1161948.9084
 10
-600262.289
 20
-1161947.663
 10
-600240.8172
 20
-1161942.7201
 10
-600217.0064
 20
-1161937.2387
 10
-600200.618
 20
-1161933.466
 10
-600196.9447
 20
-1161932.6202
 10
-600186.3554
 20
-1161930.1826
 10
-600176.9229
 20
-1161928.0111
 10
-600153.343
 20
-1161922.5829
 10
-600126.3471
 20
-1161914.6616
 10
-600101.961
 20
-1161907.5059
 10
-600078.8563
 20
-1161899.3152
 10
-600044.9022
 20
-1161884.4275
 10
-600007.6651
 20
-1161865.7524
 10
-599970.8503
 20
-1161845.3496
 10
-599941.0883
 20
-1161828.8553
 10
-599899.0108
 20
-1161805.5359
 10
-599831.8487
 20
-1161768.3146
 10
-599798.5152
 20
-1161750.0623
 10
-599772.4246
 20
-1161737.1483
 10
-599752.6925
 20
-1161727.3816
 10
-599729.5729
 20
-1161715.938
 10
-599696.2353
 20
-1161701.5709
 10
-599678.219
 20
-1161694.148
 10
-599670.714
 20
-1161691.0556
 10
-599661.1074
 20
-1161687.0973
 10
-599644.6337
 20
-1161680.3097
 10
-599626.5142
 20
-1161674.3306
 10
-599589.3863
 20
-1161662.9705
 10
-599551.276
 20
-1161651.3099
 10
-599511.9668
 20
-1161643.2912
 10
-599471.2418
 20
-1161635.8731
 10
-599442.3214
 20
-1161631.0641
 10
-599401.8167
 20
-1161624.3289
 10
-599398.7333
 20
-1161623.9197
 10
-599400.4684
 20
-1161598.5604
 10
-599438.9719
 20
-1161602.6656
 10
-599477.0559
 20
-1161608.3629
 10
-599512.3292
 20
-1161614.977
 10
-599546.096
 20
-1161622.6104
 10
-599561.9489
 20
-1161627.8673
 10
-599593.5666
 20
-1161639.3445
 10
-599606.7416
 20
-1161644.1268
 10
-599632.0697
 20
-1161653.3207
 10
-599669.0837
 20
-1161666.9951
 10
-599677.6133
 20
-1161670.1463
 10
-599690.0194
 20
-1161675.1179
 10
-599718.7509
 20
-1161686.6314
 10
-599743.7022
 20
-1161696.8125
 10
-599763.304
 20
-1161705.7949
 10
-599789.7566
 20
-1161718.8911
 10
-599825.7376
 20
-1161738.9832
 10
-599850.519
 20
-1161752.992
 10
-599885.2819
 20
-1161772.6436
 10
-599927.6169
 20
-1161796.5756
 10
-599959.2269
 20
-1161814.445
 10
-599977.0597
 20
-1161823.7442
 10
-599996.7563
 20
-1161834.0153
 10
-600014.5002
 20
-1161842.2633
 10
-600044.8189
 20
-1161854.304
 10
-600094.9598
 20
-1161872.2383
 10
-600128.0742
 20
-1161884.0828
 10
-600148.294
 20
-1161891.315
 10
-600169.0352
 20
-1161896.9659
 10
-600179.0658
 20
-1161899.6988
 10
-600184.7529
 20
-1161901.2482
 10
-600190.1715
 20
-1161902.7245
 10
-600200.894
 20
-1161905.646
 10
-600230.2636
 20
-1161910.8102
 10
-600247.5636
 20
-1161913.8521
 10
-600293.1668
 20
-1161921.3673
 10
-600334.8326
 20
-1161927.076
 10
-600367.7194
 20
-1161931.2145
 10
-600383.3471
 20
-1161933.1812
 10
-600419.1125
 20
-1161937.5276
 10
-600445.5208
 20
-1161940.6031
 10
-600476.6463
 20
-1161941.0464
 10
-600511.6628
 20
-1161940.5448
 10
-600532.151
 20
-1161936.3885
 10
-600543.026
 20
-1161933.8023
 97
0
 75
0
 76
1
 98
0
  0
HATCH
  5
20024
100
AcDbEntity
  8
plocha Q5
100
AcDbHatch
 10
0
 20
0
 30
0
210
0
220
0
230
1
  2
SOLID
 70
1
 71
0
 91
1
 92
2
 72
0
 73
1
 93
136
 10
-602514.2919
 20
-1157703.5218
 10
-602542.4948
 20
-1157698.1284
 10
-602566.9539
 20
-1157693.451
 10
-602590.0546
 20
-1157689.0332
 10
-602599.2436
 20
-1157687.2759
 10
-602614.3795
 20
-1157684.1828
 10
-602638.422
 20
-1157678.788
 10
-602657.6135
 20
-1157674.873
 10
-602677.0322
 20
-1157670.9114
 10
-602695.3314
 20
-1157667.1786
 10
-602713.4358
 20
-1157658.8245
 10
-602744.2206
 20
-1157643.6524
 10
-602768.757
 20
-1157631.5599
 10
-602791.9189
 20
-1157617.2062
 10
-602810.0923
 20
-1157606.4504
 10
-602824.391
 20
-1157597.2054
 10
-602843.6125
 20
-1157583.1523
 10
-602859.8232
 20
-1157571.3006
 10
-602876.9459
 20
-1157558.782
 10
-602899.7441
 20
-1157537.8027
 10
-602931.7146
 20
-1157507.3241
 10
-602948.7536
 20
-1157489.9445
 10
-602966.3166
 20
-1157472.0303
 10
-602976.773
 20
-1157461.365
 10
-602987.7559
 20
-1157444.3644
 10
-603004.9374
 20
-1157417.7866
 10
-603016.35
 20
-1157400.1598
 10
-603024.2763
 20
-1157378.0215
 10
-603027.0358
 20
-1157370.3142
 10
-603031.427
 20
-1157358.0495
 10
-603032.4594
 20
-1157355.1657
 10
-603035.6627
 20
-1157346.2193
 10
-603042.2743
 20
-1157327.7528
 10
-603051.151
 20
-1157302.9763
 10
-603088.9573
 20
-1157313.2436
 10
-603076.6073
 20
-1157344.2215
 10
-603070.5441
 20
-1157359.919
 10
-603063.5474
 20
-1157378.0332
 10
-603058.7979
 20
-1157390.3296
 10
-603050.4262
 20
-1157415.7323
 10
-603043.9574
 20
-1157439.2738
 10
-603039.435
 20
-1157455.731
 10
-603029.8662
 20
-1157475.0297
 10
-603019.9085
 20
-1157490.3384
 10
-603007.231
 20
-1157506.7349
 10
-602994.7503
 20
-1157517.8372
 10
-602967.3012
 20
-1157542.255
 10
-602937.4236
 20
-1157568.8329
 10
-602901.3388
 20
-1157600.9326
 10
-602857.0462
 20
-1157640.3337
 10
-602841.2696
 20
-1157652.5083
 10
-602821.0953
 20
-1157664.8138
 10
-602801.5169
 20
-1157675.5931
 10
-602778.029
 20
-1157685.65
 10
-602757.7222
 20
-1157693.6106
 10
-602736.399
 20
-1157701.9697
 10
-602730.294
 20
-1157704.3629
 10
-602710.6628
 20
-1157707.585
 10
-602691.6895
 20
-1157710.6991
 10
-602663.5036
 20
-1157714.0453
 10
-602639.0976
 20
-1157716.6081
 10
-602617.9419
 20
-1157718.8295
 10
-602603.1768
 20
-1157720.38
 10
-602593.2677
 20
-1157721.7816
 10
-602578.3711
 20
-1157724.8804
 10
-602567.5446
 20
-1157727.6259
 10
-602545.4016
 20
-1157733.2406
 10
-602521.428
 20
-1157739.32
 10
-602495.4782
 20
-1157741.0457
 10
-602468.0713
 20
-1157742.7908
 10
-602438.765
 20
-1157744.6409
 10
-602428.6307
 20
-1157743.2451
 10
-602407.5004
 20
-1157740.3345
 10
-602379.937
 20
-1157736.538
 10
-602353.9966
 20
-1157732.7342
 10
-602321.7077
 20
-1157728.327
 10
-602284.7279
 20
-1157723.6076
 10
-602250.7573
 20
-1157719.9001
 10
-602214.4138
 20
-1157716.9923
 10
-602171.2981
 20
-1157713.5427
 10
-602147.9945
 20
-1157711.6783
 10
-602127.1937
 20
-1157710.0141
 10
-602114.9648
 20
-1157709.8535
 10
-602098.5006
 20
-1157711.2756
 10
-602081.124
 20
-1157713.9203
 10
-602070.2397
 20
-1157715.7832
 10
-602061.8679
 20
-1157717.2159
 10
-602046.6394
 20
-1157721.5737
 10
-602028.8897
 20
-1157726.6528
 10
-602003.25
 20
-1157733.99
 10
-601994.3599
 20
-1157739.3981
 10
-601987.113
 20
-1157743.807
 10
-601975.0814
 20
-1157756.6405
 10
-601970.805
 20
-1157761.2019
 10
-601964.2578
 20
-1157773.0522
 10
-601959.2748
 20
-1157784.9318
 10
-601957.5452
 20
-1157793.5099
 10
-601956.6899
 20
-1157803.8609
 10
-601948.218
 20
-1157824.1579
 10
-601940.896
 20
-1157838.5945
 10
-601938.15
 20
-1157844.0089
 10
-601934.8751
 20
-1157847.8812
 10
-601879.3349
 20
-1157827.0269
 10
-601876.2465
 20
-1157821.7753
 10
-601869.294
 20
-1157809.953
 10
-601867.8239
 20
-1157799.3849
 10
-601869.008
 20
-1157796.4919
 10
-601874.3254
 20
-1157790.7636
 10
-601878.313
 20
-1157786.468
 10
-601887.9639
 20
-1157774.544
 10
-601897.141
 20
-1157765.4358
 10
-601921.404
 20
-1157765.2689
 10
-601947.0131
 20
-1157742.1534
 10
-601973.055
 20
-1157720.664
 10
-601993.995
 20
-1157708.19
 10
-602028.029
 20
-1157694.924
 10
-602044.638
 20
-1157690.227
 10
-602066.3158
 20
-1157684.0966
 10
-602080.2974
 20
-1157681.4491
 10
-602091.3175
 20
-1157680.1411
 10
-602103.5051
 20
-1157678.6945
 10
-602123.9179
 20
-1157676.2717
 10
-602141.473
 20
-1157675.7405
 10
-602170.0044
 20
-1157676.0513
 10
-602194.3743
 20
-1157677.502
 10
-602222.4561
 20
-1157679.6873
 10
-602245.672
 20
-1157681.494
 10
-602269.5094
 20
-1157684.9433
 10
-602316.9828
 20
-1157691.8131
 10
-602344.6851
 20
-1157695.8217
 10
-602373.0558
 20
-1157699.9271
 10
-602408.8261
 20
-1157705.1034
 10
-602425.7806
 20
-1157707.5566
 10
-602468.5324
 20
-1157706.8145
 10
-602490.7156
 20
-1157705.5732
 10
-602514.2919
 20
-1157703.5218
 97
0
 75
0
 76
1
 98
0
  0
HATCH
  5
20025
100
AcDbEntity
  8
plocha Q5
100
AcDbHatch
 10
0
 20
0
 30
0
210
0
220
0
230
1
  2
SOLID
 70
1
 71
0
 91
1
 92
2
 72
0
 73
1
 93
154
 10
-604095.1552
 20
-1155923.9367
 10
-604113.085
 20
-1155922.812
 10
-604115.3449
 20
-1155932.079
 10
-604140.255
 20
-1155925.9749
 10
-604145.0889
 20
-1155941.865
 10
-604148.502
 20
-1155953.413
 10
-604132.3566
 20
-1155958.9632
 10
-604102.792
 20
-1155971.8369
 10
-604092.2163
 20
-1155975.459
 10
-604072.6469
 20
-1155977.413
 10
-604043.452
 20
-1155974.1429
 10
-604020.1145
 20
-1155972.9693
 10
-603981.3931
 20
-1155971.7579
 10
-603936.3046
 20
-1155969.3264
 10
-603908.2423
 20
-1155967.985
 10
-603880.0902
 20
-1155966.7382
 10
-603864.7369
 20
-1155965.2264
 10
-603846.7616
 20
-1155966.8827
 10
-603828.1469
 20
-1155969.4679
 10
-603795.1375
 20
-1155983.067
 10
-603780.1074
 20
-1155992.4985
 10
-603762.2909
 20
-1156006.5412
 10
-603754.43
 20
-1156013.189
 10
-603751.1588
 20
-1156017.8249
 10
-603742.0202
 20
-1156030.7772
 10
-603732.6778
 20
-1156044.4671
 10
-603720.6256
 20
-1156062.9691
 10
-603708.7451
 20
-1156083.3808
 10
-603697.9197
 20
-1156100.0746
 10
-603681.8121
 20
-1156121.1393
 10
-603667.452
 20
-1156136.981
 10
-603648.157
 20
-1156151.5859
 10
-603631.0601
 20
-1156162.5905
 10
-603611.9359
 20
-1156171.8289
 10
-603593.4505
 20
-1156175.4792
 10
-603570.4137
 20
-1156175.3293
 10
-603551.8603
 20
-1156173.708
 10
-603536.574
 20
-1156171.942
 10
-603517.083
 20
-1156168.598
 10
-603505.8432
 20
-1156165.4862
 10
-603481.8626
 20
-1156159.7213
 10
-603466.705
 20
-1156156.486
 10
-603437.3911
 20
-1156155.0456
 10
-603428.529
 20
-1156155.5992
 10
-603412.26
 20
-1156156.7669
 10
-603398.0793
 20
-1156159.567
 10
-603384.8969
 20
-1156163.2679
 10
-603367.744
 20
-1156171.049
 10
-603357.0877
 20
-1156178.4597
 10
-603346.6353
 20
-1156185.911
 10
-603336.742
 20
-1156193.1769
 10
-603327.107
 20
-1156205.079
 10
-603320.8948
 20
-1156220.6388
 10
-603312.154
 20
-1156243.6039
 10
-603306.003
 20
-1156266.9359
 10
-603299.8236
 20
-1156288.4106
 10
-603295.6001
 20
-1156305.791
 10
-603292.782
 20
-1156324.0558
 10
-603287.6353
 20
-1156357.1153
 10
-603285.2777
 20
-1156372.2589
 10
-603283.3402
 20
-1156384.7049
 10
-603280.8145
 20
-1156400.9281
 10
-603278.6141
 20
-1156409.896
 10
-603274.9328
 20
-1156422.1251
 10
-603268.7327
 20
-1156441.2005
 10
-603262.6266
 20
-1156458.5323
 10
-603255.2728
 20
-1156479.4057
 10
-603245.4802
 20
-1156507.2011
 10
-603235.9309
 20
-1156534.3062
 10
-603231.0441
 20
-1156548.1772
 10
-603227.4574
 20
-1156558.8556
 10
-603224.3662
 20
-1156568.0587
 10
-603216.2672
 20
-1156589.1145
 10
-603203.7316
 20
-1156620.0741
 10
-603190.5601
 20
-1156652.6038
 10
-603181.0488
 20
-1156676.0941
 10
-603178.3714
 20
-1156682.7063
 10
-603125.4511
 20
-1156720.1986
 10
-603126.88
 20
-1156714.2657
 10
-603131.3863
 20
-1156695.5558
 10
-603134.9914
 20
-1156680.5878
 10
-603137.403
 20
-1156670.5749
 10
-603137.7069
 20
-1156663.162
 10
-603144.2254
 20
-1156651.4112
 10
-603158.5113
 20
-1156625.6587
 10
-603171.1821
 20
-1156602.2345
 10
-603184.5927
 20
-1156578.0159
 10
-603195.4174
 20
-1156559.104
 10
-603197.7963
 20
-1156554.9478
 10
-603202.7194
 20
-1156546.3467
 10
-603206.3767
 20
-1156538.4759
 10
-603213.6815
 20
-1156520.1247
 10
-603227.283
 20
-1156485.955
 10
-603231.8861
 20
-1156468.4126
 10
-603241.2654
 20
-1156432.6686
 10
-603244.7609
 20
-1156419.347
 10
-603248.8604
 20
-1156389.8987
 10
-603252.6912
 20
-1156370.7727
 10
-603261.497
 20
-1156334.17
 10
-603264.1841
 20
-1156314.9147
 10
-603265.815
 20
-1156303.2279
 10
-603274.5952
 20
-1156271.9061
 10
-603284.3816
 20
-1156239.359
 10
-603295.9505
 20
-1156205.4426
 10
-603302.094
 20
-1156187.432
 10
-603308.8247
 20
-1156171.6402
 10
-603316.43
 20
-1156155.265
 10
-603319.791
 20
-1156149.8
 10
-603331.7271
 20
-1156143.0291
 10
-603345.8101
 20
-1156138.0988
 10
-603365.443
 20
-1156133.4561
 10
-603388.9988
 20
-1156129.1831
 10
-603406.0487
 20
-1156126.4668
 10
-603424.0775
 20
-1156124.8387
 10
-603450.9961
 20
-1156126.141
 10
-603484.2182
 20
-1156130.3648
 10
-603513.7145
 20
-1156137.1139
 10
-603532.4532
 20
-1156141.4953
 10
-603549.234
 20
-1156144.4715
 10
-603558.1441
 20
-1156145.6333
 10
-603573.6209
 20
-1156146.0179
 10
-603595.865
 20
-1156142.4589
 10
-603612.3473
 20
-1156136.3087
 10
-603631.9853
 20
-1156124.9614
 10
-603643.1193
 20
-1156117.5858
 10
-603660.3319
 20
-1156099.648
 10
-603676.4974
 20
-1156070.2931
 10
-603689.9155
 20
-1156047.6513
 10
-603701.201
 20
-1156031.979
 10
-603715.7176
 20
-1156010.6018
 10
-603732.8285
 20
-1155991.2813
 10
-603738.5255
 20
-1155985.8035
 10
-603743.0044
 20
-1155981.4971
 10
-603751.8758
 20
-1155974.0412
 10
-603773.5759
 20
-1155958.793
 10
-603790.1449
 20
-1155951.8998
 10
-603811.4712
 20
-1155942.9106
 10
-603820.169
 20
-1155939.2219
 10
-603840.926
 20
-1155934.156
 10
-603858.5391
 20
-1155932.5604
 10
-603884.5326
 20
-1155930.0983
 10
-603894.844
 20
-1155929.0979
 10
-603914.8528
 20
-1155930.3187
 10
-603942.1538
 20
-1155931.7244
 10
-603958.0888
 20
-1155932.3748
 10
-603970.438
 20
-1155932.879
 10
-603987.1289
 20
-1155933.3123
 10
-604011.302
 20
-1155933.9399
 10
-604030.6458
 20
-1155933.1575
 10
-604045.4811
 20
-1155932.5575
 10
-604053.406
 20
-1155932.2369
 10
-604066.7855
 20
-1155928.9345
 10
-604084.266
 20
-1155924.62
 10
-604095.1552
 20
-1155923.9367
 97
0
 75
0
 76
1
 98
0
  0
HATCH
  5
20026
100
AcDbEntity
  8
plocha Q5
100
AcDbHatch
 10
0
 20
0
 30
0
210
0
220
0
230
1
  2
SOLID
 70
1
 71
0
 91
1
 92
2
 72
0
 73
1
 93
88
 10
-601060.6183
 20
-1159973.0759
 10
-601052.4102
 20
-1159953.3423
 10
-601039.3499
 20
-1159922.2119
 10
-601035.5431
 20
-1159903.253
 10
-601029.0026
 20
-1159876.3424
 10
-601015.2552
 20
-1159820.9344
 10
-601011.6842
 20
-1159805.9358
 10
-601008.9651
 20
-1159794.5157
 10
-601006.9038
 20
-1159781.5297
 10
-601004.393
 20
-1159765.711
 10
-601004.69
 20
-1159740.6762
 10
-601005.0854
 20
-1159707.3433
 10
-601005.3059
 20
-1159688.7458
 10
-601022.265
 20
-1159660.9228
 10
-601064.9691
 20
-1159616.6358
 10
-601085.6337
 20
-1159635.591
 10
-601069.1635
 20
-1159653.5067
 10
-601052.4656
 20
-1159673.8358
 10
-601034.1209
 20
-1159700.3989
 10
-601028.1939
 20
-1159741.695
 10
-601028.4051
 20
-1159762.4161
 10
-601028.6313
 20
-1159784.6064
 10
-601030.0556
 20
-1159798.6632
 10
-601034.7133
 20
-1159826.3229
 10
-601042.8546
 20
-1159864.158
 10
-601046.7199
 20
-1159882.1209
 10
-601049.6339
 20
-1159889.5674
 10
-601057.8632
 20
-1159910.597
 10
-601065.4809
 20
-1159927.2038
 10
-601076.0321
 20
-1159942.4562
 10
-601086.0536
 20
-1159952.0155
 10
-601097.753
 20
-1159963.6806
 10
-601108.8034
 20
-1159974.8608
 10
-601116.348
 20
-1159982.494
 10
-601124.3808
 20
-1160005.9563
 10
-601133.4232
 20
-1160070.6225
 10
-601135.8687
 20
-1160095.7848
 10
-601139.6686
 20
-1160134.8825
 10
-601142.3327
 20
-1160162.2946
 10
-601144.1259
 20
-1160180.7459
 10
-601144.5865
 20
-1160205.8723
 10
-601144.653
 20
-1160209.5074
 10
-601145.2833
 20
-1160243.9014
 10
-601147.5219
 20
-1160349.883
 10
-601153.885
 20
-1160383.234
 10
-601161.1917
 20
-1160420.9469
 10
-601168.2176
 20
-1160457.2096
 10
-601171.9644
 20
-1160479.1202
 10
-601172.7465
 20
-1160495.2364
 10
-601172.566
 20
-1160505.3509
 10
-601169.19
 20
-1160528.0605
 10
-601166.5766
 20
-1160541.1907
 10
-601161.9728
 20
-1160555.3456
 10
-601153.0542
 20
-1160574.396
 10
-601145.2594
 20
-1160593.1454
 10
-601116.2868
 20
-1160585.7847
 10
-601118.1401
 20
-1160581.8669
 10
-601129.9369
 20
-1160557.3489
 10
-601141.6699
 20
-1160532.4149
 10
-601144.794
 20
-1160517.4639
 10
-601146.23
 20
-1160510.5919
 10
-601145.5711
 20
-1160481.5913
 10
-601144.5363
 20
-1160468.4456
 10
-601141.833
 20
-1160449.0309
 10
-601136.4858
 20
-1160429.5009
 10
-601130.0846
 20
-1160401.1259
 10
-601123.5363
 20
-1160369.5266
 10
-601121.401
 20
-1160359.2219
 10
-601120.116
 20
-1160352.7969
 10
-601119.6628
 20
-1160341.2996
 10
-601119.5591
 20
-1160315.3771
 10
-601118.8206
 20
-1160243.403
 10
-601118.4353
 20
-1160210.5929
 10
-601118.3548
 20
-1160203.7394
 10
-601118.1431
 20
-1160185.7192
 10
-601117.9256
 20
-1160167.1947
 10
-601117.6214
 20
-1160141.2877
 10
-601116.9129
 20
-1160130.4192
 10
-601115.4344
 20
-1160117.7065
 10
-601112.846
 20
-1160095.4509
 10
-601105.1486
 20
-1160077.7041
 10
-601077.6945
 20
-1160014.4062
 10
-601067.902
 20
-1159996.182
 10
-601060.979
 20
-1160003.205
 10
-601050.9439
 20
-1159999.95
 10
-601052.94
 20
-1159992.2978
 10
-601057.81
 20
-1159982.507
 10
-601060.6183
 20
-1159973.0759
 97
0
 75
0
 76
1
 98
0
  0
HATCH
  5
20027
100
AcDbEntity
  8
plocha Q5
100
AcDbHatch
 10
0
 20
0
 30
0
210
0
220
0
230
1
  2
SOLID
 70
1
 71
0
 91
1
 92
2
 72
0
 73
1
 93
91
 10
-601877.0696
 20
-1157881.0796
 10
-601878.1292
 20
-1157868.9089
 10
-601879.5953
 20
-1157857.9324
 10
-601882.196
 20
-1157845.011
 10
-601925.353
 20
-1157859.1409
 10
-601920.6585
 20
-1157870.4291
 10
-601917.6847
 20
-1157879.3582
 10
-601913.7116
 20
-1157903.3019
 10
-601911.0109
 20
-1157925.834
 10
-601910.0313
 20
-1157944.2748
 10
-601909.3364
 20
-1157957.3546
 10
-601909.3203
 20
-1157966.4296
 10
-601910.545
 20
-1158000.1179
 10
-601913.5916
 20
-1158029.8222
 10
-601916.0954
 20
-1158054.2327
 10
-601917.3528
 20
-1158066.4917
 10
-601917.9287
 20
-1158085.5008
 10
-601916.9155
 20
-1158106.1665
 10
-601911.0172
 20
-1158139.3803
 10
-601904.0121
 20
-1158172.0482
 10
-601901.644
 20
-1158183.0919
 10
-601890.9569
 20
-1158220.9369
 10
-601876.401
 20
-1158272.482
 10
-601857.537
 20
-1158324.968
 10
-601843.2163
 20
-1158357.1309
 10
-601837.4672
 20
-1158370.3644
 10
-601834.8369
 20
-1158376.8365
 10
-601826.715
 20
-1158396.8239
 10
-601822.0506
 20
-1158412.5472
 10
-601819.8471
 20
-1158424.7212
 10
-601820.4297
 20
-1158433.1475
 10
-601821.9616
 20
-1158455.3033
 10
-601824.0158
 20
-1158485.0142
 10
-601825.9383
 20
-1158512.8172
 10
-601825.9408
 20
-1158512.8537
 10
-601827.189
 20
-1158530.9055
 10
-601828.968
 20
-1158556.6349
 10
-601826.0377
 20
-1158574.0482
 10
-601821.5689
 20
-1158600.6039
 10
-601814.8158
 20
-1158616.5996
 10
-601799.986
 20
-1158642.146
 10
-601778.741
 20
-1158664.388
 10
-601759.302
 20
-1158681.4806
 10
-601752.824
 20
-1158687.1769
 10
-601738.2928
 20
-1158694.1252
 10
-601721.6041
 20
-1158702.6926
 10
-601703.1497
 20
-1158714.6802
 10
-601695.6534
 20
-1158720.2132
 10
-601670.3396
 20
-1158693.7024
 10
-601687.7481
 20
-1158685.8317
 10
-601707.7059
 20
-1158676.3149
 10
-601733.0949
 20
-1158662.659
 10
-601744.9739
 20
-1158654.9127
 10
-601760.203
 20
-1158642.0409
 10
-601774.5046
 20
-1158621.6009
 10
-601781.7772
 20
-1158604.6296
 10
-601788.7022
 20
-1158586.0036
 10
-601795.2039
 20
-1158568.516
 10
-601798.281
 20
-1158548.3129
 10
-601800.6204
 20
-1158517.8076
 10
-601802.075
 20
-1158478.82
 10
-601800.1317
 20
-1158452.822
 10
-601798.6196
 20
-1158432.5894
 10
-601797.9569
 20
-1158423.7239
 10
-601801.579
 20
-1158396.4308
 10
-601807.6663
 20
-1158381.5049
 10
-601810.0304
 20
-1158375.7083
 10
-601812.7863
 20
-1158368.9507
 10
-601820.6137
 20
-1158349.7583
 10
-601829.5171
 20
-1158327.927
 10
-601837.2008
 20
-1158309.0869
 10
-601844.7748
 20
-1158290.5155
 10
-601850.1212
 20
-1158277.4061
 10
-601859.4726
 20
-1158254.1803
 10
-601864.417
 20
-1158241.7679
 10
-601869.0442
 20
-1158228.3635
 10
-601875.1124
 20
-1158205.8183
 10
-601879.9598
 20
-1158187.8088
 10
-601884.8327
 20
-1158169.7046
 10
-601892.4359
 20
-1158141.4559
 10
-601898.564
 20
-1158099.4569
 10
-601898.4281
 20
-1158077.0004
 10
-601898.286
 20
-1158053.513
 10
-601889.8295
 20
-1158020.0465
 10
-601880.5857
 20
-1157983.4628
 10
-601874.2642
 20
-1157958.4453
 10
-601873.401
 20
-1157955.0289
 10
-601873.7727
 20
-1157955.0934
 10
-601872.5869
 20
-1157947.0079
 10
-601873.2604
 20
-1157924.8309
 10
-601877.0696
 20
-1157881.0796
 97
0
 75
0
 76
1
 98
0
  0
HATCH
  5
20028
100
AcDbEntity
  8
plocha Q5
100
AcDbHatch
 10
0
 20
0
 30
0
210
0
220
0
230
1
  2
SOLID
 70
1
 71
0
 91
1
 92
2
 72
0
 73
1
 93
53
 10
-603064.7064
 20
-1157268.4272
 10
-603074.885
 20
-1157245.0616
 10
-603086.5639
 20
-1157218.2526
 10
-603095.2271
 20
-1157198.3662
 10
-603102.9464
 20
-1157180.6462
 10
-603109.6873
 20
-1157165.1719
 10
-603115.6809
 20
-1157151.413
 10
-603118.6964
 20
-1157137.9265
 10
-603126.2238
 20
-1157104.2606
 10
-603132.1353
 20
-1157077.8224
 10
-603139.564
 20
-1157044.5989
 10
-603141.0107
 20
-1157018.6255
 10
-603141.6462
 20
-1156985.3383
 10
-603140.9723
 20
-1156967.8814
 10
-603140.627
 20
-1156958.9396
 10
-603138.4029
 20
-1156927.8149
 10
-603135.439
 20
-1156900.641
 10
-603132.9536
 20
-1156889.1622
 10
-603125.9309
 20
-1156856.7286
 10
-603120.937
 20
-1156833.6649
 10
-603118.5609
 20
-1156806.6248
 10
-603117.088
 20
-1156789.8609
 10
-603154.456
 20
-1156762.322
 10
-603153.7152
 20
-1156783.7386
 10
-603153.502
 20
-1156790.6439
 10
-603156.3485
 20
-1156806.9334
 10
-603159.4345
 20
-1156825.4572
 10
-603163.1519
 20
-1156851.8392
 10
-603166.7014
 20
-1156877.0302
 10
-603170.4611
 20
-1156903.7116
 10
-603175.6408
 20
-1156940.4709
 10
-603177.3651
 20
-1156958.7494
 10
-603177.3777
 20
-1156958.9203
 10
-603177.8142
 20
-1156965.1203
 10
-603180.8311
 20
-1157008.0783
 10
-603181.0508
 20
-1157032.4228
 10
-603180.5773
 20
-1157043.4379
 10
-603177.863
 20
-1157064.297
 10
-603170.7679
 20
-1157096.1083
 10
-603166.2196
 20
-1157116.5005
 10
-603163.875
 20
-1157127.0129
 10
-603159.3155
 20
-1157137.4702
 10
-603151.7943
 20
-1157154.7205
 10
-603141.0766
 20
-1157179.3022
 10
-603127.3811
 20
-1157210.7135
 10
-603111.7221
 20
-1157246.628
 10
-603106.7572
 20
-1157258.6733
 10
-603102.7738
 20
-1157274.3336
 10
-603096.5661
 20
-1157292.6321
 10
-603092.3436
 20
-1157303.5271
 10
-603054.7973
 20
-1157292.8352
 10
-603058.2199
 20
-1157283.317
 10
-603064.7064
 20
-1157268.4272
 97
0
 75
0
 76
1
 98
0
  0
HATCH
  5
20029
100
AcDbEntity
  8
plocha Q5
100
AcDbHatch
 10
0
 20
0
 30
0
210
0
220
0
230
1
  2
SOLID
 70
1
 71
0
 91
1
 92
2
 72
0
 73
1
 93
84
 10
-595570.7385
 20
-1158984.8974
 10
-595542.6448
 20
-1158945.7666
 10
-595531.7395
 20
-1158930.5772
 10
-595514.549
 20
-1158906.6332
 10
-595500.4528
 20
-1158863.0808
 10
-595479.1303
 20
-1158827.7253
 10
-595457.7202
 20
-1158795.3457
 10
-595454.4917
 20
-1158790.4442
 10
-595451.5199
 20
-1158784.8268
 10
-595445.4585
 20
-1158771.5402
 10
-595442.359
 20
-1158764.7458
 10
-595441.6979
 20
-1158762.7106
 10
-595467.1829
 20
-1158755.0041
 10
-595469.7273
 20
-1158761.2867
 10
-595471.645
 20
-1158766.0218
 10
-595474.7607
 20
-1158771.6953
 10
-595481.6123
 20
-1158784.1717
 10
-595486.042
 20
-1158792.2379
 10
-595490.0559
 20
-1158799.8863
 10
-595496.7459
 20
-1158812.6339
 10
-595503.4333
 20
-1158822.5633
 10
-595515.2368
 20
-1158840.0896
 10
-595524.336
 20
-1158853.6001
 10
-595537.7721
 20
-1158872.3983
 10
-595551.103
 20
-1158890.1809
 10
-595568.451
 20
-1158905.4143
 10
-595589.8775
 20
-1158931.3468
 10
-595595.4904
 20
-1158939.5255
 10
-595603.2091
 20
-1158950.7726
 10
-595615.3764
 20
-1158968.5022
 10
-595622.1433
 20
-1158978.3626
 10
-595627.6239
 20
-1158983.0001
 10
-595632.1547
 20
-1158986.8338
 10
-595639.7337
 20
-1158993.2469
 10
-595641.5702
 20
-1158994.8007
 10
-595642.716
 20
-1158988.3077
 10
-595645.3609
 20
-1158973.3197
 10
-595644.9814
 20
-1158965.645
 10
-595641.4969
 20
-1158953.4493
 10
-595640.0758
 20
-1158948.4753
 10
-595635.6269
 20
-1158942.5434
 10
-595628.1974
 20
-1158932.6375
 10
-595626.6265
 20
-1158928.4331
 10
-595626.6265
 20
-1158921.5538
 10
-595628.9656
 20
-1158901.37
 10
-595629.5221
 20
-1158894.4955
 10
-595628.9107
 20
-1158883.4904
 10
-595628.248
 20
-1158871.5622
 10
-595625.6256
 20
-1158865.7093
 10
-595618.3666
 20
-1158855.3391
 10
-595611.5175
 20
-1158848.8019
 10
-595605.4072
 20
-1158843.3025
 10
-595604.7818
 20
-1158840.1065
 10
-595607.5364
 20
-1158839.0736
 10
-595611.4798
 20
-1158837.5948
 10
-595618.425
 20
-1158838.2746
 10
-595624.4576
 20
-1158841.2909
 10
-595629.8521
 20
-1158845.3077
 10
-595639.716
 20
-1158854.2748
 10
-595654.0955
 20
-1158866.5114
 10
-595663.2005
 20
-1158874.0254
 10
-595667.8468
 20
-1158877.7426
 10
-595677.2296
 20
-1158883.7157
 10
-595680.4237
 20
-1158885.7119
 10
-595689.5953
 20
-1158897.5041
 10
-595697.7587
 20
-1158907.9998
 10
-595700.1665
 20
-1158911.0956
 10
-595701.3447
 20
-1158914.9392
 10
-595701.3447
 20
-1158928.1684
 10
-595701.3447
 20
-1158935.5768
 10
-595698.5329
 20
-1158940.5307
 10
-595687.4811
 20
-1158950.4192
 10
-595677.0943
 20
-1158959.7127
 10
-595675.5398
 20
-1158961.1035
 10
-595672.3684
 20
-1158966.1414
 10
-595671.0559
 20
-1158972.2669
 10
-595669.5186
 20
-1158979.4404
 10
-595668.4688
 20
-1158984.3401
 10
-595668.5889
 20
-1158987.7048
 10
-595666.4698
 20
-1159015.7106
 10
-595616.8193
 20
-1159047.0068
 10
-595605.5948
 20
-1159032.6253
 10
-595591.2378
 20
-1159013.4497
 10
-595570.7385
 20
-1158984.8974
 97
0
 75
0
 76
1
 98
0
  0
HATCH
  5
2002A
100
AcDbEntity
  8
plocha Q5
100
AcDbHatch
 10
0
 20
0
 30
0
210
0
220
0
230
1
  2
SOLID
 70
1
 71
0
 91
1
 92
2
 72
0
 73
1
 93
41
 10
-595922.663
 20
-1159443.9299
 10
-595916.1579
 20
-1159437.67
 10
-595911.4699
 20
-1159433.159
 10
-595904.5916
 20
-1159423.5008
 10
-595894.6881
 20
-1159409.5951
 10
-595878.3969
 20
-1159386.7204
 10
-595866.9061
 20
-1159370.5857
 10
-595854.2918
 20
-1159352.8736
 10
-595849.5996
 20
-1159346.285
 10
-595844.0894
 20
-1159343.1966
 10
-595822.3886
 20
-1159331.0333
 10
-595797.7008
 20
-1159297.8998
 10
-595786.7318
 20
-1159283.1783
 10
-595739.6374
 20
-1159215.332
 10
-595723.4633
 20
-1159190.7339
 10
-595702.6656
 20
-1159159.1039
 10
-595699.6357
 20
-1159154.4958
 10
-595693.873
 20
-1159145.7318
 10
-595675.7288
 20
-1159122.4847
 10
-595657.5685
 20
-1159099.2168
 10
-595631.4392
 20
-1159065.7385
 10
-595674.0199
 20
-1159043.7916
 10
-595705.8153
 20
-1159091.9156
 10
-595714.2819
 20
-1159104.6157
 10
-595753.7847
 20
-1159159.3312
 10
-595774.5747
 20
-1159187.3735
 10
-595797.4225
 20
-1159220.3967
 10
-595808.8211
 20
-1159238.4446
 10
-595823.883
 20
-1159262.2925
 10
-595851.0279
 20
-1159303.9571
 10
-595868.458
 20
-1159329.0115
 10
-595869.5852
 20
-1159330.6317
 10
-595872.109
 20
-1159334.2597
 10
-595884.006
 20
-1159351.3605
 10
-595899.7078
 20
-1159374.4411
 10
-595910.1939
 20
-1159390.2872
 10
-595920.2329
 20
-1159405.458
 10
-595930.1192
 20
-1159415.5496
 10
-595946.218
 20
-1159423.19
 10
-595933.2634
 20
-1159448.763
 10
-595922.663
 20
-1159443.9299
 97
0
 75
0
 76
1
 98
0
  0
HATCH
  5
2002B
100
AcDbEntity
  8
plocha Q5
100
AcDbHatch
 10
0
 20
0
 30
0
210
0
220
0
230
1
  2
SOLID
 70
1
 71
0
 91
1
 92
2
 72
0
 73
1
 93
55
 10
-597308.7928
 20
-1164570.7124
 10
-597315.7549
 20
-1164529.0094
 10
-597325.5314
 20
-1164478.8358
 10
-597335.9682
 20
-1164433.0701
 10
-597344.2863
 20
-1164405.8754
 10
-597351.401
 20
-1164382.6149
 10
-597368.0234
 20
-1164345.1855
 10
-597382.7069
 20
-1164312.1219
 10
-597391.615
 20
-1164288.2254
 10
-597397.284
 20
-1164273.0179
 10
-597401.368
 20
-1164261.5299
 10
-597402.5208
 20
-1164252.4168
 10
-597403.1798
 20
-1164247.2084
 10
-597407.1832
 20
-1164215.5633
 10
-597408.5811
 20
-1164185.2768
 10
-597409.6327
 20
-1164130.1432
 10
-597409.6792
 20
-1164088.8677
 10
-597410.4699
 20
-1164065.6999
 10
-597411.2428
 20
-1164056.5895
 10
-597434.5249
 20
-1164057.0405
 10
-597434.6959
 20
-1164138.3939
 10
-597430.9912
 20
-1164213.2356
 10
-597427.8666
 20
-1164246.8703
 10
-597426.2285
 20
-1164256.3
 10
-597423.7003
 20
-1164270.8552
 10
-597410.518
 20
-1164312.8493
 10
-597399.4531
 20
-1164338.9761
 10
-597389.7754
 20
-1164359.9966
 10
-597378.1382
 20
-1164385.2729
 10
-597370.2088
 20
-1164402.4956
 10
-597363.5445
 20
-1164418.5171
 10
-597356.3606
 20
-1164438.1783
 10
-597353.338
 20
-1164446.451
 10
-597343.6099
 20
-1164490.2963
 10
-597336.3079
 20
-1164523.2069
 10
-597325.2429
 20
-1164577.711
 10
-597324.5094
 20
-1164611.1692
 10
-597323.8491
 20
-1164641.2823
 10
-597324.273
 20
-1164667.7154
 10
-597325.1735
 20
-1164688.3487
 10
-597328.0891
 20
-1164723.1516
 10
-597334.1719
 20
-1164772.4624
 10
-597339.2661
 20
-1164809.9439
 10
-597343.0064
 20
-1164831.8612
 10
-597321.3924
 20
-1164833.891
 10
-597314.091
 20
-1164785.1129
 10
-597308.5423
 20
-1164741.2681
 10
-597304.1039
 20
-1164700.4425
 10
-597301.979
 20
-1164675.2162
 10
-597301.7866
 20
-1164656.6636
 10
-597301.7423
 20
-1164652.3802
 10
-597301.8109
 20
-1164652.3802
 10
-597301.8314
 20
-1164648.7697
 10
-597304.541
 20
-1164612.3656
 10
-597308.7928
 20
-1164570.7124
 97
0
 75
0
 76
1
 98
0
  0
HATCH
  5
2002C
100
AcDbEntity
  8
plocha Q5
100
AcDbHatch
 10
0
 20
0
 30
0
210
0
220
0
230
1
  2
SOLID
 70
1
 71
0
 91
1
 92
2
 72
0
 73
1
 93
127
 10
-594488.2292
 20
-1157393.3495
 10
-594516.9554
 20
-1157387.6396
 10
-594528.4412
 20
-1157385.4859
 10
-594535.2472
 20
-1157385.2376
 10
-594551.1314
 20
-1157385.734
 10
-594559.6198
 20
-1157385.9993
 10
-594561.5788
 20
-1157414.5449
 10
-594556.1263
 20
-1157414.3078
 10
-594539.1238
 20
-1157415.4723
 10
-594504.3922
 20
-1157419.3312
 10
-594480.8979
 20
-1157422.2701
 10
-594471.5875
 20
-1157423.4713
 10
-594447.3776
 20
-1157428.4066
 10
-594429.736
 20
-1157432.6978
 10
-594415.1283
 20
-1157436.5334
 10
-594398.0806
 20
-1157441.6115
 10
-594383.7526
 20
-1157445.8794
 10
-594365.7533
 20
-1157451.241
 10
-594355.3191
 20
-1157452.3596
 10
-594343.9367
 20
-1157457.3539
 10
-594336.4444
 20
-1157460.7022
 10
-594328.0635
 20
-1157465.9629
 10
-594321.478
 20
-1157470.097
 10
-594316.1916
 20
-1157474.9459
 10
-594308.9636
 20
-1157481.1381
 10
-594303.1704
 20
-1157485.1176
 10
-594298.5872
 20
-1157488.2657
 10
-594293.6864
 20
-1157491.2128
 10
-594286.1403
 20
-1157495.4095
 10
-594276.8738
 20
-1157500.1392
 10
-594269.1516
 20
-1157503.5389
 10
-594262.664
 20
-1157506.395
 10
-594256.2089
 20
-1157510.7225
 10
-594250.4777
 20
-1157514.5648
 10
-594244.6673
 20
-1157518.6577
 10
-594242.4638
 20
-1157520.3999
 10
-594236.0766
 20
-1157525.4499
 10
-594228.7542
 20
-1157531.2395
 10
-594222.2978
 20
-1157537.0077
 10
-594213.7405
 20
-1157545.6441
 10
-594207.1489
 20
-1157552.0119
 10
-594201.8164
 20
-1157556.4207
 10
-594192.0494
 20
-1157563.5326
 10
-594185.2381
 20
-1157567.6383
 10
-594177.1135
 20
-1157572.5357
 10
-594169.4597
 20
-1157577.1494
 10
-594160.2107
 20
-1157582.7245
 10
-594152.8173
 20
-1157587.1811
 10
-594143.5121
 20
-1157591.8533
 10
-594138.8139
 20
-1157594.2123
 10
-594131.7097
 20
-1157601.345
 10
-594120.3869
 20
-1157610.6133
 10
-594107.1049
 20
-1157621.4853
 10
-594095.1
 20
-1157631.312
 10
-594083.1759
 20
-1157640.0766
 10
-594071.5422
 20
-1157648.6278
 10
-594060.4203
 20
-1157656.6479
 10
-594051.1359
 20
-1157663.2898
 10
-594038.682
 20
-1157672.0593
 10
-594031.1288
 20
-1157677.1433
 10
-594024.9658
 20
-1157680.9377
 10
-594017.667
 20
-1157685.1539
 10
-594011.727
 20
-1157689.3306
 10
-594006.8693
 20
-1157692.7466
 10
-593997.0624
 20
-1157699.6423
 10
-593991.6735
 20
-1157703.4316
 10
-593983.964
 20
-1157709.7468
 10
-593977.1853
 20
-1157715.5139
 10
-593968.7269
 20
-1157722.71
 10
-593961.0364
 20
-1157729.4054
 10
-593952.9202
 20
-1157737.5369
 10
-593946.6288
 20
-1157744.2221
 10
-593940.443
 20
-1157750.795
 10
-593937.3568
 20
-1157756.645
 10
-593931.9009
 20
-1157766.9875
 10
-593928.2555
 20
-1157773.8976
 10
-593924.866
 20
-1157780.3229
 10
-593923.2124
 20
-1157789.5382
 10
-593921.1308
 20
-1157801.1386
 10
-593920.68
 20
-1157803.6507
 10
-593893.2579
 20
-1157807.0785
 10
-593901.4067
 20
-1157785.7667
 10
-593915.2561
 20
-1157766.7704
 10
-593920.377
 20
-1157758.0709
 10
-593928.5533
 20
-1157747.0507
 10
-593932.866
 20
-1157741.2375
 10
-593938.3918
 20
-1157734.7173
 10
-593943.8418
 20
-1157728.5062
 10
-593951.3717
 20
-1157721.3268
 10
-593958.5746
 20
-1157714.9778
 10
-593970.4541
 20
-1157706.1148
 10
-593978.1698
 20
-1157700.3165
 10
-593989.125
 20
-1157691.8343
 10
-593998.0769
 20
-1157684.8675
 10
-594008.64
 20
-1157676.5674
 10
-594015.5969
 20
-1157671.1009
 10
-594025.4705
 20
-1157664.2068
 10
-594034.0356
 20
-1157658.2267
 10
-594044.5908
 20
-1157650.8567
 10
-594051.4473
 20
-1157646.057
 10
-594055.067
 20
-1157643.5155
 10
-594066.8701
 20
-1157635.4721
 10
-594082.7348
 20
-1157625.1576
 10
-594089.2536
 20
-1157620.9193
 10
-594100.1485
 20
-1157613.4119
 10
-594127.3613
 20
-1157589.4455
 10
-594149.0572
 20
-1157565.1039
 10
-594184.6045
 20
-1157526.1992
 10
-594189.3614
 20
-1157521.2632
 10
-594197.8496
 20
-1157513.1049
 10
-594209.013
 20
-1157502.5938
 10
-594219.376
 20
-1157494.847
 10
-594233.7145
 20
-1157486.9876
 10
-594240.0472
 20
-1157483.5164
 10
-594250.8227
 20
-1157477.6101
 10
-594260.0927
 20
-1157473.3377
 10
-594276.2024
 20
-1157466.7694
 10
-594293.4883
 20
-1157459.7217
 10
-594307.6817
 20
-1157453.9348
 10
-594344.8646
 20
-1157439.2017
 10
-594358.8933
 20
-1157433.9419
 10
-594365.3976
 20
-1157431.5035
 10
-594388.5923
 20
-1157423.0923
 10
-594410.1081
 20
-1157415.2954
 10
-594436.961
 20
-1157407.1772
 10
-594464.1366
 20
-1157399.3726
 10
-594488.2292
 20
-1157393.3495
 97
0
 75
0
 76
1
 98
0
  0
HATCH
  5
2002D
100
AcDbEntity
  8
plocha Q5
100
AcDbHatch
 10
0
 20
0
 30
0
210
0
220
0
230
1
  2
SOLID
 70
1
 71
0
 91
1
 92
2
 72
0
 73
1
 93
56
 10
-597987.5791
 20
-1162504.9711
 10
-598010.7415
 20
-1162471.9763
 10
-598022.2326
 20
-1162454.433
 10
-598034.3911
 20
-1162435.2342
 10
-598050.7833
 20
-1162409.3502
 10
-598062.4714
 20
-1162390.0654
 10
-598079.2332
 20
-1162360.6357
 10
-598088.8803
 20
-1162343.6982
 10
-598103.1707
 20
-1162318.6082
 10
-598114.2494
 20
-1162299.1569
 10
-598123.8963
 20
-1162282.2195
 10
-598135.9908
 20
-1162260.0248
 10
-598148.6394
 20
-1162236.218
 10
-598162.2335
 20
-1162210.6312
 10
-598164.4672
 20
-1162206.4269
 10
-598166.6598
 20
-1162202.3003
 10
-598174.7519
 20
-1162187.0696
 10
-598189.3232
 20
-1162163.7032
 10
-598209.5522
 20
-1162139.2158
 10
-598224.711
 20
-1162124.7037
 10
-598237.5103
 20
-1162113.2339
 10
-598250.6983
 20
-1162102.6454
 10
-598265.0265
 20
-1162093.4337
 10
-598288.8509
 20
-1162080.3554
 10
-598309.409
 20
-1162072.3521
 10
-598323.6451
 20
-1162067.3664
 10
-598339.4367
 20
-1162061.8361
 10
-598350.4238
 20
-1162093.5088
 10
-598314.843
 20
-1162105.8539
 10
-598294.122
 20
-1162115.5842
 10
-598275.4862
 20
-1162124.3352
 10
-598257.5457
 20
-1162133.8511
 10
-598241.725
 20
-1162144.6859
 10
-598222.6144
 20
-1162163.4402
 10
-598207.664
 20
-1162180.5659
 10
-598197.7938
 20
-1162196.6991
 10
-598190.3192
 20
-1162208.9164
 10
-598183.5237
 20
-1162220.0243
 10
-598177.7121
 20
-1162229.5236
 10
-598171.3408
 20
-1162241.1317
 10
-598156.8673
 20
-1162269.8757
 10
-598131.2201
 20
-1162320.8104
 10
-598113.947
 20
-1162352.0514
 10
-598105.2633
 20
-1162367.1951
 10
-598083.5772
 20
-1162403.6615
 10
-598069.6621
 20
-1162425.7852
 10
-598058.7135
 20
-1162442.3043
 10
-598044.9287
 20
-1162463.1027
 10
-598034.0624
 20
-1162479.4978
 10
-598019.0906
 20
-1162500.6215
 10
-598009.9076
 20
-1162511.5771
 10
-597981.6115
 20
-1162545.3354
 10
-597977.4727
 20
-1162550.4406
 10
-597967.5078
 20
-1162532.3761
 10
-597975.578
 20
-1162522.067
 10
-597987.5791
 20
-1162504.9711
 97
0
 75
0
 76
1
 98
0
  0
HATCH
  5
2002E
100
AcDbEntity
  8
plocha Q5
100
AcDbHatch
 10
0
 20
0
 30
0
210
0
220
0
230
1
  2
SOLID
 70
1
 71
0
 91
1
 92
2
 72
0
 73
1
 93
46
 10
-599190.909
 20
-1161590.2461
 10
-599189.0333
 20
-1161621.7327
 10
-599169.4719
 20
-1161623.6579
 10
-599155.9738
 20
-1161626.4934
 10
-599140.1618
 20
-1161630.3668
 10
-599129.6271
 20
-1161633.1117
 10
-599115.0695
 20
-1161638.546
 10
-599096.163
 20
-1161647.1879
 10
-599066.7291
 20
-1161660.8559
 10
-599039.6198
 20
-1161673.519
 10
-599017.655
 20
-1161683.7699
 10
-598994.7349
 20
-1161695.7018
 10
-598959.2793
 20
-1161716.5142
 10
-598930.2522
 20
-1161734.3574
 10
-598915.8473
 20
-1161744.2097
 10
-598890.4359
 20
-1161763.9783
 10
-598865.0264
 20
-1161788.1794
 10
-598839.9177
 20
-1161813.8758
 10
-598814.5095
 20
-1161839.8823
 10
-598786.812
 20
-1161868.2319
 10
-598747.0745
 20
-1161908.9049
 10
-598739.659
 20
-1161916.4828
 10
-598723.2603
 20
-1161899.1195
 10
-598742.3229
 20
-1161878.1724
 10
-598761.921
 20
-1161856.6367
 10
-598786.1896
 20
-1161829.9687
 10
-598806.3093
 20
-1161807.5356
 10
-598820.3917
 20
-1161791.819
 10
-598839.7702
 20
-1161773.017
 10
-598857.5707
 20
-1161757.3834
 10
-598875.1948
 20
-1161743.1693
 10
-598899.2983
 20
-1161725.0513
 10
-598912.5463
 20
-1161715.5297
 10
-598930.623
 20
-1161703.2944
 10
-598960.2993
 20
-1161685.3525
 10
-598977.9396
 20
-1161675.6535
 10
-599024.0689
 20
-1161651.5739
 10
-599102.0103
 20
-1161615.9378
 10
-599118.1513
 20
-1161608.9084
 10
-599136.0193
 20
-1161602.2273
 10
-599142.5188
 20
-1161599.7968
 10
-599151.229
 20
-1161596.5399
 10
-599151.2269
 20
-1161597.0045
 10
-599156.3665
 20
-1161595.3567
 10
-599171.9047
 20
-1161591.7776
 10
-599190.909
 20
-1161590.2461
 97
0
 75
0
 76
1
 98
0
  0
HATCH
  5
2002F
100
AcDbEntity
  8
plocha Q5
100
AcDbHatch
 10
0
 20
0
 30
0
210
0
220
0
230
1
  2
SOLID
 70
1
 71
0
 91
1
 92
2
 72
0
 73
1
 93
64
 10
-596669.9135
 20
-1162855.6514
 10
-596671.2365
 20
-1162837.9242
 10
-596671.4121
 20
-1162832.9033
 10
-596674.9406
 20
-1162732.0906
 10
-596678.3803
 20
-1162650.3342
 10
-596681.2907
 20
-1162572.8112
 10
-596683.9365
 20
-1162482.0589
 10
-596685.2595
 20
-1162424.3796
 10
-596687.3761
 20
-1162348.7086
 10
-596690.2866
 20
-1162251.0771
 10
-596692.4032
 20
-1162172.7603
 10
-596696.1648
 20
-1162104.7367
 10
-596697.7227
 20
-1162044.1326
 10
-596701.0498
 20
-1161939.1564
 10
-596702.8684
 20
-1161884.6335
 10
-596703.9448
 20
-1161852.3636
 10
-596707.2418
 20
-1161755.7769
 10
-596710.291
 20
-1161667.1461
 10
-596710.5053
 20
-1161651.2918
 10
-596723.8853
 20
-1161657.2735
 10
-596722.4373
 20
-1161681.8048
 10
-596721.8068
 20
-1161691.5019
 10
-596719.0969
 20
-1161750.7772
 10
-596718.4566
 20
-1161768.2163
 10
-596717.5094
 20
-1161794.3779
 10
-596716.5121
 20
-1161821.6489
 10
-596715.2323
 20
-1161856.311
 10
-596714.3723
 20
-1161879.6017
 10
-596711.8249
 20
-1161953.9444
 10
-596710.8141
 20
-1161984.6724
 10
-596709.9447
 20
-1162011.1022
 10
-596709.3089
 20
-1162030.4308
 10
-596708.1874
 20
-1162064.5252
 10
-596706.4466
 20
-1162117.4456
 10
-596705.2528
 20
-1162153.7413
 10
-596704.1382
 20
-1162187.6236
 10
-596703.3642
 20
-1162211.1548
 10
-596701.9889
 20
-1162252.9662
 10
-596701.093
 20
-1162280.1974
 10
-596699.3622
 20
-1162332.8189
 10
-596698.1164
 20
-1162370.6917
 10
-596697.0561
 20
-1162402.9274
 10
-596695.9764
 20
-1162435.7525
 10
-596695.515
 20
-1162449.7775
 10
-596693.7736
 20
-1162502.7154
 10
-596692.0689
 20
-1162554.5438
 10
-596691.1721
 20
-1162581.8014
 10
-596690.4245
 20
-1162604.531
 10
-596689.3875
 20
-1162636.0519
 10
-596688.6648
 20
-1162658.0235
 10
-596686.9755
 20
-1162709.3754
 10
-596685.8701
 20
-1162742.9761
 10
-596684.8637
 20
-1162773.3701
 10
-596684.1271
 20
-1162795.6058
 10
-596683.4684
 20
-1162815.4891
 10
-596682.9343
 20
-1162831.6111
 10
-596682.803
 20
-1162835.5755
 10
-596681.2624
 20
-1162882.0826
 10
-596680.1828
 20
-1162914.6694
 10
-596678.3236
 20
-1162967.6564
 10
-596664.8864
 20
-1162969.687
 10
-596666.7386
 20
-1162924.9722
 10
-596668.8552
 20
-1162891.1055
 10
-596669.9135
 20
-1162855.6514
 97
0
 75
0
 76
1
 98
0
  0
HATCH
  5
20030
100
AcDbEntity
  8
plocha Q5
100
AcDbHatch
 10
0
 20
0
 30
0
210
0
220
0
230
1
  2
SOLID
 70
1
 71
0
 91
1
 92
2
 72
0
 73
1
 93
75
 10
-597035.5756
 20
-1166144.6046
 10
-596999.714
 20
-1166063.3049
 10
-596972.3359
 20
-1166001.9914
 10
-596953.4701
 20
-1165959.9028
 10
-596926.3718
 20
-1165899.589
 10
-596897.6165
 20
-1165835.5872
 10
-596871.0371
 20
-1165776.4284
 10
-596854.9069
 20
-1165740.5269
 10
-596836.4563
 20
-1165650.9632
 10
-596820.2212
 20
-1165570.1167
 10
-596809.8855
 20
-1165517.6323
 10
-596798.7055
 20
-1165460.8602
 10
-596785.1072
 20
-1165391.5658
 10
-596779.1801
 20
-1165360.9972
 10
-596768.3752
 20
-1165305.2723
 10
-596758.8927
 20
-1165256.3672
 10
-596753.4903
 20
-1165228.505
 10
-596752.3449
 20
-1165222.5983
 10
-596744.7879
 20
-1165183.6228
 10
-596735.0965
 20
-1165133.6405
 10
-596726.555
 20
-1165089.5883
 10
-596722.1878
 20
-1165067.0652
 10
-596718.3056
 20
-1165047.0427
 10
-596717.299
 20
-1165041.8516
 10
-596716.0131
 20
-1165034.919
 10
-596706.6436
 20
-1164984.4057
 10
-596699.9273
 20
-1164947.3344
 10
-596698.2472
 20
-1164939.2854
 10
-596707.5017
 20
-1164943.4582
 10
-596709.447
 20
-1164951.618
 10
-596720.1319
 20
-1165003.1994
 10
-596726.3429
 20
-1165035.7073
 10
-596727.286
 20
-1165040.6435
 10
-596739.6638
 20
-1165105.427
 10
-596746.0211
 20
-1165138.7008
 10
-596754.0367
 20
-1165180.6537
 10
-596757.9319
 20
-1165201.0406
 10
-596761.6505
 20
-1165220.504
 10
-596763.3067
 20
-1165229.1718
 10
-596770.6231
 20
-1165267.4647
 10
-596776.2
 20
-1165296.6543
 10
-596782.4829
 20
-1165329.5379
 10
-596788.7843
 20
-1165362.5191
 10
-596791.9458
 20
-1165379.0655
 10
-596795.7965
 20
-1165399.2202
 10
-596798.4143
 20
-1165412.9214
 10
-596802.8086
 20
-1165434.6475
 10
-596807.598
 20
-1165458.1854
 10
-596814.6334
 20
-1165492.7603
 10
-596820.0756
 20
-1165519.5064
 10
-596823.8005
 20
-1165537.8123
 10
-596829.1604
 20
-1165564.1537
 10
-596832.3666
 20
-1165579.9102
 10
-596836.4235
 20
-1165599.8482
 10
-596844.2716
 20
-1165638.5418
 10
-596848.3484
 20
-1165658.688
 10
-596855.8701
 20
-1165695.8582
 10
-596860.1943
 20
-1165717.227
 10
-596864.305
 20
-1165737.541
 10
-596874.2904
 20
-1165759.9074
 10
-596884.2345
 20
-1165782.1815
 10
-596913.0487
 20
-1165846.7229
 10
-596949.1414
 20
-1165906.2488
 10
-596957.3917
 20
-1165925.0597
 10
-596966.0689
 20
-1165944.8437
 10
-596979.5663
 20
-1165975.6174
 10
-596984.1542
 20
-1165986.0779
 10
-597002.3742
 20
-1166027.6195
 10
-597010.6074
 20
-1166046.3913
 10
-597018.086
 20
-1166063.4423
 10
-597024.8745
 20
-1166078.8615
 10
-597033.9936
 20
-1166099.1264
 10
-597051.7317
 20
-1166136.9538
 10
-597046.5175
 20
-1166175.7593
 10
-597035.5756
 20
-1166144.6046
 97
0
 75
0
 76
1
 98
0
  0
HATCH
  5
20031
100
AcDbEntity
  8
plocha Q5
100
AcDbHatch
 10
0
 20
0
 30
0
210
0
220
0
230
1
  2
SOLID
 70
1
 71
0
 91
1
 92
2
 72
0
 73
1
 93
53
 10
-597413.7365
 20
-1163949.179
 10
-597413.7264
 20
-1163885.6754
 10
-597411.7202
 20
-1163848.5703
 10
-597411.4066
 20
-1163842.7666
 10
-597409.7969
 20
-1163812.9911
 10
-597407.8709
 20
-1163763.3839
 10
-597409.443
 20
-1163747.6589
 10
-597413.5479
 20
-1163726.4087
 10
-597421.4874
 20
-1163694.4363
 10
-597424.292
 20
-1163683.6389
 10
-597432.4983
 20
-1163663.5551
 10
-597442.3503
 20
-1163639.4438
 10
-597453.2044
 20
-1163612.8799
 10
-597460.851
 20
-1163594.166
 10
-597476.232
 20
-1163563.2869
 10
-597498.9939
 20
-1163526.4126
 10
-597511.679
 20
-1163508.3058
 10
-597527.872
 20
-1163485.1914
 10
-597543.8369
 20
-1163462.4029
 10
-597550.7954
 20
-1163448.5073
 10
-597552.914
 20
-1163444.2766
 10
-597558.9538
 20
-1163432.2153
 10
-597563.0865
 20
-1163423.9624
 10
-597572.8274
 20
-1163401.6551
 10
-597579.202
 20
-1163385.6878
 10
-597586.687
 20
-1163365.557
 10
-597592.3048
 20
-1163345.3113
 10
-597596.8889
 20
-1163326.016
 10
-597602.6936
 20
-1163286.103
 10
-597625.445
 20
-1163276.493
 10
-597618.4428
 20
-1163306.4246
 10
-597609.747
 20
-1163341.2552
 10
-597598.3806
 20
-1163378.1687
 10
-597587.524
 20
-1163406.387
 10
-597577.4262
 20
-1163428.8273
 10
-597572.2876
 20
-1163440.247
 10
-597567.763
 20
-1163450.3023
 10
-597552.9139
 20
-1163481.7515
 10
-597530.2963
 20
-1163513.6651
 10
-597511.8719
 20
-1163539.6627
 10
-597494.5976
 20
-1163565.6964
 10
-597477.8385
 20
-1163595.892
 10
-597459.5385
 20
-1163633.6174
 10
-597445.8092
 20
-1163666.1806
 10
-597432.9256
 20
-1163729.0336
 10
-597428.7494
 20
-1163840.1374
 10
-597429.3343
 20
-1163856.1073
 10
-597430.2419
 20
-1163880.8868
 10
-597433.0172
 20
-1163994.7047
 10
-597433.8279
 20
-1164028.2209
 10
-597413.2692
 20
-1164029.5086
 10
-597413.3549
 20
-1164013.7166
 10
-597413.7365
 20
-1163949.179
 97
0
 75
0
 76
1
 98
0
  0
HATCH
  5
20032
100
AcDbEntity
  8
plocha Q5
100
AcDbHatch
 10
0
 20
0
 30
0
210
0
220
0
230
1
  2
SOLID
 70
1
 71
0
 91
1
 92
2
 72
0
 73
1
 93
67
 10
-601202.5851
 20
-1161130.1845
 10
-601206.658
 20
-1161121.691
 10
-601209.353
 20
-1161109.6159
 10
-601208.5147
 20
-1161102.9092
 10
-601207.7349
 20
-1161096.6699
 10
-601204.8673
 20
-1161085.8025
 10
-601203.065
 20
-1161078.9719
 10
-601197.7741
 20
-1161067.614
 10
-601191.1625
 20
-1161052.6806
 10
-601189.5866
 20
-1161048.7552
 10
-601187.6115
 20
-1161043.8355
 10
-601177.5855
 20
-1161019.8546
 10
-601166.6729
 20
-1160995.2379
 10
-601157.4045
 20
-1160973.2684
 10
-601145.1422
 20
-1160944.2029
 10
-601133.7683
 20
-1160917.2429
 10
-601126.475
 20
-1160899.955
 10
-601118.9921
 20
-1160882.218
 10
-601109.762
 20
-1160860.3399
 10
-601096.0124
 20
-1160827.5318
 10
-601088.5635
 20
-1160808.9217
 10
-601081.4791
 20
-1160789.5259
 10
-601078.0095
 20
-1160773.5229
 10
-601073.9547
 20
-1160746.7995
 10
-601071.482
 20
-1160730.452
 10
-601073.7436
 20
-1160703.9749
 10
-601076.4629
 20
-1160685.8894
 10
-601081.6856
 20
-1160666.4949
 10
-601087.2763
 20
-1160645.7346
 10
-601094.327
 20
-1160631.0746
 10
-601104.2345
 20
-1160610.7979
 10
-601131.7465
 20
-1160620.3396
 10
-601123.8167
 20
-1160632.4929
 10
-601113.7177
 20
-1160647.971
 10
-601109.6
 20
-1160656.1635
 10
-601105.682
 20
-1160665.959
 10
-601100.3717
 20
-1160683.6616
 10
-601096.9709
 20
-1160702.1732
 10
-601095.6817
 20
-1160729.2506
 10
-601096.4993
 20
-1160750.8327
 10
-601098.4844
 20
-1160768.9839
 10
-601103.9948
 20
-1160791.7212
 10
-601115.0678
 20
-1160823.1326
 10
-601129.784
 20
-1160857.1559
 10
-601140.532
 20
-1160876.047
 10
-601143.933
 20
-1160882.1559
 10
-601148.966
 20
-1160893.484
 10
-601160.442
 20
-1160924.2837
 10
-601174.6707
 20
-1160958.2258
 10
-601184.2073
 20
-1160980.9752
 10
-601197.146
 20
-1161013.976
 10
-601201.086
 20
-1161024.747
 10
-601208.6646
 20
-1161037.702
 10
-601212.3765
 20
-1161044.0475
 10
-601214.8006
 20
-1161048.1911
 10
-601223.4735
 20
-1161063.0168
 10
-601229.4849
 20
-1161073.2929
 10
-601234.5036
 20
-1161086.125
 10
-601237.932
 20
-1161101.704
 10
-601240.0889
 20
-1161118.606
 10
-601236.495
 20
-1161127.2369
 10
-601228.0507
 20
-1161139.1493
 10
-601219.3028
 20
-1161153.8974
 10
-601214.1344
 20
-1161162.6109
 10
-601193.4723
 20
-1161145.4205
 10
-601195.4863
 20
-1161142.8488
 10
-601202.5851
 20
-1161130.1845
 97
0
 75
0
 76
1
 98
0
  0
HATCH
  5
20033
100
AcDbEntity
  8
plocha Q5
100
AcDbHatch
 10
0
 20
0
 30
0
210
0
220
0
230
1
  2
SOLID
 70
1
 71
0
 91
1
 92
2
 72
0
 73
1
 93
79
 10
-596559.6112
 20
-1160023.7648
 10
-596550.2656
 20
-1160010.9106
 10
-596542.15
 20
-1159999.748
 10
-596532.6661
 20
-1159985.4867
 10
-596517.5091
 20
-1159962.6941
 10
-596507.1026
 20
-1159946.3934
 10
-596496.404
 20
-1159928.4779
 10
-596484.5821
 20
-1159908.683
 10
-596470.927
 20
-1159887.3904
 10
-596450.7796
 20
-1159856.3667
 10
-596435.3233
 20
-1159832.3565
 10
-596413.1314
 20
-1159796.653
 10
-596398.2362
 20
-1159772.689
 10
-596377.8365
 20
-1159739.8686
 10
-596356.8852
 20
-1159706.1611
 10
-596343.2098
 20
-1159685.0088
 10
-596332.8554
 20
-1159669.7824
 10
-596325.8376
 20
-1159659.4625
 10
-596309.3709
 20
-1159635.2481
 10
-596295.7486
 20
-1159615.2162
 10
-596286.1829
 20
-1159601.1499
 10
-596280.2575
 20
-1159587.9799
 10
-596271.0059
 20
-1159567.4179
 10
-596265.3499
 20
-1159554.8469
 10
-596255.8076
 20
-1159541.4969
 10
-596237.7017
 20
-1159516.9863
 10
-596222.6209
 20
-1159498.4002
 10
-596210.5691
 20
-1159487.0326
 10
-596201.3044
 20
-1159479.8444
 10
-596192.303
 20
-1159474.0621
 10
-596180.7175
 20
-1159468.1391
 10
-596164.7031
 20
-1159462.1345
 10
-596151.1347
 20
-1159458.5038
 10
-596134.3311
 20
-1159456.5775
 10
-596137.9184
 20
-1159442.4176
 10
-596156.0252
 20
-1159445.5373
 10
-596168.5948
 20
-1159449.1643
 10
-596176.138
 20
-1159451.341
 10
-596184.9762
 20
-1159455.2421
 10
-596200.7787
 20
-1159463.043
 10
-596216.4494
 20
-1159472.842
 10
-596224.4989
 20
-1159479.8681
 10
-596234.5081
 20
-1159489.9888
 10
-596241.6143
 20
-1159498.6557
 10
-596250.7627
 20
-1159510.3623
 10
-596259.6116
 20
-1159522.5945
 10
-596270.2312
 20
-1159537.7973
 10
-596277.7243
 20
-1159549.5669
 10
-596285.2327
 20
-1159562.5434
 10
-596289.1801
 20
-1159569.365
 10
-596293.868
 20
-1159578.7779
 10
-596296.9692
 20
-1159585.9867
 10
-596300.4145
 20
-1159593.9956
 10
-596303.1875
 20
-1159600.4417
 10
-596307.3767
 20
-1159607.2115
 10
-596318.5194
 20
-1159623.3305
 10
-596343.3071
 20
-1159659.1884
 10
-596368.7745
 20
-1159696.7216
 10
-596380.4919
 20
-1159714.5728
 10
-596419.8769
 20
-1159774.5754
 10
-596432.3566
 20
-1159793.5882
 10
-596444.5178
 20
-1159812.1156
 10
-596459.9865
 20
-1159835.6819
 10
-596468.3963
 20
-1159848.494
 10
-596476.491
 20
-1159860.8261
 10
-596484.0216
 20
-1159873.0285
 10
-596489.9319
 20
-1159883.0297
 10
-596496.0431
 20
-1159893.13
 10
-596508.439
 20
-1159912.2893
 10
-596520.544
 20
-1159930.766
 10
-596535.4925
 20
-1159952.7188
 10
-596557.58
 20
-1159984.1073
 10
-596566.1906
 20
-1159995.7689
 10
-596571.1252
 20
-1160002.4518
 10
-596579.6423
 20
-1160013.987
 10
-596587.5003
 20
-1160024.6291
 10
-596594.7122
 20
-1160036.0205
 10
-596576.1172
 20
-1160045.6585
 10
-596559.6112
 20
-1160023.7648
 97
0
 75
0
 76
1
 98
0
  0
HATCH
  5
20034
100
AcDbEntity
  8
plocha Q5
100
AcDbHatch
 10
0
 20
0
 30
0
210
0
220
0
230
1
  2
SOLID
 70
1
 71
0
 91
1
 92
2
 72
0
 73
1
 93
47
 10
-597624.9799
 20
-1163050.1619
 10
-597627.4492
 20
-1163039.0699
 10
-597635.8684
 20
-1163001.2529
 10
-597645.0504
 20
-1162967.3146
 10
-597655.8957
 20
-1162929.4412
 10
-597665.899
 20
-1162894.5079
 10
-597676.644
 20
-1162866.9
 10
-597685.204
 20
-1162855.8665
 10
-597711.9502
 20
-1162822.4904
 10
-597737.782
 20
-1162790.538
 10
-597767.5131
 20
-1162754.5097
 10
-597790.3871
 20
-1162730.3103
 10
-597823.099
 20
-1162695.7856
 10
-597851.3319
 20
-1162666.221
 10
-597870.7553
 20
-1162646.0472
 10
-597887.4569
 20
-1162627.72
 10
-597892.515
 20
-1162622.0606
 10
-597905.5598
 20
-1162607.2105
 10
-597920.9768
 20
-1162588.5514
 10
-597932.4992
 20
-1162606.2003
 10
-597915.4124
 20
-1162624.0696
 10
-597905.5934
 20
-1162634.3485
 10
-597884.9571
 20
-1162655.951
 10
-597847.4483
 20
-1162695.216
 10
-597822.3897
 20
-1162721.4478
 10
-597797.5838
 20
-1162747.4154
 10
-597772.2373
 20
-1162773.9486
 10
-597764.163
 20
-1162782.401
 10
-597750.4157
 20
-1162801.9245
 10
-597737.8385
 20
-1162819.7865
 10
-597723.0089
 20
-1162840.8471
 10
-597706.0949
 20
-1162864.8679
 10
-597692.15
 20
-1162896.6994
 10
-597686.073
 20
-1162910.8809
 10
-597678.2689
 20
-1162933.4652
 10
-597672.38
 20
-1162954.0003
 10
-597666.318
 20
-1162978.5529
 10
-597662.5793
 20
-1163003.3845
 10
-597659.9925
 20
-1163020.5658
 10
-597657.4215
 20
-1163037.6413
 10
-597656.8294
 20
-1163041.575
 10
-597655.5711
 20
-1163049.9319
 10
-597654.283
 20
-1163058.4879
 10
-597653.3934
 20
-1163070.6893
 10
-597621.0772
 20
-1163070.5283
 10
-597622.0819
 20
-1163063.179
 10
-597624.9799
 20
-1163050.1619
 97
0
 75
0
 76
1
 98
0
  0
HATCH
  5
20035
100
AcDbEntity
  8
plocha Q5
100
AcDbHatch
 10
0
 20
0
 30
0
210
0
220
0
230
1
  2
SOLID
 70
1
 71
0
 91
1
 92
2
 72
0
 73
1
 93
55
 10
-596624.7116
 20
-1164472.5038
 10
-596623.937
 20
-1164403.7332
 10
-596625.3882
 20
-1164285.2273
 10
-596629.7887
 20
-1164177.2946
 10
-596632.5078
 20
-1164110.6009
 10
-596635.0198
 20
-1164033.0357
 10
-596637.2775
 20
-1163951.5918
 10
-596640.652
 20
-1163829.8667
 10
-596642.9558
 20
-1163746.756
 10
-596647.003
 20
-1163600.7665
 10
-596645.8566
 20
-1163561.9793
 10
-596661.1038
 20
-1163558.2706
 10
-596661.0536
 20
-1163561.2766
 10
-596660.797
 20
-1163576.5749
 10
-596660.5922
 20
-1163588.8166
 10
-596659.617
 20
-1163619.9951
 10
-596658.9172
 20
-1163638.5594
 10
-596658.1886
 20
-1163657.8864
 10
-596657.4797
 20
-1163676.6949
 10
-596656.7345
 20
-1163696.4608
 10
-596655.9259
 20
-1163717.9114
 10
-596655.0778
 20
-1163740.409
 10
-596654.3492
 20
-1163759.7361
 10
-596653.911
 20
-1163771.3614
 10
-596652.1336
 20
-1163818.5099
 10
-596651.3574
 20
-1163839.0983
 10
-596650.7481
 20
-1163855.2647
 10
-596649.8532
 20
-1163879.0036
 10
-596648.4765
 20
-1163915.5242
 10
-596647.3897
 20
-1163944.3528
 10
-596646.8573
 20
-1163958.4753
 10
-596644.701
 20
-1164028.0654
 10
-596644.0761
 20
-1164050.0156
 10
-596643.5355
 20
-1164069.0051
 10
-596642.7813
 20
-1164095.5022
 10
-596642.1864
 20
-1164116.4026
 10
-596641.6436
 20
-1164135.4672
 10
-596640.9592
 20
-1164159.5098
 10
-596639.2794
 20
-1164218.5244
 10
-596638.6687
 20
-1164239.9759
 10
-596638.0507
 20
-1164261.6844
 10
-596637.0658
 20
-1164296.2868
 10
-596636.3874
 20
-1164320.1176
 10
-596635.3769
 20
-1164355.6184
 10
-596635.1229
 20
-1164370.6333
 10
-596635.2746
 20
-1164380.9575
 10
-596635.508
 20
-1164396.8524
 10
-596635.7255
 20
-1164411.6815
 10
-596636.0675
 20
-1164434.9676
 10
-596636.3586
 20
-1164454.7956
 10
-596636.7896
 20
-1164484.1618
 10
-596637.1533
 20
-1164498.6472
 10
-596638.1029
 20
-1164509.9613
 10
-596626.1209
 20
-1164517.701
 10
-596624.7116
 20
-1164472.5038
 97
0
 75
0
 76
1
 98
0
  0
HATCH
  5
20036
100
AcDbEntity
  8
plocha Q5
100
AcDbHatch
 10
0
 20
0
 30
0
210
0
220
0
230
1
  2
SOLID
 70
1
 71
0
 91
1
 92
2
 72
0
 73
1
 93
59
 10
-596539.8806
 20
-1160512.4774
 10
-596534.5759
 20
-1160486.8299
 10
-596532.9969
 20
-1160472.7325
 10
-596532.79
 20
-1160463.666
 10
-596535.1381
 20
-1160438.2368
 10
-596537.7152
 20
-1160415.1406
 10
-596539.0105
 20
-1160403.882
 10
-596541.695
 20
-1160380.5489
 10
-596549.4916
 20
-1160335.3924
 10
-596556.3419
 20
-1160291.3748
 10
-596562.176
 20
-1160252.8559
 10
-596572.172
 20
-1160224.0619
 10
-596577.2428
 20
-1160209.4551
 10
-596587.2979
 20
-1160180.491
 10
-596592.156
 20
-1160163.5379
 10
-596598.9054
 20
-1160138.7566
 10
-596600.984
 20
-1160131.1249
 10
-596601.2547
 20
-1160116.9666
 10
-596601.365
 20
-1160111.2009
 10
-596598.7169
 20
-1160094.2718
 10
-596594.9904
 20
-1160083.364
 10
-596588.6744
 20
-1160066.2855
 10
-596605.6821
 20
-1160055.0013
 10
-596605.745
 20
-1160055.11
 10
-596609.151
 20
-1160063.6239
 10
-596612.422
 20
-1160076.615
 10
-596616.3319
 20
-1160092.8169
 10
-596617.724
 20
-1160102.1679
 10
-596618.1209
 20
-1160115.299
 10
-596617.9229
 20
-1160126.6389
 10
-596616.494
 20
-1160138.346
 10
-596615.969
 20
-1160142.6468
 10
-596611.2531
 20
-1160158.3477
 10
-596605.305
 20
-1160176.6649
 10
-596597.3844
 20
-1160200.365
 10
-596591.1629
 20
-1160218.981
 10
-596589.1352
 20
-1160226.7939
 10
-596587.1667
 20
-1160234.378
 10
-596583.4445
 20
-1160248.7194
 10
-596580.2345
 20
-1160261.0873
 10
-596577.2664
 20
-1160274.3069
 10
-596574.9571
 20
-1160286.0186
 10
-596572.4978
 20
-1160298.4909
 10
-596570.0486
 20
-1160310.9129
 10
-596568.8136
 20
-1160317.1758
 10
-596567.3692
 20
-1160327.7665
 10
-596564.9275
 20
-1160347.7964
 10
-596562.0735
 20
-1160373.2263
 10
-596559.789
 20
-1160395.0708
 10
-596558.1438
 20
-1160410.8013
 10
-596557.6798
 20
-1160419.0442
 10
-596557.493
 20
-1160440.5298
 10
-596557.493
 20
-1160455.6289
 10
-596558.1209
 20
-1160463.6259
 10
-596560.792
 20
-1160486.8068
 10
-596565.5672
 20
-1160515.2876
 10
-596569.4279
 20
-1160543.7856
 10
-596544.0174
 20
-1160547.2777
 10
-596539.8806
 20
-1160512.4774
 97
0
 75
0
 76
1
 98
0
  0
HATCH
  5
20037
100
AcDbEntity
  8
plocha Q5
100
AcDbHatch
 10
0
 20
0
 30
0
210
0
220
0
230
1
  2
SOLID
 70
1
 71
0
 91
1
 92
2
 72
0
 73
1
 93
46
 10
-594636.5778
 20
-1157378.0179
 10
-594662.8487
 20
-1157376.967
 10
-594679.1845
 20
-1157375.5904
 10
-594722.3118
 20
-1157375.0613
 10
-594755.1569
 20
-1157388.316
 10
-594794.8778
 20
-1157403.9018
 10
-594797.3195
 20
-1157404.8078
 10
-594795.1554
 20
-1157414.4264
 10
-594787.7494
 20
-1157411.0536
 10
-594736.2752
 20
-1157390.4284
 10
-594718.542
 20
-1157383.9399
 10
-594704.8788
 20
-1157384.0112
 10
-594679.1486
 20
-1157385.5837
 10
-594656.9257
 20
-1157386.9417
 10
-594624.3103
 20
-1157390.3298
 10
-594620.2149
 20
-1157390.7356
 10
-594616.9561
 20
-1157392.9501
 10
-594617.6851
 20
-1157395.314
 10
-594619.9091
 20
-1157399.0172
 10
-594623.4019
 20
-1157401.6367
 10
-594638.1396
 20
-1157409.9153
 10
-594649.5966
 20
-1157416.4557
 10
-594657.21
 20
-1157420.8019
 10
-594676.2033
 20
-1157430.899
 10
-594690.5354
 20
-1157437.1172
 10
-594710.3076
 20
-1157445.6674
 10
-594730.8847
 20
-1157451.3403
 10
-594784.619
 20
-1157465.4202
 10
-594780.0259
 20
-1157488.5636
 10
-594773.889
 20
-1157487.9374
 10
-594748.1415
 20
-1157485.3101
 10
-594735.5889
 20
-1157482.4367
 10
-594712.4483
 20
-1157475.7381
 10
-594679.0628
 20
-1157463.3564
 10
-594651.2842
 20
-1157457.9367
 10
-594626.4262
 20
-1157450.2221
 10
-594605.9828
 20
-1157439.6357
 10
-594593.2169
 20
-1157423.3882
 10
-594578.13
 20
-1157415.2645
 10
-594575.7974
 20
-1157385.8243
 10
-594586.6293
 20
-1157385.2542
 10
-594597.4612
 20
-1157384.6842
 10
-594607.5154
 20
-1157384.1551
 10
-594614.0463
 20
-1157383.3352
 10
-594624.7255
 20
-1157380.5249
 10
-594636.5778
 20
-1157378.0179
 97
0
 75
0
 76
1
 98
0
  0
HATCH
  5
20038
100
AcDbEntity
  8
plocha Q5
100
AcDbHatch
 10
0
 20
0
 30
0
210
0
220
0
230
1
  2
SOLID
 70
1
 71
0
 91
1
 92
2
 72
0
 73
1
 93
26
 10
-597343.526
 20
-1165164.8759
 10
-597348.7771
 20
-1165143.2395
 10
-597353.026
 20
-1165125.7329
 10
-597355.6226
 20
-1165099.252
 10
-597357.8982
 20
-1165065.7437
 10
-597357.8708
 20
-1165047.1872
 10
-597357.2746
 20
-1165036.4525
 10
-597356.067
 20
-1165023.8869
 10
-597349.5362
 20
-1164989.6714
 10
-597336.5534
 20
-1164920.2453
 10
-597326.7172
 20
-1164868.4182
 10
-597347.8562
 20
-1164866.1656
 10
-597357.5045
 20
-1164914.4189
 10
-597365.8944
 20
-1164961.5645
 10
-597373.892
 20
-1165006.505
 10
-597378.1926
 20
-1165030.6825
 10
-597380.0234
 20
-1165045.3364
 10
-597380.251
 20
-1165052.9883
 10
-597380.7973
 20
-1165071.3528
 10
-597375.3784
 20
-1165126.4562
 10
-597372.9279
 20
-1165147.229
 10
-597359.5643
 20
-1165205.9923
 10
-597356.9406
 20
-1165216.6175
 10
-597328.2637
 20
-1165207.9486
 10
-597336.2655
 20
-1165185.3662
 10
-597343.526
 20
-1165164.8759
 97
0
 75
0
 76
1
 98
0
  0
HATCH
  5
20039
100
AcDbEntity
  8
plocha Q5
100
AcDbHatch
 10
0
 20
0
 30
0
210
0
220
0
230
1
  2
SOLID
 70
1
 71
0
 91
1
 92
2
 72
0
 73
1
 93
23
 10
-596606.734
 20
-1160829.9779
 10
-596596.9128
 20
-1160781.8331
 10
-596592.3858
 20
-1160759.614
 10
-596588.7704
 20
-1160741.8686
 10
-596577.6639
 20
-1160691.3124
 10
-596565.9322
 20
-1160647.9635
 10
-596559.3175
 20
-1160615.6844
 10
-596555.878
 20
-1160599.5447
 10
-596549.6691
 20
-1160560.3778
 10
-596573.1923
 20
-1160556.8872
 10
-596574.2035
 20
-1160562.0167
 10
-596578.4605
 20
-1160582.0638
 10
-596585.0423
 20
-1160615.3556
 10
-596596.2338
 20
-1160671.964
 10
-596602.8751
 20
-1160705.5578
 10
-596606.7873
 20
-1160725.5663
 10
-596612.8886
 20
-1160757.6918
 10
-596616.161
 20
-1160774.9219
 10
-596618.615
 20
-1160797.7999
 10
-596620.2292
 20
-1160812.8499
 10
-596622.1809
 20
-1160831.047
 10
-596623.1654
 20
-1160835.7045
 10
-596606.734
 20
-1160829.9779
 97
0
 75
0
 76
1
 98
0
  0
HATCH
  5
2003A
100
AcDbEntity
  8
plocha Q5
100
AcDbHatch
 10
0
 20
0
 30
0
210
0
220
0
230
1
  2
SOLID
 70
1
 71
0
 91
1
 92
2
 72
0
 73
1
 93
16
 10
-598389.4837
 20
-1162051.496
 10
-598409.0003
 20
-1162048.4488
 10
-598452.0387
 20
-1162041.984
 10
-598492.1501
 20
-1162035.9879
 10
-598519.6158
 20
-1162030.8556
 10
-598543.754
 20
-1162025.9129
 10
-598550.212
 20
-1162052.926
 10
-598527.6599
 20
-1162058.417
 10
-598496.461
 20
-1162065.2198
 10
-598461.3613
 20
-1162072.5299
 10
-598396.8521
 20
-1162084.8296
 10
-598375.8438
 20
-1162088.8354
 10
-598369.4188
 20
-1162090.0166
 10
-598363.7428
 20
-1162056.2552
 10
-598370.329
 20
-1162054.861
 10
-598389.4837
 20
-1162051.496
 97
0
 75
0
 76
1
 98
0
  0
HATCH
  5
2003B
100
AcDbEntity
  8
plocha Q5
100
AcDbHatch
 10
0
 20
0
 30
0
210
0
220
0
230
1
  2
SOLID
 70
1
 71
0
 91
1
 92
2
 72
0
 73
1
 93
32
 10
-596711.3899
 20
-1161298.806
 10
-596708.3012
 20
-1161280.4463
 10
-596706.7364
 20
-1161271.7597
 10
-596700.7183
 20
-1161245.5717
 10
-596690.0675
 20
-1161199.2242
 10
-596673.9979
 20
-1161129.2972
 10
-596669.2412
 20
-1161108.5976
 10
-596655.592
 20
-1161049.2022
 10
-596642.0628
 20
-1160990.3296
 10
-596629.862
 20
-1160937.2373
 10
-596622.0449
 20
-1160902.9178
 10
-596642.7729
 20
-1160923.8419
 10
-596646.5164
 20
-1160942.1558
 10
-596650.6
 20
-1160961.0825
 10
-596652.1292
 20
-1160968.0327
 10
-596658.087
 20
-1160995.1118
 10
-596663.815
 20
-1161021.1461
 10
-596669.1
 20
-1161045.1666
 10
-596672.4547
 20
-1161060.4146
 10
-596679.1023
 20
-1161090.628
 10
-596685.6576
 20
-1161120.4228
 10
-596690.5972
 20
-1161142.8733
 10
-596692.3607
 20
-1161150.8886
 10
-596699.5012
 20
-1161183.3433
 10
-596707.5058
 20
-1161219.7246
 10
-596714.9851
 20
-1161253.7187
 10
-596718.0501
 20
-1161267.6494
 10
-596723.0452
 20
-1161290.3524
 10
-596726.8874
 20
-1161307.8163
 10
-596730.7108
 20
-1161325.9071
 10
-596715.9199
 20
-1161325.9204
 10
-596711.3899
 20
-1161298.806
 97
0
 75
0
 76
1
 98
0
  0
HATCH
  5
2003C
100
AcDbEntity
  8
plocha Q5
100
AcDbHatch
 10
0
 20
0
 30
0
210
0
220
0
230
1
  2
SOLID
 70
1
 71
0
 91
1
 92
2
 72
0
 73
1
 93
12
 10
-599272.8139
 20
-1161590.6826
 10
-599333.328
 20
-1161592.5222
 10
-599366.0902
 20
-1161594.9136
 10
-599388.9988
 20
-1161599.0728
 10
-599387.1742
 20
-1161622.3858
 10
-599363.3301
 20
-1161621.3374
 10
-599314.6413
 20
-1161620.2017
 10
-599265.244
 20
-1161619.6569
 10
-599221.5185
 20
-1161620.818
 10
-599223.3219
 20
-1161589.5586
 10
-599226.7661
 20
-1161589.4855
 10
-599272.8139
 20
-1161590.6826
 97
0
 75
0
 76
1
 98
0
  0
HATCH
  5
2003D
100
AcDbEntity
  8
plocha Q5
100
AcDbHatch
 10
0
 20
0
 30
0
210
0
220
0
230
1
  2
SOLID
 70
1
 71
0
 91
1
 92
2
 72
0
 73
1
 93
16
 10
-597614.807
 20
-1163218.336
 10
-597615.8057
 20
-1163192.4902
 10
-597616.7835
 20
-1163167.1894
 10
-597617.7714
 20
-1163141.623
 10
-597619.8093
 20
-1163088.8034
 10
-597651.9123
 20
-1163091.0052
 10
-597649.2324
 20
-1163117.6197
 10
-597645.1245
 20
-1163151.7119
 10
-597640.9786
 20
-1163186.1184
 10
-597635.1655
 20
-1163225.7155
 10
-597630.635
 20
-1163250.238
 10
-597630.4231
 20
-1163251.3094
 10
-597608.2738
 20
-1163258.3904
 10
-597609.3777
 20
-1163252.0363
 10
-597613.0177
 20
-1163229.4423
 10
-597614.807
 20
-1163218.336
 97
0
 75
0
 76
1
 98
0
  0
HATCH
  5
2003E
100
AcDbEntity
  8
plocha Q5
100
AcDbHatch
 10
0
 20
0
 30
0
210
0
220
0
230
1
  2
SOLID
 70
1
 71
0
 91
1
 92
2
 72
0
 73
1
 93
20
 10
-595974.003
 20
-1159423.0409
 10
-595996.8123
 20
-1159427.1736
 10
-596040.2039
 20
-1159432.9945
 10
-596084.6541
 20
-1159436.1694
 10
-596109.7896
 20
-1159436.1694
 10
-596126.3942
 20
-1159440.8835
 10
-596124.7786
 20
-1159456.145
 10
-596117.7187
 20
-1159455.8253
 10
-596102.6219
 20
-1159455.6149
 10
-596072.9905
 20
-1159455.2018
 10
-596061.3659
 20
-1159455.0397
 10
-596039.4169
 20
-1159454.7337
 10
-596030.0188
 20
-1159455.0016
 10
-596018.0736
 20
-1159456.3466
 10
-595997.9863
 20
-1159457.714
 10
-595973.68
 20
-1159459.369
 10
-595954.952
 20
-1159456.947
 10
-595946.086
 20
-1159454.0385
 10
-595965.8984
 20
-1159423.2192
 10
-595974.003
 20
-1159423.0409
 97
0
 75
0
 76
1
 98
0
  0
HATCH
  5
2003F
100
AcDbEntity
  8
plocha Q5
100
AcDbHatch
 10
0
 20
0
 30
0
210
0
220
0
230
1
  2
SOLID
 70
1
 71
0
 91
1
 92
2
 72
0
 73
1
 93
22
 10
-598612.6703
 20
-1161995.8601
 10
-598630.0839
 20
-1161985.3289
 10
-598641.3396
 20
-1161976.3051
 10
-598648.304
 20
-1161970.7217
 10
-598665.4171
 20
-1161956.4207
 10
-598678.945
 20
-1161943.7349
 10
-598702.098
 20
-1161921.3169
 10
-598714.9935
 20
-1161941.2348
 10
-598696.8023
 20
-1161960.2879
 10
-598677.8238
 20
-1161977.0959
 10
-598668.38
 20
-1161984.9111
 10
-598661.0658
 20
-1161990.9132
 10
-598661.0587
 20
-1161990.9697
 10
-598657.869
 20
-1161993.5365
 10
-598648.7905
 20
-1162000.8422
 10
-598642.2413
 20
-1162006.1125
 10
-598607.6732
 20
-1162027.7504
 10
-598594.195
 20
-1162034.8259
 10
-598579.4148
 20
-1162041.3889
 10
-598570.6474
 20
-1162016.0269
 10
-598589.3629
 20
-1162008.629
 10
-598612.6703
 20
-1161995.8601
 97
0
 75
0
 76
1
 98
0
  0
HATCH
  5
20040
100
AcDbEntity
  8
plocha Q5
100
AcDbHatch
 10
0
 20
0
 30
0
210
0
220
0
230
1
  2
SOLID
 70
1
 71
0
 91
1
 92
2
 72
0
 73
1
 93
12
 10
-596715.1451
 20
-1161353.6917
 10
-596733.7437
 20
-1161354.1097
 10
-596733.9912
 20
-1161358.3684
 10
-596734.1612
 20
-1161368.7179
 10
-596733.0789
 20
-1161407.0337
 10
-596732.533
 20
-1161422.6713
 10
-596729.3656
 20
-1161513.4331
 10
-596727.8162
 20
-1161557.8291
 10
-596726.5906
 20
-1161592.0007
 10
-596711.4533
 20
-1161581.1509
 10
-596714.3637
 20
-1161477.1695
 10
-596715.1451
 20
-1161353.6917
 97
0
 75
0
 76
1
 98
0
  0
HATCH
  5
20041
100
AcDbEntity
  8
plocha Q5
100
AcDbHatch
 10
0
 20
0
 30
0
210
0
220
0
230
1
  2
SOLID
 70
1
 71
0
 91
1
 92
2
 72
0
 73
1
 93
11
 10
-596655.3886
 20
-1163341.9666
 10
-596656.8092
 20
-1163301.0945
 10
-596669.3659
 20
-1163312.6945
 10
-596669.1198
 20
-1163338.7813
 10
-596667.5324
 20
-1163385.3482
 10
-596664.6219
 20
-1163490.6525
 10
-596663.0576
 20
-1163523.4948
 10
-596646.8548
 20
-1163532.9845
 10
-596648.4823
 20
-1163487.7421
 10
-596651.9218
 20
-1163382.1733
 10
-596655.3886
 20
-1163341.9666
 97
0
 75
0
 76
1
 98
0
  0
HATCH
  5
20042
100
AcDbEntity
  8
plocha Q5
100
AcDbHatch
 10
0
 20
0
 30
0
210
0
220
0
230
1
  2
SOLID
 70
1
 71
0
 91
1
 92
2
 72
0
 73
1
 93
20
 10
-596660.6348
 20
-1163177.93
 10
-596662.7987
 20
-1163106.5017
 10
-596663.859
 20
-1163071.5047
 10
-596665.9584
 20
-1163010.1877
 10
-596677.1941
 20
-1163007.531
 10
-596676.5819
 20
-1163028.7061
 10
-596676.3065
 20
-1163038.2306
 10
-596675.4283
 20
-1163068.6018
 10
-596674.6306
 20
-1163096.1873
 10
-596674.1344
 20
-1163113.348
 10
-596673.6451
 20
-1163130.2672
 10
-596672.8483
 20
-1163157.8222
 10
-596672.1449
 20
-1163182.1511
 10
-596671.4567
 20
-1163205.9514
 10
-596670.5542
 20
-1163237.1616
 10
-596669.8504
 20
-1163257.7868
 10
-596668.7183
 20
-1163278.6992
 10
-596657.7771
 20
-1163271.033
 10
-596659.9384
 20
-1163200.9196
 10
-596660.6348
 20
-1163177.93
 97
0
 75
0
 76
1
 98
0
  0
HATCH
  5
20043
100
AcDbEntity
  8
plocha Q5
100
AcDbHatch
 10
0
 20
0
 30
0
210
0
220
0
230
1
  2
SOLID
 70
1
 71
0
 91
1
 92
2
 72
0
 73
1
 93
16
 10
-596660.075
 20
-1164755.3743
 10
-596646.7613
 20
-1164681.6474
 10
-596640.1502
 20
-1164631.5208
 10
-596634.0147
 20
-1164583.9706
 10
-596629.1818
 20
-1164546.5165
 10
-596640.5943
 20
-1164536.9842
 10
-596643.5282
 20
-1164567.5018
 10
-596647.8671
 20
-1164609.8224
 10
-596653.7552
 20
-1164657.5346
 10
-596659.6242
 20
-1164697.5508
 10
-596665.8192
 20
-1164730.7813
 10
-596674.8975
 20
-1164777.3358
 10
-596679.4987
 20
-1164800.6443
 10
-596681.878
 20
-1164814.0454
 10
-596673.3175
 20
-1164818.8963
 10
-596660.075
 20
-1164755.3743
 97
0
 75
0
 76
1
 98
0
  0
HATCH
  5
20044
100
AcDbEntity
  8
plocha Q5
100
AcDbHatch
 10
0
 20
0
 30
0
210
0
220
0
230
1
  2
SOLID
 70
1
 71
0
 91
1
 92
2
 72
0
 73
1
 93
8
 10
-596616.1765
 20
-1160877.0955
 10
-596609.2243
 20
-1160842.1863
 10
-596625.5407
 20
-1160846.9405
 10
-596627.5825
 20
-1160856.5994
 10
-596632.6331
 20
-1160878.8192
 10
-596637.4551
 20
-1160900.0324
 10
-596637.4733
 20
-1160900.1144
 10
-596616.1765
 20
-1160877.0955
 97
0
 75
0
 76
1
 98
0
  0
HATCH
  5
20045
100
AcDbEntity
  8
plocha Q5
100
AcDbHatch
 10
0
 20
0
 30
0
210
0
220
0
230
1
  2
SOLID
 70
1
 71
0
 91
1
 92
2
 72
0
 73
1
 93
6
 10
-597955.117
 20
-1162548.1505
 10
-597966.5324
 20
-1162565.1811
 10
-597947.2088
 20
-1162588.4555
 10
-597936.6312
 20
-1162571.0371
 10
-597945.9677
 20
-1162559.6886
 10
-597955.117
 20
-1162548.1505
 97
0
 75
0
 76
1
 98
0
  0
HATCH
  5
20046
100
AcDbEntity
  8
plocha Q5
100
AcDbHatch
 10
0
 20
0
 30
0
210
0
220
0
230
1
  2
SOLID
 70
1
 71
0
 91
1
 92
2
 72
0
 73
1
 93
5
 10
-596725.8381
 20
-1161614.6552
 10
-596725.0529
 20
-1161637.4926
 10
-596707.3581
 20
-1161635.261
 10
-596711.0941
 20
-1161607.7255
 10
-596725.8381
 20
-1161614.6552
 97
0
 75
0
 76
1
 98
0
  0
HATCH
  5
20047
100
AcDbEntity
  8
plocha Q5
100
AcDbHatch
 10
0
 20
0
 30
0
210
0
220
0
230
1
  2
SOLID
 70
1
 71
0
 91
1
 92
2
 72
0
 73
1
 93
6
 10
-596694.2091
 20
-1164919.938
 10
-596689.5617
 20
-1164897.6714
 10
-596698.6179
 20
-1164897.8376
 10
-596702.1281
 20
-1164914.5233
 10
-596704.0318
 20
-1164924.172
 10
-596694.2091
 20
-1164919.938
 97
0
 75
0
 76
1
 98
0
  0
HATCH
  5
20048
100
AcDbEntity
  8
plocha Q5
100
AcDbHatch
 10
0
 20
0
 30
0
210
0
220
0
230
1
  2
SOLID
 70
1
 71
0
 91
1
 92
2
 72
0
 73
1
 93
5
 10
-596691.2959
 20
-1164858.7915
 10
-596682.7141
 20
-1164858.9565
 10
-596677.0236
 20
-1164836.8517
 10
-596685.5036
 20
-1164833.4198
 10
-596691.2959
 20
-1164858.7915
 97
0
 75
0
 76
1
 98
0
  0
ENDSEC
  0
SECTION
  2
OBJECTS
  0
DICTIONARY
  5
C
330
0
100
AcDbDictionary
281
     1
  3
ACAD_GROUP
350
D
  3
ACAD_LAYOUT
350
1A
  3
ACAD_MLEADERSTYLE
350
43
  3
ACAD_PLOTSETTINGS
350
19
  3
ACAD_PLOTSTYLENAME
350
E
  3
ACAD_TABLESTYLE
350
42
  0
DICTIONARY
  5
D
102
{ACAD_REACTORS
330
C
102
}
330
C
100
AcDbDictionary
281
     1
  0
DICTIONARY
  5
1A
102
{ACAD_REACTORS
330
C
102
}
330
C
100
AcDbDictionary
281
     1
  3
Layout1
350
1E
  3
Model
350
22
  0
DICTIONARY
  5
43
102
{ACAD_REACTORS
330
C
102
}
330
C
100
AcDbDictionary
281
     1
  0
DICTIONARY
  5
19
102
{ACAD_REACTORS
330
C
102
}
330
C
100
AcDbDictionary
281
     1
  0
ACDBDICTIONARYWDFLT
  5
E
102
{ACAD_REACTORS
330
C
102
}
330
C
100
AcDbDictionary
281
     1
  3
Normal
350
F
100
AcDbDictionaryWithDefault
340
F
  0
DICTIONARY
  5
42
102
{ACAD_REACTORS
330
C
102
}
330
C
100
AcDbDictionary
281
     1
  0
LAYOUT
  5
1E
102
{ACAD_REACTORS
330
1A
102
}
330
1A
100
AcDbPlotSettings
  1

  2
none_device
  4

  6

 40
0.0
 41
0.0
 42
0.0
 43
0.0
 44
0.0
 45
0.0
 46
0.0
 47
0.0
 48
0.0
 49
0.0
140
0.0
141
0.0
142
1.0
143
1.0
 70
   688
 72
     0
 73
     0
 74
     5
  7

 75
    16
 76
     0
 77
     2
 78
   300
147
1.0
148
0.0
149
0.0
100
AcDbLayout
  1
Layout1
 70
     1
 71
     1
 10
0.0
 20
0.0
 11
12.0
 21
9.0
 12
0.0
 22
0.0
 32
0.0
 14
1.000000000000000E+20
 24
1.000000000000000E+20
 34
1.000000000000000E+20
 15
-1.000000000000000E+20
 25
-1.000000000000000E+20
 35
-1.000000000000000E+20
146
0.0
 13
0.0
 23
0.0
 33
0.0
 16
1.0
 26
0.0
 36
0.0
 17
0.0
 27
1.0
 37
0.0
 76
     0
330
1B
  0
LAYOUT
  5
22
102
{ACAD_REACTORS
330
1A
102
}
330
1A
100
AcDbPlotSettings
  1

  2
none_device
  4

  6

 40
0.0
 41
0.0
 42
0.0
 43
0.0
 44
0.0
 45
0.0
 46
0.0
 47
0.0
 48
0.0
 49
0.0
140
0.0
141
0.0
142
1.0
143
1.0
 70
  1712
 72
     0
 73
     0
 74
     0
  7

 75
     0
 76
     0
 77
     2
 78
   300
147
1.0
148
0.0
149
0.0
100
AcDbLayout
  1
Model
 70
     1
 71
     0
 10
0.0
 20
0.0
 11
12.0
 21
9.0
 12
0.0
 22
0.0
 32
0.0
 14
30.0
 24
49.75
 34
0.0
 15
130.5
 25
163.1318914119703
 35
0.0
146
0.0
 13
0.0
 23
0.0
 33
0.0
 16
1.0
 26
0.0
 36
0.0
 17
0.0
 27
1.0
 37
0.0
 76
     0
330
1F
331
29
  0
ENDSEC
  0
EOF
