  0
SECTION
  2
HEADER
  9
$ACADVER
  1
AC1018
  9
$ACADMAINTVER
 70
     0
  9
$DWGCODEPAGE
  3
ANSI_1252
  9
$EXTMIN
 10
16.4543952132582
 20
49.1087886224215
 30
0.0
  9
$EXTMAX
 10
16.7198296703664
 20
49.2786115277745
 30
0.0
  9
$LIMMIN
 10
0.0
 20
0.0
  9
$LIMMAX
 10
12.0
 20
9.0
  9
$ORTHOMODE
 70
     0
  9
$REGENMODE
 70
     1
  9
$FILLMODE
 70
     1
  9
$QTEXTMODE
 70
     0
  9
$MIRRTEXT
 70
     1
  9
$LTSCALE
 40
1.0
  9
$ATTMODE
 70
     1
  9
$TEXTSIZE
 40
0.2
  9
$TRACEWID
 40
0.05
  9
$TEXTSTYLE
  7
Standard
  9
$CLAYER
  8
0
  9
$CELTYPE
  6
ByLayer
  9
$CECOLOR
 62
   256
  9
$CELTSCALE
 40
1.0
  9
$DISPSILH
 70
     0
  9
$LUNITS
 70
     2
  9
$LUPREC
 70
     4
  9
$SKETCHINC
 40
0.1
  9
$FILLETRAD
 40
0.5
  9
$AUNITS
 70
     0
  9
$AUPREC
 70
     0
  9
$MENU
  1
.
  9
$ELEVATION
 40
0.0
  9
$PELEVATION
 40
0.0
  9
$THICKNESS
 40
0.0
  9
$LIMCHECK
 70
     0
  9
$CHAMFERA
 40
0.5
  9
$CHAMFERB
 40
0.5
  9
$CHAMFERC
 40
1.0
  9
$CHAMFERD
 40
0.0
  9
$SKPOLY
 70
     0
  9
$ANGBASE
 50
0.0
  9
$ANGDIR
 70
     0
  9
$PDMODE
 70
     0
  9
$PDSIZE
 40
0.0
  9
$PLINEWID
 40
0.0
  9
$SPLFRAME
 70
     0
  9
$SPLINETYPE
 70
     6
  9
$SPLINESEGS
 70
     8
  9
$HANDSEED
  5
0002004A
  9
$SURFTAB1
 70
     6
  9
$SURFTAB2
 70
     6
  9
$SURFTYPE
 70
     6
  9
$SURFU
 70
     6
  9
$SURFV
 70
     6
  9
$UCSBASE
  2

  9
$UCSNAME
  2

  9
$UCSORG
 10
0.0
 20
0.0
 30
0.0
  9
$UCSXDIR
 10
1.0
 20
0.0
 30
0.0
  9
$UCSYDIR
 10
0.0
 20
1.0
 30
0.0
  9
$UCSORTHOREF
  2

  9
$UCSORTHOVIEW
 70
     0
  9
$UCSORGTOP
 10
0.0
 20
0.0
 30
0.0
  9
$UCSORGBOTTOM
 10
0.0
 20
0.0
 30
0.0
  9
$UCSORGLEFT
 10
0.0
 20
0.0
 30
0.0
  9
$UCSORGRIGHT
 10
0.0
 20
0.0
 30
0.0
  9
$UCSORGFRONT
 10
0.0
 20
0.0
 30
0.0
  9
$UCSORGBACK
 10
0.0
 20
0.0
 30
0.0
  9
$PUCSBASE
  2

  9
$PUCSNAME
  2

  9
$PUCSORG
 10
0.0
 20
0.0
 30
0.0
  9
$PUCSXDIR
 10
1.0
 20
0.0
 30
0.0
  9
$PUCSYDIR
 10
0.0
 20
1.0
 30
0.0
  9
$PUCSORTHOREF
  2

  9
$PUCSORTHOVIEW
 70
     0
  9
$PUCSORGTOP
 10
0.0
 20
0.0
 30
0.0
  9
$PUCSORGBOTTOM
 10
0.0
 20
0.0
 30
0.0
  9
$PUCSORGLEFT
 10
0.0
 20
0.0
 30
0.0
  9
$PUCSORGRIGHT
 10
0.0
 20
0.0
 30
0.0
  9
$PUCSORGFRONT
 10
0.0
 20
0.0
 30
0.0
  9
$PUCSORGBACK
 10
0.0
 20
0.0
 30
0.0
  9
$WORLDVIEW
 70
     1
  9
$SHADEDGE
 70
     3
  9
$SHADEDIF
 70
    70
  9
$TILEMODE
 70
     1
  9
$MAXACTVP
 70
    64
  9
$PINSBASE
 10
0.0
 20
0.0
 30
0.0
  9
$PLIMCHECK
 70
     0
  9
$PEXTMIN
 10
1.000000000000000E+20
 20
1.000000000000000E+20
 30
1.000000000000000E+20
  9
$PEXTMAX
 10
-1.000000000000000E+20
 20
-1.000000000000000E+20
 30
-1.000000000000000E+20
  9
$PLIMMIN
 10
0.0
 20
0.0
  9
$PLIMMAX
 10
12.0
 20
9.0
  9
$UNITMODE
 70
     0
  9
$VISRETAIN
 70
     1
  9
$PLINEGEN
 70
     0
  9
$PSLTSCALE
 70
     1
  9
$TREEDEPTH
 70
  3020
  9
$CMLSTYLE
  2
Standard
  9
$CMLJUST
 70
     0
  9
$CMLSCALE
 40
1.0
  9
$PROXYGRAPHICS
 70
     1
  9
$MEASUREMENT
 70
     0
  9
$CELWEIGHT
370
    -1
  9
$ENDCAPS
280
     0
  9
$JOINSTYLE
280
     0
  9
$LWDISPLAY
290
     0
  9
$INSUNITS
 70
     1
  9
$HYPERLINKBASE
  1

  9
$STYLESHEET
  1

  9
$XEDIT
290
     1
  9
$CEPSNTYPE
380
     0
  9
$PSTYLEMODE
290
     1
  9
$EXTNAMES
290
     1
  9
$PSVPSCALE
 40
0.0
  9
$OLESTARTUP
290
     0
  9
$SORTENTS
280
   127
  9
$INDEXCTL
280
     0
  9
$HIDETEXT
280
     1
  9
$XCLIPFRAME
290
     0
  9
$HALOGAP
280
     0
  9
$OBSCOLOR
 70
   257
  9
$OBSLTYPE
280
     0
  9
$INTERSECTIONDISPLAY
280
     0
  9
$INTERSECTIONCOLOR
 70
   257
  9
$DIMASSOC
280
     2
  9
$PROJECTNAME
  1

  0
ENDSEC
  0
SECTION
  2
CLASSES
  0
CLASS
  1
ACDBDICTIONARYWDFLT
  2
AcDbDictionaryWithDefault
  3
ObjectDBX Classes
 90
        0
 91
        4
280
     0
281
     0
  0
ENDSEC
  0
SECTION
  2
TABLES
  0
TABLE
  2
VPORT
  5
8
330
0
100
AcDbSymbolTable
 70
     1
  0
VPORT
  5
29
330
8
100
AcDbSymbolTableRecord
100
AcDbViewportTableRecord
  2
*Active
 70
     0
 10
0.0
 20
0.0
 11
1.0
 21
1.0
 12
80.25
 22
106.4409457059851
 13
0.0
 23
0.0
 14
0.5
 24
0.5
 15
0.5
 25
0.5
 16
0.0
 26
0.0
 36
1.0
 17
0.0
 27
0.0
 37
0.0
 40
113.3818914119703
 41
0.8863849310366128
 42
50.0
 43
0.0
 44
0.0
 50
0.0
 51
0.0
 71
     0
 72
  1000
 73
     1
 74
     3
 75
     0
 76
     0
 77
     0
 78
     0
281
     0
 65
     1
110
0.0
120
0.0
130
0.0
111
1.0
121
0.0
131
0.0
112
0.0
122
1.0
132
0.0
 79
     0
146
0.0
  0
ENDTAB
  0
TABLE
  2
LTYPE
  5
5
330
0
100
AcDbSymbolTable
 70
     1
  0
LTYPE
  5
14
330
5
100
AcDbSymbolTableRecord
100
AcDbLinetypeTableRecord
  2
ByBlock
 70
     0
  3

 72
    65
 73
     0
 40
0.0
  0
LTYPE
  5
15
330
5
100
AcDbSymbolTableRecord
100
AcDbLinetypeTableRecord
  2
ByLayer
 70
     0
  3

 72
    65
 73
     0
 40
0.0
  0
LTYPE
  5
16
330
5
100
AcDbSymbolTableRecord
100
AcDbLinetypeTableRecord
  2
Continuous
 70
     0
  3
Solid line
 72
    65
 73
     0
 40
0.0
  0
ENDTAB
  0
TABLE
  2
LAYER
  5
2
330
0
100
AcDbSymbolTable
 70
     1
  0
LAYER
  5
10
330
2
100
AcDbSymbolTableRecord
100
AcDbLayerTableRecord
  2
0
 70
     0
 62
     7
  6
Continuous
370
    -3
390
F
  0
LAYER
  5
20049
330
2
100
AcDbSymbolTableRecord
100
AcDbLayerTableRecord
  2
plocha Q5
 70
     0
 62
     7
  6
Continuous
370
    -3
390
F
  0
ENDTAB
  0
TABLE
  2
STYLE
  5
3
330
0
100
AcDbSymbolTable
 70
     1
  0
STYLE
  5
11
330
3
100
AcDbSymbolTableRecord
100
AcDbTextStyleTableRecord
  2
Standard
 70
     0
 40
0.0
 41
1.0
 50
0.0
 71
     0
 42
0.2
  3
txt
  4

  0
ENDTAB
  0
TABLE
  2
VIEW
  5
6
330
0
100
AcDbSymbolTable
 70
     0
  0
ENDTAB
  0
TABLE
  2
UCS
  5
7
330
0
100
AcDbSymbolTable
 70
     0
  0
ENDTAB
  0
TABLE
  2
APPID
  5
9
330
0
100
AcDbSymbolTable
 70
     1
  0
APPID
  5
12
330
9
100
AcDbSymbolTableRecord
100
AcDbRegAppTableRecord
  2
ACAD
 70
     0
  0
ENDTAB
  0
TABLE
  2
DIMSTYLE
  5
A
330
0
100
AcDbSymbolTable
 70
     1
100
AcDbDimStyleTable
  0
DIMSTYLE
105
27
330
A
100
AcDbSymbolTableRecord
100
AcDbDimStyleTableRecord
  2
Standard
 70
     0
340
11
  0
ENDTAB
  0
TABLE
  2
BLOCK_RECORD
  5
1
330
0
100
AcDbSymbolTable
 70
     1
  0
BLOCK_RECORD
  5
1F
330
1
100
AcDbSymbolTableRecord
100
AcDbBlockTableRecord
  2
*Model_Space
340
22
  0
BLOCK_RECORD
  5
1B
330
1
100
AcDbSymbolTableRecord
100
AcDbBlockTableRecord
  2
*Paper_Space
340
1E
  0
ENDTAB
  0
ENDSEC
  0
SECTION
  2
BLOCKS
  0
BLOCK
  5
20
330
1F
100
AcDbEntity
  8
0
100
AcDbBlockBegin
  2
*Model_Space
 70
     0
 10
0.0
 20
0.0
 30
0.0
  3
*Model_Space
  1

  0
ENDBLK
  5
21
330
1F
100
AcDbEntity
  8
0
100
AcDbBlockEnd
  0
BLOCK
  5
1C
330
1B
100
AcDbEntity
 67
     1
  8
0
100
AcDbBlockBegin
  2
*Paper_Space
 70
     0
 10
0.0
 20
0.0
 30
0.0
  3
*Paper_Space
  1

  0
ENDBLK
  5
1D
330
1B
100
AcDbEntity
 67
     1
  8
0
100
AcDbBlockEnd
  0
ENDSEC
  0
SECTION
  2
ENTITIES
  0
HATCH
  5
20000
100
AcDbEntity
  8
plocha Q5
100
AcDbHatch
 10
0
 20
0
 30
0
210
0
220
0
230
1
  2
SOLID
 70
1
 71
0
 91
1
 92
2
 72
0
 73
1
 93
60
 10
16.529282227918
 20
49.1739041090633
 10
16.5292571180536
 20
49.1739153651895
 10
16.5292023129045
 20
49.1739206874199
 10
16.5291443762118
 20
49.1739149121494
 10
16.5291022641156
 20
49.1739037383184
 10
16.5290774493824
 20
49.1738932607386
 10
16.5290663085786
 20
49.1738723449246
 10
16.5290716856068
 20
49.1738531361073
 10
16.5290725831598
 20
49.1738259618551
 10
16.5290925837035
 20
49.1738046978885
 10
16.5291199175346
 20
49.1738054322881
 10
16.5291290038304
 20
49.1738059569315
 10
16.5291972669674
 20
49.1738164335238
 10
16.529262470849
 20
49.1738243110911
 10
16.5293449225878
 20
49.1738215647276
 10
16.5294521897155
 20
49.1738244942251
 10
16.5295551637442
 20
49.1738250339506
 10
16.5296409234137
 20
49.1738218185508
 10
16.5297104556168
 20
49.1738105033377
 10
16.5297697139961
 20
49.1737964897726
 10
16.5299150342476
 20
49.173750860527
 10
16.5300334158295
 20
49.1737125553683
 10
16.5301952351637
 20
49.1736773607261
 10
16.5303231161952
 20
49.1736468001022
 10
16.5304593841398
 20
49.1736206488497
 10
16.5305967365303
 20
49.1735929467739
 10
16.5306973320196
 20
49.1735816558903
 10
16.5307847381358
 20
49.1735699637961
 10
16.5307976744365
 20
49.1735719759973
 10
16.53080661066
 20
49.1735780512554
 10
16.5308232692572
 20
49.1735727212399
 10
16.5308721687724
 20
49.1735680611717
 10
16.5308974810936
 20
49.1735655223824
 10
16.5309706523146
 20
49.1735633229136
 10
16.5310116564672
 20
49.1735639134509
 10
16.5310246443029
 20
49.1735740698131
 10
16.5310165765431
 20
49.1735876413218
 10
16.5309839902062
 20
49.1735940107195
 10
16.5309421861101
 20
49.1735959129967
 10
16.5309119650514
 20
49.1735981023217
 10
16.5308118024021
 20
49.1736067105651
 10
16.5307150396094
 20
49.1736248061495
 10
16.53066206246
 20
49.1736340691345
 10
16.5305726744746
 20
49.1736526923865
 10
16.5304621054927
 20
49.1736790465496
 10
16.5303879456773
 20
49.17370093959
 10
16.5303250478607
 20
49.1737149290861
 10
16.530250693558
 20
49.1737330006599
 10
16.5301718922636
 20
49.1737578188591
 10
16.5300077169994
 20
49.1738020989476
 10
16.5299192635586
 20
49.1738251406569
 10
16.529854396479
 20
49.1738509559518
 10
16.5297490003154
 20
49.1738875118372
 10
16.5296899397148
 20
49.1738919507731
 10
16.5295701885279
 20
49.1739117118546
 10
16.5295148597671
 20
49.1739120585296
 10
16.5294421820459
 20
49.1739101213164
 10
16.5293752320656
 20
49.1739085949313
 10
16.5293214609986
 20
49.1738976722021
 10
16.529282227918
 20
49.1739041090633
 97
0
 75
0
 76
1
 98
0
  0
HATCH
  5
20001
100
AcDbEntity
  8
plocha Q5
100
AcDbHatch
 10
0
 20
0
 30
0
210
0
220
0
230
1
  2
SOLID
 70
1
 71
0
 91
1
 92
2
 72
0
 73
1
 93
67
 10
16.5285373024693
 20
49.1738637962188
 10
16.5284278243608
 20
49.173868351502
 10
16.5283475981915
 20
49.1738889505877
 10
16.5282819472699
 20
49.1739284146046
 10
16.528219532427
 20
49.1739696553134
 10
16.5281221285294
 20
49.174015366643
 10
16.5279751295904
 20
49.1740962536044
 10
16.5279317537653
 20
49.1741225932733
 10
16.5278634749906
 20
49.1741894313647
 10
16.5277738111998
 20
49.1742763051606
 10
16.5277343095506
 20
49.1743256087023
 10
16.5276978445246
 20
49.1743847464799
 10
16.5276511982279
 20
49.1744326266762
 10
16.5275966463678
 20
49.1745099810078
 10
16.5275211012963
 20
49.1745874706325
 10
16.5274225917621
 20
49.1747035982084
 10
16.5273449470789
 20
49.1747654415563
 10
16.5272759249831
 20
49.1748534663248
 10
16.5272394351864
 20
49.1749306491187
 10
16.5271939508868
 20
49.1749909231579
 10
16.5271613699704
 20
49.1750223594784
 10
16.5271337183986
 20
49.1750324752673
 10
16.5270794578342
 20
49.1750180328655
 10
16.5270686694719
 20
49.1749982185331
 10
16.5270747543345
 20
49.1749689831218
 10
16.5270862169966
 20
49.1749552495926
 10
16.5271171723908
 20
49.1749153564534
 10
16.5271390767917
 20
49.1748735488623
 10
16.5271660971451
 20
49.1748262990715
 10
16.5272017230906
 20
49.1747857000077
 10
16.527271544321
 20
49.1747111025568
 10
16.5273108472694
 20
49.174655714996
 10
16.5273551448199
 20
49.1745942794971
 10
16.527387958399
 20
49.1745476172114
 10
16.5274098204072
 20
49.1745296058117
 10
16.5274593556697
 20
49.1744971045514
 10
16.5274941882247
 20
49.1744645801219
 10
16.5275482669339
 20
49.1744067938386
 10
16.5275804477283
 20
49.1743630261821
 10
16.5276304326378
 20
49.1743127453913
 10
16.5276633060733
 20
49.174282215539
 10
16.5276800749243
 20
49.1742645378353
 10
16.5276939387904
 20
49.1742389440248
 10
16.5277621325163
 20
49.1741619312647
 10
16.5279090111697
 20
49.174049384723
 10
16.5279956462605
 20
49.1739968327424
 10
16.5280579532537
 20
49.1739558268524
 10
16.5281462941358
 20
49.1739187299339
 10
16.5282119721253
 20
49.1738766101986
 10
16.5282806609106
 20
49.17384375924
 10
16.5283386391896
 20
49.1738223735853
 10
16.5284129338929
 20
49.1737958671074
 10
16.5284754536868
 20
49.173788800714
 10
16.5286048173284
 20
49.1737857946073
 10
16.5287394400661
 20
49.1737860134086
 10
16.5288135891143
 20
49.1737892224326
 10
16.5288913136774
 20
49.1737865360442
 10
16.5289137530517
 20
49.1737866777121
 10
16.5289385220788
 20
49.1737950181032
 10
16.5289409520275
 20
49.1738060282795
 10
16.5289365495731
 20
49.1738420872413
 10
16.528934662415
 20
49.173856643817
 10
16.5289111690008
 20
49.1738706289758
 10
16.5288777811668
 20
49.1738714594487
 10
16.5288072124269
 20
49.1738723513216
 10
16.5287073550522
 20
49.1738643539484
 10
16.5285373024693
 20
49.1738637962188
 97
0
 75
0
 76
1
 98
0
  0
HATCH
  5
20002
100
AcDbEntity
  8
plocha Q5
100
AcDbHatch
 10
0
 20
0
 30
0
210
0
220
0
230
1
  2
SOLID
 70
1
 71
0
 91
1
 92
2
 72
0
 73
1
 93
31
 10
16.5266188820394
 20
49.1756562114121
 10
16.526704628014
 20
49.1756866492157
 10
16.526709497274
 20
49.1757070429984
 10
16.5266965532013
 20
49.1757335619805
 10
16.5266550982609
 20
49.1757948933041
 10
16.5265111563794
 20
49.1759024493846
 10
16.5263953916831
 20
49.175974353189
 10
16.5262351354084
 20
49.1760685911345
 10
16.5260627953995
 20
49.1761352325587
 10
16.5258291006529
 20
49.1762363695812
 10
16.5256888879628
 20
49.1762992319998
 10
16.5256356264805
 20
49.1763158170873
 10
16.5256068306002
 20
49.176304800436
 10
16.5255669215438
 20
49.1762697920696
 10
16.5255586223286
 20
49.1762602331377
 10
16.5255556629731
 20
49.1762422999751
 10
16.5255649569184
 20
49.1762198808095
 10
16.5255738531311
 20
49.1761998656521
 10
16.5256049906433
 20
49.1762017868146
 10
16.5256619038323
 20
49.1761830841145
 10
16.5257127596181
 20
49.1761782142057
 10
16.525760801924
 20
49.1761560258453
 10
16.525794982792
 20
49.1761184906282
 10
16.525824230039
 20
49.1760987105564
 10
16.5259091871146
 20
49.1760671268809
 10
16.5261912241918
 20
49.1759427290633
 10
16.5263506552134
 20
49.175842352254
 10
16.5264682171952
 20
49.1757596405072
 10
16.5265205482611
 20
49.1756756667983
 10
16.5265586525976
 20
49.1756506787883
 10
16.5266188820394
 20
49.1756562114121
 97
0
 75
0
 76
1
 98
0
  0
HATCH
  5
20003
100
AcDbEntity
  8
plocha Q5
100
AcDbHatch
 10
0
 20
0
 30
0
210
0
220
0
230
1
  2
SOLID
 70
1
 71
0
 91
1
 92
2
 72
0
 73
1
 93
87
 10
16.5254091289402
 20
49.176294487369
 10
16.525461553567
 20
49.1763717958738
 10
16.5254617959646
 20
49.1763904752791
 10
16.5254457176978
 20
49.1763964613151
 10
16.5253747011599
 20
49.176405640765
 10
16.5252777890594
 20
49.1764245004851
 10
16.5251125571106
 20
49.1764966530471
 10
16.5249891702852
 20
49.1765479637482
 10
16.5249184688595
 20
49.1765739749288
 10
16.5247245703522
 20
49.1766381290682
 10
16.5245799190053
 20
49.1766888582648
 10
16.5244659293334
 20
49.1767302946157
 10
16.5243743798494
 20
49.1767625920968
 10
16.5243085512996
 20
49.1767856130117
 10
16.5242135321322
 20
49.1768175334388
 10
16.5240759942939
 20
49.176855871801
 10
16.5239730212328
 20
49.1768954462068
 10
16.5238674513174
 20
49.176933786103
 10
16.523787144758
 20
49.1769605452688
 10
16.5237250869243
 20
49.1769828770633
 10
16.5236313405271
 20
49.1770115429746
 10
16.5235427944331
 20
49.1770396296282
 10
16.5234217622584
 20
49.1770744635903
 10
16.5233452248577
 20
49.1771005435065
 10
16.5232407076062
 20
49.1771413455559
 10
16.5231636066785
 20
49.1771707230142
 10
16.5230854806558
 20
49.1772019456816
 10
16.5229883203589
 20
49.1772423155977
 10
16.5229000546061
 20
49.1772870214946
 10
16.5228340764048
 20
49.1773149800695
 10
16.5227867228307
 20
49.1773384098947
 10
16.5226947796583
 20
49.1773930833968
 10
16.5226486645764
 20
49.1774212434457
 10
16.5226242021624
 20
49.1774377091561
 10
16.522587661613
 20
49.1774599242142
 10
16.5225410415926
 20
49.1774850610344
 10
16.5224929505269
 20
49.177519040878
 10
16.5224386525783
 20
49.1775568811405
 10
16.5224123644752
 20
49.1775722128245
 10
16.5223893214467
 20
49.1775801691757
 10
16.5223768851401
 20
49.17757894363
 10
16.5223643822849
 20
49.1775691095593
 10
16.5223631006744
 20
49.1775647118055
 10
16.5223754948103
 20
49.1775540115575
 10
16.5224199318634
 20
49.1775237430629
 10
16.5224686919728
 20
49.1774918013147
 10
16.5225004627051
 20
49.1774709018682
 10
16.5225432511308
 20
49.1774415085058
 10
16.5225881516091
 20
49.1774145930779
 10
16.522615926589
 20
49.1773963826531
 10
16.5226398825261
 20
49.1773769035924
 10
16.5226668252214
 20
49.1773546623001
 10
16.5226899124765
 20
49.1773404120764
 10
16.5227335991461
 20
49.1773177156055
 10
16.5227870424212
 20
49.1772911940198
 10
16.5228533705577
 20
49.1772567473415
 10
16.5229073869636
 20
49.177229443566
 10
16.5229509990462
 20
49.1772104225438
 10
16.5230233732442
 20
49.1771807618337
 10
16.5231242788114
 20
49.1771353953268
 10
16.5231990540594
 20
49.1771068002545
 10
16.5232889383303
 20
49.1770706853872
 10
16.5234095486252
 20
49.1770296066721
 10
16.5235163398202
 20
49.1769970907579
 10
16.523665419457
 20
49.1769470508083
 10
16.5237511645131
 20
49.176918292162
 10
16.5238340977131
 20
49.1768888444882
 10
16.5239269630367
 20
49.1768567691848
 10
16.5240242160786
 20
49.176824527711
 10
16.5241029205769
 20
49.1767986116486
 10
16.5242140192463
 20
49.1767621076613
 10
16.5242785925079
 20
49.1767413208397
 10
16.5243365470083
 20
49.1767182887512
 10
16.5244325105093
 20
49.1766806988428
 10
16.524535909786
 20
49.1766422048571
 10
16.5246962860348
 20
49.1765944020053
 10
16.5248093785446
 20
49.1765497260396
 10
16.5248859934936
 20
49.176523840786
 10
16.5249238950479
 20
49.1765073673363
 10
16.5249581701285
 20
49.1764844113822
 10
16.5250094383632
 20
49.1764497463721
 10
16.5251012124663
 20
49.1764014267504
 10
16.5251922641065
 20
49.1763574508215
 10
16.5252509923377
 20
49.1763265303816
 10
16.5253387910043
 20
49.1763020789451
 10
16.5253970578912
 20
49.1762815464827
 10
16.5254091289402
 20
49.176294487369
 97
0
 75
0
 76
1
 98
0
  0
HATCH
  5
20004
100
AcDbEntity
  8
plocha Q5
100
AcDbHatch
 10
0
 20
0
 30
0
210
0
220
0
230
1
  2
SOLID
 70
1
 71
0
 91
1
 92
2
 72
0
 73
1
 93
154
 10
16.51472817481
 20
49.1823690014564
 10
16.5147676786763
 20
49.1824345328166
 10
16.5148544911085
 20
49.1824874901249
 10
16.5149389771019
 20
49.1825190563729
 10
16.5149964229113
 20
49.1825447227181
 10
16.5150612052844
 20
49.1825840509698
 10
16.5150972156215
 20
49.182622888778
 10
16.5151212941026
 20
49.1826575611898
 10
16.5151030913841
 20
49.1827173723845
 10
16.5150562552172
 20
49.1827387117853
 10
16.5150073652319
 20
49.1827578034051
 10
16.5149843076097
 20
49.1827903088698
 10
16.5149463583415
 20
49.1828112350675
 10
16.5148627483329
 20
49.1828798631696
 10
16.5148109494183
 20
49.1829260675203
 10
16.5147840537008
 20
49.1829336016682
 10
16.5147678619289
 20
49.1829345386757
 10
16.5147590477365
 20
49.1829297093366
 10
16.5147502022417
 20
49.1829154063775
 10
16.514762292728
 20
49.1828957835101
 10
16.5147885196878
 20
49.1828587741258
 10
16.5148555629396
 20
49.1827884346165
 10
16.5148565106119
 20
49.1827490882521
 10
16.5148174990023
 20
49.182704252865
 10
16.5147908795182
 20
49.1826860531733
 10
16.5147751982468
 20
49.1826127945326
 10
16.5146616665858
 20
49.1825538236734
 10
16.514545094601
 20
49.1825207701062
 10
16.5144516658823
 20
49.1824629878719
 10
16.5143976712248
 20
49.1824216835166
 10
16.5143600060692
 20
49.1823973174272
 10
16.5143257770979
 20
49.182373207634
 10
16.5142296509583
 20
49.1823343998029
 10
16.5141291999982
 20
49.1822886699241
 10
16.5140089693706
 20
49.1822604373994
 10
16.5139594767334
 20
49.1822443507686
 10
16.5139571665287
 20
49.1822373461901
 10
16.5140578025038
 20
49.1822491218763
 10
16.5142343221003
 20
49.1822959725991
 10
16.5143926446554
 20
49.1823178254591
 10
16.5145096131794
 20
49.1823031717201
 10
16.514627108956
 20
49.1822659935256
 10
16.5147477193662
 20
49.1821788863615
 10
16.5148747375128
 20
49.1820596621992
 10
16.515003197648
 20
49.1819469197923
 10
16.5151529558545
 20
49.1818357050357
 10
16.5152868631637
 20
49.1817490341531
 10
16.5154158747803
 20
49.1816799697927
 10
16.5155405992138
 20
49.181613176146
 10
16.5157972750931
 20
49.1815295892504
 10
16.5159681770284
 20
49.1814564087863
 10
16.5160879059039
 20
49.1813725654205
 10
16.5161559321466
 20
49.1813286646094
 10
16.5163753268725
 20
49.1811345022426
 10
16.5165199058276
 20
49.1810190684072
 10
16.5166607919024
 20
49.1809726824855
 10
16.517020708064
 20
49.1808341659421
 10
16.5173331198658
 20
49.1807175087507
 10
16.5176160473279
 20
49.1806105872653
 10
16.5177272043212
 20
49.1805660498306
 10
16.5178119035315
 20
49.1804986109295
 10
16.5178880735494
 20
49.1804495486188
 10
16.5179939338642
 20
49.1804076256497
 10
16.5180754084655
 20
49.1803658998988
 10
16.5180972698251
 20
49.1803263156144
 10
16.5181304915848
 20
49.180279765778
 10
16.5182028001492
 20
49.1802326799697
 10
16.5183151492694
 20
49.1801795612758
 10
16.5185408777681
 20
49.1801178855403
 10
16.518624656522
 20
49.1801038701347
 10
16.5187031792283
 20
49.1800805775062
 10
16.518775034038
 20
49.1800668192908
 10
16.518852054359
 20
49.1800560202012
 10
16.5189469918866
 20
49.1800293607199
 10
16.5190202482245
 20
49.1799935406263
 10
16.5191308723146
 20
49.1799395115138
 10
16.5192296755437
 20
49.1798501956762
 10
16.51934517503
 20
49.1797703977123
 10
16.5195068936009
 20
49.1796633363977
 10
16.5195793246009
 20
49.1796046434023
 10
16.5196181502086
 20
49.1795783501862
 10
16.5196905994695
 20
49.1795242719802
 10
16.5198020347916
 20
49.1794445994792
 10
16.5198779907416
 20
49.1794071360096
 10
16.5199682568398
 20
49.1793520537369
 10
16.5200205068134
 20
49.1793287486147
 10
16.5200879773396
 20
49.1792738964587
 10
16.5201559095791
 20
49.1792162820982
 10
16.5201906544859
 20
49.1791870657349
 10
16.5202235129984
 20
49.1791521137425
 10
16.5202601474777
 20
49.1791286214531
 10
16.5203248168562
 20
49.1790717049928
 10
16.5204078724528
 20
49.1790269168689
 10
16.5205196527946
 20
49.1789500357627
 10
16.5205824713667
 20
49.1789005681543
 10
16.5206266229237
 20
49.1788576404817
 10
16.5206620778543
 20
49.178832265212
 10
16.5206894699645
 20
49.1788190926462
 10
16.5207114060514
 20
49.1788061189856
 10
16.5207365553673
 20
49.1788261840409
 10
16.5207339406091
 20
49.178865709222
 10
16.5207262742122
 20
49.1788756996117
 10
16.5207104871143
 20
49.1788927603166
 10
16.5206080981089
 20
49.178952120846
 10
16.5205293487955
 20
49.1790083271789
 10
16.520418337279
 20
49.179069504115
 10
16.5203380321825
 20
49.1791136851166
 10
16.5203010231429
 20
49.1791425864141
 10
16.5202236253906
 20
49.1792213066524
 10
16.5201863227339
 20
49.179255767448
 10
16.520104505521
 20
49.1793198500391
 10
16.5199762137776
 20
49.1794067107294
 10
16.519857587839
 20
49.1794868080485
 10
16.5197134186164
 20
49.1795874470462
 10
16.5196016497256
 20
49.1796655667931
 10
16.5194414800268
 20
49.1797707137785
 10
16.5192644783772
 20
49.1799074549064
 10
16.5191831954279
 20
49.17996891481
 10
16.5190875009012
 20
49.1800366793059
 10
16.5189840956738
 20
49.1800973155566
 10
16.5188815772508
 20
49.1801420470098
 10
16.5188093040584
 20
49.1801818997048
 10
16.5187303146183
 20
49.1802118721186
 10
16.5186487626282
 20
49.180229339985
 10
16.518524573923
 20
49.1802696252825
 10
16.5184332132369
 20
49.1802947568884
 10
16.5183284718249
 20
49.1803681143942
 10
16.5182417315947
 20
49.1804059268063
 10
16.5182238496744
 20
49.1804180064882
 10
16.5181338141253
 20
49.1804258379857
 10
16.5180434482889
 20
49.1804634619008
 10
16.5179287886124
 20
49.1805122173831
 10
16.517762930173
 20
49.1806047677813
 10
16.5175188078572
 20
49.1807197980756
 10
16.517245172389
 20
49.1808179131129
 10
16.5170097703852
 20
49.1809232367583
 10
16.5168023589451
 20
49.1810162009192
 10
16.5166396349606
 20
49.1810995313218
 10
16.5164902222313
 20
49.1811735482486
 10
16.51638429035
 20
49.1812686483331
 10
16.5162993727513
 20
49.1813492148639
 10
16.5162603449436
 20
49.1813836414907
 10
16.5161779170778
 20
49.1814316491781
 10
16.5159660089971
 20
49.1815281434442
 10
16.5158406167234
 20
49.1815871904093
 10
16.515727491112
 20
49.1816432638177
 10
16.5155353063967
 20
49.1817270501654
 10
16.5153141387616
 20
49.1818203023651
 10
16.5151937711514
 20
49.1819079511739
 10
16.5150560197791
 20
49.1820059065475
 10
16.5149577452134
 20
49.1821187052797
 10
16.514872598367
 20
49.1821912586456
 10
16.5147672642736
 20
49.1822806000373
 10
16.51472817481
 20
49.1823690014564
 97
0
 75
0
 76
1
 98
0
  0
HATCH
  5
20005
100
AcDbEntity
  8
plocha Q5
100
AcDbHatch
 10
0
 20
0
 30
0
210
0
220
0
230
1
  2
SOLID
 70
1
 71
0
 91
1
 92
2
 72
0
 73
1
 93
23
 10
16.5146241490872
 20
49.1830487656926
 10
16.5146264034168
 20
49.1830580911163
 10
16.5146203041025
 20
49.1830718120579
 10
16.5146153251873
 20
49.183086443765
 10
16.5146039193372
 20
49.183101457816
 10
16.5145775974382
 20
49.18311455939
 10
16.5145366607315
 20
49.1831315442676
 10
16.5144372199575
 20
49.1831990290411
 10
16.5143758496599
 20
49.1832575265373
 10
16.5143116652298
 20
49.1833070673315
 10
16.5142660174654
 20
49.1833446111162
 10
16.5142563703743
 20
49.1833566013481
 10
16.5142358786211
 20
49.1833424503063
 10
16.5142233816793
 20
49.1833359637758
 10
16.514226479538
 20
49.1833226156587
 10
16.5143004038334
 20
49.1832679483491
 10
16.5144386521299
 20
49.1831629098003
 10
16.5145042765718
 20
49.1831097732021
 10
16.5145286442321
 20
49.1830786824687
 10
16.5145711593891
 20
49.1830541305316
 10
16.5146046109254
 20
49.183044035951
 10
16.5146198182831
 20
49.1830442849065
 10
16.5146241490872
 20
49.1830487656926
 97
0
 75
0
 76
1
 98
0
  0
HATCH
  5
20006
100
AcDbEntity
  8
plocha Q5
100
AcDbHatch
 10
0
 20
0
 30
0
210
0
220
0
230
1
  2
SOLID
 70
1
 71
0
 91
1
 92
2
 72
0
 73
1
 93
81
 10
16.514179495598
 20
49.1833733615463
 10
16.5141939883713
 20
49.1833813761485
 10
16.5141918662823
 20
49.1833814402084
 10
16.5142055536196
 20
49.1833912053999
 10
16.5141978204689
 20
49.1834088618931
 10
16.514122873288
 20
49.1834674081116
 10
16.514069909317
 20
49.1835083542555
 10
16.5139853564856
 20
49.1835829571581
 10
16.5139053989176
 20
49.1836415058887
 10
16.5137591204048
 20
49.1837477774524
 10
16.5137067262384
 20
49.1837853710892
 10
16.513649644953
 20
49.1838306345444
 10
16.513581937809
 20
49.1838800310102
 10
16.5134409608075
 20
49.1839783408666
 10
16.5134080179967
 20
49.1840083642835
 10
16.5133626471896
 20
49.1840614337859
 10
16.5133314066684
 20
49.1841070663749
 10
16.5132971107568
 20
49.1841581156761
 10
16.5132332064349
 20
49.1842031602343
 10
16.5131743583544
 20
49.1842404808963
 10
16.5131165795895
 20
49.1842842114692
 10
16.5130359757614
 20
49.1843175920416
 10
16.5129479495957
 20
49.1843521328944
 10
16.5129100000581
 20
49.1843853614115
 10
16.512790025424
 20
49.1844470214652
 10
16.5127121763552
 20
49.1844990455425
 10
16.5126641926827
 20
49.1845176594722
 10
16.5125984728386
 20
49.1845529854657
 10
16.5125354004625
 20
49.1846097418225
 10
16.5125398704599
 20
49.1846427364373
 10
16.5125999525621
 20
49.1846691447454
 10
16.5125701165338
 20
49.1847527544778
 10
16.5125063751361
 20
49.1847612555019
 10
16.5123863716537
 20
49.1847559249125
 10
16.5123204332754
 20
49.1847626309239
 10
16.5122748083553
 20
49.1847895925655
 10
16.5122603952905
 20
49.1848236855224
 10
16.5122299877619
 20
49.1848639951398
 10
16.512065825381
 20
49.1849290244583
 10
16.5119908897606
 20
49.1849522458009
 10
16.5118937310574
 20
49.184996751343
 10
16.5118332627916
 20
49.1850528709518
 10
16.511797030694
 20
49.1851205347404
 10
16.5116418209446
 20
49.1852589201734
 10
16.511560599772
 20
49.1852825137229
 10
16.5114865804016
 20
49.1852853740846
 10
16.5113230070772
 20
49.1851527218802
 10
16.5114051415196
 20
49.1851161321303
 10
16.5115631395578
 20
49.1850433051601
 10
16.5116657314391
 20
49.1849812155358
 10
16.511771854381
 20
49.1849054921842
 10
16.5119673692378
 20
49.1847945033444
 10
16.5121325662517
 20
49.1847083060129
 10
16.5122435060998
 20
49.1846410964955
 10
16.5123470234721
 20
49.1845660000388
 10
16.5124565591978
 20
49.184492150148
 10
16.512526901726
 20
49.1844440920589
 10
16.5125908540787
 20
49.1844119059623
 10
16.5127503091846
 20
49.1843265264539
 10
16.5127868826562
 20
49.1842866588892
 10
16.5128516577299
 20
49.1842569913375
 10
16.5128991940864
 20
49.1842260876407
 10
16.5129498818456
 20
49.1842018607642
 10
16.5130198743632
 20
49.184181531155
 10
16.5130889844306
 20
49.1841470632126
 10
16.51315249044
 20
49.184126974932
 10
16.5132002842379
 20
49.1840980164377
 10
16.5132384200567
 20
49.1840754042868
 10
16.5133205614575
 20
49.1840175806048
 10
16.5134507116684
 20
49.1839199048816
 10
16.5135462581222
 20
49.18384931098
 10
16.5136192442889
 20
49.1837933283592
 10
16.5136480831166
 20
49.1837709441774
 10
16.5137945598613
 20
49.183672005334
 10
16.5139264538219
 20
49.1835722207152
 10
16.514012471502
 20
49.183501088067
 10
16.5140617488612
 20
49.1834592443941
 10
16.5141361677111
 20
49.1833937662144
 10
16.5141609345543
 20
49.183377331876
 10
16.5141679715617
 20
49.1833669990403
 10
16.514179495598
 20
49.1833733615463
 97
0
 75
0
 76
1
 98
0
  0
HATCH
  5
20007
100
AcDbEntity
  8
plocha Q5
100
AcDbHatch
 10
0
 20
0
 30
0
210
0
220
0
230
1
  2
SOLID
 70
1
 71
0
 91
1
 92
2
 72
0
 73
1
 93
232
 10
16.7181329235455
 20
49.2137514768749
 10
16.7181848939873
 20
49.2138468996755
 10
16.7183122737491
 20
49.2140786316129
 10
16.7184831646217
 20
49.214380595596
 10
16.7186339280105
 20
49.2146221910592
 10
16.7187337828851
 20
49.2147618353541
 10
16.7187919938994
 20
49.2148494640462
 10
16.7188268284297
 20
49.2149076960581
 10
16.7188326582929
 20
49.2149202216432
 10
16.7188324704818
 20
49.2149341391789
 10
16.7188234108257
 20
49.2149405566413
 10
16.7188141419812
 20
49.2149450449743
 10
16.7187984124561
 20
49.2149458444014
 10
16.7187330232744
 20
49.2149412059765
 10
16.7186678457824
 20
49.2149353858425
 10
16.7185378111957
 20
49.2149243131687
 10
16.7184688659682
 20
49.2149170540494
 10
16.7183930632966
 20
49.2149069663145
 10
16.718318696358
 20
49.214887210904
 10
16.7182639062866
 20
49.2148616787149
 10
16.7182374169228
 20
49.2148429167098
 10
16.7182031257223
 20
49.2148042564712
 10
16.7181663123454
 20
49.2147581851812
 10
16.7181339704405
 20
49.214707542752
 10
16.7181027786994
 20
49.2146498353609
 10
16.7180714241791
 20
49.2145702321177
 10
16.718029272155
 20
49.214489964937
 10
16.7179745307333
 20
49.2143725535708
 10
16.7179234748985
 20
49.2142553996528
 10
16.7178751318257
 20
49.2141673745651
 10
16.7178026290744
 20
49.2140462812938
 10
16.7177397223169
 20
49.2139790335464
 10
16.7176781182853
 20
49.2139046410284
 10
16.7176103068998
 20
49.2138225808305
 10
16.7175548102937
 20
49.2137776465372
 10
16.7174946032949
 20
49.2137396170318
 10
16.717400728916
 20
49.2137040282149
 10
16.7173305645917
 20
49.2136822134218
 10
16.7172489644818
 20
49.2136619517693
 10
16.7171548740772
 20
49.2136505852657
 10
16.717049094315
 20
49.2136431940836
 10
16.7169454407744
 20
49.2136456279778
 10
16.7168295655059
 20
49.2136544417209
 10
16.716723977009
 20
49.213668768147
 10
16.7165977530777
 20
49.2136962135647
 10
16.7164779771802
 20
49.2137289911496
 10
16.7163373393786
 20
49.2137771336355
 10
16.716262933414
 20
49.2138034057439
 10
16.7161493772531
 20
49.2138437629807
 10
16.7160628898046
 20
49.2138764246529
 10
16.7159910198204
 20
49.2139100191495
 10
16.7158811325629
 20
49.2139507229825
 10
16.7157829535112
 20
49.2139873614159
 10
16.7157295756643
 20
49.213998100841
 10
16.7156283052708
 20
49.2140079350134
 10
16.7155457020474
 20
49.2140167223534
 10
16.715482177809
 20
49.2140219594798
 10
16.7153933833869
 20
49.2140229887332
 10
16.7152244706205
 20
49.2140184185379
 10
16.7149577808037
 20
49.2140022212447
 10
16.7147826598068
 20
49.2139899816246
 10
16.7146042495234
 20
49.2139750700607
 10
16.7144770225327
 20
49.2139637357251
 10
16.7143597920786
 20
49.2139579835109
 10
16.714278368321
 20
49.2139595270868
 10
16.7141780075728
 20
49.2139646295758
 10
16.7140763435822
 20
49.2139768775665
 10
16.7139707508731
 20
49.213991201283
 10
16.7138502018612
 20
49.2140287162808
 10
16.7137208589993
 20
49.2140752922
 10
16.7136444767013
 20
49.2140916575111
 10
16.7135566305227
 20
49.2141097545202
 10
16.7135007319274
 20
49.2141130818676
 10
16.7134423118343
 20
49.2141089980431
 10
16.7133879730203
 20
49.2141027577185
 10
16.7133024331464
 20
49.2140846595768
 10
16.7131927753348
 20
49.2140552891375
 10
16.7130836502817
 20
49.214023513151
 10
16.7130182143335
 20
49.2139947026761
 10
16.7129507764862
 20
49.2139561650791
 10
16.7129007188038
 20
49.2139236355914
 10
16.712851431945
 20
49.2138863659485
 10
16.7128066048502
 20
49.21384461676
 10
16.7127668984865
 20
49.2137934575409
 10
16.7127439221246
 20
49.2137531445835
 10
16.7127131319026
 20
49.2136930215433
 10
16.7126860241337
 20
49.2136331568411
 10
16.7126562361537
 20
49.2135778987662
 10
16.7126291036306
 20
49.2135300594097
 10
16.7126144870248
 20
49.2134952153165
 10
16.712593286665
 20
49.2134550264743
 10
16.7125698922283
 20
49.21340627367
 10
16.7125492322359
 20
49.2133746235896
 10
16.7125264747805
 20
49.2133440025316
 10
16.7124970632979
 20
49.2133092988111
 10
16.7124816353596
 20
49.2132913086201
 10
16.712465486933
 20
49.2132768854995
 10
16.7124424979872
 20
49.2132595414431
 10
16.7124076402449
 20
49.2132353996927
 10
16.7123766188134
 20
49.2132114357101
 10
16.712338278336
 20
49.2131857852352
 10
16.7123148974045
 20
49.213170856422
 10
16.7122994800414
 20
49.2131638097146
 10
16.7122626850987
 20
49.2131515604804
 10
16.7122245091074
 20
49.2131367728978
 10
16.7121850394741
 20
49.2131189104591
 10
16.7121307968333
 20
49.2130951306534
 10
16.7120969637078
 20
49.2130774624071
 10
16.7120336865307
 20
49.2130421985276
 10
16.712018079715
 20
49.2130311801378
 10
16.7119754991401
 20
49.2130036043004
 10
16.7119451551213
 20
49.2129788736144
 10
16.7119257549671
 20
49.2129632282421
 10
16.711904690873
 20
49.2129391463906
 10
16.7118851391183
 20
49.2129049509829
 10
16.7118504978544
 20
49.2128676204728
 10
16.7118266150781
 20
49.2128413519206
 10
16.7117820241082
 20
49.2128074848551
 10
16.7117343068786
 20
49.2127733105475
 10
16.7116994982625
 20
49.2127564973048
 10
16.7116756481243
 20
49.2127486790857
 10
16.7116030446501
 20
49.2127333831757
 10
16.7115430602093
 20
49.2127168895481
 10
16.7114620441747
 20
49.2126947661093
 10
16.711394102955
 20
49.2126694863241
 10
16.7113216673979
 20
49.2126336729236
 10
16.7112384736918
 20
49.2125867974547
 10
16.7111766452351
 20
49.2125434959552
 10
16.7111030521032
 20
49.2124953021061
 10
16.7110253130671
 20
49.212434428505
 10
16.710981055212
 20
49.2123985052266
 10
16.7109004991527
 20
49.2123354449283
 10
16.7108817697403
 20
49.2123156861702
 10
16.7108827749802
 20
49.2123095163572
 10
16.710908790287
 20
49.212303196324
 10
16.7109772003709
 20
49.2122874502276
 10
16.7111375688921
 20
49.2122453079747
 10
16.7114379607462
 20
49.2121698168092
 10
16.7115020929547
 20
49.2121557627024
 10
16.7115822232732
 20
49.2121401123152
 10
16.7116261111843
 20
49.2121316957096
 10
16.7116362002813
 20
49.2121307742249
 10
16.7116439692523
 20
49.2121296896042
 10
16.7116549419895
 20
49.2121385961174
 10
16.7116766891981
 20
49.212174572966
 10
16.7117179238441
 20
49.2122281909468
 10
16.7117516941189
 20
49.2122666363087
 10
16.7117898508365
 20
49.2123086440696
 10
16.7118323157609
 20
49.2123394676457
 10
16.7119015537825
 20
49.2123754189031
 10
16.7119697732192
 20
49.2124015317799
 10
16.7120858806944
 20
49.2124260189125
 10
16.7121623244525
 20
49.2124329916079
 10
16.7123087539818
 20
49.2124399739144
 10
16.7124551821875
 20
49.2124469559398
 10
16.7125598503622
 20
49.2124492998535
 10
16.7126853594789
 20
49.2124465884349
 10
16.7127775912123
 20
49.2124481540129
 10
16.7128317876116
 20
49.2124535708769
 10
16.7128947492489
 20
49.2124662023446
 10
16.7129472216064
 20
49.2124813561559
 10
16.7130088711016
 20
49.2125020350713
 10
16.7130678003346
 20
49.2125241516255
 10
16.7131155798248
 20
49.2125537183531
 10
16.7131629595008
 20
49.2125848840509
 10
16.713219859657
 20
49.2126347138754
 10
16.7132772298137
 20
49.2126977783755
 10
16.7133334278989
 20
49.2127671836674
 10
16.7133774533978
 20
49.2128341996539
 10
16.7134416535365
 20
49.2129468491713
 10
16.7134956844538
 20
49.2130456745213
 10
16.7135489705614
 20
49.2131329623898
 10
16.7136013876656
 20
49.2132103310432
 10
16.7136559993128
 20
49.2132894827244
 10
16.7137028811784
 20
49.2133550703414
 10
16.7137697201484
 20
49.2134515351189
 10
16.7138109594864
 20
49.2135051524367
 10
16.7138464014312
 20
49.2135485964951
 10
16.7138997847626
 20
49.2136047818438
 10
16.7139441832976
 20
49.2136389953239
 10
16.7139900318287
 20
49.2136651709027
 10
16.7140560726372
 20
49.2136894117705
 10
16.7141282122455
 20
49.2137075675107
 10
16.7141746411519
 20
49.2137140676368
 10
16.7142391905954
 20
49.2137169526085
 10
16.7142941749416
 20
49.2137175402139
 10
16.7143424388003
 20
49.2137127736058
 10
16.7144324110273
 20
49.2136977204277
 10
16.7145053110668
 20
49.2136798451566
 10
16.7146544761235
 20
49.2136395365807
 10
16.7148080435864
 20
49.2136027007829
 10
16.7148892380697
 20
49.2135805214805
 10
16.7149977703005
 20
49.2135438839319
 10
16.7150776950025
 20
49.2135133861031
 10
16.7151897335599
 20
49.2134704820777
 10
16.7152486782786
 20
49.2134467475034
 10
16.7153198250899
 20
49.2134091246661
 10
16.7153885137414
 20
49.2133713290902
 10
16.715447251525
 20
49.2133327485009
 10
16.7155137463094
 20
49.2132931735036
 10
16.715595556563
 20
49.2132366712108
 10
16.7157026535458
 20
49.2131622210788
 10
16.7157677541102
 20
49.2131159458147
 10
16.7158131311227
 20
49.213083123594
 10
16.7158621114636
 20
49.2130586914885
 10
16.7159346642539
 20
49.2130276788736
 10
16.7160635110263
 20
49.2129892044421
 10
16.7161356232273
 20
49.2129761567235
 10
16.7162209277411
 20
49.2129592368733
 10
16.7163181428994
 20
49.2129463163516
 10
16.7163984793811
 20
49.2129437911217
 10
16.7164809023318
 20
49.2129445768858
 10
16.7165627852509
 20
49.2129486709724
 10
16.7167189187757
 20
49.2129579525774
 10
16.7168301566198
 20
49.2129657255609
 10
16.7169364835927
 20
49.2129731552843
 10
16.7171176663964
 20
49.2129973007331
 10
16.7172297915923
 20
49.2130149032671
 10
16.7173249653663
 20
49.2130297829459
 10
16.7174390064822
 20
49.2130508634414
 10
16.7175238302593
 20
49.2130682763627
 10
16.7176021549133
 20
49.2130933725116
 10
16.7176487909352
 20
49.2131147180456
 10
16.717711327895
 20
49.2131452232946
 10
16.7177607654658
 20
49.2131798785651
 10
16.7178043817471
 20
49.2132189183602
 10
16.7178520694934
 20
49.2132795871737
 10
16.7179024604342
 20
49.2133389065152
 10
16.717943967528
 20
49.2133909129214
 10
16.7180120457848
 20
49.2135103414131
 10
16.718056381806
 20
49.2136068587649
 10
16.7181329235455
 20
49.2137514768749
 97
0
 75
0
 76
1
 98
0
  0
HATCH
  5
20008
100
AcDbEntity
  8
plocha Q5
100
AcDbHatch
 10
0
 20
0
 30
0
210
0
220
0
230
1
  2
SOLID
 70
1
 71
0
 91
1
 92
2
 72
0
 73
1
 93
211
 10
16.7131380644953
 20
49.2092960637393
 10
16.7131568206664
 20
49.2092995455275
 10
16.7131708631467
 20
49.2093073995336
 10
16.7131917289998
 20
49.2093225141983
 10
16.7132165136027
 20
49.2093432394665
 10
16.7132361714352
 20
49.209361525364
 10
16.7132461809927
 20
49.209373800986
 10
16.713245234361
 20
49.209379613151
 10
16.7132397016449
 20
49.2093839290188
 10
16.7132264735318
 20
49.2093914147565
 10
16.7132078899887
 20
49.2094004243305
 10
16.7131677255942
 20
49.2094215827671
 10
16.71310948089
 20
49.2094495250328
 10
16.7130347144068
 20
49.2094890636515
 10
16.7128850300383
 20
49.2095682206187
 10
16.7127729154714
 20
49.209626037707
 10
16.7126364110945
 20
49.209699694942
 10
16.7125768825445
 20
49.2097355065062
 10
16.7125254056997
 20
49.2097650964891
 10
16.7124776652891
 20
49.209795492128
 10
16.7124430003617
 20
49.2098252636638
 10
16.7124189098217
 20
49.2098496990463
 10
16.7123829159814
 20
49.2098916028185
 10
16.7123592909866
 20
49.2099315516142
 10
16.7123356686834
 20
49.2099715005957
 10
16.7123210700086
 20
49.210000956856
 10
16.7123071350572
 20
49.2100415831779
 10
16.7122917997609
 20
49.2101060762799
 10
16.71228910313
 20
49.2101522815096
 10
16.7122780186087
 20
49.2102203293407
 10
16.7122600947951
 20
49.2103151184587
 10
16.7122502921211
 20
49.2103752966262
 10
16.7122402519774
 20
49.2104225267151
 10
16.7122277243256
 20
49.2104536651971
 10
16.7122198463178
 20
49.2104723772774
 10
16.71219751727
 20
49.2105043678541
 10
16.7121764728622
 20
49.2105284889593
 10
16.7121589030703
 20
49.2105465242835
 10
16.7121421186053
 20
49.210559730056
 10
16.7121201613094
 20
49.2105742019879
 10
16.7120961446231
 20
49.2105869020685
 10
16.7120579127538
 20
49.2106114492361
 10
16.7120176225435
 20
49.2106342264263
 10
16.711984303971
 20
49.2106591171225
 10
16.7119637677024
 20
49.210680109366
 10
16.7119487947442
 20
49.2106966079552
 10
16.7119354920288
 20
49.2107181059844
 10
16.7119276257053
 20
49.2107367284353
 10
16.7119189756675
 20
49.2107601787399
 10
16.7119086420801
 20
49.2107930993776
 10
16.7118993736923
 20
49.2108355893996
 10
16.7118918865434
 20
49.2108815501125
 10
16.7118782159189
 20
49.2109205670484
 10
16.7118593683092
 20
49.2109608498462
 10
16.7118429732377
 20
49.2109869247664
 10
16.7118285087584
 20
49.2110002927293
 10
16.7118010008555
 20
49.211019169625
 10
16.7117652265758
 20
49.2110438885704
 10
16.7117219693355
 20
49.2110696234936
 10
16.7116629484672
 20
49.2111023040645
 10
16.7116076688294
 20
49.2111416671926
 10
16.7115662087421
 20
49.2111707825367
 10
16.7115374041655
 20
49.2111976175427
 10
16.7115190765538
 20
49.2112203015927
 10
16.7115024190067
 20
49.2112479859815
 10
16.7114939074622
 20
49.2112697285714
 10
16.7114909439263
 20
49.2113031627437
 10
16.7114890171038
 20
49.2113302502402
 10
16.7114861805076
 20
49.2113620663397
 10
16.7114838643024
 20
49.2113762837492
 10
16.7114781976059
 20
49.2114110672225
 10
16.711475884275
 20
49.2114557618666
 10
16.7114691873043
 20
49.2115112736467
 10
16.7114649443886
 20
49.2115525776565
 10
16.7114477768385
 20
49.2115833916542
 10
16.7114247832285
 20
49.2116042120098
 10
16.7114089657246
 20
49.2116191131812
 10
16.7113837829426
 20
49.211638966524
 10
16.7113533079145
 20
49.2116608011386
 10
16.711336848028
 20
49.2116796365812
 10
16.7113195988258
 20
49.2117024864622
 10
16.7113109613888
 20
49.2117258480986
 10
16.7113046296282
 20
49.2117494613996
 10
16.7113020512785
 20
49.211765287428
 10
16.7113025849252
 20
49.2117772632426
 10
16.7113061415371
 20
49.2117927052463
 10
16.7113100796432
 20
49.211805822582
 10
16.711319648368
 20
49.2118224989185
 10
16.7113265662963
 20
49.2118325689145
 10
16.7113349012845
 20
49.2118483450511
 10
16.7113492470276
 20
49.2118653554232
 10
16.711367466587
 20
49.2118882437246
 10
16.7113845942761
 20
49.2119110556719
 10
16.7113937069044
 20
49.2119229060773
 10
16.7113992638688
 20
49.2119336957314
 10
16.7114008135554
 20
49.2119385963141
 10
16.7114004200832
 20
49.2119410114847
 10
16.7113964913238
 20
49.2119430881074
 10
16.7113925453491
 20
49.2119444400358
 10
16.7113784030118
 20
49.2119490581726
 10
16.7113401749398
 20
49.2119583217241
 10
16.711296898283
 20
49.2119697653553
 10
16.7112772380705
 20
49.2119743602843
 10
16.7112522220894
 20
49.2119804789564
 10
16.7112438834277
 20
49.2119825185125
 10
16.7112385604713
 20
49.2119821462941
 10
16.7112312125762
 20
49.2119781045563
 10
16.7112191340595
 20
49.2119624292869
 10
16.7111737622694
 20
49.2119138575151
 10
16.7111395684325
 20
49.2118704074121
 10
16.7111154194938
 20
49.2118381521422
 10
16.7110988647192
 20
49.2118169167208
 10
16.7110949443326
 20
49.211808774612
 10
16.7110888649794
 20
49.2117969554164
 10
16.7110854113238
 20
49.2117766370382
 10
16.7110879461845
 20
49.2117610783735
 10
16.7110903353621
 20
49.2117464138848
 10
16.7110969594079
 20
49.2117303272441
 10
16.7111025007629
 20
49.2117132605288
 10
16.7111114557942
 20
49.2116989647446
 10
16.7111169580843
 20
49.2116897632592
 10
16.7111235484309
 20
49.2116823561503
 10
16.7111362999074
 20
49.2116693206443
 10
16.7111522141124
 20
49.2116529792842
 10
16.7111758066983
 20
49.2116310251863
 10
16.7111945976228
 20
49.2116139806222
 10
16.711213094447
 20
49.2115987242167
 10
16.7112264167546
 20
49.2115822016037
 10
16.7112403112083
 20
49.2115630059087
 10
16.7112500965376
 20
49.2115436133081
 10
16.7112555013342
 20
49.2115265370409
 10
16.7112595307215
 20
49.2115102689579
 10
16.7112664212742
 20
49.2114679744142
 10
16.7112676552219
 20
49.2114112657828
 10
16.7112740401029
 20
49.2113314048026
 10
16.7112769479689
 20
49.211296610188
 10
16.7112822943049
 20
49.2112637939121
 10
16.7112905496436
 20
49.2112215948054
 10
16.7112986592921
 20
49.2111802898742
 10
16.7113076479665
 20
49.211157313645
 10
16.7113141406091
 20
49.2111420326433
 10
16.711323357692
 20
49.2111261273235
 10
16.7113379108353
 20
49.2111105047041
 10
16.7113488830659
 20
49.2111007804453
 10
16.711361213096
 20
49.2110903390148
 10
16.7113787350202
 20
49.21108107366
 10
16.7113968250665
 20
49.2110683210137
 10
16.7114191353386
 20
49.2110542356183
 10
16.7114510270119
 20
49.2110381071244
 10
16.7114819670906
 20
49.211020193792
 10
16.7115152221909
 20
49.2110041606227
 10
16.7115384907198
 20
49.2109926744319
 10
16.711556289351
 20
49.210981710114
 10
16.711566555401
 20
49.2109754643791
 10
16.7115761612131
 20
49.2109656454605
 10
16.7115898707074
 20
49.2109552091302
 10
16.7116094903318
 20
49.2109330666986
 10
16.7116196627279
 20
49.2109197612851
 10
16.7116336839297
 20
49.2108989465739
 10
16.7116444595229
 20
49.2108734735344
 10
16.7116623787998
 20
49.2108371954805
 10
16.7116759323213
 20
49.2108031434623
 10
16.7116920641394
 20
49.2107693639755
 10
16.7117067245486
 20
49.2107285171018
 10
16.7117209289218
 20
49.2106989428746
 10
16.7117468108408
 20
49.2106544492809
 10
16.7117719481116
 20
49.2106230168752
 10
16.7118015697565
 20
49.210596238973
 10
16.7118343316057
 20
49.2105671484249
 10
16.7118943260797
 20
49.2105259444489
 10
16.7119336429899
 20
49.2104981261575
 10
16.7119603569992
 20
49.2104807311574
 10
16.7119862558906
 20
49.2104615608684
 10
16.7120013247378
 20
49.210450404723
 10
16.7120150660154
 20
49.2104312896045
 10
16.7120262559128
 20
49.2104041272286
 10
16.7120314561414
 20
49.2103722041965
 10
16.7120372708702
 20
49.2103280266111
 10
16.7120416491989
 20
49.2102681013098
 10
16.7120448978319
 20
49.2102159667796
 10
16.7120530672705
 20
49.2101081944786
 10
16.7120551541803
 20
49.2100708093578
 10
16.7120610677929
 20
49.2100345066407
 10
16.7120629260697
 20
49.2100154640917
 10
16.7120754259149
 20
49.2099709382127
 10
16.7120866233424
 20
49.2099428729069
 10
16.712103129078
 20
49.2099152683024
 10
16.7121236072944
 20
49.2098878510254
 10
16.7121535439481
 20
49.2098515088584
 10
16.7121842893529
 20
49.2098178449824
 10
16.7122653529236
 20
49.209737961301
 10
16.7123102280603
 20
49.209691268659
 10
16.7123523163116
 20
49.2096540578196
 10
16.7124143731735
 20
49.2096086569398
 10
16.7124647752068
 20
49.2095771822334
 10
16.7125496368994
 20
49.2095307531507
 10
16.7126392676734
 20
49.2094880940375
 10
16.7126894758237
 20
49.2094662823659
 10
16.7127697764455
 20
49.2094317431301
 10
16.7128286007323
 20
49.2094061928865
 10
16.7128827666138
 20
49.2093846578539
 10
16.7129484303388
 20
49.2093577770225
 10
16.7129957697665
 20
49.2093374829534
 10
16.7130264307079
 20
49.2093247562074
 10
16.713048813358
 20
49.2093141592403
 10
16.7130619604363
 20
49.2093070693933
 10
16.7130776493203
 20
49.2093008825526
 10
16.71309175407
 20
49.209296082578
 10
16.7131058626089
 20
49.209293361089
 10
16.7131221680487
 20
49.2092944992657
 10
16.7131380644953
 20
49.2092960637393
 97
0
 75
0
 76
1
 98
0
  0
HATCH
  5
20009
100
AcDbEntity
  8
plocha Q5
100
AcDbHatch
 10
0
 20
0
 30
0
210
0
220
0
230
1
  2
SOLID
 70
1
 71
0
 91
1
 92
2
 72
0
 73
1
 93
350
 10
16.7176943321431
 20
49.207996445888
 10
16.7176520337446
 20
49.2080239679213
 10
16.7176067170422
 20
49.208051368564
 10
16.7174947987639
 20
49.2081122790586
 10
16.717408390141
 20
49.20815977886
 10
16.7173248619219
 20
49.2082073894523
 10
16.7172393845562
 20
49.2082491663453
 10
16.7171984750199
 20
49.2082672886528
 10
16.7171583161655
 20
49.2082816642053
 10
16.7171145419194
 20
49.2082995862998
 10
16.7170653265854
 20
49.208315320342
 10
16.7170072221778
 20
49.2083322409907
 10
16.7169583258025
 20
49.2083460067925
 10
16.7168944906453
 20
49.2083625269126
 10
16.7168098295091
 20
49.2083814803469
 10
16.716724740691
 20
49.2084022125489
 10
16.7166157919547
 20
49.2084270651299
 10
16.7165008055
 20
49.2084533939096
 10
16.7164036248405
 20
49.2084771704824
 10
16.7163189646857
 20
49.2084961236517
 10
16.7162311459158
 20
49.2085166647282
 10
16.7161463477852
 20
49.2085356081372
 10
16.7160559687141
 20
49.2085540700982
 10
16.7159565345792
 20
49.2085738896214
 10
16.7158542343348
 20
49.2085935087481
 10
16.7157759291306
 20
49.2086090169643
 10
16.7157001853905
 20
49.2086266042148
 10
16.7155975805594
 20
49.2086481009923
 10
16.7155189709547
 20
49.2086654860181
 10
16.7154074592398
 20
49.2086882601545
 10
16.7153412308964
 20
49.2087008129995
 10
16.7152773801838
 20
49.2087174216427
 10
16.7151862521738
 20
49.2087396307351
 10
16.7150649059312
 20
49.2087694033038
 10
16.714958515973
 20
49.2087963315368
 10
16.7148521242433
 20
49.2088232613646
 10
16.7147546391687
 20
49.2088489136252
 10
16.714608256576
 20
49.2088883297143
 10
16.7145441126442
 20
49.2089067271121
 10
16.7144645701954
 20
49.2089298350713
 10
16.7143875879283
 20
49.2089550211024
 10
16.7143291762111
 20
49.2089738172866
 10
16.714239812089
 20
49.2090038360556
 10
16.7141599635444
 20
49.2090288215836
 10
16.7140829809688
 20
49.2090540074112
 10
16.7139631397882
 20
49.2090914798547
 10
16.713907898099
 20
49.2091085992036
 10
16.7138366485967
 20
49.2091341865743
 10
16.7137655342805
 20
49.2091597824525
 10
16.713679341646
 20
49.2091881215831
 10
16.7135924005012
 20
49.2092202084511
 10
16.7135273238755
 20
49.2092443271386
 10
16.7134807704559
 20
49.2092640433028
 10
16.7134633115613
 20
49.2092712332838
 10
16.7134480601878
 20
49.2092775818924
 10
16.7134282719868
 20
49.2092855133842
 10
16.7134177026245
 20
49.2092893876065
 10
16.7134124836958
 20
49.2092909209953
 10
16.7134068150921
 20
49.2092909777776
 10
16.7134021348578
 20
49.2092892035962
 10
16.713396903298
 20
49.2092865769456
 10
16.7133903943279
 20
49.2092833183718
 10
16.7133841806691
 20
49.2092790856464
 10
16.7133621118461
 20
49.2092654243305
 10
16.7133492101251
 20
49.2092556596036
 10
16.713337622735
 20
49.2092454441465
 10
16.7133332121405
 20
49.2092386243915
 10
16.7133305337449
 20
49.2092347292579
 10
16.7133308399972
 20
49.2092260688034
 10
16.7133329803904
 20
49.2092197070449
 10
16.7133416717674
 20
49.2092138032824
 10
16.7133650961998
 20
49.2091988007003
 10
16.7134202036761
 20
49.2091663876051
 10
16.7134610540496
 20
49.2091460918887
 10
16.7134944413549
 20
49.209131785805
 10
16.713590531429
 20
49.2090986212426
 10
16.7137239317
 20
49.2090601074807
 10
16.713923430483
 20
49.209003061867
 10
16.7140897080455
 20
49.2089465875221
 10
16.7142828866204
 20
49.2088876525484
 10
16.7144367121523
 20
49.2088389891531
 10
16.7146451370446
 20
49.2087728897306
 10
16.7148335753644
 20
49.2087167869273
 10
16.7149687587227
 20
49.208680024348
 10
16.7151425090268
 20
49.2086420668154
 10
16.7152523200083
 20
49.2086170054058
 10
16.7154211198037
 20
49.2085730049062
 10
16.715574077475
 20
49.2085355830532
 10
16.7157235571291
 20
49.208501718038
 10
16.7159426912574
 20
49.2084554469345
 10
16.716135619996
 20
49.2084073439724
 10
16.7163356060297
 20
49.208369320118
 10
16.7164812725578
 20
49.2083410651189
 10
16.716588537948
 20
49.2083138341393
 10
16.7166954684089
 20
49.2082886596825
 10
16.7168385887288
 20
49.2082582367378
 10
16.7169303191017
 20
49.2082357077091
 10
16.7170259675693
 20
49.2082077549709
 10
16.7170881402864
 20
49.2081870481135
 10
16.7171962360984
 20
49.2081369049024
 10
16.7172675452509
 20
49.2080956753868
 10
16.7172893832184
 20
49.2080825300469
 10
16.7173497577315
 20
49.2080417319408
 10
16.7173731929381
 20
49.2080241076907
 10
16.7173872666766
 20
49.2080097161911
 10
16.7173987958491
 20
49.2079931582005
 10
16.7173997127103
 20
49.2079875257313
 10
16.7174012701659
 20
49.2079779579552
 10
16.7173999484298
 20
49.2079682794206
 10
16.7173918398472
 20
49.2079638240718
 10
16.7173831053716
 20
49.2079632137164
 10
16.7173683318623
 20
49.2079640805064
 10
16.7173434383354
 20
49.2079720175776
 10
16.7172774844833
 20
49.2079981568615
 10
16.7171932505626
 20
49.2080288970092
 10
16.717121429436
 20
49.2080546262066
 10
16.7170747916238
 20
49.2080706298875
 10
16.7170194207991
 20
49.2080860223678
 10
16.716882170942
 20
49.2081168557413
 10
16.7167999704245
 20
49.2081342628179
 10
16.7166974478875
 20
49.2081501601132
 10
16.7166168048625
 20
49.208157999293
 10
16.7165332973143
 20
49.2081656373238
 10
16.7164772277465
 20
49.2081675067137
 10
16.7164040120243
 20
49.2081661890997
 10
16.7163610875721
 20
49.2081593900168
 10
16.7163396134636
 20
49.2081463134675
 10
16.7163298763406
 20
49.2081340571873
 10
16.7163233107919
 20
49.2081201243148
 10
16.7163235297884
 20
49.2081009663402
 10
16.7163263248537
 20
49.2080837980208
 10
16.7163413330376
 20
49.2080636858549
 10
16.7163688707852
 20
49.2080386605597
 10
16.7164450476688
 20
49.2079861959357
 10
16.7165066911032
 20
49.2079500792363
 10
16.7165638384535
 20
49.207905961261
 10
16.7166383862811
 20
49.2078456956541
 10
16.716715647517
 20
49.2077857100734
 10
16.7168164949985
 20
49.2077080195273
 10
16.7168774407556
 20
49.2076583789998
 10
16.7169570924956
 20
49.2076023586516
 10
16.7170346732026
 20
49.2075404056498
 10
16.7171654346008
 20
49.2074417442385
 10
16.717233348855
 20
49.2073849035094
 10
16.7173020253206
 20
49.2073242272828
 10
16.717406042712
 20
49.2072448578086
 10
16.7174622581273
 20
49.2072064631555
 10
16.7174992279054
 20
49.2071955707631
 10
16.7175227340148
 20
49.2071953151006
 10
16.7175646403246
 20
49.2071837737604
 10
16.7176311556247
 20
49.2071558649163
 10
16.7177004004356
 20
49.2070917003296
 10
16.7177646761031
 20
49.2070393990951
 10
16.717822170067
 20
49.2069906022129
 10
16.7178921994387
 20
49.2069419577488
 10
16.7179708226269
 20
49.2068820657868
 10
16.7180279484005
 20
49.206830440503
 10
16.718061075662
 20
49.2067982088883
 10
16.7180840695116
 20
49.2067714188165
 10
16.7181056317009
 20
49.2067525765629
 10
16.7181393990882
 20
49.2067164114022
 10
16.7181678168394
 20
49.206675801028
 10
16.7181962494767
 20
49.2066456143833
 10
16.7182207599764
 20
49.2065930449103
 10
16.7182253779113
 20
49.2065315992208
 10
16.7182215961507
 20
49.2064785206344
 10
16.7182112743761
 20
49.2064087980177
 10
16.7182014086946
 20
49.2063167687884
 10
16.7181829812963
 20
49.2062586867759
 10
16.718073060495
 20
49.2060419191121
 10
16.7180023384453
 20
49.2059693324567
 10
16.7178638639029
 20
49.2058694920172
 10
16.7177429674026
 20
49.2058092243952
 10
16.7176605318121
 20
49.2057755192638
 10
16.7175219581836
 20
49.205716962495
 10
16.7174307825548
 20
49.2056725185294
 10
16.7173459307291
 20
49.205628281271
 10
16.7172382114652
 20
49.2055531971842
 10
16.717094429599
 20
49.2054576313156
 10
16.7169230192696
 20
49.2053117169066
 10
16.7167873356495
 20
49.2051722438527
 10
16.7167396148816
 20
49.2051143768916
 10
16.7166987887584
 20
49.205060789159
 10
16.7166673679418
 20
49.2049791001727
 10
16.7166564666006
 20
49.2049197359255
 10
16.7166465059694
 20
49.2048537451761
 10
16.7166478866736
 20
49.2047816739519
 10
16.716656078105
 20
49.2047330494066
 10
16.7166700030064
 20
49.2046670088275
 10
16.7166841113439
 20
49.2045989932914
 10
16.7166884360654
 20
49.2045342722486
 10
16.7167005176141
 20
49.2044600540579
 10
16.7166956211746
 20
49.2043765109647
 10
16.7166863537488
 20
49.2043189800856
 10
16.716673750821
 20
49.2042632952021
 10
16.7166515466596
 20
49.2042089288652
 10
16.7165967438761
 20
49.204089431316
 10
16.7165443677654
 20
49.2039923505234
 10
16.7165098055666
 20
49.20391894282
 10
16.7164742814021
 20
49.2038514366251
 10
16.7164454049864
 20
49.20380076392
 10
16.7164225626363
 20
49.2037732123263
 10
16.7163940306577
 20
49.2037424595484
 10
16.7163565862189
 20
49.2037069889014
 10
16.7163309987568
 20
49.2036793358516
 10
16.7163160677991
 20
49.2036652043941
 10
16.7163074673934
 20
49.2036552883864
 10
16.7162965243614
 20
49.2036436712323
 10
16.7162857255336
 20
49.2036311597978
 10
16.7162739593316
 20
49.2036169519987
 10
16.7162613895352
 20
49.203600067201
 10
16.7162554943264
 20
49.2035888028585
 10
16.7162520754825
 20
49.2035784350876
 10
16.716250276474
 20
49.2035657387683
 10
16.7162510717891
 20
49.2035532228749
 10
16.7162555581555
 20
49.2035417806989
 10
16.7162609950485
 20
49.2035321214316
 10
16.7162698541541
 20
49.2035243310129
 10
16.7162739518557
 20
49.2035228982368
 10
16.7162807662631
 20
49.2035200293087
 10
16.7162884082323
 20
49.2035205634429
 10
16.716300416577
 20
49.203525653246
 10
16.7163137900118
 20
49.2035333706626
 10
16.7163453185853
 20
49.2035499536261
 10
16.7163867891683
 20
49.2035800724437
 10
16.7164084923903
 20
49.2035959686541
 10
16.716424784229
 20
49.2036162806403
 10
16.7164557943455
 20
49.2036504623081
 10
16.7164841008413
 20
49.2036859915045
 10
16.7165284371471
 20
49.2037434430906
 10
16.716556108602
 20
49.203783721877
 10
16.7165955324958
 20
49.2038408291817
 10
16.7166462103806
 20
49.2039195232444
 10
16.7166909423677
 20
49.2040042217441
 10
16.7167294895633
 20
49.2040819783943
 10
16.7167713909652
 20
49.2041696451658
 10
16.7168064285968
 20
49.2042392876757
 10
16.71683953545
 20
49.204305538637
 10
16.7168612612462
 20
49.204351822708
 10
16.7168797535058
 20
49.2043882955036
 10
16.7169116967258
 20
49.2044464172303
 10
16.7169445361003
 20
49.2044998989158
 10
16.7169756878527
 20
49.2045484695509
 10
16.7170188660327
 20
49.2045977902273
 10
16.7170436779979
 20
49.2046251166524
 10
16.7170768979935
 20
49.2046609908258
 10
16.7171108750539
 20
49.2046922143344
 10
16.7171451273405
 20
49.2047217387862
 10
16.7171838967608
 20
49.204753206748
 10
16.7172296342825
 20
49.2047867894996
 10
16.7172748653177
 20
49.2048235011768
 10
16.7173515033662
 20
49.2048927958579
 10
16.7173999536029
 20
49.2049394090554
 10
16.7174577332572
 20
49.204989749905
 10
16.7175237689329
 20
49.2050487173383
 10
16.7176204153808
 20
49.2051290848111
 10
16.7176909817778
 20
49.2051899061364
 10
16.7177614084325
 20
49.2052524350127
 10
16.7178274464751
 20
49.2053114005768
 10
16.7178860041013
 20
49.2053713825875
 10
16.7179311150442
 20
49.2054240935412
 10
16.7179718225692
 20
49.2054733315266
 10
16.7180045200121
 20
49.2055124236029
 10
16.7180392900765
 20
49.2055531978981
 10
16.7180739334814
 20
49.2055955902636
 10
16.7181063850374
 20
49.2056362025215
 10
16.7181512329801
 20
49.2056905237205
 10
16.718173081497
 20
49.2057208088922
 10
16.718194293807
 20
49.2057558426859
 10
16.7182157583206
 20
49.2058037350366
 10
16.7182473251391
 20
49.2058794657377
 10
16.7182826327979
 20
49.2059618769224
 10
16.7183180794836
 20
49.2060442996101
 10
16.7183393546124
 20
49.2060976057203
 10
16.7183544083984
 20
49.2061475831832
 10
16.7183744530341
 20
49.2062186181914
 10
16.7183876958104
 20
49.2062695552342
 10
16.7183987085481
 20
49.2063138241952
 10
16.7184213472199
 20
49.2063892918077
 10
16.7184299580285
 20
49.2064279658995
 10
16.7184413872454
 20
49.2064798614357
 10
16.7184493021091
 20
49.2065228287041
 10
16.718458007835
 20
49.2065821296167
 10
16.7184635852775
 20
49.2066292735612
 10
16.7184702616398
 20
49.2066798422087
 10
16.7184715816792
 20
49.2067429679716
 10
16.7184687533074
 20
49.2068112291044
 10
16.7184690022598
 20
49.2068504059659
 10
16.7184674390359
 20
49.2068905405301
 10
16.7184629860117
 20
49.2069696317434
 10
16.7184552872323
 20
49.2070169341911
 10
16.7184455355588
 20
49.2070564966211
 10
16.7184351234685
 20
49.2070992685845
 10
16.7184197602688
 20
49.2071427789305
 10
16.7183995495782
 20
49.2071957194174
 10
16.7183845354598
 20
49.2072370846057
 10
16.7183648487723
 20
49.2072868051219
 10
16.7183586554955
 20
49.2073078960353
 10
16.7183367401066
 20
49.2073687652638
 10
16.7183136855149
 20
49.2074247609081
 10
16.7183002483063
 20
49.2074505004992
 10
16.7182955868621
 20
49.2074562348788
 10
16.7182884885057
 20
49.207459989373
 10
16.7182844120908
 20
49.2074621463052
 10
16.718278662159
 20
49.2074635523529
 10
16.7182686994859
 20
49.2074628562428
 10
16.7182633076219
 20
49.2074612143105
 10
16.7182543516361
 20
49.2074594128768
 10
16.718245704014
 20
49.2074557338429
 10
16.7182360505529
 20
49.2074514419151
 10
16.7182137483415
 20
49.2074392122197
 10
16.7181727470808
 20
49.2074163602048
 10
16.7181499012159
 20
49.2074023742335
 10
16.7181266812119
 20
49.207386463873
 10
16.7180935135812
 20
49.2073655166221
 10
16.7180691643241
 20
49.207353143859
 10
16.718059647373
 20
49.2073488614524
 10
16.7180473136055
 20
49.2073449248359
 10
16.7180344836282
 20
49.2073440283537
 10
16.7180111101961
 20
49.2073460125753
 10
16.7179867238734
 20
49.2073533123574
 10
16.7179519397229
 20
49.2073668889174
 10
16.7179440088787
 20
49.2073724337238
 10
16.7179282492548
 20
49.2073819125754
 10
16.7179182599834
 20
49.2073932434063
 10
16.7179101170852
 20
49.207405967541
 10
16.7179086179642
 20
49.2074151776507
 10
16.717918910161
 20
49.2074265691165
 10
16.717942755638
 20
49.207442884969
 10
16.717997925117
 20
49.207478754991
 10
16.7180660892887
 20
49.2075221338559
 10
16.7181124552538
 20
49.2075493390125
 10
16.7181480650157
 20
49.2075705473222
 10
16.7181595511268
 20
49.2075813882294
 10
16.7181621302928
 20
49.2075841901679
 10
16.7181616935222
 20
49.2075868736192
 10
16.7181611695721
 20
49.2075900926877
 10
16.7181597808935
 20
49.2075952409165
 10
16.7181474604157
 20
49.2076090306041
 10
16.7181318793116
 20
49.2076292846894
 10
16.7181161075366
 20
49.2076439175445
 10
16.7180874978465
 20
49.2076763753334
 10
16.7180589041837
 20
49.2077087428977
 10
16.7180214055065
 20
49.2077423873779
 10
16.7179834648027
 20
49.2077778992048
 10
16.7179396080405
 20
49.2078149890333
 10
16.7178663224401
 20
49.2078709113192
 10
16.7178161222061
 20
49.2079113561562
 10
16.7177504007495
 20
49.2079564129571
 10
16.7176943321431
 20
49.207996445888
 97
0
 75
0
 76
1
 98
0
  0
HATCH
  5
2000A
100
AcDbEntity
  8
plocha Q5
100
AcDbHatch
 10
0
 20
0
 30
0
210
0
220
0
230
1
  2
SOLID
 70
1
 71
0
 91
1
 92
2
 72
0
 73
1
 93
154
 10
16.552335655832
 20
49.1646891958348
 10
16.5520758677616
 20
49.1648080455808
 10
16.5518651114897
 20
49.1649074905724
 10
16.5516268336272
 20
49.1650149948702
 10
16.5514241022312
 20
49.165101969036
 10
16.5512648309911
 20
49.1651709502121
 10
16.550863904516
 20
49.1653395140649
 10
16.5505983335165
 20
49.1654600738168
 10
16.5503651165763
 20
49.1655510207595
 10
16.5500876642316
 20
49.1656774150409
 10
16.549887731053
 20
49.1657804900579
 10
16.5495619196155
 20
49.1659272023184
 10
16.5494833303516
 20
49.1659786337505
 10
16.5492909557318
 20
49.1660477995408
 10
16.5490471628213
 20
49.1661259860734
 10
16.5488536804376
 20
49.1661862072393
 10
16.5485824640174
 20
49.1662594755212
 10
16.5480581728922
 20
49.1664087172201
 10
16.5478152039659
 20
49.166469618565
 10
16.5474965782473
 20
49.1665634434266
 10
16.5473054821224
 20
49.1666173387094
 10
16.5469633774292
 20
49.1667233514608
 10
16.546728500292
 20
49.1667907528313
 10
16.5465759541804
 20
49.1668308741054
 10
16.5461631694959
 20
49.1669359424282
 10
16.5459797871282
 20
49.1669802382735
 10
16.5457352960179
 20
49.1670469518784
 10
16.5455956440489
 20
49.1670796972305
 10
16.545468492958
 20
49.1671133464037
 10
16.5453715517387
 20
49.1671465929389
 10
16.5452976264026
 20
49.167164268686
 10
16.5452134287429
 20
49.1671903747931
 10
16.5451562717755
 20
49.1672013623497
 10
16.5451398354401
 20
49.1672008293657
 10
16.5450765729612
 20
49.1671835556887
 10
16.5449847642013
 20
49.1671565887001
 10
16.5449862303371
 20
49.1671477652186
 10
16.5451505547107
 20
49.1671080070835
 10
16.5455508466224
 20
49.1670153026363
 10
16.5458165737413
 20
49.1669423361984
 10
16.5461163537152
 20
49.166862013444
 10
16.5464498527332
 20
49.1667762668916
 10
16.5467152702448
 20
49.1667052294378
 10
16.5470114442939
 20
49.1666285656144
 10
16.5473635969173
 20
49.1665382856112
 10
16.5479585134669
 20
49.1663694775884
 10
16.5483698388512
 20
49.1662462447215
 10
16.5487873077532
 20
49.1661261078379
 10
16.5491037485389
 20
49.1660130100095
 10
16.5493837881534
 20
49.1659077878479
 10
16.5495525274224
 20
49.1658259335693
 10
16.5499146304811
 20
49.1656329557838
 10
16.5500988829263
 20
49.1655362527654
 10
16.5503873737301
 20
49.165415982799
 10
16.5506166359763
 20
49.165311049157
 10
16.5508056903342
 20
49.1652325977506
 10
16.5512024448407
 20
49.1650711456541
 10
16.5513708591517
 20
49.1649912107551
 10
16.5514064438323
 20
49.1649565814581
 10
16.551348964239
 20
49.1649074750337
 10
16.5512423774268
 20
49.1648666038477
 10
16.5507829922337
 20
49.1646408679692
 10
16.5504291055368
 20
49.1645268052027
 10
16.5501667150872
 20
49.1644180644514
 10
16.5501101857786
 20
49.1643631625692
 10
16.5500976436234
 20
49.1643309595545
 10
16.5502253304559
 20
49.1643166044951
 10
16.5504746458382
 20
49.1644322279678
 10
16.550662185562
 20
49.1644886677945
 10
16.5507597448216
 20
49.1644760668848
 10
16.5508847561808
 20
49.164441944123
 10
16.5510030971767
 20
49.1643760475602
 10
16.5510540061092
 20
49.1643209926809
 10
16.5511593955217
 20
49.1642972100486
 10
16.5512024775517
 20
49.1642533295365
 10
16.5512271096423
 20
49.1641768334108
 10
16.5512078954275
 20
49.1641128468335
 10
16.5512216456208
 20
49.1640535395308
 10
16.5511553954662
 20
49.1639191836691
 10
16.5512684961789
 20
49.1638197944753
 10
16.5514721942323
 20
49.1638147729824
 10
16.5517136156525
 20
49.1637263550952
 10
16.5518411919695
 20
49.1636767654564
 10
16.5521443892156
 20
49.1636475472207
 10
16.5522951434093
 20
49.1636739578572
 10
16.5524401189248
 20
49.1637351807663
 10
16.5526489660414
 20
49.1638502894519
 10
16.5528982689577
 20
49.1638148437341
 10
16.5529994414923
 20
49.1637085871123
 10
16.5530436913895
 20
49.1636217489335
 10
16.5531817742744
 20
49.1635807333778
 10
16.5533998451694
 20
49.1635610845133
 10
16.5535232036098
 20
49.1634290207211
 10
16.5535451385735
 20
49.1633327650471
 10
16.5537185956293
 20
49.1632942739121
 10
16.5539255157063
 20
49.1632699114386
 10
16.5540606059412
 20
49.1632509057718
 10
16.5541811673615
 20
49.163260939082
 10
16.554312066194
 20
49.1632874595662
 10
16.5544219119632
 20
49.1633224909077
 10
16.5545067819466
 20
49.1633371325634
 10
16.5545820408322
 20
49.1633439430002
 10
16.5546684013351
 20
49.1633758687138
 10
16.5547269978495
 20
49.1634172547935
 10
16.554750191903
 20
49.1634747311949
 10
16.5547627582037
 20
49.1635057411978
 10
16.5547132728412
 20
49.1636051958079
 10
16.5546961504836
 20
49.1636426170796
 10
16.5547304038378
 20
49.1636600504332
 10
16.5548369116601
 20
49.1636757204476
 10
16.5548720669706
 20
49.1636652849795
 10
16.554937204071
 20
49.1636497969625
 10
16.5549651493271
 20
49.1636260291455
 10
16.5549957958942
 20
49.1636065970391
 10
16.5550868287987
 20
49.1636161058902
 10
16.5551539306057
 20
49.1636194662968
 10
16.5551935429362
 20
49.16363934346
 10
16.5552309576516
 20
49.1636710592832
 10
16.5552889889659
 20
49.163691999388
 10
16.5553819102625
 20
49.1637097467963
 10
16.5554388088656
 20
49.1637363581453
 10
16.5555301434049
 20
49.1637541839589
 10
16.5556546286076
 20
49.163783139712
 10
16.5558973776956
 20
49.1638380378664
 10
16.5559867273718
 20
49.1638571952007
 10
16.5560050273629
 20
49.1638674463188
 10
16.5559953869367
 20
49.1638761749734
 10
16.5559759349552
 20
49.1638821772679
 10
16.5559462563694
 20
49.1638881291476
 10
16.5558969947319
 20
49.1638953864711
 10
16.5558761434552
 20
49.1639096471209
 10
16.5558577284672
 20
49.1639121512505
 10
16.5558320721459
 20
49.1638957659371
 10
16.5558130252311
 20
49.1638880295633
 10
16.5557890345722
 20
49.1638843004314
 10
16.5557149100228
 20
49.1638629177705
 10
16.555591658123
 20
49.1638311916682
 10
16.5554754369185
 20
49.1638168645119
 10
16.5554061258163
 20
49.1637944058607
 10
16.5553102748068
 20
49.1637786104287
 10
16.5551881082249
 20
49.1637465723479
 10
16.5550839825797
 20
49.1637323390799
 10
16.5548807449659
 20
49.1637473970802
 10
16.5546531989263
 20
49.1637436759397
 10
16.5544458339544
 20
49.1637964848887
 10
16.5542796944472
 20
49.1638375799833
 10
16.5541133609347
 20
49.16389298219
 10
16.5539205483674
 20
49.1639765341702
 10
16.5536560907161
 20
49.1640963824799
 10
16.5532301232484
 20
49.1642836184301
 10
16.5528478421191
 20
49.1644566932791
 10
16.5526712873415
 20
49.1645342578795
 10
16.5525026579446
 20
49.1646166756934
 10
16.552335655832
 20
49.1646891958348
 97
0
 75
0
 76
1
 98
0
  0
HATCH
  5
2000B
100
AcDbEntity
  8
plocha Q5
100
AcDbHatch
 10
0
 20
0
 30
0
210
0
220
0
230
1
  2
SOLID
 70
1
 71
0
 91
1
 92
2
 72
0
 73
1
 93
350
 10
16.7181230650527
 20
49.1995306155586
 10
16.7180317312602
 20
49.1996500277885
 10
16.7179372840288
 20
49.1997775442785
 10
16.7178664914855
 20
49.1998690917206
 10
16.7178081459128
 20
49.1999520123634
 10
16.7177484721229
 20
49.2000337567449
 10
16.7176924315341
 20
49.2001126793055
 10
16.7176430294609
 20
49.2001804900336
 10
16.7175846817832
 20
49.2002634104638
 10
16.7175465047423
 20
49.2003216064636
 10
16.7174844142301
 20
49.2004114106086
 10
16.7174565784065
 20
49.2004475567126
 10
16.7174341020629
 20
49.2004814176676
 10
16.7174069189689
 20
49.2005203957073
 10
16.7173758627402
 20
49.2005738431685
 10
16.7173417488807
 20
49.2006326622385
 10
16.7173143656111
 20
49.2006779567762
 10
16.7172953648413
 20
49.2007181388089
 10
16.7172795019366
 20
49.2007503104952
 10
16.7172738882753
 20
49.2007679356647
 10
16.7172630490134
 20
49.2007995043562
 10
16.7172576148856
 20
49.2008184769045
 10
16.7172539960292
 20
49.2008409739924
 10
16.7172517858255
 20
49.2008638806302
 10
16.7172495054577
 20
49.2008800449028
 10
16.7172393164829
 20
49.2008938477273
 10
16.7172402298062
 20
49.2009280971673
 10
16.717241608989
 20
49.2009815388782
 10
16.7172345434161
 20
49.2010358283123
 10
16.7172327879499
 20
49.2010821841576
 10
16.7172253528621
 20
49.2011330880795
 10
16.7172200374966
 20
49.2011945746225
 10
16.7172144971667
 20
49.2012238231952
 10
16.7172067926549
 20
49.2012635277192
 10
16.7171993309442
 20
49.2013004176701
 10
16.717191030803
 20
49.2013370066555
 10
16.7171844647179
 20
49.2013665199592
 10
16.7171737177066
 20
49.2014223816135
 10
16.7171693223545
 20
49.201449386011
 10
16.7171658187761
 20
49.2014762194104
 10
16.7171597585614
 20
49.201499037843
 10
16.7171497190089
 20
49.2015248862982
 10
16.7171406057046
 20
49.2015444165353
 10
16.717132378838
 20
49.2015584921459
 10
16.7171215729239
 20
49.2015740153491
 10
16.7171094397364
 20
49.2015908927598
 10
16.7170938777802
 20
49.2016068070457
 10
16.7170797699779
 20
49.2016205620685
 10
16.7170651859773
 20
49.2016380821091
 10
16.7170556081535
 20
49.2016536911406
 10
16.7170459056901
 20
49.2016692010249
 10
16.7170354545863
 20
49.2016901751655
 10
16.717028209734
 20
49.2017058568135
 10
16.7170230226978
 20
49.2017233101273
 10
16.71701698458
 20
49.2017383526291
 10
16.7170068738356
 20
49.2017716498175
 10
16.7169973730049
 20
49.2018011913322
 10
16.7169830566868
 20
49.2018450468773
 10
16.7169718253364
 20
49.2018852283927
 10
16.7169641728354
 20
49.2019101973345
 10
16.7169582434668
 20
49.2019322109884
 10
16.7169417437225
 20
49.2019759139304
 10
16.7169248627876
 20
49.2020211276375
 10
16.7169105808494
 20
49.2020588359529
 10
16.7168875520462
 20
49.2021206218958
 10
16.7168699418396
 20
49.2021635237371
 10
16.7168461692693
 20
49.202229869918
 10
16.7168294032361
 20
49.202274368166
 10
16.7168184556772
 20
49.2022983824179
 10
16.7168062654622
 20
49.2023291829352
 10
16.7167959187919
 20
49.2023571279212
 10
16.7167864336429
 20
49.2023865800925
 10
16.716771026647
 20
49.2024303594023
 10
16.7167594228707
 20
49.2024651791749
 10
16.7167454781246
 20
49.2025143972982
 10
16.7167339829248
 20
49.2025561891172
 10
16.7167223698986
 20
49.2025986961871
 10
16.7167081541765
 20
49.2026572093503
 10
16.7167000940586
 20
49.2026914637793
 10
16.7166856150671
 20
49.2027515854815
 10
16.7166726259042
 20
49.2028101852765
 10
16.7166660141406
 20
49.2028403745588
 10
16.7166225499875
 20
49.2029406207166
 10
16.7166313438073
 20
49.2030091815431
 10
16.7166276073519
 20
49.2030282438038
 10
16.7166243231613
 20
49.2030628329392
 10
16.7166214466401
 20
49.2030881347791
 10
16.7166184336533
 20
49.203113427081
 10
16.7166197802656
 20
49.2031560260108
 10
16.7166264181108
 20
49.2032237741569
 10
16.7166284295329
 20
49.2032843249274
 10
16.7166316411527
 20
49.2033587076263
 10
16.7166317755016
 20
49.2033943487074
 10
16.7166307239509
 20
49.2034228529138
 10
16.7166268377507
 20
49.2034535094266
 10
16.7166176857373
 20
49.2034876875438
 10
16.7166101769759
 20
49.2035049794916
 10
16.7166039228814
 20
49.2035145807501
 10
16.7165946142583
 20
49.203520893705
 10
16.7165869108936
 20
49.2035249675244
 10
16.7165767394981
 20
49.2035289583785
 10
16.7165658732037
 20
49.2035312746286
 10
16.7165563407534
 20
49.2035313318689
 10
16.7165471776611
 20
49.2035299679514
 10
16.7165382553399
 20
49.2035262686268
 10
16.7165329035332
 20
49.2035235441492
 10
16.7165178962825
 20
49.2035139933841
 10
16.7165050908176
 20
49.2035053218009
 10
16.7164817952183
 20
49.2034890420998
 10
16.7164548534848
 20
49.2034671736495
 10
16.7164330211172
 20
49.2034478318581
 10
16.7164221604348
 20
49.2034373961354
 10
16.7164137362308
 20
49.2034264063155
 10
16.7164076316184
 20
49.2034155804288
 10
16.7164068692429
 20
49.2034058505136
 10
16.7164092709996
 20
49.203391096476
 10
16.7164150553714
 20
49.2033699761455
 10
16.7164188980304
 20
49.2033531532636
 10
16.7164250262781
 20
49.2033222899025
 10
16.7164285925055
 20
49.2032935997068
 10
16.7164298534129
 20
49.2032646579474
 10
16.7164339782003
 20
49.2031926880473
 10
16.716434629412
 20
49.2031429043458
 10
16.7164365780767
 20
49.2031012592095
 10
16.7164393024514
 20
49.2030692535805
 10
16.7164476989618
 20
49.2030329426435
 10
16.716458562992
 20
49.2029806170692
 10
16.7164747383948
 20
49.2029270330753
 10
16.7164964465421
 20
49.2028691349341
 10
16.7165124838955
 20
49.2028155421948
 10
16.716529160792
 20
49.2027732986287
 10
16.7165353616603
 20
49.2027352054814
 10
16.7165273648024
 20
49.2027088732557
 10
16.7165149667888
 20
49.2026951648278
 10
16.7165083694658
 20
49.2026899097132
 10
16.7164999760141
 20
49.2026812751794
 10
16.7164982911613
 20
49.2026763643211
 10
16.7164972669219
 20
49.2026682430429
 10
16.7165085129984
 20
49.2026593533524
 10
16.7165219535192
 20
49.2026522439795
 10
16.716534995573
 20
49.2026467345991
 10
16.7165506303899
 20
49.2026414064354
 10
16.7165700169548
 20
49.2026282917082
 10
16.7165878443341
 20
49.2026086461569
 10
16.716597938562
 20
49.2025771574437
 10
16.7166325863411
 20
49.2024397653793
 10
16.716660771365
 20
49.2023420750966
 10
16.716684304337
 20
49.2022424318228
 10
16.7167170281817
 20
49.2021321264557
 10
16.716745347395
 20
49.2020183479832
 10
16.7167522050032
 20
49.2019609483889
 10
16.716764487288
 20
49.2019007626894
 10
16.716762809495
 20
49.2018652850377
 10
16.716759724114
 20
49.2018392942921
 10
16.7167492578266
 20
49.2018128799158
 10
16.7167302773034
 20
49.2017938269886
 10
16.7166857058561
 20
49.201766656717
 10
16.7166107861119
 20
49.2017292251238
 10
16.7165657054977
 20
49.2017051835575
 10
16.7165393417593
 20
49.2016857049766
 10
16.7165011185521
 20
49.2016492112638
 10
16.7164863978055
 20
49.2016192428887
 10
16.7164801929826
 20
49.2015819113873
 10
16.7164831804619
 20
49.2015482972068
 10
16.7164959783759
 20
49.2015154591711
 10
16.716509029347
 20
49.201495479803
 10
16.7165395248183
 20
49.2014734658473
 10
16.7165850054666
 20
49.2014509600602
 10
16.7166298400407
 20
49.2014315752578
 10
16.7166600734279
 20
49.2014111708025
 10
16.7166748418716
 20
49.201394205409
 10
16.7166813061367
 20
49.201384167578
 10
16.7166904195925
 20
49.2013646373768
 10
16.7166971987031
 20
49.2013450344536
 10
16.7167086645428
 20
49.2013034214669
 10
16.7167376007656
 20
49.2012231473778
 10
16.7167851942759
 20
49.2011291640742
 10
16.716807638352
 20
49.2010794556901
 10
16.7168318020604
 20
49.2010310440651
 10
16.7168466573943
 20
49.2009999776576
 10
16.716860977777
 20
49.2009565203335
 10
16.7168664320294
 20
49.2009314900027
 10
16.7168755628942
 20
49.200887687148
 10
16.7168965612545
 20
49.2007468088935
 10
16.7169027502376
 20
49.2006799572503
 10
16.7169080277534
 20
49.2006059870072
 10
16.7169065390339
 20
49.2005311839131
 10
16.7169005397142
 20
49.2004883493171
 10
16.716905985015
 20
49.2004396241894
 10
16.7169139004455
 20
49.200406264014
 10
16.7169290393845
 20
49.2003768452754
 10
16.7169512847578
 20
49.2003359857084
 10
16.7169812970936
 20
49.2002940411546
 10
16.7170197733661
 20
49.2002645352515
 10
16.7170618865953
 20
49.200237273122
 10
16.7171065469022
 20
49.2002079281077
 10
16.7171687612164
 20
49.2001750159641
 10
16.7172146179964
 20
49.2001476545946
 10
16.7172494098585
 20
49.2001246738028
 10
16.7172873329508
 20
49.2000985648209
 10
16.7173276523137
 20
49.2000729868577
 10
16.7173617359399
 20
49.2000458860282
 10
16.7174183268074
 20
49.1999924153948
 10
16.7174668890988
 20
49.1999484201832
 10
16.7175379689078
 20
49.1998771515059
 10
16.7175971833366
 20
49.1998151814374
 10
16.7176484824403
 20
49.1997543764385
 10
16.7177741808389
 20
49.1995823802963
 10
16.7178344844082
 20
49.1994882911676
 10
16.7178727719897
 20
49.1994378812299
 10
16.717877869297
 20
49.1994294643001
 10
16.7178753040879
 20
49.1994223223843
 10
16.7178660850197
 20
49.1994213154465
 10
16.7178598063526
 20
49.1994251280311
 10
16.7178457230069
 20
49.1994378900111
 10
16.717811380686
 20
49.199482696442
 10
16.7177686412701
 20
49.199542652727
 10
16.7177376074548
 20
49.1995857930274
 10
16.7177065882837
 20
49.1996288430064
 10
16.7176752475343
 20
49.199673860091
 10
16.7176488164844
 20
49.1997073732262
 10
16.7176193702316
 20
49.1997407660653
 10
16.7175892967997
 20
49.1997780038016
 10
16.7174600259035
 20
49.1999261455114
 10
16.7174023304128
 20
49.199975380721
 10
16.7173329115839
 20
49.2000415210562
 10
16.7172870758331
 20
49.2000738588009
 10
16.7172155405149
 20
49.2001250197007
 10
16.7171450992141
 20
49.200162691667
 10
16.7170407293207
 20
49.2002281968732
 10
16.7169754398358
 20
49.2002769065807
 10
16.7169494797937
 20
49.2003017128155
 10
16.7169354068386
 20
49.2003207670591
 10
16.7169141419177
 20
49.2003564507807
 10
16.716899570595
 20
49.2003823821952
 10
16.7168878217381
 20
49.2004126618843
 10
16.7168809783547
 20
49.2004364764312
 10
16.7168695239362
 20
49.2004521948346
 10
16.716857697253
 20
49.2004610855434
 10
16.716830992635
 20
49.2004611625083
 10
16.7168167995921
 20
49.200457255748
 10
16.7167743177616
 20
49.2004358231219
 10
16.7167337733224
 20
49.2004116111465
 10
16.7166845704676
 20
49.2003687113291
 10
16.7166508830135
 20
49.2003377970845
 10
16.7166220090886
 20
49.2003056547363
 10
16.716596164644
 20
49.2002640068005
 10
16.7165796443591
 20
49.200228842792
 10
16.7165768493065
 20
49.2002004676255
 10
16.7165800741747
 20
49.2001715410482
 10
16.7165962813086
 20
49.2001357471246
 10
16.7166520922615
 20
49.2000570512901
 10
16.7166847420419
 20
49.2000204649865
 10
16.7167325578143
 20
49.1999635605998
 10
16.7167786549475
 20
49.1999172228732
 10
16.7168361380618
 20
49.1998546871704
 10
16.7168874331531
 20
49.1997956004416
 10
16.7169766178973
 20
49.1996851718117
 10
16.7170522342252
 20
49.1995945036787
 10
16.7171210463844
 20
49.1994990208414
 10
16.7171588011941
 20
49.1994502016958
 10
16.7171934229914
 20
49.1994019774897
 10
16.7172182293383
 20
49.1993589455746
 10
16.7172371681913
 20
49.1993155035634
 10
16.7172505453316
 20
49.1992697727747
 10
16.7172654926963
 20
49.1992143855765
 10
16.7172726412447
 20
49.199152665413
 10
16.7172802486384
 20
49.1990694545165
 10
16.7172866776051
 20
49.1989570400425
 10
16.7172976363022
 20
49.1988897069527
 10
16.717313641753
 20
49.1988091630405
 10
16.7173294093753
 20
49.1987673976316
 10
16.7173541704606
 20
49.1986949718383
 10
16.7173623632746
 20
49.1986174984085
 10
16.7173585633858
 20
49.198559444386
 10
16.717333862878
 20
49.1984941416742
 10
16.7173058626621
 20
49.1984228195326
 10
16.7172708573071
 20
49.1983394328915
 10
16.7172398890566
 20
49.1982592232485
 10
16.7172117538782
 20
49.1981878925339
 10
16.717190954418
 20
49.1981257563671
 10
16.7171752124173
 20
49.198074102489
 10
16.717159943663
 20
49.1980051180146
 10
16.7171498419308
 20
49.1979450860834
 10
16.7171448780902
 20
49.1978941855343
 10
16.7171424179478
 20
49.1978550348563
 10
16.7171481516802
 20
49.1978062385531
 10
16.7171537833254
 20
49.197744502798
 10
16.7171583958909
 20
49.1976754618558
 10
16.7171691356205
 20
49.1975823401738
 10
16.7171728169037
 20
49.1975190211249
 10
16.7171813301828
 20
49.1974531458661
 10
16.7171884609115
 20
49.1973957653727
 10
16.7171905033629
 20
49.1973569303092
 10
16.7171935737413
 20
49.1973109313266
 10
16.7171937768362
 20
49.1972689833191
 10
16.7171884348569
 20
49.1972339730323
 10
16.7171785083036
 20
49.1971999988382
 10
16.7171636475631
 20
49.1971556422934
 10
16.7171516832273
 20
49.1971070559344
 10
16.7171404029019
 20
49.1970542669001
 10
16.7171346442196
 20
49.1970090986703
 10
16.7171343816703
 20
49.1969700120559
 10
16.7171352687993
 20
49.1969238613723
 10
16.71714084255
 20
49.1968896140499
 10
16.7171490796656
 20
49.1968525685069
 10
16.7171628326945
 20
49.1968087640803
 10
16.7171820287863
 20
49.1967450815833
 10
16.7172028056734
 20
49.1966844044276
 10
16.7172298171799
 20
49.1966269665578
 10
16.7172758643712
 20
49.1965203969433
 10
16.7172981168072
 20
49.1964786335605
 10
16.7173210822734
 20
49.1964324886603
 10
16.7173462162534
 20
49.1963865857638
 10
16.7173927820625
 20
49.1963031125981
 10
16.7173984456467
 20
49.1962948438051
 10
16.7174078798129
 20
49.1962993756684
 10
16.7175456280849
 20
49.1963653431975
 10
16.7180089932882
 20
49.1965911154417
 10
16.7179867207212
 20
49.1966524676949
 10
16.7179722465959
 20
49.1967083401525
 10
16.7179533433408
 20
49.1967905815885
 10
16.7179433644582
 20
49.1969019339902
 10
16.717957089827
 20
49.196984647115
 10
16.7179886810058
 20
49.1971237746273
 10
16.7180395189109
 20
49.1972447131328
 10
16.718086766011
 20
49.1973546378943
 10
16.7181050607024
 20
49.1974092744151
 10
16.718156035458
 20
49.1975124065634
 10
16.7181980845315
 20
49.1976042434822
 10
16.71823784787
 20
49.1977101190285
 10
16.7182778907234
 20
49.1978142949001
 10
16.7182962027786
 20
49.1978849396807
 10
16.7183188380017
 20
49.1979629396528
 10
16.7183417653996
 20
49.1980552488619
 10
16.7183596651081
 20
49.1981453979903
 10
16.7183836375655
 20
49.1982643682816
 10
16.7183962145141
 20
49.198354145416
 10
16.7184013240925
 20
49.1984558808133
 10
16.7183962377717
 20
49.1985711020746
 10
16.7183887292281
 20
49.1987003515487
 10
16.7183809279658
 20
49.1988313910872
 10
16.7183711032578
 20
49.1989248470703
 10
16.7183629952464
 20
49.1990416667815
 10
16.7183495498296
 20
49.1991242896775
 10
16.7183222862097
 20
49.1991917485249
 10
16.7182897181529
 20
49.1992587462432
 10
16.7182529644347
 20
49.1993344950106
 10
16.7181939751658
 20
49.1994298508991
 10
16.7181230650527
 20
49.1995306155586
 97
0
 75
0
 76
1
 98
0
  0
HATCH
  5
2000C
100
AcDbEntity
  8
plocha Q5
100
AcDbHatch
 10
0
 20
0
 30
0
210
0
220
0
230
1
  2
SOLID
 70
1
 71
0
 91
1
 92
2
 72
0
 73
1
 93
27
 10
16.7198093289305
 20
49.1946400407479
 10
16.7194196428556
 20
49.1948283180389
 10
16.7190039910565
 20
49.1950023004468
 10
16.718256709326
 20
49.195352875218
 10
16.7180767345536
 20
49.1954717902952
 10
16.7180439523527
 20
49.1954939683117
 10
16.7180848260608
 20
49.1954559860496
 10
16.7181589608462
 20
49.1954006667731
 10
16.7182517697792
 20
49.1953306445637
 10
16.7183161387246
 20
49.1952853131875
 10
16.7183820855537
 20
49.1952472364761
 10
16.7184747563672
 20
49.1951950202978
 10
16.7185451658653
 20
49.1951625901927
 10
16.7186073863173
 20
49.1951313078341
 10
16.7187019699109
 20
49.19508717809
 10
16.7187956520841
 20
49.1950457037787
 10
16.7189295462949
 20
49.1949866065586
 10
16.7190644751338
 20
49.1949248630138
 10
16.719187198934
 20
49.1948711300158
 10
16.7192745656858
 20
49.1948345497361
 10
16.7194191233049
 20
49.1947806222057
 10
16.7195698745012
 20
49.1947217020874
 10
16.7196790746434
 20
49.1946849289482
 10
16.7197335509998
 20
49.194667302401
 10
16.7198086981879
 20
49.1946388201081
 10
16.7198296703664
 20
49.1946309300188
 10
16.7198093289305
 20
49.1946400407479
 97
0
 75
0
 76
1
 98
0
  0
HATCH
  5
2000D
100
AcDbEntity
  8
plocha Q5
100
AcDbHatch
 10
0
 20
0
 30
0
210
0
220
0
230
1
  2
SOLID
 70
1
 71
0
 91
1
 92
2
 72
0
 73
1
 93
144
 10
16.5906420066431
 20
49.1624314369406
 10
16.5904898630216
 20
49.1624747439899
 10
16.5903432490702
 20
49.1625183904149
 10
16.5901914713297
 20
49.16255005473
 10
16.589812087189
 20
49.1626158356187
 10
16.5896185672593
 20
49.1626558666423
 10
16.5892993778848
 20
49.1627247223866
 10
16.5884539620186
 20
49.1629116731404
 10
16.5882691305208
 20
49.1629612924883
 10
16.5880708772417
 20
49.1630219335395
 10
16.5878724309466
 20
49.1630773966127
 10
16.5876295824137
 20
49.1631411355876
 10
16.5873786024588
 20
49.1632006589822
 10
16.5872882749925
 20
49.1632280232966
 10
16.5871230595964
 20
49.1632580765017
 10
16.5870080905175
 20
49.1632815533757
 10
16.5868594933816
 20
49.1632936856934
 10
16.5867608835763
 20
49.1633013020188
 10
16.5867055416271
 20
49.1633161820818
 10
16.5866660799366
 20
49.1633235247286
 10
16.5866443767965
 20
49.1633172240531
 10
16.5866391309571
 20
49.1632775411741
 10
16.586641818539
 20
49.1632503430707
 10
16.5866492125766
 20
49.1632361601469
 10
16.5866732680266
 20
49.1632358983456
 10
16.5867094570768
 20
49.1632366800041
 10
16.5867520869994
 20
49.1632260159106
 10
16.5868537476158
 20
49.1632153791657
 10
16.5869820434423
 20
49.1632084158429
 10
16.5871539842196
 20
49.1631868993662
 10
16.587277945792
 20
49.1631544111658
 10
16.5873673522018
 20
49.1631244405755
 10
16.5874865790222
 20
49.1630953947327
 10
16.5876262169164
 20
49.1630582676881
 10
16.5877238075497
 20
49.1630282806944
 10
16.5878275601749
 20
49.1629939656549
 10
16.5879016246812
 20
49.1629688569056
 10
16.5880862510417
 20
49.1629123029953
 10
16.588230569674
 20
49.1628743130967
 10
16.5883366172067
 20
49.1628425487108
 10
16.5884373672289
 20
49.1628044468863
 10
16.5885206590495
 20
49.1627674830829
 10
16.5886930794139
 20
49.1627243532156
 10
16.5888276568071
 20
49.1626958010152
 10
16.588911045493
 20
49.1626802910843
 10
16.5890121461262
 20
49.162656505252
 10
16.5891101588868
 20
49.1626348869342
 10
16.5893494339137
 20
49.1626048389689
 10
16.5894553590804
 20
49.1625682971905
 10
16.5895389187748
 20
49.1625462402682
 10
16.5896657646635
 20
49.1625260744373
 10
16.5897600451938
 20
49.1625161047937
 10
16.5897976181669
 20
49.1625140079722
 10
16.5898484048357
 20
49.1624979607319
 10
16.589984450984
 20
49.1624879739141
 10
16.59012347806
 20
49.1624490178704
 10
16.5903696803638
 20
49.1623962400806
 10
16.5904538713221
 20
49.1623593380148
 10
16.5905536453373
 20
49.1623271259894
 10
16.590985742359
 20
49.1622291876972
 10
16.5911558734351
 20
49.1621888667479
 10
16.5914308929458
 20
49.1621512318484
 10
16.5916957778121
 20
49.1621200220287
 10
16.5919044741822
 20
49.1620998086086
 10
16.5926666422137
 20
49.1620150906936
 10
16.5928557700008
 20
49.1619916040926
 10
16.5931124944652
 20
49.161965771349
 10
16.5932386565631
 20
49.1619497239692
 10
16.593437788072
 20
49.1619317030159
 10
16.5938252681243
 20
49.161894905976
 10
16.5940315335292
 20
49.1618666812116
 10
16.5941796607122
 20
49.1618605226602
 10
16.5943419130609
 20
49.1618458425437
 10
16.5945914636277
 20
49.1618194989086
 10
16.5948667248105
 20
49.1617913978933
 10
16.5955419807876
 20
49.1617166719649
 10
16.5958646952053
 20
49.1616871797665
 10
16.5962300506449
 20
49.1616523757685
 10
16.5966368414683
 20
49.1616086002285
 10
16.5968174317369
 20
49.1615928399157
 10
16.5971781910249
 20
49.1615529398714
 10
16.5973017598657
 20
49.161541470894
 10
16.5976571335512
 20
49.1615011870382
 10
16.5978081751731
 20
49.1614773666611
 10
16.5978561141984
 20
49.1614704404447
 10
16.5979113569669
 20
49.1614759261954
 10
16.5979310824564
 20
49.1614722341363
 10
16.5979427141945
 20
49.1614632639996
 10
16.5979699041721
 20
49.161443260684
 10
16.5979792424255
 20
49.1614308886554
 10
16.5980086813073
 20
49.1614326891349
 10
16.5980532040828
 20
49.1614363654538
 10
16.5980887335273
 20
49.1614627578917
 10
16.598100379979
 20
49.1614758499118
 10
16.598115406027
 20
49.1614990329255
 10
16.5981394512764
 20
49.1615145509567
 10
16.5981811154885
 20
49.1615424733322
 10
16.5981602050433
 20
49.1615547565189
 10
16.5981204219025
 20
49.1615518780223
 10
16.59795778401
 20
49.1615528687114
 10
16.5978485802961
 20
49.1615631331002
 10
16.5977010192416
 20
49.1615777312726
 10
16.5972910544438
 20
49.1616332337971
 10
16.5972155682292
 20
49.1616490301451
 10
16.5970519759874
 20
49.1616687485811
 10
16.5965854496858
 20
49.1617180520366
 10
16.5964813924844
 20
49.1617828358557
 10
16.5964054604404
 20
49.1618725986154
 10
16.5963596702753
 20
49.1618838647669
 10
16.596290939512
 20
49.1618752044938
 10
16.5962001659843
 20
49.1619048039932
 10
16.5960391856086
 20
49.1619226614256
 10
16.595866462094
 20
49.1619284235135
 10
16.5956599382076
 20
49.161931323823
 10
16.5955521589629
 20
49.1618561840593
 10
16.5954820511613
 20
49.161855772401
 10
16.5953637036558
 20
49.1619518770722
 10
16.5953278359918
 20
49.1619652947046
 10
16.5952801828879
 20
49.161983664305
 10
16.5951996299091
 20
49.1619883810503
 10
16.5950193453625
 20
49.1620237254262
 10
16.5948514903482
 20
49.1620208146208
 10
16.5947266975955
 20
49.1620119519325
 10
16.5945910961232
 20
49.162011330476
 10
16.594365418291
 20
49.1620257204861
 10
16.5942426595865
 20
49.1620305152631
 10
16.5941251327845
 20
49.1620661005237
 10
16.5938645740963
 20
49.162110901435
 10
16.5936379666587
 20
49.1621452790776
 10
16.5934471693402
 20
49.1621148293817
 10
16.5933091065899
 20
49.1620667251453
 10
16.5932031506614
 20
49.1620738430182
 10
16.5931156013097
 20
49.1620631204705
 10
16.5927129595837
 20
49.1621088612196
 10
16.59253403472
 20
49.1621291929309
 10
16.5922263943458
 20
49.1621531512532
 10
16.5914336396072
 20
49.1622624301437
 10
16.5913113458425
 20
49.1622852829592
 10
16.5911771481249
 20
49.1623072889669
 10
16.5909841243793
 20
49.1623735614433
 10
16.5908820129013
 20
49.1623989685351
 10
16.5908223677827
 20
49.1623857205872
 10
16.5907633123623
 20
49.1623792722095
 10
16.5906420066431
 20
49.1624314369406
 97
0
 75
0
 76
1
 98
0
  0
HATCH
  5
2000E
100
AcDbEntity
  8
plocha Q5
100
AcDbHatch
 10
0
 20
0
 30
0
210
0
220
0
230
1
  2
SOLID
 70
1
 71
0
 91
1
 92
2
 72
0
 73
1
 93
110
 10
16.5711720580605
 20
49.1624483234831
 10
16.5711450713221
 20
49.1624469531014
 10
16.5710768432594
 20
49.1624489146729
 10
16.5710042080958
 20
49.1624494117107
 10
16.5709041528208
 20
49.1624485815693
 10
16.570803398672
 20
49.1624518878194
 10
16.5701022024072
 20
49.1624508771866
 10
16.5700030845821
 20
49.1624507986917
 10
16.56984711038
 20
49.1624529763535
 10
16.5696488730941
 20
49.162452828674
 10
16.5694555881032
 20
49.1624614286073
 10
16.5690408660582
 20
49.1624940986992
 10
16.5689523332378
 20
49.1625033847716
 10
16.5686880431013
 20
49.1625262829765
 10
16.5683647430118
 20
49.1625668554664
 10
16.5680197106288
 20
49.1626163723208
 10
16.567917385554
 20
49.1626356398867
 10
16.5676743338841
 20
49.1626679540784
 10
16.567521196124
 20
49.1627108620417
 10
16.5667967925105
 20
49.1628948138761
 10
16.5666227253035
 20
49.1629418293431
 10
16.5664333514944
 20
49.1629975419199
 10
16.565749643215
 20
49.1632060520893
 10
16.5656117101582
 20
49.1632472463415
 10
16.5653551650527
 20
49.1633352195178
 10
16.5651981927822
 20
49.1633883360979
 10
16.5651111448734
 20
49.1634247733029
 10
16.5650394207023
 20
49.1634588092993
 10
16.5649995467524
 20
49.1634703595649
 10
16.5649821568801
 20
49.1634505304734
 10
16.5649757718897
 20
49.1634312062854
 10
16.5649724970483
 20
49.1634126827016
 10
16.5649704427748
 20
49.1633929616463
 10
16.5649911862322
 20
49.1633706693442
 10
16.5650111602544
 20
49.1633595106691
 10
16.5650554534531
 20
49.163343092287
 10
16.5651153131462
 20
49.1633228915886
 10
16.5651646673468
 20
49.1633062468483
 10
16.565388018701
 20
49.163234287883
 10
16.5656845419883
 20
49.1631519319899
 10
16.5661364598882
 20
49.1630123020806
 10
16.5664610169776
 20
49.1629045975935
 10
16.5668954869393
 20
49.1627797602306
 10
16.5675198641094
 20
49.1626422299347
 10
16.5678179923951
 20
49.1625915975852
 10
16.5682124524724
 20
49.1625236405878
 10
16.5685065026431
 20
49.1624790559986
 10
16.5687670226493
 20
49.1624518471642
 10
16.5691185341849
 20
49.1624120886062
 10
16.5695366440571
 20
49.162389521062
 10
16.5699949273057
 20
49.1623821320188
 10
16.5707212063265
 20
49.1623883501234
 10
16.5709709057171
 20
49.1623862358092
 10
16.571373531478
 20
49.1624002685468
 10
16.5718495176541
 20
49.1624029270433
 10
16.5723662410779
 20
49.1624201967909
 10
16.5726250321368
 20
49.1624308201603
 10
16.5730614742024
 20
49.1624384629021
 10
16.5735673898991
 20
49.162449106087
 10
16.5739636295561
 20
49.1624568135106
 10
16.5744674014668
 20
49.1624624164374
 10
16.5749592491136
 20
49.1624681442402
 10
16.5755736934736
 20
49.1624796665961
 10
16.5758248060696
 20
49.1624916799692
 10
16.5761513935724
 20
49.1624973613862
 10
16.5764388739685
 20
49.1624943163095
 10
16.5767670876046
 20
49.1625053390753
 10
16.5770089314766
 20
49.162515434618
 10
16.5773449923428
 20
49.1625178783697
 10
16.5775897530308
 20
49.162528351234
 10
16.5778377112676
 20
49.1625363465539
 10
16.5782097686939
 20
49.1625462259201
 10
16.5783423523748
 20
49.1625546841191
 10
16.57841715237
 20
49.1625795279583
 10
16.5784485573272
 20
49.1625876233139
 10
16.578479495132
 20
49.1625986170323
 10
16.5784819977476
 20
49.1626105089199
 10
16.5784763746071
 20
49.1626354901714
 10
16.5784529360505
 20
49.1626601905031
 10
16.578428116192
 20
49.1626662304617
 10
16.5783788704937
 20
49.1626575068358
 10
16.5783296489744
 20
49.1626494624093
 10
16.5780011621649
 20
49.1626192484745
 10
16.5778105909445
 20
49.1626252957294
 10
16.577604331066
 20
49.162657300861
 10
16.5772222582778
 20
49.162638348806
 10
16.5766935712942
 20
49.1626199320769
 10
16.5762656063317
 20
49.162596073096
 10
16.5757906515714
 20
49.1625858720504
 10
16.5753580313163
 20
49.16256879793
 10
16.5750183043129
 20
49.1625946601672
 10
16.5747986677055
 20
49.1625838909623
 10
16.5743862931812
 20
49.1625710125009
 10
16.5741879260362
 20
49.1625307377579
 10
16.5741235702131
 20
49.1625331477917
 10
16.5738803532269
 20
49.1625214206141
 10
16.5736687900808
 20
49.162524538084
 10
16.5729532474872
 20
49.1625071369986
 10
16.5727929348989
 20
49.1625097044042
 10
16.5725893003179
 20
49.1625035882452
 10
16.5722836512641
 20
49.1624923061582
 10
16.5721317218096
 20
49.1624828882908
 10
16.5720095444082
 20
49.1624804727776
 10
16.5718410143144
 20
49.1624747658569
 10
16.5716815959467
 20
49.1624655105289
 10
16.5714020377514
 20
49.1624672636258
 10
16.571337661296
 20
49.1624633749736
 10
16.5712672809248
 20
49.1624506734802
 10
16.571223123966
 20
49.1624405452668
 10
16.5711720580605
 20
49.1624483234831
 97
0
 75
0
 76
1
 98
0
  0
HATCH
  5
2000F
100
AcDbEntity
  8
plocha Q5
100
AcDbHatch
 10
0
 20
0
 30
0
210
0
220
0
230
1
  2
SOLID
 70
1
 71
0
 91
1
 92
2
 72
0
 73
1
 93
41
 10
16.563666340958
 20
49.1637138992637
 10
16.5636858776066
 20
49.1637654588886
 10
16.563688636946
 20
49.1637826794074
 10
16.5636854947983
 20
49.1637888949627
 10
16.5636696741645
 20
49.1638038773165
 10
16.5636443335413
 20
49.163818524722
 10
16.5636115985937
 20
49.1638282768629
 10
16.5635463136463
 20
49.1638452506831
 10
16.5634823572175
 20
49.1638627805068
 10
16.5633428212874
 20
49.1639043826775
 10
16.5630799100987
 20
49.163983205538
 10
16.5629028701209
 20
49.1640308714329
 10
16.5626684763786
 20
49.1640900976804
 10
16.5624864062322
 20
49.1641512088517
 10
16.5623474895373
 20
49.1641933163148
 10
16.5622385591466
 20
49.1642196061662
 10
16.5621397471322
 20
49.1642525965391
 10
16.5621034604742
 20
49.1642767028072
 10
16.5620432906906
 20
49.1643035746561
 10
16.5620244246286
 20
49.1643060475957
 10
16.5620061555993
 20
49.1643006020578
 10
16.5619923715472
 20
49.164277990235
 10
16.5619799442825
 20
49.1642580187808
 10
16.5619752735862
 20
49.1642371883786
 10
16.5619783166944
 20
49.1642061066325
 10
16.561990889555
 20
49.1641895188586
 10
16.5620480977824
 20
49.1641577050191
 10
16.5621170731038
 20
49.164139611138
 10
16.5621895854175
 20
49.1641213071841
 10
16.5623118316972
 20
49.1640909012903
 10
16.5625066529637
 20
49.1640417442331
 10
16.5626060839516
 20
49.1640092509088
 10
16.5627318845256
 20
49.1639827786806
 10
16.5629076507817
 20
49.1639258228584
 10
16.5631920603517
 20
49.1638485330972
 10
16.5633162233154
 20
49.1638150435481
 10
16.5634828622196
 20
49.1637666337836
 10
16.5635653900634
 20
49.1637301748527
 10
16.563612790141
 20
49.1637110042688
 10
16.5636488287238
 20
49.1637052867988
 10
16.563666340958
 20
49.1637138992637
 97
0
 75
0
 76
1
 98
0
  0
HATCH
  5
20010
100
AcDbEntity
  8
plocha Q5
100
AcDbHatch
 10
0
 20
0
 30
0
210
0
220
0
230
1
  2
SOLID
 70
1
 71
0
 91
1
 92
2
 72
0
 73
1
 93
97
 10
16.5597315581706
 20
49.1647110617794
 10
16.5595650452529
 20
49.1647306462099
 10
16.5594305597256
 20
49.1647400960172
 10
16.5592020055469
 20
49.1647680634325
 10
16.5591380131992
 20
49.164769740495
 10
16.5590700087481
 20
49.164763912914
 10
16.5590622210076
 20
49.1647537319459
 10
16.5590389259585
 20
49.1647336723834
 10
16.5590195005644
 20
49.1647085871774
 10
16.5590041162874
 20
49.1646878960391
 10
16.5590054056433
 20
49.1646734697356
 10
16.5590235707587
 20
49.1646573534649
 10
16.5590286717359
 20
49.1646394903243
 10
16.5589924612107
 20
49.1646181187224
 10
16.5589354200358
 20
49.1645683341533
 10
16.5588765661879
 20
49.1645162393408
 10
16.5587926331558
 20
49.1644551009377
 10
16.5587279798855
 20
49.1644112933627
 10
16.558666745738
 20
49.1643816255779
 10
16.5585288684434
 20
49.1643107402581
 10
16.5583591083387
 20
49.1642333117181
 10
16.5582105887409
 20
49.1641813510462
 10
16.5580944675672
 20
49.1641541988842
 10
16.5580132333119
 20
49.1641302671911
 10
16.5579584904298
 20
49.1641100335464
 10
16.5578499395336
 20
49.1640939403834
 10
16.5578101521297
 20
49.1640736890143
 10
16.5578147332898
 20
49.1640660294167
 10
16.5578522999604
 20
49.1640730595069
 10
16.5579806631122
 20
49.1640931088012
 10
16.5580436735489
 20
49.1641135695015
 10
16.5581887141948
 20
49.1641464120773
 10
16.5583129298719
 20
49.1641742609763
 10
16.5583851580143
 20
49.1641763912806
 10
16.558429680205
 20
49.164181738247
 10
16.5584391698047
 20
49.1641642786394
 10
16.5584382534269
 20
49.1641504276826
 10
16.5584035873866
 20
49.1641319891778
 10
16.5584099662122
 20
49.1641135749652
 10
16.5584822351062
 20
49.1641114675162
 10
16.558543585938
 20
49.1641085884272
 10
16.5585903202054
 20
49.1641336959787
 10
16.5586481668093
 20
49.1641385460374
 10
16.5587000895402
 20
49.1641524072155
 10
16.5587476644141
 20
49.1642058776125
 10
16.5586969205914
 20
49.1642516019846
 10
16.5586252802191
 20
49.1642787584246
 10
16.558621616347
 20
49.1642919570077
 10
16.5586888446771
 20
49.1643402884531
 10
16.5587696543152
 20
49.164380163962
 10
16.558895828613
 20
49.1644668129483
 10
16.5590359235613
 20
49.1645762266966
 10
16.5591329918319
 20
49.164644831857
 10
16.5591685214085
 20
49.1646455931699
 10
16.5592050164966
 20
49.1646376309676
 10
16.5592331615649
 20
49.1646280338237
 10
16.5594012568466
 20
49.1646487245221
 10
16.5594899400356
 20
49.1646477961995
 10
16.5596493012896
 20
49.1646344950899
 10
16.5598017007102
 20
49.1646163281855
 10
16.5602109163764
 20
49.1645910951826
 10
16.5603047829995
 20
49.1645712949463
 10
16.5605142801824
 20
49.1645568455405
 10
16.5606425326055
 20
49.1645442191274
 10
16.5609385115835
 20
49.1645210672003
 10
16.5610890029385
 20
49.1645078453201
 10
16.5612416586569
 20
49.1644947884448
 10
16.561335173428
 20
49.1644847587304
 10
16.561456219488
 20
49.1644621911176
 10
16.5615663963504
 20
49.1644250546671
 10
16.561629357742
 20
49.1643990605208
 10
16.5617002162474
 20
49.1643721830639
 10
16.561720118677
 20
49.1643656230895
 10
16.561728007088
 20
49.1643661403525
 10
16.5617405024287
 20
49.1643738879226
 10
16.5617488800337
 20
49.1643950640745
 10
16.5617559852144
 20
49.1644267509578
 10
16.5617491530009
 20
49.1644421668824
 10
16.561727991589
 20
49.1644637233722
 10
16.5616962539306
 20
49.1644773633886
 10
16.5616036899079
 20
49.1644994457256
 10
16.5615397451055
 20
49.1645151481924
 10
16.561494699338
 20
49.1645287699862
 10
16.5614240428494
 20
49.1645449354473
 10
16.5613822038415
 20
49.1645506809927
 10
16.561288713004
 20
49.1645639679798
 10
16.5611792924549
 20
49.1645729991042
 10
16.5610308031219
 20
49.1645854765062
 10
16.5609163189436
 20
49.1645963362378
 10
16.5608141181013
 20
49.1646077534233
 10
16.5607416939006
 20
49.1646144383416
 10
16.5603914864281
 20
49.1646477621211
 10
16.5602454461748
 20
49.1646625941062
 10
16.5601972925222
 20
49.1646663321324
 10
16.5600815074795
 20
49.1646764741357
 10
16.5598732728446
 20
49.1646965388291
 10
16.5597315581706
 20
49.1647110617794
 97
0
 75
0
 76
1
 98
0
  0
HATCH
  5
20011
100
AcDbEntity
  8
plocha Q5
100
AcDbHatch
 10
0
 20
0
 30
0
210
0
220
0
230
1
  2
SOLID
 70
1
 71
0
 91
1
 92
2
 72
0
 73
1
 93
57
 10
16.5588384293315
 20
49.1647486608017
 10
16.5588535903563
 20
49.1647591216877
 10
16.5589125065516
 20
49.1648112580258
 10
16.5589192125936
 20
49.1648336983103
 10
16.5589028858451
 20
49.1648615169022
 10
16.5588706895085
 20
49.1648754120521
 10
16.5588493461579
 20
49.1648810166932
 10
16.5586050381296
 20
49.1648653093943
 10
16.5585164340376
 20
49.1648561115694
 10
16.5583788124937
 20
49.1648394749414
 10
16.5583460747933
 20
49.1648252083762
 10
16.5582761606963
 20
49.1647844173981
 10
16.5581371760826
 20
49.1646955069697
 10
16.5580195479364
 20
49.1646405042579
 10
16.5579343240648
 20
49.1645901450715
 10
16.5578523473383
 20
49.1645415742195
 10
16.5577729933815
 20
49.1644778760898
 10
16.5576880013676
 20
49.1644187969153
 10
16.5576186990612
 20
49.1643664254159
 10
16.557567855391
 20
49.1643301703754
 10
16.5574669313041
 20
49.1642827440416
 10
16.557342414965
 20
49.1642395050696
 10
16.5572361000233
 20
49.1642098585178
 10
16.5571356080082
 20
49.1641936784082
 10
16.5570369943803
 20
49.1641668334931
 10
16.5568709473383
 20
49.1641394549064
 10
16.5567874750005
 20
49.1641249501395
 10
16.5567002816821
 20
49.1641125787301
 10
16.5566049431899
 20
49.1641041561619
 10
16.5565351769427
 20
49.164089083242
 10
16.5564155029554
 20
49.1640706210877
 10
16.5563369849211
 20
49.1640555214933
 10
16.5562960197839
 20
49.1640347232851
 10
16.556296655977
 20
49.1640308889843
 10
16.5563048856766
 20
49.1640240949252
 10
16.5563352765825
 20
49.1640122788019
 10
16.556404565775
 20
49.1639919754111
 10
16.5564436249537
 20
49.1639836823414
 10
16.5564720258163
 20
49.1639848576227
 10
16.5565629877123
 20
49.1640059395532
 10
16.55674850159
 20
49.1640420879637
 10
16.5568786740666
 20
49.164072596881
 10
16.557120340668
 20
49.1641120925537
 10
16.5572815848627
 20
49.1641508775456
 10
16.5574580951163
 20
49.1641978260532
 10
16.5575582969212
 20
49.1642379562
 10
16.5576796908426
 20
49.1643054307554
 10
16.557804207581
 20
49.1643810980806
 10
16.5578847067883
 20
49.164428080095
 10
16.5579813814944
 20
49.1644939002597
 10
16.5580350123372
 20
49.1645268270104
 10
16.5581030055702
 20
49.1645666380905
 10
16.5582671236118
 20
49.1646507924514
 10
16.5583675702852
 20
49.1646878004045
 10
16.5585867741708
 20
49.164729858564
 10
16.5587582274375
 20
49.1647395287923
 10
16.5588384293315
 20
49.1647486608017
 97
0
 75
0
 76
1
 98
0
  0
HATCH
  5
20012
100
AcDbEntity
  8
plocha Q5
100
AcDbHatch
 10
0
 20
0
 30
0
210
0
220
0
230
1
  2
SOLID
 70
1
 71
0
 91
1
 92
2
 72
0
 73
1
 93
157
 10
16.5366156863226
 20
49.1711392877277
 10
16.5365610966504
 20
49.1711814998255
 10
16.5364730596339
 20
49.1712443779228
 10
16.5364105161452
 20
49.1712907702441
 10
16.5363344900491
 20
49.1713436611798
 10
16.5362750292291
 20
49.171390263963
 10
16.5361071927848
 20
49.171534926956
 10
16.536050429234
 20
49.1715776618404
 10
16.5359438156374
 20
49.1716527708802
 10
16.5357625351969
 20
49.1717849383823
 10
16.5356859299079
 20
49.1718350737802
 10
16.5355857714274
 20
49.1719086098247
 10
16.5355064715055
 20
49.1719687281835
 10
16.5354364846205
 20
49.1720288260348
 10
16.5353793494042
 20
49.1720613573904
 10
16.535304044566
 20
49.1720912412644
 10
16.5352576711423
 20
49.172115053123
 10
16.5351727132324
 20
49.1721408460925
 10
16.5351071865219
 20
49.1721567196383
 10
16.5350726248225
 20
49.1721456176522
 10
16.5350548687986
 20
49.1721250616131
 10
16.5350561138876
 20
49.1721076196149
 10
16.5350680057534
 20
49.1720955173253
 10
16.5351331857469
 20
49.1720697037378
 10
16.5352042328635
 20
49.1720556344068
 10
16.5352654402339
 20
49.1720307939878
 10
16.5353635397645
 20
49.1719827480285
 10
16.5354352060584
 20
49.1719558341881
 10
16.5355790176778
 20
49.1718439720046
 10
16.5356989266182
 20
49.1717474254533
 10
16.5358572868169
 20
49.1716215800715
 10
16.5360511502949
 20
49.1714842688368
 10
16.5362306094474
 20
49.1713509214214
 10
16.5363133859083
 20
49.1712847544531
 10
16.5364431661495
 20
49.1711839018558
 10
16.5365803230914
 20
49.1710845808067
 10
16.5366678875398
 20
49.1710538009219
 10
16.5369417567867
 20
49.1709862825208
 10
16.5370645752676
 20
49.170964020964
 10
16.5373818444405
 20
49.1708925955522
 10
16.5376595795898
 20
49.1708293593719
 10
16.5379510555361
 20
49.1707661019222
 10
16.5382140576454
 20
49.1707088134556
 10
16.5384973043033
 20
49.170639954869
 10
16.5387462131106
 20
49.1705756601593
 10
16.5391034737338
 20
49.1704840588183
 10
16.5392717984315
 20
49.1704360193559
 10
16.5394787880575
 20
49.1703757286443
 10
16.5397206958326
 20
49.1702708762664
 10
16.539930266186
 20
49.1701767287295
 10
16.5403758304412
 20
49.1699672898425
 10
16.5406138526002
 20
49.169858151674
 10
16.5408570586512
 20
49.1697453754087
 10
16.5410905511317
 20
49.169635919852
 10
16.5413299199776
 20
49.1695278717321
 10
16.5414412456656
 20
49.1694827658662
 10
16.5415185609597
 20
49.1694402403983
 10
16.5416332083353
 20
49.169384353922
 10
16.5417521518521
 20
49.1693117591307
 10
16.5418386194955
 20
49.1692508542281
 10
16.541959135084
 20
49.1691413287992
 10
16.5420034043605
 20
49.1690954379962
 10
16.5420594704953
 20
49.1690153357829
 10
16.5421846159525
 20
49.1688320563644
 10
16.5422685096305
 20
49.1687038840432
 10
16.5423599902828
 20
49.1685852726555
 10
16.5424834557249
 20
49.1684028662224
 10
16.5425923409459
 20
49.1682254259541
 10
16.5425997409217
 20
49.1681809055271
 10
16.5425901087449
 20
49.1681561831833
 10
16.5425669510502
 20
49.1681485207797
 10
16.542543971784
 20
49.168139867937
 10
16.5425271682378
 20
49.1681306614174
 10
16.5425303276547
 20
49.1681208743535
 10
16.5425675032885
 20
49.1681085142199
 10
16.5426410229591
 20
49.1680887386578
 10
16.5427810455296
 20
49.1680546923885
 10
16.5428815561264
 20
49.1680378497308
 10
16.5429104251146
 20
49.1680479184636
 10
16.5429030691319
 20
49.1680554073914
 10
16.542882990989
 20
49.1680659853863
 10
16.5428297688664
 20
49.1680922149531
 10
16.5428020411863
 20
49.1681212687857
 10
16.54279071746
 20
49.1681434911762
 10
16.5427421611236
 20
49.1682151097736
 10
16.5426857672513
 20
49.1682971878975
 10
16.5426294083086
 20
49.1683882673241
 10
16.5425792187073
 20
49.1684697838307
 10
16.5424668614489
 20
49.1686244535926
 10
16.542421617856
 20
49.1687083217798
 10
16.5423757623193
 20
49.1687591125418
 10
16.5423081060468
 20
49.1688584031959
 10
16.5422566956543
 20
49.1689012798096
 10
16.5421926045359
 20
49.1689883157001
 10
16.5421413755226
 20
49.1690577358606
 10
16.5420109889386
 20
49.1691991020633
 10
16.541951183615
 20
49.1692373794013
 10
16.5418663599763
 20
49.1692883790565
 10
16.5418094260523
 20
49.1693323695938
 10
16.5417107042816
 20
49.169388888833
 10
16.54163834793
 20
49.169433776132
 10
16.5415670865129
 20
49.1694648481002
 10
16.5415147183326
 20
49.1694936529996
 10
16.541438770321
 20
49.1695336709878
 10
16.5413324249309
 20
49.1695823522654
 10
16.5412469588575
 20
49.1696298229677
 10
16.5409377961784
 20
49.1697786270888
 10
16.5407977434798
 20
49.1698371113668
 10
16.5405659930592
 20
49.169943297858
 10
16.5402897881211
 20
49.1700680080798
 10
16.5402230232892
 20
49.1701025668426
 10
16.5401406065223
 20
49.1701441479639
 10
16.5400677050777
 20
49.1701782670581
 10
16.5398258581763
 20
49.1702891580443
 10
16.5397245104717
 20
49.1703388755951
 10
16.5396118943441
 20
49.1703816887328
 10
16.5394923620768
 20
49.1704287582289
 10
16.5394002557665
 20
49.1704601479787
 10
16.539257532551
 20
49.1704974170484
 10
16.5391364008706
 20
49.1705416562896
 10
16.5387196524956
 20
49.1706407189173
 10
16.5385670387225
 20
49.1706752447115
 10
16.5383844488193
 20
49.1707096623091
 10
16.5382230002231
 20
49.170747626636
 10
16.5378874876664
 20
49.1708307848723
 10
16.5378124815515
 20
49.1708464441868
 10
16.5377693046368
 20
49.1708698070183
 10
16.5377366413333
 20
49.170885781211
 10
16.5377202192131
 20
49.1708974973482
 10
16.5377078968924
 20
49.1709156026954
 10
16.5376983972355
 20
49.1709291625839
 10
16.5376963521478
 20
49.170929016345
 10
16.53768852149
 20
49.1709264201579
 10
16.5376905325541
 20
49.1709204670133
 10
16.5376922052887
 20
49.1709104099653
 10
16.5376833303134
 20
49.1709016340091
 10
16.5376720430496
 20
49.1708886239362
 10
16.5376546734529
 20
49.1708873818754
 10
16.5376062017602
 20
49.1708927355335
 10
16.5374644607461
 20
49.1709178608041
 10
16.5373669786358
 20
49.1709380185988
 10
16.5371461783423
 20
49.1709907246577
 10
16.5370652797222
 20
49.1710107112465
 10
16.5368382144018
 20
49.1710575420768
 10
16.5367595033757
 20
49.1710831115677
 10
16.5367325087667
 20
49.1710960977779
 10
16.5367266529016
 20
49.1711126401166
 10
16.5367329213433
 20
49.171118506922
 10
16.5367402079704
 20
49.1711244564935
 10
16.5367400036981
 20
49.1711319047795
 10
16.5367356007087
 20
49.1711397212867
 10
16.536726638118
 20
49.1711438303414
 10
16.5367198150266
 20
49.1711413061441
 10
16.5366982247446
 20
49.1711343435845
 10
16.5366784564769
 20
49.1711288600724
 10
16.5366537838422
 20
49.1711216671153
 10
16.5366156863226
 20
49.1711392877277
 97
0
 75
0
 76
1
 98
0
  0
HATCH
  5
20013
100
AcDbEntity
  8
plocha Q5
100
AcDbHatch
 10
0
 20
0
 30
0
210
0
220
0
230
1
  2
SOLID
 70
1
 71
0
 91
1
 92
2
 72
0
 73
1
 93
84
 10
16.5349217720399
 20
49.172094636073
 10
16.534940902616
 20
49.172105620333
 10
16.5349484444239
 20
49.1721636016111
 10
16.5349480115412
 20
49.1721712696593
 10
16.5349302099804
 20
49.172174934504
 10
16.5348987174131
 20
49.1721784712517
 10
16.534858260961
 20
49.1721828141533
 10
16.5347665896355
 20
49.1721899985341
 10
16.5345819970137
 20
49.1721985045373
 10
16.5343069641341
 20
49.1722200608979
 10
16.5339580533778
 20
49.1722384582515
 10
16.5336670112215
 20
49.1722661688462
 10
16.533520121917
 20
49.1722802570736
 10
16.5332944921067
 20
49.1722966712857
 10
16.533122910782
 20
49.1723198458159
 10
16.5330305416774
 20
49.1723378422462
 10
16.5329220973178
 20
49.1723727713841
 10
16.5328255232863
 20
49.1724027603011
 10
16.5326878393539
 20
49.172460917816
 10
16.532591308359
 20
49.1725039259058
 10
16.5324464029803
 20
49.1725789338676
 10
16.5322964167574
 20
49.1726514079991
 10
16.5321871893836
 20
49.1727043625329
 10
16.5320775713368
 20
49.1727529568999
 10
16.5319619803666
 20
49.1728242634348
 10
16.5318737322895
 20
49.1728837946
 10
16.531797730137
 20
49.1729094653653
 10
16.5317115928047
 20
49.1729496081163
 10
16.5316426913072
 20
49.1729989365039
 10
16.5315555362866
 20
49.1730585357392
 10
16.531483774679
 20
49.173125027706
 10
16.5314060249388
 20
49.1731744546367
 10
16.5313389847827
 20
49.1732391115527
 10
16.5312629027613
 20
49.1732785262293
 10
16.5311853641643
 20
49.1733134954535
 10
16.5310818330549
 20
49.1733719225158
 10
16.5310458113164
 20
49.1733961118511
 10
16.5309988432729
 20
49.1734065006318
 10
16.530899430313
 20
49.1734092736228
 10
16.5308740466427
 20
49.1734004645137
 10
16.5308714501631
 20
49.173382910368
 10
16.5309028844791
 20
49.1733598401507
 10
16.5309557659393
 20
49.1733404667477
 10
16.5310254476132
 20
49.1733128976957
 10
16.5310835168407
 20
49.1732823256519
 10
16.5311606182379
 20
49.1732234528067
 10
16.5311984584775
 20
49.1731950515008
 10
16.5313174871829
 20
49.173096491758
 10
16.531414339045
 20
49.1730383093546
 10
16.5314856629652
 20
49.1729876998332
 10
16.5315638885303
 20
49.1729354203452
 10
16.5316493726391
 20
49.1728793100003
 10
16.5317405512596
 20
49.1728286818907
 10
16.5318133805812
 20
49.1727955482422
 10
16.531916085131
 20
49.1727486304414
 10
16.5319977595017
 20
49.1727154041161
 10
16.5321088089052
 20
49.1726647502523
 10
16.5323225768687
 20
49.17256717919
 10
16.532425990428
 20
49.1725159787048
 10
16.532496280267
 20
49.1724848340219
 10
16.5325850614726
 20
49.1724419852388
 10
16.532710911951
 20
49.172372687745
 10
16.5328050310952
 20
49.1723346442295
 10
16.5329270319193
 20
49.1722934564871
 10
16.5330245832517
 20
49.1722691911639
 10
16.5330821471735
 20
49.1722532456628
 10
16.5331288995521
 20
49.1722417551934
 10
16.5332187779445
 20
49.1722305911342
 10
16.5334187030212
 20
49.1722130174494
 10
16.5335421782768
 20
49.1722015149305
 10
16.5336342386796
 20
49.1721949129576
 10
16.5338285730143
 20
49.172185729487
 10
16.5339561805194
 20
49.1721769935139
 10
16.5340975986651
 20
49.1721659417912
 10
16.5342468359242
 20
49.1721557396226
 10
16.5343477793199
 20
49.1721511375809
 10
16.5344781093123
 20
49.1721412199054
 10
16.5346158467313
 20
49.1721296428376
 10
16.534684069304
 20
49.1721251793914
 10
16.5347687178766
 20
49.1721202436125
 10
16.5348320966147
 20
49.1721121309157
 10
16.5348792224413
 20
49.1720984583698
 10
16.534901467779
 20
49.1720907141601
 10
16.5349217720399
 20
49.172094636073
 97
0
 75
0
 76
1
 98
0
  0
HATCH
  5
20014
100
AcDbEntity
  8
plocha Q5
100
AcDbHatch
 10
0
 20
0
 30
0
210
0
220
0
230
1
  2
SOLID
 70
1
 71
0
 91
1
 92
2
 72
0
 73
1
 93
15
 10
16.4572179213163
 20
49.2784346847855
 10
16.4572498359581
 20
49.2784414182901
 10
16.4572717409432
 20
49.2784533996221
 10
16.4572747266492
 20
49.2784709846596
 10
16.4572700739826
 20
49.2784871155283
 10
16.4572572442924
 20
49.2785050084614
 10
16.4572223750836
 20
49.2785421200947
 10
16.4571576092996
 20
49.2786115277745
 10
16.4571423650817
 20
49.2786017642745
 10
16.4570504671471
 20
49.2785430679131
 10
16.4570849363712
 20
49.2785018193372
 10
16.4571319922848
 20
49.2784522861453
 10
16.4571609128688
 20
49.2784357345294
 10
16.457186497454
 20
49.2784324204838
 10
16.4572179213163
 20
49.2784346847855
 97
0
 75
0
 76
1
 98
0
  0
HATCH
  5
20015
100
AcDbEntity
  8
plocha Q5
100
AcDbHatch
 10
0
 20
0
 30
0
210
0
220
0
230
1
  2
SOLID
 70
1
 71
0
 91
1
 92
2
 72
0
 73
1
 93
43
 10
16.4555771366572
 20
49.2760915524377
 10
16.4555914557837
 20
49.2760952080658
 10
16.45561071941
 20
49.2761080868781
 10
16.4559482841752
 20
49.2764010159262
 10
16.4559630585886
 20
49.2764274118879
 10
16.455965818019
 20
49.2764455244148
 10
16.45595943694
 20
49.2764628859027
 10
16.4559458733801
 20
49.2764761119122
 10
16.455929028534
 20
49.27648828722
 10
16.4558749938815
 20
49.2765125864722
 10
16.4557824579997
 20
49.2765486102277
 10
16.4556994246094
 20
49.2765809346871
 10
16.4556173839396
 20
49.2766128728726
 10
16.4554941141981
 20
49.2766608360288
 10
16.455380072279
 20
49.2767030599032
 10
16.4552893863767
 20
49.2767344724831
 10
16.4551945067337
 20
49.2767656786252
 10
16.455099774757
 20
49.2767954731759
 10
16.4549957009019
 20
49.2768270007726
 10
16.4549083087211
 20
49.2768527682269
 10
16.454831720476
 20
49.2768749999216
 10
16.4547574495988
 20
49.2768962216111
 10
16.4543952132582
 20
49.2765531449824
 10
16.4544487799281
 20
49.2765458279724
 10
16.4545248046111
 20
49.2765331329391
 10
16.4545893862678
 20
49.2765198853281
 10
16.454665974847
 20
49.2765010817038
 10
16.4547168435713
 20
49.2764866130688
 10
16.4547806298345
 20
49.276466033447
 10
16.4548445815215
 20
49.2764423934047
 10
16.4549037588244
 20
49.2764174628933
 10
16.4549477584346
 20
49.2763967343857
 10
16.455010398467
 20
49.2763634408127
 10
16.455087027319
 20
49.2763203336565
 10
16.4551925034672
 20
49.276260999397
 10
16.4553121505293
 20
49.276193692071
 10
16.455383434724
 20
49.2761535902893
 10
16.4554649549198
 20
49.2761090704362
 10
16.4554909124935
 20
49.2761010793649
 10
16.4555187534099
 20
49.276094220993
 10
16.4555447479472
 20
49.276090937841
 10
16.4555629289312
 20
49.276090528423
 10
16.4555771366572
 20
49.2760915524377
 97
0
 75
0
 76
1
 98
0
  0
HATCH
  5
20016
100
AcDbEntity
  8
plocha Q5
100
AcDbHatch
 10
0
 20
0
 30
0
210
0
220
0
230
1
  2
SOLID
 70
1
 71
0
 91
1
 92
2
 72
0
 73
1
 93
59
 10
16.4571928277603
 20
49.2755888269249
 10
16.4572701924121
 20
49.275755977294
 10
16.4573508339112
 20
49.2759742991314
 10
16.4574500923849
 20
49.2763317445711
 10
16.4574965094977
 20
49.2765496789976
 10
16.457535815476
 20
49.2767416812071
 10
16.457552059204
 20
49.2769491191938
 10
16.457584987689
 20
49.2771592973466
 10
16.4576159896263
 20
49.2774006377371
 10
16.45763728742
 20
49.2777817777706
 10
16.4576414080556
 20
49.2778994119155
 10
16.4576191482746
 20
49.2780677977366
 10
16.4575982951203
 20
49.2781210275379
 10
16.4575609497344
 20
49.2781769600451
 10
16.4575144131553
 20
49.2782283410532
 10
16.4574474625835
 20
49.2782810538289
 10
16.4573908744908
 20
49.2783395812763
 10
16.4573600362051
 20
49.2783740893073
 10
16.4573443505256
 20
49.2783892424417
 10
16.4573283678251
 20
49.2783995802616
 10
16.4573141110764
 20
49.278407057898
 10
16.4573010330549
 20
49.2784108189926
 10
16.4572862781487
 20
49.2784097558132
 10
16.4572654481976
 20
49.2784061741179
 10
16.4572379502381
 20
49.2783994892715
 10
16.4572072351067
 20
49.2783930231309
 10
16.4571817250676
 20
49.2783860291719
 10
16.4571630427098
 20
49.2783770827387
 10
16.4571473410311
 20
49.2783627429553
 10
16.4571327090661
 20
49.2783412436951
 10
16.4571238121775
 20
49.278308667316
 10
16.4571098630619
 20
49.2782370960357
 10
16.4570839264537
 20
49.2781661102551
 10
16.4570514520441
 20
49.2780986330566
 10
16.4570231653598
 20
49.278030100581
 10
16.4570127454601
 20
49.2779835727911
 10
16.4570118144567
 20
49.2779283191563
 10
16.4570111885378
 20
49.2778441385637
 10
16.457005124256
 20
49.2777446388197
 10
16.4569962937897
 20
49.2776755189225
 10
16.456976122867
 20
49.2776129984193
 10
16.4569490786646
 20
49.2775231153478
 10
16.4569348853244
 20
49.2774587638667
 10
16.4569131498989
 20
49.2773447464206
 10
16.4568925680759
 20
49.2772099130105
 10
16.4568524664878
 20
49.2770431842354
 10
16.456796235806
 20
49.2768901308266
 10
16.4567502083593
 20
49.2767922754728
 10
16.456637515596
 20
49.2766165156938
 10
16.4565299008659
 20
49.2764992946538
 10
16.4564205152839
 20
49.2764057372267
 10
16.4562701460631
 20
49.2762780153718
 10
16.456551571006
 20
49.2760921194001
 10
16.4568378170021
 20
49.2759030420474
 10
16.4570624997586
 20
49.2757535858438
 10
16.457129532525
 20
49.2756461451915
 10
16.4571323592927
 20
49.2755250318249
 10
16.4571230424034
 20
49.275444838808
 10
16.4571928277603
 20
49.2755888269249
 97
0
 75
0
 76
1
 98
0
  0
HATCH
  5
20017
100
AcDbEntity
  8
plocha Q5
100
AcDbHatch
 10
0
 20
0
 30
0
210
0
220
0
230
1
  2
SOLID
 70
1
 71
0
 91
1
 92
2
 72
0
 73
1
 93
69
 10
16.6049855692617
 20
49.1588686529209
 10
16.6049416219076
 20
49.1588836708975
 10
16.6049012208178
 20
49.1589004418947
 10
16.6048631949269
 20
49.1589238675837
 10
16.604840052417
 20
49.1589310711331
 10
16.6048145485185
 20
49.158937114023
 10
16.6047263360866
 20
49.1589736659893
 10
16.604633034806
 20
49.159017917876
 10
16.6045851233882
 20
49.1590497035895
 10
16.604574728249
 20
49.1590574504607
 10
16.6045493198666
 20
49.159059827775
 10
16.6045509260014
 20
49.1590613699277
 10
16.6045182867877
 20
49.1590465370915
 10
16.6045095809203
 20
49.1590443085857
 10
16.604541324466
 20
49.1590150663747
 10
16.6045552742789
 20
49.1589965448203
 10
16.6045793613131
 20
49.1589755865511
 10
16.6046192070858
 20
49.1589620333923
 10
16.6046306475053
 20
49.1589475216899
 10
16.6046965085874
 20
49.1589114275457
 10
16.6047391332364
 20
49.1588914685747
 10
16.6047962228353
 20
49.1588758714979
 10
16.6048082505329
 20
49.1588681680581
 10
16.6048452981959
 20
49.1588576988005
 10
16.6048993241283
 20
49.1588328221011
 10
16.6049155152426
 20
49.1588229537259
 10
16.6049469131
 20
49.1587933884205
 10
16.6049938965146
 20
49.1587413101835
 10
16.6050744386051
 20
49.1586906183298
 10
16.6051703822533
 20
49.1586490699232
 10
16.6052473945218
 20
49.1586011395964
 10
16.6053523149807
 20
49.1585703021976
 10
16.6054306718855
 20
49.1585485892838
 10
16.6054761169967
 20
49.1585367798441
 10
16.6055283845476
 20
49.1585364540019
 10
16.6055772628029
 20
49.1585288398242
 10
16.6056578630276
 20
49.1584822220277
 10
16.6057426994833
 20
49.1584304957094
 10
16.6058242701382
 20
49.1584093632584
 10
16.6059356417362
 20
49.1583487643206
 10
16.6059930600227
 20
49.1583335174643
 10
16.6061139846627
 20
49.1582889173572
 10
16.6063053058177
 20
49.158216667252
 10
16.6064084216823
 20
49.1581717553485
 10
16.6064894121773
 20
49.1581226864003
 10
16.6065196440565
 20
49.1581115514718
 10
16.6066239269589
 20
49.1581003778873
 10
16.6066427999699
 20
49.1581221771788
 10
16.6066397395896
 20
49.1581716798501
 10
16.6066156372837
 20
49.1581997567364
 10
16.6065996619119
 20
49.1582086547036
 10
16.6065655973703
 20
49.1582031444933
 10
16.6064578686501
 20
49.1582232462397
 10
16.6063431958317
 20
49.1582828869765
 10
16.6059790765042
 20
49.1584276072801
 10
16.6058103736853
 20
49.1585064441209
 10
16.6057297145743
 20
49.1585448720626
 10
16.6056179216255
 20
49.1586082811111
 10
16.6055446322462
 20
49.158698780374
 10
16.6055105248634
 20
49.1587658724324
 10
16.6054942385114
 20
49.1587808355405
 10
16.605452261306
 20
49.158783899287
 10
16.6053864428932
 20
49.1588168039326
 10
16.6053436803841
 20
49.1588275735079
 10
16.6052773819995
 20
49.158857115472
 10
16.6051896017423
 20
49.1588770835355
 10
16.6051130430539
 20
49.1588756780642
 10
16.605043533837
 20
49.158868740433
 10
16.6049855692617
 20
49.1588686529209
 97
0
 75
0
 76
1
 98
0
  0
HATCH
  5
20018
100
AcDbEntity
  8
plocha Q5
100
AcDbHatch
 10
0
 20
0
 30
0
210
0
220
0
230
1
  2
SOLID
 70
1
 71
0
 91
1
 92
2
 72
0
 73
1
 93
132
 10
16.6008385945898
 20
49.1609496440106
 10
16.6007765791653
 20
49.1609597964965
 10
16.6006573551695
 20
49.1609706204166
 10
16.6004627230422
 20
49.1609840684431
 10
16.6003602752346
 20
49.1609940918541
 10
16.6002524678289
 20
49.1610019167214
 10
16.6000642715479
 20
49.1610186528908
 10
16.5999550519967
 20
49.1610273450896
 10
16.5999158911616
 20
49.1610303011454
 10
16.5998880744417
 20
49.1610288686345
 10
16.5998404557808
 20
49.1610337750893
 10
16.5997794100135
 20
49.1610448189901
 10
16.5997490030601
 20
49.1610477161198
 10
16.5997391880717
 20
49.1610435823297
 10
16.599731042293
 20
49.1610312726289
 10
16.5997299735908
 20
49.161009750768
 10
16.5997334715983
 20
49.1609885539445
 10
16.5997492187301
 20
49.1609809693121
 10
16.5997625600163
 20
49.1609786780817
 10
16.5998139998208
 20
49.1609716106386
 10
16.5998212032487
 20
49.1609713358918
 10
16.5999070845309
 20
49.1609652467268
 10
16.6000424634235
 20
49.1609539800282
 10
16.600074989388
 20
49.160947685723
 10
16.6001161361673
 20
49.160949828203
 10
16.6003595107547
 20
49.1609295187304
 10
16.6005627428295
 20
49.1609187073383
 10
16.6005839368095
 20
49.1609133010044
 10
16.6005948654247
 20
49.1609022356401
 10
16.6006337674268
 20
49.1609052687633
 10
16.6006841718671
 20
49.1609010390907
 10
16.6007580214541
 20
49.1608882079605
 10
16.6008994301358
 20
49.1608465876764
 10
16.601033867901
 20
49.1607885431838
 10
16.6011465915431
 20
49.1607250048937
 10
16.6012634470667
 20
49.1606329863226
 10
16.6013912641153
 20
49.1605121607816
 10
16.6014776664276
 20
49.1604278311089
 10
16.601539471979
 20
49.1603748076818
 10
16.6016625671173
 20
49.1602793340529
 10
16.6017784611323
 20
49.1602009972362
 10
16.6018700577454
 20
49.1601419380208
 10
16.6019457174107
 20
49.1601044239516
 10
16.6020233759875
 20
49.1600623835027
 10
16.6021109063219
 20
49.1600209548479
 10
16.6022152679058
 20
49.1599872763226
 10
16.6023159780371
 20
49.1599555745682
 10
16.6024229173134
 20
49.1599237249852
 10
16.6025271697566
 20
49.1599011557913
 10
16.6025455543028
 20
49.1599091807612
 10
16.6025900796912
 20
49.1599019562461
 10
16.6027042865447
 20
49.1598903412964
 10
16.602871619704
 20
49.1598836633572
 10
16.6029450589211
 20
49.1598726371041
 10
16.6030121383611
 20
49.1598733351762
 10
16.6030584766446
 20
49.159860386939
 10
16.6030897495449
 20
49.159863763512
 10
16.6031222738064
 20
49.1598649133163
 10
16.6031755244541
 20
49.1598530352517
 10
16.6032515376998
 20
49.1598317543085
 10
16.6033183638233
 20
49.1598179340547
 10
16.6034146080987
 20
49.1598079484012
 10
16.6034891500728
 20
49.159806280312
 10
16.6035474049216
 20
49.1597854759538
 10
16.6035736604742
 20
49.1597736172747
 10
16.6035971008481
 20
49.1597843615228
 10
16.6036674419104
 20
49.159754564472
 10
16.6037316759774
 20
49.1597176597632
 10
16.6037702717206
 20
49.1596879350993
 10
16.6038053635972
 20
49.159656785084
 10
16.6038260810223
 20
49.1596411424611
 10
16.6038391600297
 20
49.1596368504132
 10
16.6038866030272
 20
49.1596306555147
 10
16.6039375500695
 20
49.1596273060253
 10
16.6039571282021
 20
49.1596292738286
 10
16.6039590836253
 20
49.1596334728867
 10
16.6039607869308
 20
49.1596553389974
 10
16.6039739483036
 20
49.1596669368409
 10
16.6039804609101
 20
49.1596726802798
 10
16.603990887319
 20
49.1596753565006
 10
16.6040212498296
 20
49.1596783236225
 10
16.6040452053222
 20
49.1597024096288
 10
16.604023057729
 20
49.1597197164289
 10
16.6039871530558
 20
49.1597204074288
 10
16.6039302038393
 20
49.1596947577329
 10
16.6039192525871
 20
49.1597131663425
 10
16.6039067858818
 20
49.159743840206
 10
16.6038307305318
 20
49.1597934748924
 10
16.6036816246694
 20
49.1598526162549
 10
16.6036176790593
 20
49.1598778289365
 10
16.6035374361597
 20
49.1598938162488
 10
16.6034102012187
 20
49.1599143406249
 10
16.6033615381129
 20
49.1599168850234
 10
16.6033055354533
 20
49.1599145941721
 10
16.6032549212125
 20
49.1599193518205
 10
16.6031929067718
 20
49.1599337829737
 10
16.6030557879475
 20
49.1599421446949
 10
16.6029899294931
 20
49.1599385673988
 10
16.6029135198253
 20
49.1599380032999
 10
16.6028445880944
 20
49.1599444451039
 10
16.602757990822
 20
49.1599538864617
 10
16.6027061920505
 20
49.1599537930657
 10
16.6026572687608
 20
49.1599584072239
 10
16.6026333756493
 20
49.1599755899486
 10
16.6025938160765
 20
49.1600059595654
 10
16.6025308829496
 20
49.1600508632557
 10
16.6024812111666
 20
49.1600602814558
 10
16.602380924773
 20
49.1600847239829
 10
16.6022365944308
 20
49.1601368036144
 10
16.6021055220195
 20
49.1601833394052
 10
16.6020206683022
 20
49.160204027635
 10
16.6019233250511
 20
49.1602181591842
 10
16.6017167085027
 20
49.1603467368622
 10
16.6016606142788
 20
49.1603913095871
 10
16.6016221108598
 20
49.1604152884368
 10
16.6015887384236
 20
49.1604380023564
 10
16.6015720895893
 20
49.1604566478013
 10
16.6015378507443
 20
49.1604958980028
 10
16.6015152263522
 20
49.1605282831399
 10
16.6014728234732
 20
49.1605722091981
 10
16.6014394495464
 20
49.1606099025875
 10
16.6013982137576
 20
49.1606429840492
 10
16.6013298500776
 20
49.1607020735186
 10
16.6012926955636
 20
49.1607366656651
 10
16.6012160156657
 20
49.1607898916314
 10
16.6011500868247
 20
49.1608454977748
 10
16.6011022365803
 20
49.1608700243338
 10
16.6010285136096
 20
49.1608979709085
 10
16.6009150922049
 20
49.1609384850058
 10
16.6008852974439
 20
49.1609494588398
 10
16.6008641599336
 20
49.1609449105613
 10
16.6008385945898
 20
49.1609496440106
 97
0
 75
0
 76
1
 98
0
  0
HATCH
  5
20019
100
AcDbEntity
  8
plocha Q5
100
AcDbHatch
 10
0
 20
0
 30
0
210
0
220
0
230
1
  2
SOLID
 70
1
 71
0
 91
1
 92
2
 72
0
 73
1
 93
23
 10
16.5979985768435
 20
49.1611703687709
 10
16.5980296411645
 20
49.1611948333125
 10
16.5980713284844
 20
49.1612215191114
 10
16.5981023790115
 20
49.161240627919
 10
16.5981305392938
 20
49.1612592068141
 10
16.598123172249
 20
49.1612679008297
 10
16.5980908973941
 20
49.1612921480758
 10
16.5980645014399
 20
49.1613049101507
 10
16.5980477052965
 20
49.1613168422824
 10
16.5980026570343
 20
49.1613222995295
 10
16.5979815952086
 20
49.1613237267944
 10
16.5979681452155
 20
49.1613211438209
 10
16.5979483947741
 20
49.1613116182356
 10
16.5979365635764
 20
49.1613052526233
 10
16.597935304779
 20
49.1612918307003
 10
16.597953314003
 20
49.1612788079287
 10
16.5979722136818
 20
49.1612694230154
 10
16.5979889257997
 20
49.1612433021281
 10
16.5979988439268
 20
49.1612101954536
 10
16.5979861902519
 20
49.1611907726648
 10
16.5979703792267
 20
49.1611694885526
 10
16.5979772767123
 20
49.1611667310122
 10
16.5979985768435
 20
49.1611703687709
 97
0
 75
0
 76
1
 98
0
  0
HATCH
  5
2001A
100
AcDbEntity
  8
plocha Q5
100
AcDbHatch
 10
0
 20
0
 30
0
210
0
220
0
230
1
  2
SOLID
 70
1
 71
0
 91
1
 92
2
 72
0
 73
1
 93
48
 10
16.5802226962646
 20
49.162811099037
 10
16.5801993172112
 20
49.1628146006229
 10
16.5801593366233
 20
49.1628138184989
 10
16.5798630548623
 20
49.1627937689753
 10
16.5796261523398
 20
49.1627712328196
 10
16.5793833018222
 20
49.162751376416
 10
16.5791223253127
 20
49.1627317746745
 10
16.5789578880187
 20
49.1627180124587
 10
16.5787721501815
 20
49.1627094360192
 10
16.5786622680723
 20
49.1626938830687
 10
16.578624916581
 20
49.1626773033607
 10
16.5786022844882
 20
49.1626535325253
 10
16.5786032243531
 20
49.1626228441351
 10
16.5786300974707
 20
49.1625889728247
 10
16.5786549940796
 20
49.1625762998685
 10
16.5786860564552
 20
49.1625738699727
 10
16.5787469328214
 20
49.1625766551398
 10
16.5788187380854
 20
49.1625894976347
 10
16.578901846608
 20
49.1626052166987
 10
16.578963585751
 20
49.1626075475534
 10
16.5790801224505
 20
49.1626256369942
 10
16.5792440877783
 20
49.1626326628358
 10
16.5794407555084
 20
49.1626512977011
 10
16.5796000586676
 20
49.1626579912995
 10
16.5798169299677
 20
49.1626780630201
 10
16.579996741014
 20
49.1626939498957
 10
16.5801197438753
 20
49.1626918730182
 10
16.5801805669212
 20
49.1626807237311
 10
16.5801975853408
 20
49.1626587331273
 10
16.5801991333584
 20
49.1626351181322
 10
16.5801948225311
 20
49.1626183126565
 10
16.5802005760357
 20
49.1626073790895
 10
16.5802066729312
 20
49.1625990388416
 10
16.5802315922591
 20
49.1626147407409
 10
16.5802499483005
 20
49.1626511156418
 10
16.5802781300436
 20
49.1626804476528
 10
16.580315784
 20
49.1627047902454
 10
16.5803827269494
 20
49.1627136766874
 10
16.5804162902974
 20
49.1627103939876
 10
16.5804464907914
 20
49.162703768562
 10
16.5804511871463
 20
49.1627133913786
 10
16.5804536577046
 20
49.1627269723943
 10
16.5804175882166
 20
49.1627548349133
 10
16.580391137829
 20
49.1627673895406
 10
16.5803605844268
 20
49.1627714037735
 10
16.5803065814711
 20
49.162779429271
 10
16.5802756251995
 20
49.1627906312245
 10
16.5802226962646
 20
49.162811099037
 97
0
 75
0
 76
1
 98
0
  0
HATCH
  5
2001B
100
AcDbEntity
  8
plocha Q5
100
AcDbHatch
 10
0
 20
0
 30
0
210
0
220
0
230
1
  2
SOLID
 70
1
 71
0
 91
1
 92
2
 72
0
 73
1
 93
34
 10
16.5271299135425
 20
49.1751391543424
 10
16.5271390186602
 20
49.1751476030069
 10
16.5271452391142
 20
49.1751732967904
 10
16.5271480144135
 20
49.1752028671119
 10
16.5271374475502
 20
49.1752452611642
 10
16.5270917560623
 20
49.1753347020182
 10
16.5270519490165
 20
49.1753857303555
 10
16.5270232480369
 20
49.1754217865473
 10
16.5269830062455
 20
49.1754639095656
 10
16.5269467521869
 20
49.1754954356732
 10
16.5268914390231
 20
49.1755549887644
 10
16.5268512572982
 20
49.1755702583129
 10
16.5268267201138
 20
49.1755746709595
 10
16.5267904804437
 20
49.1755728090661
 10
16.5267578944138
 20
49.1755657530729
 10
16.5267127427455
 20
49.1755476395892
 10
16.5267002560268
 20
49.1755362159644
 10
16.526677825065
 20
49.1755146552679
 10
16.5266702422666
 20
49.1754970505883
 10
16.5266927013805
 20
49.1754652614628
 10
16.5267501613815
 20
49.1754359864385
 10
16.5267930044712
 20
49.1753959575463
 10
16.5268299881572
 20
49.1753622131634
 10
16.5268639894854
 20
49.1753273958716
 10
16.5269178817608
 20
49.1752490356449
 10
16.5269307686338
 20
49.1752289886292
 10
16.5269682920763
 20
49.1751890863135
 10
16.5269788142832
 20
49.1751595444179
 10
16.526978312564
 20
49.1751457404021
 10
16.5269971735644
 20
49.1751333235706
 10
16.5270142349508
 20
49.1751317860364
 10
16.5270510346878
 20
49.1751293721076
 10
16.5270934731773
 20
49.1751310354725
 10
16.5271299135425
 20
49.1751391543424
 97
0
 75
0
 76
1
 98
0
  0
HATCH
  5
2001C
100
AcDbEntity
  8
plocha Q5
100
AcDbHatch
 10
0
 20
0
 30
0
210
0
220
0
230
1
  2
SOLID
 70
1
 71
0
 91
1
 92
2
 72
0
 73
1
 93
43
 10
16.544710713811
 20
49.1672995523725
 10
16.5447920856362
 20
49.1673125298439
 10
16.5447861691992
 20
49.1673290409125
 10
16.5447730957418
 20
49.167338646109
 10
16.5447397233809
 20
49.1673460492252
 10
16.5446569404186
 20
49.1673536840451
 10
16.5444499505456
 20
49.1673833091855
 10
16.5442885336587
 20
49.16739436277
 10
16.5441580878004
 20
49.1673985924013
 10
16.5440695286631
 20
49.1674133411164
 10
16.5438156129913
 20
49.1674283236847
 10
16.5436783122205
 20
49.1674531388591
 10
16.5435244061839
 20
49.1674687906177
 10
16.5433225665516
 20
49.1674953073464
 10
16.5432109616534
 20
49.1675369943129
 10
16.5430997392095
 20
49.167591236121
 10
16.5430391255742
 20
49.1676461719054
 10
16.5430321435248
 20
49.1676815406539
 10
16.5429994715458
 20
49.167731364144
 10
16.5429879194868
 20
49.167745599016
 10
16.5429112292388
 20
49.1677649582022
 10
16.5428312594538
 20
49.1677859464101
 10
16.5428063813484
 20
49.1677740280393
 10
16.542799806267
 20
49.167765282081
 10
16.5428101975798
 20
49.1677441871113
 10
16.5428604225004
 20
49.1677033613683
 10
16.5428935653271
 20
49.1676846440794
 10
16.5429026612492
 20
49.1676506674948
 10
16.542959793004
 20
49.1675832330357
 10
16.5430099644343
 20
49.167543905941
 10
16.5430652789967
 20
49.1675011815001
 10
16.5431527621431
 20
49.1674652707423
 10
16.5432537384279
 20
49.1674310840488
 10
16.5433454284833
 20
49.1674112859536
 10
16.5434517570266
 20
49.1673932846929
 10
16.54355320884
 20
49.1673795672224
 10
16.5438796694277
 20
49.1673606247573
 10
16.5440621577478
 20
49.1673540978505
 10
16.5442002536626
 20
49.1673383659141
 10
16.5444662162254
 20
49.1673061796958
 10
16.5445951062401
 20
49.1672905403176
 10
16.5446525758677
 20
49.1672901336621
 10
16.544710713811
 20
49.1672995523725
 97
0
 75
0
 76
1
 98
0
  0
HATCH
  5
2001D
100
AcDbEntity
  8
plocha Q5
100
AcDbHatch
 10
0
 20
0
 30
0
210
0
220
0
230
1
  2
SOLID
 70
1
 71
0
 91
1
 92
2
 72
0
 73
1
 93
129
 10
16.583542065319
 20
49.1633421682218
 10
16.5834718584539
 20
49.1633436708234
 10
16.5833461093251
 20
49.1633416557223
 10
16.5832551384882
 20
49.163333015162
 10
16.583174398985
 20
49.1633142929894
 10
16.5831384608138
 20
49.163319841713
 10
16.5831358672156
 20
49.1633260251785
 10
16.5831186406744
 20
49.1633241759034
 10
16.5830992546809
 20
49.1633137075089
 10
16.5830642063637
 20
49.1633021233936
 10
16.5830041601349
 20
49.1632740464308
 10
16.5829264298571
 20
49.1632451440832
 10
16.5828209761825
 20
49.1632043118992
 10
16.5826905458294
 20
49.1631547834819
 10
16.5826113457145
 20
49.163118849426
 10
16.5825677604801
 20
49.1630910728186
 10
16.5825255936011
 20
49.1630586401222
 10
16.5823668758778
 20
49.1630006047709
 10
16.5822851442674
 20
49.1629679538648
 10
16.5821894125576
 20
49.1629481564315
 10
16.58213777623
 20
49.1629371288277
 10
16.5820691830249
 20
49.1629287854732
 10
16.5820019879777
 20
49.1629240058995
 10
16.5819295680847
 20
49.1629149569933
 10
16.5818617712942
 20
49.1629058099466
 10
16.5818003836579
 20
49.1629018693775
 10
16.5816242883709
 20
49.1628850186507
 10
16.5815645664698
 20
49.1628829322477
 10
16.5814558250761
 20
49.1628739034926
 10
16.5813535455808
 20
49.1628657594377
 10
16.5812677126213
 20
49.1628579168876
 10
16.5810473818646
 20
49.16284917273
 10
16.5809309758729
 20
49.1628426284181
 10
16.5807710797794
 20
49.1628316784827
 10
16.5807199241563
 20
49.162833664523
 10
16.5806078044902
 20
49.1628330519433
 10
16.5805207645541
 20
49.1628285873367
 10
16.5804953620016
 20
49.1628185569603
 10
16.5804968481624
 20
49.1628095729914
 10
16.5805104268999
 20
49.1627992865806
 10
16.5805409245722
 20
49.162778516305
 10
16.5805522506904
 20
49.1627733340411
 10
16.5805745919422
 20
49.1627696771462
 10
16.5806068617599
 20
49.1627682190788
 10
16.5806507983359
 20
49.1627653477493
 10
16.5806919945214
 20
49.1627652763705
 10
16.5807188645985
 20
49.1627619325923
 10
16.5808091801583
 20
49.1627691076147
 10
16.5809183357923
 20
49.1627731291057
 10
16.5809944465018
 20
49.1627762903845
 10
16.5811121200128
 20
49.1627771638161
 10
16.5813456333345
 20
49.1627900214571
 10
16.581538424033
 20
49.1627932330989
 10
16.581679781056
 20
49.1628100361981
 10
16.5819746663619
 20
49.1628460181793
 10
16.5822418970269
 20
49.1629007733555
 10
16.5823181583346
 20
49.1629132077991
 10
16.5824008667804
 20
49.1629318454564
 10
16.5824450386224
 20
49.1629552397856
 10
16.5824823125236
 20
49.1629788933327
 10
16.5825354001552
 20
49.163003672528
 10
16.5826276416911
 20
49.1630477442668
 10
16.5827616959501
 20
49.1630947906886
 10
16.5828122468073
 20
49.1631193893138
 10
16.5828683749236
 20
49.1631466359672
 10
16.5829926887168
 20
49.1631903562215
 10
16.5831576142233
 20
49.1632444731593
 10
16.5832360829256
 20
49.1632731646381
 10
16.5833512734957
 20
49.1632810673457
 10
16.5834334066056
 20
49.1632783334604
 10
16.5835084888684
 20
49.1632759655343
 10
16.5835977265929
 20
49.163273891463
 10
16.5837433302976
 20
49.1632718711478
 10
16.5840100306204
 20
49.1632777122819
 10
16.5840890398509
 20
49.1632806985692
 10
16.5841480300365
 20
49.163287145711
 10
16.584189347869
 20
49.1632863399858
 10
16.5842492379862
 20
49.1632838410175
 10
16.5843471938952
 20
49.1632829281313
 10
16.5844293296445
 20
49.16328427317
 10
16.5845574713315
 20
49.1632945066592
 10
16.584613557651
 20
49.1632977449287
 10
16.5846963055101
 20
49.1632953794912
 10
16.5847751570839
 20
49.16328898314
 10
16.584877716227
 20
49.163294774068
 10
16.5849986238424
 20
49.1633003671144
 10
16.5850674887456
 20
49.1632988957126
 10
16.5851974285082
 20
49.1633017577595
 10
16.5852722769705
 20
49.163302204153
 10
16.5853916175788
 20
49.1632964348062
 10
16.5854704452162
 20
49.1632866614778
 10
16.5855346005633
 20
49.1632792197244
 10
16.5857659721953
 20
49.1632739157283
 10
16.5858499135541
 20
49.1632712544204
 10
16.5860055237356
 20
49.1632744390957
 10
16.5860673601898
 20
49.1632705859937
 10
16.5861770412384
 20
49.1632645081071
 10
16.5863074606643
 20
49.1632505244725
 10
16.5864826254641
 20
49.1632427256142
 10
16.5865578418304
 20
49.1632409450536
 10
16.5865690435907
 20
49.1632458651346
 10
16.5865770388828
 20
49.1632528104519
 10
16.5865856598853
 20
49.1632699219385
 10
16.5865915052791
 20
49.1633037245838
 10
16.5865845501815
 20
49.1633216101962
 10
16.5865643151302
 20
49.1633332964253
 10
16.586540847687
 20
49.1633354995212
 10
16.5865156254956
 20
49.1633363024803
 10
16.5864523929021
 20
49.1633274827026
 10
16.586396437217
 20
49.1633226364211
 10
16.5863051338478
 20
49.1633239335394
 10
16.5862113656492
 20
49.1633241960507
 10
16.5860808046624
 20
49.1633313584136
 10
16.5859248206519
 20
49.1633480388093
 10
16.5857483864432
 20
49.1633458248026
 10
16.5853453628156
 20
49.1633561277066
 10
16.5852017310594
 20
49.1633545726413
 10
16.5850176723899
 20
49.1633621080729
 10
16.5848933423179
 20
49.1633534215262
 10
16.5848085834047
 20
49.163353926409
 10
16.5847185244015
 20
49.1633487800359
 10
16.5845389247078
 20
49.1633412004418
 10
16.5844099762743
 20
49.1633430945328
 10
16.5843294081908
 20
49.1633388579139
 10
16.5842650809779
 20
49.1633446758207
 10
16.5841786990061
 20
49.1633441602918
 10
16.5840973245533
 20
49.1633452924617
 10
16.5837931071513
 20
49.1633448710119
 10
16.583542065319
 20
49.1633421682218
 97
0
 75
0
 76
1
 98
0
  0
HATCH
  5
2001E
100
AcDbEntity
  8
plocha Q5
100
AcDbHatch
 10
0
 20
0
 30
0
210
0
220
0
230
1
  2
SOLID
 70
1
 71
0
 91
1
 92
2
 72
0
 73
1
 93
34
 10
16.5647339828093
 20
49.1634210009048
 10
16.5647523019383
 20
49.1634348067954
 10
16.5647661631438
 20
49.16345370508
 10
16.5647974543104
 20
49.1635042488733
 10
16.5647986824366
 20
49.1635154805681
 10
16.5647921587509
 20
49.1635237988155
 10
16.5647678117467
 20
49.1635338859236
 10
16.5647217746347
 20
49.1635475006049
 10
16.5646289758668
 20
49.1635696055092
 10
16.5645151891717
 20
49.163600346229
 10
16.5642487644993
 20
49.1636847364691
 10
16.5641959248265
 20
49.1636988710055
 10
16.5641478391212
 20
49.1636967909846
 10
16.5641113790351
 20
49.163702305788
 10
16.5639913864798
 20
49.1637393588897
 10
16.5639439099841
 20
49.1637616458063
 10
16.5639070743563
 20
49.1637755832646
 10
16.5638875590663
 20
49.1637721559002
 10
16.5638730190837
 20
49.163757270575
 10
16.5638645265139
 20
49.1637401117245
 10
16.5638619797489
 20
49.1637213505263
 10
16.5638621768328
 20
49.1637139291002
 10
16.5638861403433
 20
49.1636936756231
 10
16.5639233441218
 20
49.1636618731466
 10
16.5639731911368
 20
49.1636346797519
 10
16.564074980463
 20
49.1635986899413
 10
16.5641486047419
 20
49.1635772538503
 10
16.5642336014855
 20
49.1635616939336
 10
16.5644008610944
 20
49.1635161765705
 10
16.5644943353914
 20
49.1634836551681
 10
16.5645905429221
 20
49.1634503045694
 10
16.5646553790259
 20
49.1634258718027
 10
16.5647103683715
 20
49.1634142521174
 10
16.5647339828093
 20
49.1634210009048
 97
0
 75
0
 76
1
 98
0
  0
HATCH
  5
2001F
100
AcDbEntity
  8
plocha Q5
100
AcDbHatch
 10
0
 20
0
 30
0
210
0
220
0
230
1
  2
SOLID
 70
1
 71
0
 91
2
 92
2
 72
0
 73
1
 93
1125
 10
16.607057377169
 20
49.1582652774561
 10
16.6070595271303
 20
49.1582522368281
 10
16.6070549093225
 20
49.1582383037963
 10
16.6070446759334
 20
49.1582305681671
 10
16.6070314329346
 20
49.1582205595476
 10
16.6070470354512
 20
49.1582060009278
 10
16.6070629885759
 20
49.1581931133681
 10
16.6070674387975
 20
49.1581851844098
 10
16.6070647686513
 20
49.1581746873222
 10
16.6070435114114
 20
49.1581589248343
 10
16.6070166925836
 20
49.1581400734096
 10
16.607007857248
 20
49.1581244854255
 10
16.6070102991434
 20
49.1581107364706
 10
16.6070311444043
 20
49.1581070310518
 10
16.607062252134
 20
49.1580908169021
 10
16.607068886258
 20
49.1580772702753
 10
16.6070868065511
 20
49.1580715312235
 10
16.6071131049233
 20
49.1580733962224
 10
16.6071430336964
 20
49.1580778342008
 10
16.6071836331614
 20
49.1580866441982
 10
16.6072012498519
 20
49.1580903673228
 10
16.6072199896017
 20
49.1580987052697
 10
16.6072506221439
 20
49.1580959299607
 10
16.60727125234
 20
49.1581055832426
 10
16.6072676751957
 20
49.1581225965466
 10
16.607281905432
 20
49.1581292353197
 10
16.6072970374222
 20
49.1581321192237
 10
16.6074831805495
 20
49.1580929938931
 10
16.6074843122274
 20
49.1580774542722
 10
16.6074975578568
 20
49.1580693358669
 10
16.607554064539
 20
49.1580530377355
 10
16.6076017734712
 20
49.158036231485
 10
16.6077117818824
 20
49.1579975011404
 10
16.6077603234619
 20
49.1579806209141
 10
16.6078401680369
 20
49.1579541448624
 10
16.6078785706633
 20
49.1579183723567
 10
16.6079018998648
 20
49.157887467238
 10
16.60793725144
 20
49.1578593602079
 10
16.6079710924635
 20
49.1578318244343
 10
16.6080006574127
 20
49.157803599217
 10
16.6080206346567
 20
49.1577739108382
 10
16.6080422171272
 20
49.1577418299052
 10
16.6080649172369
 20
49.1577218092656
 10
16.6080904761382
 20
49.1576992624511
 10
16.6081079159791
 20
49.1576818373847
 10
16.6081345336462
 20
49.1576521060993
 10
16.6081576051734
 20
49.1576263347242
 10
16.6081837332164
 20
49.1575970969427
 10
16.6083723399531
 20
49.1573860290812
 10
16.6084718398912
 20
49.1572978383395
 10
16.6087369847337
 20
49.1570568753322
 10
16.6087983632827
 20
49.1569993295126
 10
16.6088217211431
 20
49.1569782510073
 10
16.6088883977492
 20
49.1569266968557
 10
16.6089631855929
 20
49.1568801733563
 10
16.6090452032035
 20
49.1568392258209
 10
16.6091334887329
 20
49.15680433507
 10
16.609175021114
 20
49.1567907119891
 10
16.6093222925737
 20
49.1567569396801
 10
16.6094121447361
 20
49.156741626489
 10
16.6095035833751
 20
49.1567274224697
 10
16.609658882931
 20
49.156699660411
 10
16.6097539997317
 20
49.1566809439209
 10
16.6098804542977
 20
49.1566395173808
 10
16.6098804306935
 20
49.1566385225656
 10
16.6099093806958
 20
49.1566300420494
 10
16.6099372179342
 20
49.1566218869501
 10
16.6101873124899
 20
49.1565486178348
 10
16.6102825663851
 20
49.1565206223493
 10
16.6103943611925
 20
49.1564765559946
 10
16.6104951949042
 20
49.1564368084722
 10
16.6105677254396
 20
49.1564125547587
 10
16.6106787037188
 20
49.1563818005942
 10
16.6107986973438
 20
49.1563575872622
 10
16.6109060747493
 20
49.1563238361047
 10
16.6109619887156
 20
49.1563044526718
 10
16.6110289998243
 20
49.1562909029418
 10
16.6111665609076
 20
49.156263090025
 10
16.6112701258807
 20
49.1562305119005
 10
16.6113729523877
 20
49.1562013265844
 10
16.6114782069199
 20
49.156174285998
 10
16.6115557470711
 20
49.1561543647954
 10
16.6118434780885
 20
49.1560410162345
 10
16.6119239827464
 20
49.156001827465
 10
16.6121352039511
 20
49.1558885294535
 10
16.612225813828
 20
49.1558250157015
 10
16.6123321211964
 20
49.1557485938258
 10
16.6124297497476
 20
49.1556736380248
 10
16.6124710494628
 20
49.1556330216624
 10
16.6125200502723
 20
49.1555974907614
 10
16.6126708327071
 20
49.1554628107736
 10
16.6126889785716
 20
49.1554428175997
 10
16.6127472617391
 20
49.1553975400506
 10
16.61277915707
 20
49.1553727632779
 10
16.6128050232359
 20
49.1553547336783
 10
16.6128337122379
 20
49.1553347369551
 10
16.6128652489211
 20
49.1553087380972
 10
16.6129071496676
 20
49.1552741963086
 10
16.6129502261315
 20
49.1552473256559
 10
16.6130810793248
 20
49.155165552452
 10
16.6131268037189
 20
49.1551369464414
 10
16.613153120317
 20
49.1551234639493
 10
16.6132536943361
 20
49.1550784209288
 10
16.6134602463588
 20
49.1549899911492
 10
16.6135647337267
 20
49.1549414552767
 10
16.613694794817
 20
49.1548845632281
 10
16.6138165108228
 20
49.154841395155
 10
16.6139622913299
 20
49.154792963075
 10
16.6140503592972
 20
49.1547705148681
 10
16.6140837904139
 20
49.1547631984755
 10
16.6141383090992
 20
49.1547499305319
 10
16.6142158941709
 20
49.15472992412
 10
16.6142612405391
 20
49.1547182330468
 10
16.6142806801378
 20
49.1547140985188
 10
16.6142804583028
 20
49.1547132768946
 10
16.6143034736891
 20
49.1547092510194
 10
16.6143836062721
 20
49.1546952354933
 10
16.6144674029897
 20
49.154681419848
 10
16.6145701678013
 20
49.1546676881928
 10
16.614701722691
 20
49.1546512143135
 10
16.6148692974241
 20
49.1546362450284
 10
16.6149341664278
 20
49.1546307895683
 10
16.6150559432727
 20
49.1546209009606
 10
16.6151606684225
 20
49.1546057555812
 10
16.6153426820719
 20
49.1545951417013
 10
16.6154563461145
 20
49.1545865085891
 10
16.6156165854875
 20
49.154577877324
 10
16.6157473489044
 20
49.1545664728876
 10
16.6157799631822
 20
49.1545624474993
 10
16.6158788785501
 20
49.1545416221245
 10
16.6160361585064
 20
49.1545026076486
 10
16.6161138481924
 20
49.154481614318
 10
16.6161712815489
 20
49.1544657389837
 10
16.6161898507981
 20
49.1544606072486
 10
16.6162268007087
 20
49.1544503919157
 10
16.6162488315758
 20
49.1544443033288
 10
16.6163051126419
 20
49.1544381636673
 10
16.6164516384115
 20
49.1544245917862
 10
16.6165982525542
 20
49.1544181036372
 10
16.616801931451
 20
49.1544109325485
 10
16.6169850158894
 20
49.1544000709077
 10
16.6171752726207
 20
49.1543786125791
 10
16.6172296411939
 20
49.1543719426522
 10
16.6173052843769
 20
49.1543526198265
 10
16.617377136031
 20
49.1543294312314
 10
16.6174299530453
 20
49.154311772999
 10
16.6174794510328
 20
49.1542977400228
 10
16.6175576896233
 20
49.1542806260376
 10
16.6176248629867
 20
49.1542659337699
 10
16.6177020144513
 20
49.1542490565509
 10
16.6177508397189
 20
49.1542446285462
 10
16.6178500173964
 20
49.1542356346194
 10
16.6179545014625
 20
49.1542333912964
 10
16.6180249055204
 20
49.1542355105583
 10
16.6181077992764
 20
49.1542407276583
 10
16.618190966406
 20
49.1542438737822
 10
16.618225194669
 20
49.154245169192
 10
16.6182473494817
 20
49.1542460065665
 10
16.618276174806
 20
49.1542557208941
 10
16.6183194623225
 20
49.1542681110826
 10
16.6183729595988
 20
49.1542811646474
 10
16.6185429732385
 20
49.1543181739072
 10
16.6186901376936
 20
49.1543455219875
 10
16.6187716813264
 20
49.1543655932835
 10
16.6188134626134
 20
49.1543758758692
 10
16.61888620904
 20
49.1543937819098
 10
16.6189061393589
 20
49.154396958007
 10
16.6189690369246
 20
49.1544069821499
 10
16.6190282590877
 20
49.1544155176778
 10
16.6190542258829
 20
49.1544152635896
 10
16.6191367681821
 20
49.1544143741518
 10
16.6192338474895
 20
49.1544130171748
 10
16.6193053802317
 20
49.1544067893433
 10
16.6193987128328
 20
49.1543968365644
 10
16.6195293359901
 20
49.1543816137219
 10
16.6196495502446
 20
49.154367364049
 10
16.6197866124855
 20
49.1543467240486
 10
16.6200592838983
 20
49.1543024816068
 10
16.6201350467269
 20
49.1542909938233
 10
16.6202137962885
 20
49.1542765825205
 10
16.6202696496213
 20
49.1542558511476
 10
16.6203364319643
 20
49.1542235030185
 10
16.6203842412973
 20
49.1541978215987
 10
16.6204589652259
 20
49.1541556522048
 10
16.6205604378285
 20
49.1540826351647
 10
16.6206594337992
 20
49.1540106384327
 10
16.6207303089597
 20
49.1539590312232
 10
16.6207842141723
 20
49.1539188626678
 10
16.6208536032306
 20
49.1538914419854
 10
16.6209594963306
 20
49.1538541835848
 10
16.6210572995878
 20
49.1538357409096
 10
16.6212839466658
 20
49.1537901557047
 10
16.6214224112555
 20
49.153767975178
 10
16.6217080228237
 20
49.1537517825781
 10
16.6218072024003
 20
49.1537482775385
 10
16.6218980444837
 20
49.153754335932
 10
16.6220115022854
 20
49.1537617393024
 10
16.6220995183141
 20
49.1537673822035
 10
16.622132838669
 20
49.1537712596257
 10
16.6222030664567
 20
49.1537794311784
 10
16.6222554564226
 20
49.1537868374147
 10
16.6223502130514
 20
49.153804606149
 10
16.6224543845739
 20
49.1538241393096
 10
16.6225926831355
 20
49.1538523363068
 10
16.6227097146391
 20
49.1538784343784
 10
16.6228225892262
 20
49.1538939016279
 10
16.62301007884
 20
49.1539144449627
 10
16.6231600800565
 20
49.1539295649577
 10
16.6233207433222
 20
49.1539450296854
 10
16.6234917232577
 20
49.1539594181321
 10
16.6237662730028
 20
49.1539739758833
 10
16.6238461977287
 20
49.1539758292984
 10
16.6239454154058
 20
49.1539901985828
 10
16.6240301627293
 20
49.1539945395248
 10
16.6240629649592
 20
49.1539962197928
 10
16.6240853077646
 20
49.1540080678619
 10
16.6243206878031
 20
49.1540519340651
 10
16.6243755737373
 20
49.1540595439776
 10
16.6244404539118
 20
49.154070921024
 10
16.6245505280213
 20
49.154090222312
 10
16.6247006897433
 20
49.1541342398401
 10
16.6248440184304
 20
49.1541718302521
 10
16.6250065493875
 20
49.1542229436993
 10
16.6253396743091
 20
49.1543247391303
 10
16.6254519093686
 20
49.1543580372964
 10
16.6255305339808
 20
49.1543835853451
 10
16.6255800350263
 20
49.1543939982845
 10
16.6257006956301
 20
49.1544328652112
 10
16.6258630644306
 20
49.1544733029329
 10
16.6258833643476
 20
49.1544779058867
 10
16.6259132663639
 20
49.1544963665313
 10
16.625938410289
 20
49.154511334768
 10
16.6259876700675
 20
49.1545158793632
 10
16.625988490508
 20
49.1545158125962
 10
16.6260139139525
 20
49.1545176114612
 10
16.6260164570884
 20
49.1545182300763
 10
16.626052871559
 20
49.154527747594
 10
16.626119760581
 20
49.154540255263
 10
16.6261674079335
 20
49.1545452636536
 10
16.6261848559065
 20
49.1545440660308
 10
16.6262069520975
 20
49.1545375795616
 10
16.6262463260122
 20
49.1545027661984
 10
16.6263269758859
 20
49.154374634782
 10
16.6263534036626
 20
49.1543088821077
 10
16.6264731758865
 20
49.1540245283202
 10
16.6265217428503
 20
49.1539092262751
 10
16.6266596458591
 20
49.153581825771
 10
16.6268389702528
 20
49.1532105119208
 10
16.6271227661257
 20
49.1526422375686
 10
16.6274494455246
 20
49.1520557867896
 10
16.6277755211338
 20
49.1514704107994
 10
16.6279888009433
 20
49.1510875133185
 10
16.6281142890537
 20
49.1508622268058
 10
16.6282267274884
 20
49.1506603665172
 10
16.6284248674827
 20
49.1503317399193
 10
16.6285999600309
 20
49.1500548460483
 10
16.6287458029877
 20
49.1498174626871
 10
16.628862779045
 20
49.1496145491816
 10
16.6289511743651
 20
49.1494612106924
 10
16.6289949840074
 20
49.1493852104356
 10
16.6290559136148
 20
49.1492137886693
 10
16.6291002583208
 20
49.1490890279041
 10
16.6291111084077
 20
49.1490585041183
 10
16.6291824941863
 20
49.1488576576659
 10
16.6291493785711
 20
49.148785023759
 10
16.6291103562673
 20
49.1484793875567
 10
16.6290932914321
 20
49.1483772217977
 10
16.6290178203093
 20
49.1482184258968
 10
16.6288134197642
 20
49.1478889742685
 10
16.6286013279961
 20
49.1476337258237
 10
16.6285876302807
 20
49.1476116227745
 10
16.6282154247724
 20
49.1470110341965
 10
16.6280788770217
 20
49.1465994957913
 10
16.6280500955064
 20
49.1465127532841
 10
16.6280237865784
 20
49.1462332341602
 10
16.6279876302687
 20
49.1458490972906
 10
16.6279499361059
 20
49.1452815625083
 10
16.6279592591179
 20
49.1450600902464
 10
16.6276829192643
 20
49.1449864720241
 10
16.6270694104778
 20
49.1449820591008
 10
16.6266057154489
 20
49.1448967336587
 10
16.6265107857348
 20
49.1448596389683
 10
16.6264530206915
 20
49.1448370663067
 10
16.6260598480508
 20
49.1446809272001
 10
16.6258633523286
 20
49.1445980986796
 10
16.6256401472646
 20
49.1445040126482
 10
16.6253642894061
 20
49.1444553907499
 10
16.6247821265461
 20
49.1443588506518
 10
16.6244765115221
 20
49.1443135191149
 10
16.6243202293749
 20
49.1442431623806
 10
16.624193546271
 20
49.1441861288906
 10
16.6239777678323
 20
49.1440889877545
 10
16.623934551528
 20
49.1439786829151
 10
16.6239131167693
 20
49.1439555158251
 10
16.6238794655508
 20
49.1438683156475
 10
16.6238462456389
 20
49.1437433720017
 10
16.6238142437157
 20
49.1435760951385
 10
16.6237836757804
 20
49.1432772005853
 10
16.6237823943255
 20
49.1429897189482
 10
16.623793503144
 20
49.1428099557733
 10
16.6238926678599
 20
49.1425876175568
 10
16.6240383078466
 20
49.1423311580579
 10
16.6242046087218
 20
49.1420614740378
 10
16.6243775523345
 20
49.141894038086
 10
16.6245296751601
 20
49.1417621603855
 10
16.6246935775707
 20
49.1416363849863
 10
16.6247412927178
 20
49.1415997689942
 10
16.6247447803506
 20
49.1416001479231
 10
16.6248374673362
 20
49.1415345509148
 10
16.6250471236557
 20
49.1414135667984
 10
16.6253460268642
 20
49.1412627897042
 10
16.6254895196628
 20
49.1411904094012
 10
16.625600987984
 20
49.1411341793709
 10
16.6256914926251
 20
49.141080533845
 10
16.6258409414191
 20
49.1409863280858
 10
16.6259416550438
 20
49.140910356948
 10
16.6259572761706
 20
49.1408384419049
 10
16.6258453699673
 20
49.1407776383029
 10
16.6255314195876
 20
49.1406721922927
 10
16.6253091120107
 20
49.1405518998131
 10
16.6251174483667
 20
49.1404276353955
 10
16.625020280041
 20
49.1403621432519
 10
16.6249149458073
 20
49.1402911480638
 10
16.6247924755093
 20
49.1402086042108
 10
16.6245675977451
 20
49.1400570346402
 10
16.6244216632124
 20
49.1399524892459
 10
16.6242630012525
 20
49.1398246041706
 10
16.6240544568549
 20
49.1395714320393
 10
16.6239436531265
 20
49.1394327123488
 10
16.6239190732621
 20
49.1393349240457
 10
16.6238576370319
 20
49.1392173077431
 10
16.6237635553691
 20
49.1390624923662
 10
16.6237334164396
 20
49.1389790119113
 10
16.6236980077732
 20
49.1388809443653
 10
16.6236700864461
 20
49.1388286664311
 10
16.6236555632821
 20
49.1388014759684
 10
16.6236005936417
 20
49.1387685438391
 10
16.6235293781105
 20
49.1387150412575
 10
16.6234425357986
 20
49.1386442790187
 10
16.6233903171999
 20
49.1386062557296
 10
16.6232968244086
 20
49.1385572321334
 10
16.6231823640775
 20
49.1385047059616
 10
16.6230672460418
 20
49.1384561716202
 10
16.6229790930233
 20
49.1383933932085
 10
16.622903522827
 20
49.1383476579748
 10
16.6228368165149
 20
49.1382480323913
 10
16.6227933759033
 20
49.1381379385456
 10
16.622769324967
 20
49.1379847955699
 10
16.6227784749728
 20
49.1377794846525
 10
16.6228297081851
 20
49.1375428274105
 10
16.6229083986734
 20
49.1373768625693
 10
16.6229204323205
 20
49.137313897703
 10
16.622928950976
 20
49.1372693118455
 10
16.6229691476901
 20
49.1370589661231
 10
16.6230086661544
 20
49.1368521722349
 10
16.6229980507536
 20
49.1367161139466
 10
16.6229884409876
 20
49.1365929506659
 10
16.6228983322505
 20
49.1363923678928
 10
16.6227540246179
 20
49.1362824660011
 10
16.622502630559
 20
49.1362124591503
 10
16.6222714429481
 20
49.1361960878262
 10
16.6217569007248
 20
49.1361811878927
 10
16.6215851251112
 20
49.1361528694287
 10
16.6213519581726
 20
49.136098664194
 10
16.6205608744938
 20
49.1357195605605
 10
16.6203449005029
 20
49.1355858035224
 10
16.6199748999552
 20
49.1353657497747
 10
16.6196489404007
 20
49.1350276633303
 10
16.6195538858725
 20
49.13493208512
 10
16.6193122693263
 20
49.1348045844536
 10
16.619208893358
 20
49.1347595698779
 10
16.6191186767718
 20
49.1347343307442
 10
16.6189166518492
 20
49.134690404179
 10
16.6187903614914
 20
49.1346511599958
 10
16.6187370958853
 20
49.1346346066632
 10
16.6185540022784
 20
49.13457353736
 10
16.6183862205032
 20
49.1345131899002
 10
16.6182635731379
 20
49.1344590665038
 10
16.6179806022273
 20
49.1343133203935
 10
16.6177357392998
 20
49.1341884486119
 10
16.6175667185378
 20
49.1340795492321
 10
16.6173473186301
 20
49.1339261910686
 10
16.6172508097567
 20
49.1338254585402
 10
16.6172086846615
 20
49.1337588685093
 10
16.6171980073586
 20
49.1336975351949
 10
16.6171922481339
 20
49.1335502281753
 10
16.6172293031347
 20
49.1333862905069
 10
16.6172346967908
 20
49.1333624205168
 10
16.617253858612
 20
49.1332880586569
 10
16.6172902657516
 20
49.1331089085237
 10
16.6173009767991
 20
49.1330157747201
 10
16.617225867598
 20
49.1329392748508
 10
16.6170394612326
 20
49.1327958252285
 10
16.6168659368997
 20
49.1326442015907
 10
16.6167276192591
 20
49.1324890161841
 10
16.6165859106312
 20
49.1323123888604
 10
16.6165724595883
 20
49.132253887073
 10
16.6165751426158
 20
49.1321498920408
 10
16.6165758903125
 20
49.1321208609884
 10
16.616601759542
 20
49.1319636813988
 10
16.6166650589199
 20
49.1318454989338
 10
16.6166944589916
 20
49.1317930658961
 10
16.6167508596284
 20
49.1317167981253
 10
16.6168477009193
 20
49.1316191667314
 10
16.6169445419763
 20
49.1315215343607
 10
16.6170670882061
 20
49.1313939224726
 10
16.6171904353665
 20
49.1312754519983
 10
16.6172797585748
 20
49.1311954606756
 10
16.6173148876054
 20
49.1311222294754
 10
16.617325307212
 20
49.1310949457295
 10
16.61733516129
 20
49.1310691468843
 10
16.617336200757
 20
49.1310207595495
 10
16.6173200391433
 20
49.1309787256714
 10
16.6172779826819
 20
49.1309257701665
 10
16.6171184004503
 20
49.1307736194615
 10
16.6169782448412
 20
49.1306576782204
 10
16.6168678081886
 20
49.1305574727985
 10
16.6168120655258
 20
49.1305035471112
 10
16.6167922653284
 20
49.1304415661929
 10
16.616750884168
 20
49.1303704851628
 10
16.616738548318
 20
49.1303332655679
 10
16.6167163494891
 20
49.1302998884299
 10
16.6166926060562
 20
49.1302618603447
 10
16.6165924736739
 20
49.13019721515
 10
16.6165113922257
 20
49.1301430075382
 10
16.6163988697304
 20
49.1300835432152
 10
16.6162452209308
 20
49.1300075331186
 10
16.6161278901325
 20
49.1299492409101
 10
16.6160346670061
 20
49.1298987156026
 10
16.6160077199943
 20
49.1298801475219
 10
16.6159608581574
 20
49.1298283648901
 10
16.6159460086915
 20
49.1297970090274
 10
16.6159385939845
 20
49.1297813539656
 10
16.6159265700995
 20
49.1297562702587
 10
16.6159329758584
 20
49.1297173506701
 10
16.6159456599802
 20
49.1296122400408
 10
16.6159561818984
 20
49.1294782023193
 10
16.6159785471885
 20
49.1293843794945
 10
16.6160080666717
 20
49.1293031794861
 10
16.616052501947
 20
49.12921546426
 10
16.6161155524993
 20
49.1290987805062
 10
16.6161943253437
 20
49.1289847234309
 10
16.616286226498
 20
49.1288609988561
 10
16.6163611184312
 20
49.1287845288419
 10
16.616457773171
 20
49.1287020288357
 10
16.6165191724543
 20
49.1286654910666
 10
16.6166342633369
 20
49.1286251871613
 10
16.6167046035516
 20
49.1286044260631
 10
16.6168534850679
 20
49.1285831767565
 10
16.6169304842151
 20
49.128578031435
 10
16.6170447825242
 20
49.1285846178942
 10
16.6172708928836
 20
49.1286751638332
 10
16.6174774117841
 20
49.1287733233016
 10
16.6175764712154
 20
49.1288237473426
 10
16.617728653288
 20
49.1288602457567
 10
16.6178982548164
 20
49.1289364944275
 10
16.6180239390401
 20
49.1289595624769
 10
16.6181227427659
 20
49.1289776964356
 10
16.6181825706948
 20
49.1289648419099
 10
16.618265301186
 20
49.1288891144393
 10
16.6184866059394
 20
49.1286858679788
 10
16.6186299044309
 20
49.1285454400755
 10
16.6187069090834
 20
49.1284699750792
 10
16.6187462226127
 20
49.1284314498239
 10
16.6188765694844
 20
49.1283655287363
 10
16.6189390712613
 20
49.1283339196476
 10
16.6191566067729
 20
49.1282239052686
 10
16.6192853947784
 20
49.1281587733115
 10
16.6195261600398
 20
49.1281094512717
 10
16.619775630045
 20
49.1280583431517
 10
16.6201939082527
 20
49.128104917906
 10
16.6203875498008
 20
49.1281264790824
 10
16.6204753148712
 20
49.1281431579372
 10
16.620714232646
 20
49.1282209408996
 10
16.620849267072
 20
49.1282762539748
 10
16.6209878298407
 20
49.1283666197749
 10
16.6212086523767
 20
49.1285600187167
 10
16.6214141515455
 20
49.1287073957699
 10
16.6216697254903
 20
49.1288142742171
 10
16.6218187008065
 20
49.1289083548103
 10
16.6221114205716
 20
49.1289578042069
 10
16.6224120327666
 20
49.1289344324842
 10
16.6225802792568
 20
49.1289083715462
 10
16.6227713238192
 20
49.128878780236
 10
16.6229172314068
 20
49.1288688249204
 10
16.6230088037754
 20
49.1288439062236
 10
16.6228988842998
 20
49.1288134969253
 10
16.6227846436828
 20
49.1287818914686
 10
16.6226689424858
 20
49.128749882157
 10
16.6225903095925
 20
49.1287215372667
 10
16.6225063434498
 20
49.1286912697306
 10
16.6224356175947
 20
49.1286657757956
 10
16.6223827457627
 20
49.1284863180631
 10
16.6223663013706
 20
49.1282993190486
 10
16.6223825318574
 20
49.1281118891193
 10
16.622509154261
 20
49.127968131634
 10
16.6227891990934
 20
49.1278933514409
 10
16.6229097766857
 20
49.1279916278902
 10
16.6231035175702
 20
49.1283616524497
 10
16.6232324191215
 20
49.128600773117
 10
16.6232929024622
 20
49.1287129734328
 10
16.6234084685035
 20
49.1287617064355
 10
16.6235406454566
 20
49.1286183412721
 10
16.6235839364791
 20
49.128571386082
 10
16.6235569339241
 20
49.128496314505
 10
16.6235064131006
 20
49.1283558536594
 10
16.6234684349931
 20
49.1282502679903
 10
16.6234143238653
 20
49.128099818725
 10
16.6234000300869
 20
49.1278483034047
 10
16.6234408597966
 20
49.1277310192803
 10
16.6234625820367
 20
49.1276686166877
 10
16.6236854280673
 20
49.127578362928
 10
16.6235043971831
 20
49.1275520264402
 10
16.6231698668408
 20
49.1275824022856
 10
16.6230185286866
 20
49.1273400416349
 10
16.6228734302893
 20
49.1271008713286
 10
16.6228073442305
 20
49.1269897209397
 10
16.6227481966044
 20
49.1268902359429
 10
16.6227014027525
 20
49.1267946025206
 10
16.6226867143443
 20
49.1267645860403
 10
16.6226554823177
 20
49.1267007575931
 10
16.6225948270502
 20
49.1266013176427
 10
16.62244895863
 20
49.1264222358971
 10
16.6223010535306
 20
49.1262332357293
 10
16.622048835012
 20
49.1258790920347
 10
16.6219572705376
 20
49.1257658413448
 10
16.6218822513266
 20
49.1256995721739
 10
16.6215880906766
 20
49.1255212926902
 10
16.6214123993598
 20
49.1253257712627
 10
16.6213898024022
 20
49.125131504248
 10
16.6213948351615
 20
49.1247462351207
 10
16.6214763355959
 20
49.1244183358834
 10
16.6215477193409
 20
49.1242825481718
 10
16.6217009132369
 20
49.1239911332284
 10
16.6218928545254
 20
49.1237647306841
 10
16.622159623558
 20
49.1234559371963
 10
16.6225821420384
 20
49.1233912502403
 10
16.6231587306926
 20
49.1233915406948
 10
16.6234127800245
 20
49.1234660794314
 10
16.6236733943343
 20
49.1235425441419
 10
16.6239031875548
 20
49.1236049604429
 10
16.6240847637987
 20
49.1236463513186
 10
16.6241241446561
 20
49.1236945119055
 10
16.6242106022247
 20
49.1238002374539
 10
16.6246669739906
 20
49.1238942488963
 10
16.6250987559409
 20
49.1238961067274
 10
16.6255115135872
 20
49.1238140509557
 10
16.6257375786544
 20
49.1238695450845
 10
16.6258071689013
 20
49.1239785729277
 10
16.6258195092722
 20
49.1241696994909
 10
16.6257625727754
 20
49.1243164350012
 10
16.6257390866046
 20
49.1244260508588
 10
16.6257851439201
 20
49.1245118740041
 10
16.6258984147668
 20
49.1245880980591
 10
16.6260252470476
 20
49.1246891396821
 10
16.6261454739182
 20
49.1247521927808
 10
16.6262044722288
 20
49.1247831342691
 10
16.6262933443651
 20
49.1248499152485
 10
16.6263632915871
 20
49.1249024774092
 10
16.6264427701267
 20
49.1249622012366
 10
16.6264745511588
 20
49.1250129260344
 10
16.6265322097103
 20
49.1251049571461
 10
16.626577890304
 20
49.1251778651753
 10
16.6265796764653
 20
49.125196429513
 10
16.6266158942224
 20
49.1258020602986
 10
16.6266532461729
 20
49.1263042649344
 10
16.6266562739972
 20
49.126346929375
 10
16.6266803865206
 20
49.1266866768502
 10
16.6267230101152
 20
49.1271489000823
 10
16.6267236645772
 20
49.1271763630927
 10
16.6267265179549
 20
49.1272960436346
 10
16.6267187306559
 20
49.1274136160209
 10
16.626681962001
 20
49.1275109630859
 10
16.626595388505
 20
49.1276305288026
 10
16.6265214307598
 20
49.1276873834023
 10
16.6262700166394
 20
49.1278270832183
 10
16.625918186201
 20
49.1280020758708
 10
16.6256284148627
 20
49.1281223993317
 10
16.6252730504475
 20
49.128248679649
 10
16.6251905826194
 20
49.1282754005296
 10
16.6250134599842
 20
49.1283234360405
 10
16.624916638111
 20
49.1283509069038
 10
16.6249203853275
 20
49.1283704250844
 10
16.6249384329994
 20
49.1283867761527
 10
16.6250659970881
 20
49.1283594630626
 10
16.6252003005494
 20
49.1283285875645
 10
16.6253636159758
 20
49.1282896719028
 10
16.6255069553545
 20
49.128241262008
 10
16.6256208642942
 20
49.1281847137527
 10
16.6258585486785
 20
49.128086446209
 10
16.6261136661329
 20
49.1279780538781
 10
16.6262884174639
 20
49.1279116778989
 10
16.6263776062658
 20
49.1278604439439
 10
16.6265148086266
 20
49.1277838353992
 10
16.6266289539507
 20
49.1277071104532
 10
16.6267001389805
 20
49.1276530877234
 10
16.6268020521734
 20
49.1275103767157
 10
16.6268187167996
 20
49.127394948657
 10
16.6268146071931
 20
49.127279564141
 10
16.6268038031038
 20
49.1272175640567
 10
16.6267932302806
 20
49.1271568990757
 10
16.626778139726
 20
49.1267898246696
 10
16.6267481515706
 20
49.1263066861163
 10
16.626685203865
 20
49.1255914746574
 10
16.6266237984781
 20
49.1247004773061
 10
16.6266220959537
 20
49.1245954222546
 10
16.6266203610364
 20
49.124488442881
 10
16.6266448114928
 20
49.1231307607624
 10
16.6265414251594
 20
49.1220721032177
 10
16.6265290941726
 20
49.1219458316932
 10
16.6265181058152
 20
49.1218380053817
 10
16.6264532811281
 20
49.1210793884315
 10
16.6263983815238
 20
49.1203746367964
 10
16.6263157497363
 20
49.1196996091368
 10
16.6261563682913
 20
49.1190499654305
 10
16.6260274391976
 20
49.1187841907627
 10
16.6257504736538
 20
49.1182841937549
 10
16.625719712152
 20
49.1182286626614
 10
16.6257209003922
 20
49.1182286265047
 10
16.6256994226656
 20
49.1181882688716
 10
16.6254699925072
 20
49.1177202121319
 10
16.6252635229146
 20
49.1172175314958
 10
16.6250578144427
 20
49.1167348425566
 10
16.6249029480548
 20
49.1163570226199
 10
16.6247076965962
 20
49.1159183120663
 10
16.6244780350653
 20
49.1153951792998
 10
16.6243588924241
 20
49.115110892204
 10
16.6241594591643
 20
49.1146507377647
 10
16.6241466211706
 20
49.1146211155002
 10
16.6241472239267
 20
49.1146211871366
 10
16.6240822807812
 20
49.1144643393458
 10
16.6239899324945
 20
49.114137300235
 10
16.6239246742895
 20
49.1137705932628
 10
16.6239368634008
 20
49.1135888993166
 10
16.6239861686681
 20
49.1133570023618
 10
16.6241336632441
 20
49.1130202548148
 10
16.6244265573707
 20
49.1125012504643
 10
16.6245973575915
 20
49.1122628358776
 10
16.6248055282704
 20
49.111924462082
 10
16.6250684157029
 20
49.1115006453849
 10
16.6251453200747
 20
49.1113765208292
 10
16.6252226050007
 20
49.1112517801099
 10
16.6255560945162
 20
49.1106777596454
 10
16.6258267258388
 20
49.1102074400541
 10
16.6260298269958
 20
49.1098021567707
 10
16.626230053533
 20
49.1094479794205
 10
16.6264115637924
 20
49.109089441018
 10
16.6265502515538
 20
49.1087886224215
 10
16.6270406141885
 20
49.1087986511112
 10
16.6269583264142
 20
49.1091232413931
 10
16.6266738919149
 20
49.1095420098975
 10
16.6261409176058
 20
49.1103304976876
 10
16.6257800921713
 20
49.1108689228517
 10
16.6255851834791
 20
49.1111578434665
 10
16.6255201003206
 20
49.1112543186276
 10
16.6254225750332
 20
49.1114037177348
 10
16.6251274373344
 20
49.1118558198207
 10
16.6248912530243
 20
49.1122180945352
 10
16.6247419303759
 20
49.1123976416625
 10
16.6246011362935
 20
49.1126407269553
 10
16.6244561582131
 20
49.1129211723405
 10
16.6242944424311
 20
49.1133447096419
 10
16.624252881234
 20
49.1135439106978
 10
16.6242495580921
 20
49.1138260572459
 10
16.6243157878999
 20
49.1142453969615
 10
16.6243909754411
 20
49.1144986848349
 10
16.6244658342806
 20
49.1146843814104
 10
16.6248233797912
 20
49.1154021334041
 10
16.6250143856322
 20
49.1157879391667
 10
16.6253181621718
 20
49.1165127090289
 10
16.6256374180951
 20
49.1172917048118
 10
16.6258170547425
 20
49.1176209533683
 10
16.6259786005753
 20
49.1179246070226
 10
16.6261014490006
 20
49.1182168100685
 10
16.6261348433138
 20
49.1182970814951
 10
16.6262555803404
 20
49.1185873103874
 10
16.6264845176343
 20
49.1190426281402
 10
16.6265391029911
 20
49.1192534026658
 10
16.6265904083487
 20
49.1194805919256
 10
16.6266860882436
 20
49.1200414347557
 10
16.6267153726234
 20
49.1203270039908
 10
16.6267362934307
 20
49.1207006313009
 10
16.6267471931414
 20
49.1209835475655
 10
16.6267571734335
 20
49.121242643364
 10
16.6267896126116
 20
49.1216246737397
 10
16.6268178872892
 20
49.121963807157
 10
16.6268316723264
 20
49.1220595674933
 10
16.6270189977936
 20
49.123360789268
 10
16.6270293430695
 20
49.1236173401242
 10
16.6270391364849
 20
49.1237273564384
 10
16.6270566513281
 20
49.12392415726
 10
16.6270863157368
 20
49.1242574444049
 10
16.6271111332628
 20
49.124536243351
 10
16.6271167110855
 20
49.124598923585
 10
16.6271721851046
 20
49.1252221560068
 10
16.6272079970697
 20
49.1256715650305
 10
16.627230104691
 20
49.1260841873037
 10
16.627258398525
 20
49.1266123047825
 10
16.627271560603
 20
49.1268579585689
 10
16.627278776916
 20
49.1269926438629
 10
16.6272849289894
 20
49.1271074899827
 10
16.6272920000456
 20
49.1271853562765
 10
16.6273009255606
 20
49.1272836377466
 10
16.6273421287893
 20
49.1277373417189
 10
16.6273632467869
 20
49.1279698628806
 10
16.6273982736544
 20
49.1283555575152
 10
16.627403276865
 20
49.1284106608334
 10
16.6274226914626
 20
49.1286872615659
 10
16.6274422925308
 20
49.1289974136465
 10
16.6274517847384
 20
49.1291476406328
 10
16.6274793978228
 20
49.1295845665738
 10
16.627489304958
 20
49.1297413188829
 10
16.6274947212403
 20
49.1298270102169
 10
16.6274971643681
 20
49.1298656652051
 10
16.6275004601354
 20
49.1299178166127
 10
16.6275040170514
 20
49.129974123601
 10
16.627527095389
 20
49.130322087478
 10
16.6275525937993
 20
49.1306834642013
 10
16.6275743543597
 20
49.1309918667787
 10
16.6276147475889
 20
49.1315643416206
 10
16.627630661645
 20
49.1317898651596
 10
16.6276472660356
 20
49.1322224135365
 10
16.6276539767285
 20
49.1323446126172
 10
16.6276590217982
 20
49.1324365158059
 10
16.6276696090751
 20
49.1326293153376
 10
16.6276892035174
 20
49.1329861874784
 10
16.6277019057335
 20
49.1332175119644
 10
16.6277311052579
 20
49.1337492640633
 10
16.6277479196733
 20
49.134055511827
 10
16.627769400331
 20
49.1344004451896
 10
16.6277898977006
 20
49.1346561018249
 10
16.6278022972419
 20
49.1348107681362
 10
16.6278056874129
 20
49.1348530401636
 10
16.6278103621286
 20
49.1349113563211
 10
16.627824849221
 20
49.1350920511489
 10
16.6278382543509
 20
49.1352592270085
 10
16.6278518211363
 20
49.1354284222425
 10
16.6278681445513
 20
49.13563202089
 10
16.6278827609184
 20
49.1358143302637
 10
16.6279008089449
 20
49.1360394156477
 10
16.6279140840682
 20
49.1362049785973
 10
16.6279372286314
 20
49.136493625145
 10
16.6279657109352
 20
49.1368488609314
 10
16.6279863403938
 20
49.1371061330063
 10
16.6279933337001
 20
49.1373152090819
 10
16.627992656005
 20
49.1373574826441
 10
16.6279861266231
 20
49.1377648822305
 10
16.6279078261927
 20
49.1382082330269
 10
16.6279497875407
 20
49.138713845256
 10
16.6279819518662
 20
49.1391986955365
 10
16.6279964434036
 20
49.1395289994857
 10
16.6280066193676
 20
49.1397961240451
 10
16.6280097138916
 20
49.1398773084032
 10
16.6280114468767
 20
49.1399228132888
 10
16.6280180309701
 20
49.1400955517696
 10
16.628036219074
 20
49.1403748476882
 10
16.6280716698878
 20
49.1408212990238
 10
16.6280944680652
 20
49.1411083893459
 10
16.6281068191447
 20
49.1413171831498
 10
16.6281245030021
 20
49.141406079336
 10
16.6281532806631
 20
49.1415507301864
 10
16.62816435539
 20
49.1416063993891
 10
16.6281667166317
 20
49.141618268611
 10
16.6281729797703
 20
49.1416497435365
 10
16.628179713809
 20
49.1416835871447
 10
16.6281928365394
 20
49.1417495594509
 10
16.6282573329392
 20
49.1418602625886
 10
16.6282949435989
 20
49.1419248217178
 10
16.6284150491763
 20
49.1421444774035
 10
16.628545544844
 20
49.1424070772939
 10
16.6289075725498
 20
49.1431355857718
 10
16.6290280260134
 20
49.1433779691979
 10
16.629084051934
 20
49.143490708873
 10
16.6291036848241
 20
49.1435302106774
 10
16.6291252651232
 20
49.1435736336742
 10
16.6294834142332
 20
49.1442943023092
 10
16.6297635185808
 20
49.1448520070775
 10
16.6299391930828
 20
49.1451610810779
 10
16.6300717909168
 20
49.1453943679099
 10
16.6300808636317
 20
49.1454103269581
 10
16.6301414599753
 20
49.14551693741
 10
16.6302178867779
 20
49.1457021530809
 10
16.6303505721555
 20
49.1460237043176
 10
16.6304068592667
 20
49.1461601079721
 10
16.6305401838665
 20
49.1464558215393
 10
16.6306726057388
 20
49.1467255523387
 10
16.6307804621809
 20
49.1469448802062
 10
16.6308735273892
 20
49.1471324250341
 10
16.6305779073517
 20
49.1476775034979
 10
16.6305300363424
 20
49.1475578058656
 10
16.6304831797129
 20
49.147440645539
 10
16.6304613922499
 20
49.1473861674382
 10
16.630475515837
 20
49.1472414752655
 10
16.6304915299847
 20
49.1470774271714
 10
16.6304344284367
 20
49.146895989207
 10
16.6303750588384
 20
49.1467073476117
 10
16.6303063593093
 20
49.14648601675
 10
16.6302437385821
 20
49.1462840346771
 10
16.6302114582047
 20
49.1461799119943
 10
16.6301708165026
 20
49.1460488242667
 10
16.6301491179529
 20
49.1459788369363
 10
16.630130832827
 20
49.1459198579188
 10
16.6300958604569
 20
49.1458070517234
 10
16.6300586617064
 20
49.1457398038691
 10
16.6299603338483
 20
49.1456059887565
 10
16.6298499705586
 20
49.1454557977569
 10
16.629831606312
 20
49.1454308068972
 10
16.629796900862
 20
49.1453835740636
 10
16.629615505218
 20
49.1451367129821
 10
16.629388678381
 20
49.1450125381808
 10
16.6289747682039
 20
49.1450238051481
 10
16.6288038220191
 20
49.1450423092491
 10
16.628708553866
 20
49.1450592396438
 10
16.628670815607
 20
49.1450676451439
 10
16.6286507701943
 20
49.145079003662
 10
16.628634711643
 20
49.1450897940244
 10
16.6286179640171
 20
49.1451047930138
 10
16.6286134582771
 20
49.1451164016005
 10
16.6286041209351
 20
49.1451432868953
 10
16.6286092117082
 20
49.1452010796008
 10
16.6286218022786
 20
49.1453440050535
 10
16.6286359735497
 20
49.1455048921987
 10
16.6286284501649
 20
49.1456493685799
 10
16.6286070775479
 20
49.1458204146833
 10
16.6285864324746
 20
49.145985625012
 10
16.6285795638183
 20
49.1461371547057
 10
16.6285947277519
 20
49.1463392739458
 10
16.6286094653703
 20
49.1465357091184
 10
16.6286674682217
 20
49.146613340213
 10
16.628987941413
 20
49.1467336668487
 10
16.6292806598758
 20
49.146843569589
 10
16.6294861384518
 20
49.1469207170169
 10
16.6295383425596
 20
49.1470101505076
 10
16.6295212466852
 20
49.1471761889035
 10
16.6295283965158
 20
49.1474381028745
 10
16.6295572959821
 20
49.1475958400646
 10
16.6295677609445
 20
49.1476529717013
 10
16.6295789371913
 20
49.147688018393
 10
16.6295949967413
 20
49.1477383841082
 10
16.6296167933009
 20
49.1478067350252
 10
16.6296463361519
 20
49.1478993854077
 10
16.62968733443
 20
49.1480279523975
 10
16.6297370791418
 20
49.1481741819634
 10
16.6297936634092
 20
49.1483332431666
 10
16.6297994834322
 20
49.1483836316571
 10
16.6297875654163
 20
49.1484155895048
 10
16.6297621871363
 20
49.1484836281576
 10
16.6297285411991
 20
49.1485738305033
 10
16.6296921084585
 20
49.1486715074978
 10
16.6296753349219
 20
49.1487164792069
 10
16.6296583249908
 20
49.1487620836087
 10
16.6296436041358
 20
49.1488322219402
 10
16.6296156867351
 20
49.1489652376535
 10
16.6295854234854
 20
49.1491094368096
 10
16.6295830956488
 20
49.1491205283641
 10
16.6295753925917
 20
49.1491572325575
 10
16.6295656826096
 20
49.1492034953052
 10
16.6295616528834
 20
49.1492788679109
 10
16.6295560336538
 20
49.1494988506329
 10
16.6295680576665
 20
49.1495702638356
 10
16.6295870666422
 20
49.14966033388
 10
16.6296081379512
 20
49.1497601707004
 10
16.6295973021868
 20
49.1498037190857
 10
16.6295619582723
 20
49.1498417686388
 10
16.6294965856388
 20
49.1499121475075
 10
16.6294796371028
 20
49.1499303904211
 10
16.6294608150827
 20
49.1499506525664
 10
16.6293355149996
 20
49.1500782860965
 10
16.6291897182799
 20
49.1502216511589
 10
16.6290743664304
 20
49.1503347414106
 10
16.6289708988711
 20
49.1504356920798
 10
16.6289146725569
 20
49.1504905501719
 10
16.6288729896336
 20
49.1505312209784
 10
16.6288296143504
 20
49.1505913196215
 10
16.6287277618997
 20
49.1507324445904
 10
16.6286814592356
 20
49.1507966007355
 10
16.6286595232674
 20
49.1508269933577
 10
16.6284832854669
 20
49.1510122488984
 10
16.6284050356988
 20
49.1511137313217
 10
16.6277266550439
 20
49.1521755854348
 10
16.6270813823212
 20
49.1535148499347
 10
16.6269890477368
 20
49.1537131439266
 10
16.6268772514036
 20
49.1540041286317
 10
16.626854564952
 20
49.1540644433235
 10
16.6266219262774
 20
49.1546903896941
 10
16.6264934351239
 20
49.1550345550665
 10
16.6263460102542
 20
49.1553154963089
 10
16.6261109610712
 20
49.1557640154961
 10
16.626027844
 20
49.1559172923841
 10
16.6256487974327
 20
49.1558210456991
 10
16.6257828104602
 20
49.1555564939938
 10
16.6259975672766
 20
49.155199113076
 10
16.6261587693396
 20
49.1547931266614
 10
16.6261702110373
 20
49.1547646590981
 10
16.6261495287498
 20
49.1546623597795
 10
16.626138460927
 20
49.154637508465
 10
16.62613702073
 20
49.1546349879846
 10
16.6261340168131
 20
49.1546314107772
 10
16.6261301133649
 20
49.1546282303039
 10
16.6261254268344
 20
49.154625543443
 10
16.6261200982743
 20
49.1546234316283
 10
16.6261142927128
 20
49.1546219562829
 10
16.6261134100051
 20
49.154621797952
 10
16.626067741517
 20
49.1546139465838
 10
16.6259593660682
 20
49.1545827148604
 10
16.6259547927296
 20
49.1545800441409
 10
16.6259129664535
 20
49.1545555896783
 10
16.6258792582031
 20
49.1545490864839
 10
16.6258725448283
 20
49.1545602575539
 10
16.6258201720611
 20
49.1545583408531
 10
16.6256764561099
 20
49.1545113738637
 10
16.6252557527132
 20
49.1543833082209
 10
16.6250745213369
 20
49.154327613914
 10
16.6248964509855
 20
49.154275674988
 10
16.6247789232958
 20
49.1542425733291
 10
16.6246510298798
 20
49.1542070330249
 10
16.6244553570109
 20
49.154162693486
 10
16.624390494965
 20
49.1541521779025
 10
16.6243681786942
 20
49.1541485589521
 10
16.6243683145906
 20
49.1541469196983
 10
16.6243094730229
 20
49.1541329680015
 10
16.6243051319349
 20
49.1541174772288
 10
16.6240836339674
 20
49.1540764341226
 10
16.6240577868686
 20
49.1540947313785
 10
16.6238213043441
 20
49.1540666611902
 10
16.6234604460253
 20
49.1540374673254
 10
16.62318391892
 20
49.1540099152828
 10
16.6230736985311
 20
49.1540002060978
 10
16.6229402159176
 20
49.1539920249588
 10
16.6228523857637
 20
49.1539849649973
 10
16.622756381214
 20
49.1539722051485
 10
16.6226465782866
 20
49.1539534305007
 10
16.6225088227694
 20
49.1539366983878
 10
16.6223869049864
 20
49.1539108801249
 10
16.6223005527579
 20
49.1538948641208
 10
16.6222260955123
 20
49.153881773126
 10
16.6221395965516
 20
49.1538713173316
 10
16.6220266156206
 20
49.1538617183084
 10
16.6219219171804
 20
49.153853089015
 10
16.621812472416
 20
49.1538537446279
 10
16.6217386139489
 20
49.1538526864628
 10
16.6216661604976
 20
49.1538459978004
 10
16.6214525683854
 20
49.1538908871627
 10
16.6213801706465
 20
49.1539041805585
 10
16.6212946033122
 20
49.1539036498833
 10
16.6212096762172
 20
49.1539077674043
 10
16.621096271655
 20
49.15392594772
 10
16.6210098937949
 20
49.1539494803026
 10
16.6209097140156
 20
49.1539914621975
 10
16.6208527339303
 20
49.1540228313307
 10
16.6208164547087
 20
49.1540472806125
 10
16.620764595513
 20
49.1540857163388
 10
16.6206682325018
 20
49.1541482586543
 10
16.6205505359576
 20
49.1542184537603
 10
16.6204908617474
 20
49.1542482001886
 10
16.620466404319
 20
49.1542603903506
 10
16.6204506263409
 20
49.1542677952689
 10
16.6203949148298
 20
49.1542917793544
 10
16.6203234320705
 20
49.1543163317753
 10
16.6202745414961
 20
49.1543331232933
 10
16.6202703588828
 20
49.154334540236
 10
16.6202061384535
 20
49.1543517820906
 10
16.6201649934404
 20
49.1543588217021
 10
16.6199074365057
 20
49.1543977715888
 10
16.619699598466
 20
49.1544317448476
 10
16.6195012988698
 20
49.1544516916426
 10
16.6193459889778
 20
49.1544738756105
 10
16.6191442867348
 20
49.1544804033552
 10
16.6191044628995
 20
49.1544811070587
 10
16.6190045232748
 20
49.1544777316936
 10
16.6189128458181
 20
49.1544680527639
 10
16.6186840075162
 20
49.1544235152382
 10
16.6183238484624
 20
49.1543537477066
 10
16.6182999799664
 20
49.1543469351202
 10
16.6182444581996
 20
49.1543334297107
 10
16.6181633522885
 20
49.1543203337014
 10
16.6180966059094
 20
49.1543126984197
 10
16.6180387777255
 20
49.1543107825
 10
16.6179744529809
 20
49.1543086497282
 10
16.6179361125746
 20
49.1543116342907
 10
16.6178725832031
 20
49.1543165811661
 10
16.6178090860534
 20
49.1543215248628
 10
16.6177480974375
 20
49.1543293153544
 10
16.6176791848134
 20
49.154340784816
 10
16.6176233798715
 20
49.1543500739195
 10
16.61759839169
 20
49.1543542338499
 10
16.6175456493474
 20
49.1543630126311
 10
16.6175185476063
 20
49.1543706290468
 10
16.6174617860276
 20
49.1543865824453
 10
16.6173692311181
 20
49.1544075792421
 10
16.6172937226481
 20
49.1544233949931
 10
16.6172024509783
 20
49.1544396371998
 10
16.6170569231603
 20
49.1544641183333
 10
16.6169510561984
 20
49.1544771602398
 10
16.6168533724881
 20
49.1544862384624
 10
16.6167408119974
 20
49.1544931819049
 10
16.6165713940991
 20
49.154501733429
 10
16.6164777980781
 20
49.1545075842423
 10
16.6164171962525
 20
49.1545114144575
 10
16.6163642653361
 20
49.1545181867687
 10
16.6162468214031
 20
49.1545417882562
 10
16.6161928860461
 20
49.1545491830824
 10
16.6161764158755
 20
49.1545514407087
 10
16.6161405098949
 20
49.1545563627253
 10
16.6160787684703
 20
49.154572070338
 10
16.615994907894
 20
49.154593405255
 10
16.6159372370523
 20
49.154608075187
 10
16.6158791702388
 20
49.1546201166219
 10
16.6157524788528
 20
49.1546298885584
 10
16.6155850528245
 20
49.1546432126099
 10
16.6154960641269
 20
49.1546477618855
 10
16.6153815464072
 20
49.1546513119095
 10
16.6153323368131
 20
49.1546528354338
 10
16.6152906520352
 20
49.1546541268682
 10
16.6152394485863
 20
49.1546642654955
 10
16.6151945859752
 20
49.1546711539739
 10
16.6151494342928
 20
49.1546723788156
 10
16.6151030805927
 20
49.1546736342503
 10
16.6150396397239
 20
49.154685263769
 10
16.6149714823489
 20
49.154692457196
 10
16.614883658702
 20
49.1546959597469
 10
16.614810568543
 20
49.1547108146852
 10
16.6147677559049
 20
49.1547235755135
 10
16.6147209516878
 20
49.1547348586675
 10
16.6147007434608
 20
49.1547373052891
 10
16.6146338440971
 20
49.154735134786
 10
16.614597548436
 20
49.1547327918676
 10
16.6145452914344
 20
49.154737126481
 10
16.6144557255228
 20
49.1547513736755
 10
16.6143935296951
 20
49.1547615959458
 10
16.6143221868757
 20
49.154773526255
 10
16.6142703030273
 20
49.1547823011264
 10
16.6142167522194
 20
49.1547914426658
 10
16.614132506135
 20
49.1548129244654
 10
16.6140303185892
 20
49.1548420947981
 10
16.6139658917044
 20
49.1548646299436
 10
16.6138805701009
 20
49.1548955280457
 10
16.6137917523888
 20
49.1549337779227
 10
16.6136540718607
 20
49.1549947828671
 10
16.6136102605912
 20
49.1550147410672
 10
16.613545240947
 20
49.1550373977147
 10
16.6134831705855
 20
49.1550590268849
 10
16.6133815885358
 20
49.1550995675255
 10
16.6132508860036
 20
49.1551583132697
 10
16.6131486913238
 20
49.1552042445328
 10
16.6131029137638
 20
49.1552248184748
 10
16.61304210682
 20
49.1552607665168
 10
16.6129710491711
 20
49.1553027772259
 10
16.6129334685633
 20
49.1553322986205
 10
16.6129178790502
 20
49.1553445432667
 10
16.6128228255496
 20
49.155419212448
 10
16.6127737939377
 20
49.1554640404027
 10
16.6127130248975
 20
49.1555352139229
 10
16.6126257804472
 20
49.1556383085072
 10
16.612518628133
 20
49.1557214038013
 10
16.6123495385793
 20
49.155842032756
 10
16.6122383094804
 20
49.1559089360338
 10
16.6121358104787
 20
49.1559647004093
 10
16.611991591281
 20
49.156032197671
 10
16.6119352249558
 20
49.1560637059466
 10
16.6118824364164
 20
49.156098951912
 10
16.6118572709764
 20
49.1561157538683
 10
16.6117599703572
 20
49.1561475201383
 10
16.6117053750241
 20
49.1561645868996
 10
16.6115997680965
 20
49.1561976257612
 10
16.6114978422165
 20
49.1562295316194
 10
16.6114333510523
 20
49.1562497174411
 10
16.6113614202314
 20
49.1562748806719
 10
16.6112784689297
 20
49.1563125751164
 10
16.6111136476453
 20
49.1563617231941
 10
16.6108964174375
 20
49.1564285727506
 10
16.6107595524422
 20
49.1564696901724
 10
16.6106178801946
 20
49.156507549658
 10
16.6105389575308
 20
49.1565286403983
 10
16.6104270923129
 20
49.1565652343489
 10
16.6102720035304
 20
49.1566159667303
 10
16.6101820118837
 20
49.156644657273
 10
16.6099860589224
 20
49.1567000114731
 10
16.6099674850922
 20
49.1567048932494
 10
16.6098824742671
 20
49.1567272325313
 10
16.6098168726619
 20
49.1567451435919
 10
16.6097200705028
 20
49.1567715754424
 10
16.6096173679278
 20
49.156799617695
 10
16.6095346960822
 20
49.1568218204652
 10
16.6094912395295
 20
49.1568333544331
 10
16.6094131501446
 20
49.1568451066862
 10
16.6093552050426
 20
49.1568538288102
 10
16.609214637995
 20
49.1568631041408
 10
16.60919474624
 20
49.1568653045822
 10
16.6091563620714
 20
49.1568750797226
 10
16.6091330705664
 20
49.1568855405203
 10
16.6090347341191
 20
49.1569498503212
 10
16.6089347352815
 20
49.1570284111046
 10
16.6088219491391
 20
49.1571232127115
 10
16.6087023706609
 20
49.1572331741883
 10
16.6086125813225
 20
49.1573029089253
 10
16.6084613480209
 20
49.157462029512
 10
16.6083207384364
 20
49.157622713694
 10
16.6083015072791
 20
49.1576446898565
 10
16.6082624264166
 20
49.1577029274464
 10
16.6082308076994
 20
49.1577428099443
 10
16.6081656791705
 20
49.1578102861229
 10
16.608096826547
 20
49.15788379626
 10
16.6080603981356
 20
49.1579120947096
 10
16.6079833291573
 20
49.1579690025367
 10
16.6078719711767
 20
49.1580331217972
 10
16.607784968653
 20
49.1580671620885
 10
16.6076673210414
 20
49.1581076337661
 10
16.6076027827602
 20
49.1581302122193
 10
16.6075553354652
 20
49.1581262235003
 10
16.607499401653
 20
49.1581303795038
 10
16.6073196285023
 20
49.1581567562673
 10
16.6073143854823
 20
49.1581712427427
 10
16.607287996208
 20
49.1581731159934
 10
16.6072544134605
 20
49.1581873113067
 10
16.607213958456
 20
49.1582001102343
 10
16.6071863679276
 20
49.1582024771578
 10
16.6071508327913
 20
49.1582055270798
 10
16.6071280278682
 20
49.1582142175655
 10
16.6071080434363
 20
49.1582362993537
 10
16.6071026269691
 20
49.1582506161404
 10
16.60709801871
 20
49.1582627995336
 10
16.6070848013078
 20
49.158270520112
 10
16.6070681407311
 20
49.1582648034134
 10
16.607057377169
 20
49.1582652774561
 97
0
 92
2
 72
0
 73
1
 93
289
 10
16.6239719372673
 20
49.1438501475536
 10
16.6239828957236
 20
49.1438845366396
 10
16.6239893087674
 20
49.1438958733665
 10
16.6239719372673
 20
49.1438501475536
 10
16.6241103610368
 20
49.1439091457843
 10
16.6241570777528
 20
49.1439320809591
 10
16.6242885009243
 20
49.1439966036336
 10
16.6245305332512
 20
49.1441154270001
 10
16.6245949687895
 20
49.1441503361119
 10
16.6246472339781
 20
49.1441624726224
 10
16.6247086582061
 20
49.1441767362353
 10
16.6251317260918
 20
49.1442521313967
 10
16.6256847409313
 20
49.1443537785061
 10
16.6263350323862
 20
49.1444771792572
 10
16.6265541863431
 20
49.1445084531353
 10
16.6267141532053
 20
49.1445312817827
 10
16.6268279555498
 20
49.1445475213047
 10
16.6273750434043
 20
49.1444781030715
 10
16.6276254255076
 20
49.1443336254685
 10
16.6275950782819
 20
49.1441422502338
 10
16.6275425029721
 20
49.1439931232961
 10
16.6274826751982
 20
49.1438234226811
 10
16.6274652565158
 20
49.1437096104719
 10
16.6274429455274
 20
49.1435638025205
 10
16.6274247196767
 20
49.1434719246962
 10
16.6274162953367
 20
49.1434294538909
 10
16.6273854537554
 20
49.1432739667291
 10
16.6273586661615
 20
49.1431365982268
 10
16.6273315472427
 20
49.1429882394402
 10
16.6274439354133
 20
49.1428571391492
 10
16.6275090783547
 20
49.1427890085789
 10
16.6275941960271
 20
49.1427169214819
 10
16.6276759659241
 20
49.1426476699726
 10
16.6276701670566
 20
49.1424228618735
 10
16.6276723440814
 20
49.1422626082584
 10
16.6276849605168
 20
49.1421033918027
 10
16.6277034453662
 20
49.1418701012638
 10
16.6277200034458
 20
49.141583243156
 10
16.6277266945149
 20
49.1414618307381
 10
16.6277600209358
 20
49.1413640132538
 10
16.6277756136913
 20
49.1411016588461
 10
16.6277125540275
 20
49.1408317780553
 10
16.627671803542
 20
49.1402808728658
 10
16.6276759561232
 20
49.1398070898774
 10
16.6276684115607
 20
49.1395555845124
 10
16.6276425278555
 20
49.139045299425
 10
16.6275883017823
 20
49.1383169508898
 10
16.6273566914415
 20
49.1378276430298
 10
16.6273342415278
 20
49.1373216932422
 10
16.6273325301049
 20
49.1372831307909
 10
16.6273314957797
 20
49.1372598459035
 10
16.6273289859294
 20
49.1372032974256
 10
16.6273181434492
 20
49.1369589281122
 10
16.627305715682
 20
49.1367200272378
 10
16.6272875640283
 20
49.1364299174754
 10
16.6272674021738
 20
49.1361076685006
 10
16.6272561458486
 20
49.135927749364
 10
16.6272349451487
 20
49.1355888874702
 10
16.6272149795899
 20
49.1352697754665
 10
16.6271992868002
 20
49.135018935779
 10
16.6271862642733
 20
49.1348242046068
 10
16.6271823332219
 20
49.1347654191177
 10
16.6271806240106
 20
49.1347398758955
 10
16.6271763364284
 20
49.1346757793829
 10
16.627157722635
 20
49.1343974627978
 10
16.6271225601366
 20
49.1338716828454
 10
16.6270708840267
 20
49.1331427768408
 10
16.6270270803912
 20
49.1326293019414
 10
16.6269999381733
 20
49.13231114147
 10
16.6269976760948
 20
49.1322846274763
 10
16.6269918076736
 20
49.1322158369082
 10
16.6269672920147
 20
49.1319284491499
 10
16.6270399573861
 20
49.1314787773178
 10
16.6269924421991
 20
49.1309228553217
 10
16.6269476718612
 20
49.1303990439352
 10
16.6269065911365
 20
49.1298762868214
 10
16.6269025163366
 20
49.1298244429072
 10
16.6268759450302
 20
49.1294637467411
 10
16.6268572001407
 20
49.129209284235
 10
16.6268384846813
 20
49.1289552308039
 10
16.6268087380521
 20
49.1285514047148
 10
16.626784724875
 20
49.1283305922087
 10
16.6267714169125
 20
49.1282153751398
 10
16.6267636018599
 20
49.1281477247034
 10
16.6267281182494
 20
49.1281188083538
 10
16.6266546247075
 20
49.1280589136461
 10
16.6264091795359
 20
49.1282306281782
 10
16.6263102207525
 20
49.128299858101
 10
16.6261542891888
 20
49.1284089475148
 10
16.6258675792638
 20
49.1285219558803
 10
16.6256672441682
 20
49.1286009195631
 10
16.6255707756364
 20
49.1286389423883
 10
16.6252952954805
 20
49.1286937848231
 10
16.6249085325761
 20
49.1287707828254
 10
16.6245485896075
 20
49.1288424391159
 10
16.6240602660175
 20
49.1289068643552
 10
16.6238884731366
 20
49.1289295295673
 10
16.6237485720521
 20
49.1289479857965
 10
16.62344622695
 20
49.1290236197922
 10
16.6234327838943
 20
49.1291148531119
 10
16.6235099597289
 20
49.1292160952846
 10
16.6235852619241
 20
49.1293148783641
 10
16.6236062079373
 20
49.1294380096261
 10
16.6235197601695
 20
49.1294951016326
 10
16.623421362126
 20
49.1295600828691
 10
16.6231996037714
 20
49.1295308641152
 10
16.6230587378472
 20
49.1294445723011
 10
16.6228138428005
 20
49.1292945543615
 10
16.6227505233682
 20
49.1292557646468
 10
16.6224601041784
 20
49.1291829768582
 10
16.6222715530209
 20
49.1291617800483
 10
16.621932061729
 20
49.1291440402264
 10
16.6216780819414
 20
49.1290792952858
 10
16.6214898530238
 20
49.1290313127174
 10
16.6212889622886
 20
49.1288990715572
 10
16.6210952652351
 20
49.1287715680307
 10
16.6209381280285
 20
49.1286611646547
 10
16.6207920870145
 20
49.1285501885123
 10
16.6207320424607
 20
49.1285045581907
 10
16.6205792279453
 20
49.1284292778802
 10
16.6203440840062
 20
49.1283623644875
 10
16.62008614676
 20
49.1283010156195
 10
16.6197624656318
 20
49.1283068014097
 10
16.619628612774
 20
49.1283224448585
 10
16.6194593983429
 20
49.1283535333092
 10
16.6193250681642
 20
49.1284183967199
 10
16.6191093339845
 20
49.128562706278
 10
16.6189779169343
 20
49.1286506123872
 10
16.6189185289892
 20
49.1287177788697
 10
16.6188809312398
 20
49.1287603006076
 10
16.6188536796703
 20
49.1287911222667
 10
16.6187754767516
 20
49.1288795651568
 10
16.6185336532049
 20
49.1290968386236
 10
16.6184371746298
 20
49.1291835214694
 10
16.6183934042328
 20
49.1292080911074
 10
16.6181863882979
 20
49.1292376417427
 10
16.6180630282683
 20
49.1292552508927
 10
16.6179862357752
 20
49.1292319961054
 10
16.6178434573825
 20
49.1291485103426
 10
16.6176805632987
 20
49.1290532650154
 10
16.6176387072943
 20
49.1290287917963
 10
16.6175570492226
 20
49.1288873326533
 10
16.6174903955002
 20
49.1288569621545
 10
16.6173308772514
 20
49.1288093392111
 10
16.6172072622405
 20
49.1287612042093
 10
16.6170841374834
 20
49.1287100746491
 10
16.6170092905422
 20
49.1286881120413
 10
16.6169332770218
 20
49.1286872671634
 10
16.6168233552647
 20
49.1286961365648
 10
16.6167365129169
 20
49.1287080951282
 10
16.6167223122444
 20
49.1287136326885
 10
16.6167077168744
 20
49.1287193240769
 10
16.6165862790866
 20
49.1287666783032
 10
16.6164450220135
 20
49.1288704240668
 10
16.6163779885568
 20
49.1289812249949
 10
16.6162743435885
 20
49.1291414340539
 10
16.6162047245976
 20
49.1292905008938
 10
16.6161599299104
 20
49.1294156910949
 10
16.61612313293
 20
49.1295538135241
 10
16.6161125278727
 20
49.1295936194574
 10
16.6161090247691
 20
49.1297033877341
 10
16.616112323743
 20
49.1297231387762
 10
16.6161292709786
 20
49.1297655913181
 10
16.6161426388403
 20
49.1297990744328
 10
16.6161575391063
 20
49.1298104842982
 10
16.6162313705986
 20
49.1298670148703
 10
16.6163672958241
 20
49.1299276035405
 10
16.6166036344953
 20
49.1300329547418
 10
16.6166921086069
 20
49.1300723921229
 10
16.6167861463645
 20
49.1301374953268
 10
16.6168456503412
 20
49.130210556301
 10
16.6168994214377
 20
49.1303076829549
 10
16.6170075654303
 20
49.1305106619384
 10
16.6171153904759
 20
49.1306150372762
 10
16.617188851042
 20
49.1306799408218
 10
16.6172926618987
 20
49.130752404007
 10
16.6173695174208
 20
49.1308275444652
 10
16.6174095024127
 20
49.1308691247493
 10
16.6174552246189
 20
49.1309418933281
 10
16.6174733012391
 20
49.1309936993672
 10
16.6174777031831
 20
49.1310404643199
 10
16.6174753468874
 20
49.1310820460787
 10
16.6174776796384
 20
49.1310822602305
 10
16.6174744967681
 20
49.131097061944
 10
16.6174650793394
 20
49.1311408206224
 10
16.6173777426154
 20
49.1312667953161
 10
16.6173471873008
 20
49.1313108686609
 10
16.6172379010949
 20
49.1314084668614
 10
16.6171002092279
 20
49.1315314346316
 10
16.61698809922
 20
49.1316315532663
 10
16.6169248696299
 20
49.1317122829424
 10
16.6168308140324
 20
49.1318323678226
 10
16.6167469924768
 20
49.1319832469699
 10
16.6167140517959
 20
49.1321199632046
 10
16.6167102015019
 20
49.1321574611423
 10
16.6167164447434
 20
49.1322660061253
 10
16.6168437911286
 20
49.1324547930276
 10
16.6169648809604
 20
49.1325682839785
 10
16.617104292486
 20
49.1326709058784
 10
16.6172746133744
 20
49.1327962770795
 10
16.6173549973454
 20
49.1328554488607
 10
16.6174325373797
 20
49.1329571808059
 10
16.6174542415057
 20
49.1330480918508
 10
16.6174051072246
 20
49.1333017333127
 10
16.6173917624166
 20
49.1333706263671
 10
16.6173889070245
 20
49.1333853635555
 10
16.6173846179741
 20
49.1334075055477
 10
16.6173758252804
 20
49.1335454437221
 10
16.6173675675522
 20
49.1336750134383
 10
16.6174024564463
 20
49.1337555887686
 10
16.6174493807747
 20
49.1338146949162
 10
16.6175801582745
 20
49.1339150796226
 10
16.6178298386807
 20
49.1340701378765
 10
16.6180231613997
 20
49.1341768522496
 10
16.6182696414388
 20
49.1343129089419
 10
16.6183628909123
 20
49.1343551357185
 10
16.6185772412047
 20
49.1344487557092
 10
16.6187071738892
 20
49.134490212837
 10
16.6188354824052
 20
49.1345290429602
 10
16.618999430026
 20
49.1345711603096
 10
16.6192051934332
 20
49.1346193557934
 10
16.6192525388976
 20
49.1346304460506
 10
16.6194710103199
 20
49.1347041534153
 10
16.6196878341975
 20
49.1348510652537
 10
16.6199007305468
 20
49.1350915718303
 10
16.620148416034
 20
49.1353133580864
 10
16.6204042436001
 20
49.1354521934471
 10
16.6208341490009
 20
49.1356854946152
 10
16.6212195649516
 20
49.1358946479528
 10
16.6214323715086
 20
49.135981664536
 10
16.6215476509575
 20
49.1360260237896
 10
16.6216714410337
 20
49.1360477918507
 10
16.6220277213367
 20
49.1360748159397
 10
16.6222690672245
 20
49.1360667940674
 10
16.6225257961556
 20
49.1361085667389
 10
16.6226057770063
 20
49.1361215793461
 10
16.6227555270268
 20
49.1361665547785
 10
16.622908938947
 20
49.1362530320714
 10
16.623016047977
 20
49.1363912585485
 10
16.6231033866707
 20
49.1365039759186
 10
16.6231162272944
 20
49.1366151989821
 10
16.6231144513763
 20
49.1368727839683
 10
16.6230964974079
 20
49.1371117532863
 10
16.6230757462929
 20
49.1372107090743
 10
16.6230585954745
 20
49.1372925011922
 10
16.6230505508532
 20
49.1373308697118
 10
16.6229635141053
 20
49.1377459297934
 10
16.6229272499206
 20
49.1380264264552
 10
16.6229417312558
 20
49.1381716260353
 10
16.6231048349493
 20
49.1383584740356
 10
16.6232945126666
 20
49.1384554856603
 10
16.623650849549
 20
49.1386377343121
 10
16.6237689657323
 20
49.1388029978458
 10
16.6237943221823
 20
49.1388427244242
 10
16.6238770056053
 20
49.1389722674296
 10
16.6240092711925
 20
49.1392675109526
 10
16.6240983652304
 20
49.13943744687
 10
16.6242401137184
 20
49.1396559970923
 10
16.6242975825063
 20
49.1397313722862
 10
16.624456063
 20
49.1398877465871
 10
16.6246183331969
 20
49.1399994532025
 10
16.6248999746289
 20
49.1401933375239
 10
16.6252155655287
 20
49.1404105890676
 10
16.625368662482
 20
49.1405114841074
 10
16.6256034726319
 20
49.1406372335608
 10
16.6258714639877
 20
49.1407226285062
 10
16.6259683490321
 20
49.1407534987901
 10
16.6260314458458
 20
49.1407975265596
 10
16.6260607517756
 20
49.1408534616907
 10
16.6260414045966
 20
49.1409202360588
 10
16.6259612564237
 20
49.1409942492975
 10
16.6255615353751
 20
49.1412291018206
 10
16.6251919026204
 20
49.1414227156822
 10
16.625024875077
 20
49.1415227567874
 10
16.6249396073911
 20
49.1415828335288
 10
16.6248772327881
 20
49.1416269656302
 10
16.6248083186333
 20
49.1416763746554
 10
16.6246991911715
 20
49.1417546139458
 10
16.6245982436151
 20
49.1418233499046
 10
16.6244592136886
 20
49.1419589158998
 10
16.6243379479976
 20
49.1421028232013
 10
16.6241723242691
 20
49.1423672704049
 10
16.6240460811894
 20
49.1425732164998
 10
16.6239541107669
 20
49.1427407856216
 10
16.6239019838483
 20
49.1428799497683
 10
16.6238794166048
 20
49.1431170610245
 10
16.6238860552711
 20
49.1434112957572
 10
16.6239303213745
 20
49.1437195517245
 10
16.6239719372673
 20
49.1438501475536
 97
0
 75
0
 76
1
 98
0
  0
HATCH
  5
20020
100
AcDbEntity
  8
plocha Q5
100
AcDbHatch
 10
0
 20
0
 30
0
210
0
220
0
230
1
  2
SOLID
 70
1
 71
0
 91
2
 92
2
 72
0
 73
1
 93
337
 10
16.6476114953756
 20
49.22802678468
 10
16.6474583596593
 20
49.2280596880131
 10
16.6474003590688
 20
49.2280721506016
 10
16.6472724325491
 20
49.2280914210378
 10
16.6471191747025
 20
49.2281145066619
 10
16.6470408091249
 20
49.2281263100573
 10
16.6469730920203
 20
49.2281365095029
 10
16.6468829505949
 20
49.2281723542696
 10
16.6466815940207
 20
49.2282524206195
 10
16.6464079885348
 20
49.2283008000183
 10
16.6463437061113
 20
49.2283012877638
 10
16.6462249886245
 20
49.2282905997058
 10
16.6460377067223
 20
49.2282737399863
 10
16.6458475110537
 20
49.2282566194304
 10
16.6456814295778
 20
49.2282303592127
 10
16.6454882303772
 20
49.2281998088025
 10
16.6452727454286
 20
49.2280481675899
 10
16.6451825206088
 20
49.2278217992776
 10
16.6451479160547
 20
49.2277349763804
 10
16.6450083718175
 20
49.2277117259857
 10
16.6448203255774
 20
49.2276803960787
 10
16.6446143810046
 20
49.2276595014283
 10
16.6444384908528
 20
49.2276416565148
 10
16.6441944659016
 20
49.2276168974045
 10
16.6440387893024
 20
49.2275921368497
 10
16.6437849125905
 20
49.2275444311461
 10
16.6431511901205
 20
49.227499754628
 10
16.6428282925621
 20
49.2274157329619
 10
16.6426562476302
 20
49.2273709640808
 10
16.6425068755267
 20
49.22732551612
 10
16.6424075534922
 20
49.22729248944
 10
16.6422551783783
 20
49.2272418232566
 10
16.6421572155008
 20
49.2272092503327
 10
16.6420684129963
 20
49.2271869583272
 10
16.6419862380469
 20
49.2271663283483
 10
16.641953254434
 20
49.2271580486094
 10
16.6417786831795
 20
49.2271142243942
 10
16.6416339081863
 20
49.2270778833706
 10
16.6415591417669
 20
49.2270654226024
 10
16.641365960123
 20
49.2270332307818
 10
16.6411971308365
 20
49.2270050948407
 10
16.6411157203054
 20
49.2269153827902
 10
16.6411469136785
 20
49.2268038722852
 10
16.6411267344501
 20
49.2267705872545
 10
16.6409608310336
 20
49.2268004263197
 10
16.6407624361198
 20
49.2268352211268
 10
16.6405513547734
 20
49.226869918628
 10
16.6403676648458
 20
49.2268967523788
 10
16.6401450414586
 20
49.2269229373625
 10
16.6397878626752
 20
49.2269008848587
 10
16.6396090550337
 20
49.2268720463267
 10
16.6394317959899
 20
49.2268335224123
 10
16.6391955487112
 20
49.2267595125327
 10
16.6390304225752
 20
49.2267077840414
 10
16.6388657061136
 20
49.2266341593258
 10
16.6386899103135
 20
49.2265555823469
 10
16.6385631003837
 20
49.2264899366475
 10
16.6383000639538
 20
49.2263450132979
 10
16.6382148013237
 20
49.2262824048376
 10
16.6381123440048
 20
49.226207171755
 10
16.6380278842084
 20
49.2261203803699
 10
16.6378609711362
 20
49.2259474408807
 10
16.6376440549507
 20
49.22571111187
 10
16.6375558440855
 20
49.2256180190324
 10
16.6374532463313
 20
49.225499280008
 10
16.63738304732
 20
49.225392150786
 10
16.6373359281034
 20
49.2253202423012
 10
16.6373196433179
 20
49.2252601743507
 10
16.6372708680225
 20
49.2250802636604
 10
16.6372455369075
 20
49.2249868224323
 10
16.6373352944437
 20
49.2248548577526
 10
16.6373711979425
 20
49.224801611355
 10
16.6374165390058
 20
49.2247532148368
 10
16.6375517589445
 20
49.2246088757066
 10
16.6376155158459
 20
49.2245267063796
 10
16.6376853037352
 20
49.224436765459
 10
16.6377422098692
 20
49.224323569282
 10
16.6377817117486
 20
49.2242328120557
 10
16.6378105178497
 20
49.2241565258087
 10
16.637806306864
 20
49.2241254374308
 10
16.6377813255569
 20
49.2240508825368
 10
16.6377111764875
 20
49.2239736347032
 10
16.6375700539632
 20
49.2238801585919
 10
16.6374480835301
 20
49.2237992759655
 10
16.6373487498534
 20
49.2237249531294
 10
16.6372930033336
 20
49.2236691890106
 10
16.6372252377171
 20
49.2236014022455
 10
16.6371647128194
 20
49.2235563225914
 10
16.6371196392051
 20
49.2235292989329
 10
16.6370276562426
 20
49.2234954894781
 10
16.6369429151944
 20
49.2234738674769
 10
16.6367918413433
 20
49.2234421443839
 10
16.6367059887518
 20
49.2234137815313
 10
16.6364179972026
 20
49.2232984027626
 10
16.6362787555704
 20
49.2232232180858
 10
16.636218513748
 20
49.2231652430656
 10
16.6361620097894
 20
49.223073069229
 10
16.6361602529836
 20
49.2229667257404
 10
16.6362010442066
 20
49.2228444093029
 10
16.6363116048529
 20
49.2227719055145
 10
16.636403001908
 20
49.222740452093
 10
16.6364901599614
 20
49.2227135383221
 10
16.6366072302194
 20
49.2226817537633
 10
16.6367117298577
 20
49.2226395454594
 10
16.6367565315158
 20
49.2226080128023
 10
16.6368175668362
 20
49.222561298387
 10
16.6368582459945
 20
49.2225236401484
 10
16.6368876697486
 20
49.2224750595724
 10
16.6369291366911
 20
49.2223948976909
 10
16.6369794599031
 20
49.2222959818366
 10
16.6370243890978
 20
49.2221869506893
 10
16.6370356188577
 20
49.2220993785747
 10
16.637035909009
 20
49.2220379375968
 10
16.6370134482409
 20
49.2219404893288
 10
16.6370039419223
 20
49.2218349259663
 10
16.6370013142626
 20
49.2217169241975
 10
16.6370073962672
 20
49.2216466890589
 10
16.6370211661295
 20
49.2215884043169
 10
16.6370413015864
 20
49.2215330578186
 10
16.6370835891452
 20
49.2214541296418
 10
16.6370968556495
 20
49.2214037405616
 10
16.6370822151215
 20
49.2213676706331
 10
16.6371257953806
 20
49.2212555089627
 10
16.6371548094116
 20
49.2211808339314
 10
16.6372059944082
 20
49.2210490955574
 10
16.6372386826449
 20
49.2209649659176
 10
16.6372697236752
 20
49.2208850750029
 10
16.6373224286935
 20
49.2207494217523
 10
16.6373358266835
 20
49.220719094653
 10
16.637397188737
 20
49.2206419465074
 10
16.6374476765867
 20
49.2205784688823
 10
16.6374671747447
 20
49.2205250861921
 10
16.6375359681599
 20
49.2204397660203
 10
16.637596016051
 20
49.2203919651344
 10
16.6376729375008
 20
49.2202952524693
 10
16.6377518292722
 20
49.2201960613009
 10
16.6378008940582
 20
49.2201343716746
 10
16.6378750678767
 20
49.2200798125885
 10
16.638023617565
 20
49.2199705457604
 10
16.6381856442085
 20
49.2198513626301
 10
16.6382887019665
 20
49.2197755560586
 10
16.6383611517074
 20
49.2197222634292
 10
16.6383877210547
 20
49.2197027196058
 10
16.6384400886971
 20
49.2196259485873
 10
16.6385235148012
 20
49.2195036407369
 10
16.6385960366615
 20
49.2193973212714
 10
16.6386555783459
 20
49.2193100265175
 10
16.638686782952
 20
49.2192642802026
 10
16.6387111935063
 20
49.219115820383
 10
16.6387298638128
 20
49.2190022709271
 10
16.6387800393684
 20
49.2186971095885
 10
16.6388032156878
 20
49.218556152883
 10
16.6387903119449
 20
49.2185389342662
 10
16.6388050476381
 20
49.2184189469755
 10
16.6388151782336
 20
49.2183364482382
 10
16.6388899462168
 20
49.2181941659869
 10
16.6389608443433
 20
49.2180592524284
 10
16.6389746109707
 20
49.218033054767
 10
16.6389977697639
 20
49.2180134629077
 10
16.6391562821351
 20
49.2178793797956
 10
16.6392834722149
 20
49.21777179234
 10
16.6393661278172
 20
49.2177018737339
 10
16.6395401714648
 20
49.2175974341302
 10
16.6396467315559
 20
49.2175334888735
 10
16.6398100799656
 20
49.2174354685593
 10
16.6399126184189
 20
49.2173739355739
 10
16.6400355002037
 20
49.2173001966327
 10
16.640152655658
 20
49.2172344967097
 10
16.6403090468864
 20
49.217165254963
 10
16.6405709380033
 20
49.2170493017127
 10
16.6407686422086
 20
49.2169617659871
 10
16.6408932969719
 20
49.2169011230089
 10
16.6410066933806
 20
49.2168459563732
 10
16.6412109003315
 20
49.2167466097798
 10
16.6413731324484
 20
49.2166676841908
 10
16.6415501585941
 20
49.2165809002343
 10
16.6416389148031
 20
49.2165373882942
 10
16.6417402361731
 20
49.2164432974129
 10
16.6418377986367
 20
49.2163526948302
 10
16.6418600311807
 20
49.2162174202765
 10
16.6418808460417
 20
49.2160907709789
 10
16.6418772123046
 20
49.2159966986676
 10
16.641872082956
 20
49.2158638845143
 10
16.6418680156359
 20
49.215758665004
 10
16.6423137196174
 20
49.2157128212774
 10
16.6423078418324
 20
49.216004965842
 10
16.642291818384
 20
49.2161304679461
 10
16.6422785055686
 20
49.2162347374919
 10
16.6422442507416
 20
49.2163714017835
 10
16.642229563443
 20
49.2164300063522
 10
16.6421980556742
 20
49.216492633383
 10
16.6421665375173
 20
49.2165552895245
 10
16.6421544724943
 20
49.2165792703307
 10
16.6420639104761
 20
49.2166643604254
 10
16.6420257796137
 20
49.2167001863315
 10
16.6419850634607
 20
49.2167384437598
 10
16.6418892460144
 20
49.2167912495447
 10
16.6417266292077
 20
49.2168819192274
 10
16.6416247668053
 20
49.2169404189095
 10
16.6415579391463
 20
49.2169787990477
 10
16.6415264438248
 20
49.2170730374381
 10
16.6415094554137
 20
49.2171238705323
 10
16.6414750338187
 20
49.2172268728802
 10
16.6414577449555
 20
49.2172971151185
 10
16.6414345933635
 20
49.2173911903959
 10
16.64142716597
 20
49.2174803293595
 10
16.6414369207716
 20
49.2176406811401
 10
16.6414383749297
 20
49.21775751043
 10
16.6414182828804
 20
49.2178797508714
 10
16.6413636832386
 20
49.2179487634663
 10
16.6412693708384
 20
49.2180679696026
 10
16.6411274038496
 20
49.2181149947519
 10
16.6409396293756
 20
49.2181771925589
 10
16.6407207745514
 20
49.21818443929
 10
16.6405668216766
 20
49.2181895363203
 10
16.6403745499366
 20
49.2181814864599
 10
16.6402141083222
 20
49.218174769902
 10
16.6400375022705
 20
49.218175034839
 10
16.6398721881041
 20
49.2181768847588
 10
16.6397297242465
 20
49.2181901434567
 10
16.6396377866328
 20
49.218200545674
 10
16.6395808008159
 20
49.2182190509957
 10
16.6395005530542
 20
49.2183053438536
 10
16.6394743037341
 20
49.2183335723879
 10
16.6393902258762
 20
49.2184239861186
 10
16.6393476123203
 20
49.2185169957998
 10
16.6393165727591
 20
49.2185952029731
 10
16.639282984952
 20
49.2186798220337
 10
16.639239389126
 20
49.2187896621337
 10
16.639240328562
 20
49.2188522660014
 10
16.6392418054907
 20
49.2189508110068
 10
16.6392428381064
 20
49.2190196757477
 10
16.6392599523111
 20
49.2191809018822
 10
16.6392720535617
 20
49.2192948946806
 10
16.6392796716503
 20
49.2193666615032
 10
16.6393304786376
 20
49.2195112221334
 10
16.6393799830502
 20
49.2196269400403
 10
16.639421844687
 20
49.2197247894086
 10
16.639462319775
 20
49.2197786514034
 10
16.6395540077956
 20
49.2198682306391
 10
16.6396523965743
 20
49.2199643549698
 10
16.6398347262923
 20
49.2201424885505
 10
16.6399505170747
 20
49.2202416173469
 10
16.6400347494193
 20
49.2203028238478
 10
16.6401714489859
 20
49.2204021528705
 10
16.6403453533718
 20
49.2205285162488
 10
16.6404174705196
 20
49.2205809186089
 10
16.6405515011094
 20
49.2207269311536
 10
16.6406442896198
 20
49.2208291985514
 10
16.6406375299041
 20
49.221106283693
 10
16.6406644935841
 20
49.2214220150343
 10
16.6406637966159
 20
49.2215796625326
 10
16.6406206199384
 20
49.2217699764137
 10
16.6405598809492
 20
49.2219806037838
 10
16.6404809265311
 20
49.2221298681329
 10
16.640394376877
 20
49.2222934876473
 10
16.6403353482751
 20
49.2224050823227
 10
16.6402719280709
 20
49.2224988977287
 10
16.6402114174375
 20
49.222588410548
 10
16.640164520788
 20
49.2226577800124
 10
16.6401030594303
 20
49.2227486972857
 10
16.6400660933313
 20
49.222823233366
 10
16.639998292653
 20
49.2229599372815
 10
16.6399288073797
 20
49.2231000316331
 10
16.6398526282064
 20
49.2233132807939
 10
16.6397835298235
 20
49.2235067072443
 10
16.6397640015502
 20
49.2235613733102
 10
16.6397676954742
 20
49.2237229774242
 10
16.6397720239665
 20
49.2239124183218
 10
16.6397789701876
 20
49.2242163594633
 10
16.6398233801547
 20
49.2244446048138
 10
16.6398779468841
 20
49.2247571569289
 10
16.6399052849708
 20
49.2249242047728
 10
16.6399492937524
 20
49.2250565316095
 10
16.640020364107
 20
49.2252242707536
 10
16.6401289968184
 20
49.2253635495873
 10
16.6402408532193
 20
49.2255054488188
 10
16.6404162532732
 20
49.2256765210515
 10
16.6405691833282
 20
49.225792060377
 10
16.6407705904571
 20
49.2259289092313
 10
16.6409420077388
 20
49.2260453782039
 10
16.6410210429552
 20
49.2260990787033
 10
16.6411266200932
 20
49.2261496456717
 10
16.6412696284803
 20
49.2262168159886
 10
16.6413082962042
 20
49.2262221756734
 10
16.6415176306497
 20
49.2262511817943
 10
16.6418025415515
 20
49.2263445285533
 10
16.6421888654448
 20
49.2265292151117
 10
16.6423782586106
 20
49.2267420012363
 10
16.6425624747059
 20
49.226829304064
 10
16.6429437949741
 20
49.227005242448
 10
16.6432159965756
 20
49.2271054610813
 10
16.643518716259
 20
49.2271412387132
 10
16.6439599263405
 20
49.2271992417285
 10
16.6442466593575
 20
49.2272356160822
 10
16.6446554426048
 20
49.2272818301798
 10
16.645195159466
 20
49.2273499401036
 10
16.6454004760787
 20
49.2274094934551
 10
16.6455775954289
 20
49.2274608672324
 10
16.6457075966175
 20
49.2274797135523
 10
16.6458593609431
 20
49.2275017179179
 10
16.6460512733295
 20
49.2273280006968
 10
16.6461897197414
 20
49.2272061729185
 10
16.6462510308907
 20
49.2271580324386
 10
16.64634458635
 20
49.227084572449
 10
16.6467384555194
 20
49.2270283580413
 10
16.6470433829096
 20
49.2271233202937
 10
16.6471672199904
 20
49.2272475061293
 10
16.6471917862344
 20
49.2273515559445
 10
16.6472196626448
 20
49.2275136093801
 10
16.6472087399615
 20
49.2276292993813
 10
16.6472018078577
 20
49.2277027337312
 10
16.6472428287613
 20
49.2277444257846
 10
16.6473696109878
 20
49.2277484492252
 10
16.6474690447712
 20
49.2277516045725
 10
16.6475700934496
 20
49.2277522851084
 10
16.6477451847889
 20
49.227709584293
 10
16.6479822272734
 20
49.2276233870006
 10
16.6481673762317
 20
49.2275861787456
 10
16.6485264118906
 20
49.2275217642433
 10
16.6486309030455
 20
49.2275080824109
 10
16.6487560213078
 20
49.2275108059325
 10
16.6488882523798
 20
49.2275136840221
 10
16.6490620773445
 20
49.2275174662912
 10
16.6489535195401
 20
49.2278320533814
 10
16.6488439981474
 20
49.2278694718437
 10
16.6485730862192
 20
49.2278923778057
 10
16.6484376905528
 20
49.2279038244021
 10
16.6488270454005
 20
49.2280988131052
 10
16.6487209748884
 20
49.2282281758665
 10
16.6485611734649
 20
49.2281515535486
 10
16.6483004878044
 20
49.2280389470766
 10
16.6481402710697
 20
49.2279764873212
 10
16.648077208041
 20
49.227951900349
 10
16.6479153660542
 20
49.2279614902416
 10
16.6477614846747
 20
49.2279945557628
 10
16.6476114953756
 20
49.22802678468
 97
0
 92
2
 72
0
 73
1
 93
172
 10
16.6401403968748
 20
49.2268503983381
 10
16.6404164475678
 20
49.2268179248296
 10
16.6407216154685
 20
49.2267677527355
 10
16.6409785666894
 20
49.2267219976486
 10
16.6411790492119
 20
49.2266889904035
 10
16.6411934639519
 20
49.2266374628642
 10
16.6412032997928
 20
49.2266059670849
 10
16.6412119988133
 20
49.2265781102385
 10
16.6411409961013
 20
49.2264884971844
 10
16.6410956015979
 20
49.226427546749
 10
16.6410662170272
 20
49.2263808226823
 10
16.6410278197764
 20
49.2263197642012
 10
16.6409215212148
 20
49.2262464861676
 10
16.6407882563154
 20
49.226154617308
 10
16.6406535481514
 20
49.2260617528737
 10
16.6405675766152
 20
49.2260024853073
 10
16.6405282026716
 20
49.2259753424807
 10
16.6404384526853
 20
49.2259022107868
 10
16.6403289525698
 20
49.2258090235975
 10
16.6402287119394
 20
49.225723715009
 10
16.6401050126025
 20
49.2256184411153
 10
16.6399939612735
 20
49.2255256334159
 10
16.6398719119844
 20
49.2254209793604
 10
16.6398414216728
 20
49.2253901115059
 10
16.6397720114595
 20
49.2253043929482
 10
16.6397149365428
 20
49.225179415636
 10
16.6396627144682
 20
49.225052691284
 10
16.6396365500606
 20
49.2248889070811
 10
16.6396018579469
 20
49.2246717392721
 10
16.6395807510318
 20
49.2244934832486
 10
16.6395701203964
 20
49.22435812183
 10
16.6395608927877
 20
49.2242027389045
 10
16.6395548034006
 20
49.2241002101777
 10
16.6395546660231
 20
49.2240172304744
 10
16.6395572879437
 20
49.2239330480251
 10
16.6395605825593
 20
49.2238273309633
 10
16.6395657831692
 20
49.2236604128504
 10
16.6395680099271
 20
49.2235889046657
 10
16.639570288135
 20
49.223515790183
 10
16.6395843985213
 20
49.223458988232
 10
16.6396055596089
 20
49.2233738080522
 10
16.6396281189959
 20
49.223282986846
 10
16.6396454351624
 20
49.2232132792692
 10
16.6396812980573
 20
49.2231241770103
 10
16.6397278253107
 20
49.2230085767205
 10
16.6397668324119
 20
49.2229116619819
 10
16.6397856244427
 20
49.222869476097
 10
16.6398618620146
 20
49.2227286099626
 10
16.6399219040936
 20
49.2226176630567
 10
16.63998459104
 20
49.2225018314284
 10
16.6400284984755
 20
49.2224206940828
 10
16.6400841016015
 20
49.2223179539778
 10
16.6401394766286
 20
49.2222156255777
 10
16.6401898819401
 20
49.2221243662457
 10
16.6402718748226
 20
49.221987844828
 10
16.6403308854467
 20
49.221889585991
 10
16.6403518818545
 20
49.2216078476002
 10
16.6403720471453
 20
49.2213962903706
 10
16.6403552661788
 20
49.2212539162618
 10
16.6403534872271
 20
49.221220288956
 10
16.6402084695694
 20
49.2209468254094
 10
16.6400287832386
 20
49.2207953543554
 10
16.6398767168353
 20
49.2206862946806
 10
16.6396833758225
 20
49.2206001670395
 10
16.6394969790883
 20
49.2205171319171
 10
16.6392999379258
 20
49.2204293550844
 10
16.6391668558237
 20
49.220413125406
 10
16.6390369681942
 20
49.2203972864456
 10
16.6389829927981
 20
49.2204745737941
 10
16.6390450354103
 20
49.2206120140812
 10
16.6390586174062
 20
49.2206421002039
 10
16.639124740543
 20
49.2207207393838
 10
16.6391665175461
 20
49.2207704233562
 10
16.6391694095312
 20
49.2208001315731
 10
16.6391445626599
 20
49.2208357100735
 10
16.6390928696993
 20
49.2208573012208
 10
16.6389993493255
 20
49.220840751037
 10
16.6388505920539
 20
49.2208144231366
 10
16.6387722028459
 20
49.220800550169
 10
16.6387208198709
 20
49.2207789816453
 10
16.6386705840971
 20
49.2207436178854
 10
16.6385251082124
 20
49.2206412094529
 10
16.6384670896055
 20
49.2206003681151
 10
16.6383791941542
 20
49.2205687598044
 10
16.6382650597349
 20
49.2205277126777
 10
16.6382100387535
 20
49.2205308149099
 10
16.6381224800058
 20
49.2205854618353
 10
16.6380514450995
 20
49.2206297970208
 10
16.6380066636298
 20
49.2206577470731
 10
16.6379803716783
 20
49.220674155683
 10
16.6379487586765
 20
49.2207442744013
 10
16.6378367753118
 20
49.2209926570781
 10
16.6378006110307
 20
49.2210728667516
 10
16.6377024730862
 20
49.221222641156
 10
16.6376299181492
 20
49.2213242213817
 10
16.6375486281719
 20
49.2214380330439
 10
16.6375053181544
 20
49.2214986662106
 10
16.637476569952
 20
49.2215389147479
 10
16.6374340999146
 20
49.2215559933818
 10
16.6373679494092
 20
49.2215542272808
 10
16.6372766911649
 20
49.2215517911362
 10
16.637211625495
 20
49.2215753584419
 10
16.6371878410739
 20
49.2216311140636
 10
16.6371816681415
 20
49.2217575095314
 10
16.63719810825
 20
49.2218352471979
 10
16.6372009952999
 20
49.2219287790691
 10
16.6371807641977
 20
49.2220517902798
 10
16.6371338562805
 20
49.222292571501
 10
16.6371005839133
 20
49.222303853003
 10
16.6370758014102
 20
49.222351678474
 10
16.6370580059864
 20
49.222442766911
 10
16.6370189944875
 20
49.2225022326546
 10
16.6369554938475
 20
49.2225581786444
 10
16.6369101748281
 20
49.222600128572
 10
16.6368860581952
 20
49.2226224528171
 10
16.6368536539145
 20
49.222645254086
 10
16.6367822284975
 20
49.2226955143436
 10
16.6366696296778
 20
49.222743299696
 10
16.6365638050681
 20
49.2227716251266
 10
16.6363775002437
 20
49.2228304974479
 10
16.6363014862859
 20
49.2228803495436
 10
16.6362942087653
 20
49.2229021787982
 10
16.6362702256969
 20
49.2229741082999
 10
16.6362712320277
 20
49.2230353848625
 10
16.6362858958663
 20
49.2230872881606
 10
16.6363217247706
 20
49.223136703599
 10
16.6363821613994
 20
49.2231865268652
 10
16.6364227767447
 20
49.2232093371436
 10
16.6365439442363
 20
49.2232677990044
 10
16.6366832024466
 20
49.2233230475481
 10
16.6368162846698
 20
49.2233717369342
 10
16.6369542364422
 20
49.2234006944316
 10
16.6370760866915
 20
49.2234307894271
 10
16.6371844406034
 20
49.2234706308043
 10
16.6372876355209
 20
49.2235324960605
 10
16.6373219687117
 20
49.2235668413301
 10
16.637393795162
 20
49.2236386942762
 10
16.6374364281097
 20
49.2236813401182
 10
16.6374964497347
 20
49.2237262411877
 10
16.6375788768513
 20
49.2237879061503
 10
16.6376815606212
 20
49.2238494771359
 10
16.6378319091999
 20
49.2239553366251
 10
16.6379070666123
 20
49.2240552822926
 10
16.63791639887
 20
49.2241240914098
 10
16.6379158343989
 20
49.2241772905363
 10
16.637888683694
 20
49.2242491713139
 10
16.6378323226661
 20
49.2243743457086
 10
16.6377870212982
 20
49.2244644712861
 10
16.6377693361171
 20
49.2244872675902
 10
16.6376901099537
 20
49.2245893741635
 10
16.6376141319271
 20
49.2246798651221
 10
16.6374686097323
 20
49.2248351820114
 10
16.6373586191315
 20
49.2249973154721
 10
16.6374217037614
 20
49.2252974502093
 10
16.6375291464594
 20
49.2254713791244
 10
16.6375775186712
 20
49.2255209698248
 10
16.6376216721125
 20
49.2255662371215
 10
16.6377576521999
 20
49.2257097344824
 10
16.6379112290928
 20
49.2258786645325
 10
16.6379978167898
 20
49.2259672667496
 10
16.6380760884655
 20
49.2260425700891
 10
16.6381871000668
 20
49.2261493689072
 10
16.6382836595991
 20
49.2262225515112
 10
16.6383774490858
 20
49.2262936356289
 10
16.6384938290124
 20
49.2263577634626
 10
16.6385624796185
 20
49.2263955890448
 10
16.6387157816563
 20
49.2264800611708
 10
16.6389952755364
 20
49.2266049801152
 10
16.6391533610341
 20
49.2266665517652
 10
16.6394710045828
 20
49.2267660662576
 10
16.6397932797566
 20
49.2268270222407
 10
16.6401403968748
 20
49.2268503983381
 97
0
 75
0
 76
1
 98
0
  0
HATCH
  5
20021
100
AcDbEntity
  8
plocha Q5
100
AcDbHatch
 10
0
 20
0
 30
0
210
0
220
0
230
1
  2
SOLID
 70
1
 71
0
 91
1
 92
2
 72
0
 73
1
 93
123
 10
16.5607112007024
 20
49.2079733091976
 10
16.5603264310873
 20
49.2080929939275
 10
16.5601854394479
 20
49.2081526174079
 10
16.5599630266231
 20
49.2084111756387
 10
16.5596595001377
 20
49.2088391718623
 10
16.559606426159
 20
49.2090268559048
 10
16.5595729851328
 20
49.2090962722258
 10
16.559466706905
 20
49.209208364634
 10
16.5592621553179
 20
49.2094283327754
 10
16.5591189870286
 20
49.2095425830024
 10
16.5589061217
 20
49.2096805840814
 10
16.5586614441644
 20
49.2098104488997
 10
16.5584823735345
 20
49.2098865390787
 10
16.558294759808
 20
49.2099398059612
 10
16.5580385393644
 20
49.2100164557551
 10
16.557627152487
 20
49.2101365679123
 10
16.5574441084309
 20
49.2100670520858
 10
16.5571168953471
 20
49.209691033707
 10
16.5572958180056
 20
49.2096031241394
 10
16.5575193743127
 20
49.2094888518601
 10
16.5579749745217
 20
49.2092559668337
 10
16.5582050718522
 20
49.2089885010728
 10
16.5582108695542
 20
49.2087050469533
 10
16.5579409344113
 20
49.2085911850913
 10
16.5570233770548
 20
49.2085257820833
 10
16.5569099114979
 20
49.2084636245016
 10
16.5568221532956
 20
49.2082489982143
 10
16.5568115512855
 20
49.208186263642
 10
16.5568304078302
 20
49.2080727112483
 10
16.5568783919245
 20
49.207914772395
 10
16.5569690624774
 20
49.2076543538529
 10
16.5570656217965
 20
49.2073909412593
 10
16.5571231957174
 20
49.2072612434811
 10
16.5573671259015
 20
49.2070768818284
 10
16.5577953060845
 20
49.2071074028228
 10
16.5581875717947
 20
49.2072299848527
 10
16.5585394585853
 20
49.2073305307561
 10
16.5590944463817
 20
49.2074838617657
 10
16.5596144690284
 20
49.2074468855419
 10
16.5597420514657
 20
49.207435390449
 10
16.5599889950311
 20
49.2073571814018
 10
16.5600904645682
 20
49.2073250447211
 10
16.5601560240782
 20
49.2072121292415
 10
16.5602638038223
 20
49.2070264953661
 10
16.5602388288515
 20
49.2067906269479
 10
16.5602138762264
 20
49.2065549663306
 10
16.5602075584747
 20
49.2064953082847
 10
16.5602644004698
 20
49.2063625352947
 10
16.5603669286352
 20
49.2060916335679
 10
16.5604315344665
 20
49.2059058992337
 10
16.5605440283493
 20
49.2055382288277
 10
16.5606646940401
 20
49.2051998984036
 10
16.5608194163062
 20
49.2048652791496
 10
16.5610046686506
 20
49.2045515315226
 10
16.5611713939138
 20
49.2044171588829
 10
16.5612666334629
 20
49.2043404009712
 10
16.561644038784
 20
49.2042316006445
 10
16.5618333939489
 20
49.2041647871918
 10
16.5619672468139
 20
49.2041039267318
 10
16.5621683370655
 20
49.2039935080455
 10
16.5624619037147
 20
49.2038531848774
 10
16.5626398100731
 20
49.2037790698767
 10
16.5627242259405
 20
49.2037439020418
 10
16.5629447651908
 20
49.2036616706451
 10
16.563304355329
 20
49.2035609006198
 10
16.5637731975003
 20
49.2034295108047
 10
16.5640800287289
 20
49.2033279392664
 10
16.5644569774668
 20
49.2031969583444
 10
16.5647369807383
 20
49.2030641126193
 10
16.5650162471798
 20
49.2029435636942
 10
16.5654895127671
 20
49.2027362986053
 10
16.5659859996556
 20
49.2025056131745
 10
16.5662295413814
 20
49.2023924523259
 10
16.5664772939407
 20
49.2025792657845
 10
16.5661702045773
 20
49.2027373835059
 10
16.5657008892061
 20
49.2029641560309
 10
16.5654961963252
 20
49.2030647225547
 10
16.5651714119031
 20
49.2033602882107
 10
16.5649137672831
 20
49.2034338411114
 10
16.5646597200464
 20
49.2035125406265
 10
16.5642625809596
 20
49.2036526874118
 10
16.5641315181561
 20
49.2036989369206
 10
16.5639020482731
 20
49.2037657647745
 10
16.563605220632
 20
49.2038421512487
 10
16.5633397582136
 20
49.2039104639257
 10
16.5630763004063
 20
49.20398922082
 10
16.5630227072429
 20
49.2040115536702
 10
16.5629538003583
 20
49.2040402681087
 10
16.5627640410902
 20
49.2041246896794
 10
16.5625839339638
 20
49.2042195578597
 10
16.5624283438613
 20
49.2043015123245
 10
16.5623081653851
 20
49.2044029851548
 10
16.5622364174053
 20
49.2044635651346
 10
16.5621995711072
 20
49.2045496426159
 10
16.5621520790431
 20
49.2046854231988
 10
16.5621131792898
 20
49.204833273036
 10
16.5621236011381
 20
49.2049532839383
 10
16.5621372221511
 20
49.2051916251811
 10
16.5621424018814
 20
49.2054030840575
 10
16.5621477088377
 20
49.2056197414241
 10
16.5621856764685
 20
49.2057290545581
 10
16.5622341119258
 20
49.2058685141832
 10
16.5622687321837
 20
49.2059681931684
 10
16.5622873108199
 20
49.2060216905894
 10
16.5622998407938
 20
49.2061659480442
 10
16.5623084555854
 20
49.2062651393163
 10
16.5623156644823
 20
49.206348127532
 10
16.5623983033959
 20
49.2064522078189
 10
16.562486304722
 20
49.2065630435263
 10
16.5624734402202
 20
49.2067648885486
 10
16.5624194180096
 20
49.2068651453463
 10
16.562354195702
 20
49.2069861887472
 10
16.5623247052043
 20
49.2070894016267
 10
16.562304986766
 20
49.2071584102012
 10
16.5622365543978
 20
49.2072365895814
 10
16.5621267870167
 20
49.2073619917684
 10
16.5618781354658
 20
49.2074224491553
 10
16.5615258560195
 20
49.2074977697241
 10
16.5614410559612
 20
49.207515900526
 10
16.5613694354109
 20
49.2075887968076
 10
16.5611901080209
 20
49.2077713139557
 10
16.5611183405457
 20
49.2078443588649
 10
16.5607112007024
 20
49.2079733091976
 97
0
 75
0
 76
1
 98
0
  0
HATCH
  5
20022
100
AcDbEntity
  8
plocha Q5
100
AcDbHatch
 10
0
 20
0
 30
0
210
0
220
0
230
1
  2
SOLID
 70
1
 71
0
 91
1
 92
2
 72
0
 73
1
 93
618
 10
16.673161324076
 20
49.2406027669934
 10
16.6732947426498
 20
49.2406645875444
 10
16.6734720108556
 20
49.2407630992
 10
16.6735797541063
 20
49.2408255819365
 10
16.6736636443543
 20
49.2408838465258
 10
16.6737680099007
 20
49.2409563288646
 10
16.673818565127
 20
49.2409914387093
 10
16.6738422841821
 20
49.2410079128573
 10
16.6738832923215
 20
49.2410564221873
 10
16.6739180443716
 20
49.2410975283117
 10
16.6739496634641
 20
49.2411349333894
 10
16.6739631268884
 20
49.2411986689095
 10
16.673974615844
 20
49.241253063459
 10
16.6739671614513
 20
49.2413341021566
 10
16.673952707435
 20
49.2414229201961
 10
16.6739249403354
 20
49.2415190082768
 10
16.673900706699
 20
49.2416253508007
 10
16.6738835861732
 20
49.241729714676
 10
16.6738730387111
 20
49.2418400361364
 10
16.6738718923135
 20
49.2419452475483
 10
16.6738805913225
 20
49.2420124768962
 10
16.6738923512505
 20
49.2420658838604
 10
16.6739488433635
 20
49.242166178545
 10
16.6740201762318
 20
49.242237581116
 10
16.6740678517346
 20
49.2422853067027
 10
16.6741394210371
 20
49.242371334645
 10
16.6741924100164
 20
49.2424350305988
 10
16.6742403049526
 20
49.2424887224844
 10
16.6743256010882
 20
49.2425736628
 10
16.6743788504325
 20
49.2426313689465
 10
16.6744481901673
 20
49.2427308143135
 10
16.6745070554364
 20
49.2428129944414
 10
16.674534318947
 20
49.242850460646
 10
16.6745715322911
 20
49.2429558588574
 10
16.6746100873675
 20
49.2430666365828
 10
16.6746474666712
 20
49.2431798713083
 10
16.6746910483483
 20
49.2432872865637
 10
16.6747506913494
 20
49.2434193727963
 10
16.6747973673892
 20
49.2435151330815
 10
16.6748212088243
 20
49.2435708838643
 10
16.6748564283875
 20
49.2436691644412
 10
16.6748814879116
 20
49.2437435925615
 10
16.6749065430005
 20
49.2438399114774
 10
16.6749349532636
 20
49.2439532200091
 10
16.6749624605155
 20
49.2440684584399
 10
16.6750101945511
 20
49.2442839690732
 10
16.6750241488807
 20
49.244406093637
 10
16.675021068066
 20
49.2444866669262
 10
16.6750143045096
 20
49.2446208190891
 10
16.6750075478778
 20
49.2447196872981
 10
16.6749838616784
 20
49.2449421143239
 10
16.6749717702877
 20
49.2450789294754
 10
16.6749580959935
 20
49.2452790811069
 10
16.6749656551832
 20
49.245423132597
 10
16.6749494054891
 20
49.2455161033437
 10
16.6749423588352
 20
49.2455564226556
 10
16.6749225267483
 20
49.2456698835425
 10
16.6747072110663
 20
49.2456548990368
 10
16.6747459953195
 20
49.245489429494
 10
16.6747749071587
 20
49.2452234043547
 10
16.6747826847776
 20
49.2451095331839
 10
16.6748025154942
 20
49.2448770326413
 10
16.6748277058136
 20
49.244615094636
 10
16.6748355218591
 20
49.2444521667237
 10
16.6748316690667
 20
49.2443609447881
 10
16.6748275059587
 20
49.2443244618748
 10
16.6748061447727
 20
49.2442132797148
 10
16.6747874402957
 20
49.2441272908405
 10
16.6747445551166
 20
49.2439475993304
 10
16.6747033887559
 20
49.2437873239235
 10
16.6746810577672
 20
49.2437151809945
 10
16.6746317626819
 20
49.2435776694317
 10
16.6745816403554
 20
49.2434748243915
 10
16.6745294036304
 20
49.2433628854008
 10
16.6744886449339
 20
49.2432675783667
 10
16.6744649809406
 20
49.243205964915
 10
16.6744356028981
 20
49.2431169700735
 10
16.6744095054322
 20
49.2430399365745
 10
16.6743852028208
 20
49.242971107223
 10
16.6743569172058
 20
49.2428910051792
 10
16.6743003586295
 20
49.2428132801241
 10
16.6742703758176
 20
49.2427702788026
 10
16.6742042263661
 20
49.2426754101963
 10
16.674151534585
 20
49.2426229371079
 10
16.6740611640823
 20
49.242532941993
 10
16.6739893441772
 20
49.2424466133376
 10
16.6739179940773
 20
49.2423608502992
 10
16.6738484255844
 20
49.242289082264
 10
16.6737809279268
 20
49.2422215140238
 10
16.673745853478
 20
49.2421559156531
 10
16.6737114529111
 20
49.2420855793642
 10
16.6736943717747
 20
49.2420136807718
 10
16.6736876408071
 20
49.2418991760548
 10
16.6736928949609
 20
49.2417667364626
 10
16.6737098393365
 20
49.2416341942816
 10
16.6737330497571
 20
49.241532313716
 10
16.6737619375335
 20
49.2414252108894
 10
16.6737801368847
 20
49.2413329586078
 10
16.6737838511638
 20
49.2412926287248
 10
16.67378705904
 20
49.2412578027764
 10
16.673769402865
 20
49.2411742439801
 10
16.6737197322237
 20
49.2411154817864
 10
16.6736788714122
 20
49.2410671446244
 10
16.6735636001298
 20
49.2409859186866
 10
16.6733978981527
 20
49.2408762902627
 10
16.6732524271274
 20
49.2407919196069
 10
16.6731408841374
 20
49.2407365053636
 10
16.6730596281473
 20
49.2406988549765
 10
16.6729870859853
 20
49.2406710422826
 10
16.6728206789574
 20
49.2406216321957
 10
16.6727179369479
 20
49.2405945176346
 10
16.6725908923176
 20
49.2405692777867
 10
16.67246082704
 20
49.2405434385752
 10
16.6723268834862
 20
49.2405352296162
 10
16.6721698390512
 20
49.2405256061737
 10
16.6719959988368
 20
49.2405364517852
 10
16.6718313502356
 20
49.2405467199201
 10
16.6716156282934
 20
49.240580581004
 10
16.6713553106836
 20
49.2406182897481
 10
16.6711407705922
 20
49.2406504883902
 10
16.6709895703485
 20
49.2406837503688
 10
16.6708398755699
 20
49.2407150558513
 10
16.6705995004276
 20
49.2407719969096
 10
16.6704417797068
 20
49.2408110668748
 10
16.6702918258447
 20
49.2408545956087
 10
16.6701477414875
 20
49.240903852604
 10
16.6700440956772
 20
49.2409457166987
 10
16.6699508650803
 20
49.240987148376
 10
16.6698668667543
 20
49.2410244758541
 10
16.6697358275805
 20
49.2410549615574
 10
16.6695911733357
 20
49.2410886129709
 10
16.6693071299299
 20
49.2411246425049
 10
16.6690477528377
 20
49.2411011846045
 10
16.6688701083499
 20
49.2410667819732
 10
16.6686803063242
 20
49.2409984097923
 10
16.668584706789
 20
49.2409127251299
 10
16.6684644683836
 20
49.2407989889826
 10
16.6683410078545
 20
49.2406826322937
 10
16.6682091538523
 20
49.2405728658201
 10
16.6681042697048
 20
49.2404769568571
 10
16.6680228596256
 20
49.2404161993924
 10
16.6679140985842
 20
49.2403439485978
 10
16.6677637952484
 20
49.2402352772891
 10
16.6676578731358
 20
49.2401680091306
 10
16.6675543994316
 20
49.2401080948608
 10
16.6674243495866
 20
49.2400319535598
 10
16.6672999728887
 20
49.2399657821727
 10
16.6670852917756
 20
49.2398262628027
 10
16.6668896969466
 20
49.2397263726945
 10
16.6667986147404
 20
49.2396577551957
 10
16.6666298633251
 20
49.2395501795929
 10
16.6664924670093
 20
49.2394519838682
 10
16.6663691346511
 20
49.2393571703607
 10
16.6662739313312
 20
49.2392691189231
 10
16.6662174300315
 20
49.2392125026963
 10
16.6661517633485
 20
49.2391672076937
 10
16.6660388841558
 20
49.239075520599
 10
16.6658874252505
 20
49.2389739443105
 10
16.6657380318814
 20
49.2388820825986
 10
16.6656575254894
 20
49.2388381382
 10
16.6655699585987
 20
49.238681226805
 10
16.6655637930907
 20
49.2385850762102
 10
16.6655825317397
 20
49.238493068291
 10
16.6656416858151
 20
49.2383105779013
 10
16.6656730590521
 20
49.2382529576774
 10
16.6657039213109
 20
49.2381761604421
 10
16.665726905737
 20
49.2381251316498
 10
16.6657399479472
 20
49.2380901538455
 10
16.6657669318625
 20
49.2380370130791
 10
16.6657976725486
 20
49.2379386703989
 10
16.6658166544848
 20
49.2378897533621
 10
16.6658190024335
 20
49.2378085579108
 10
16.6658177357965
 20
49.2377271093007
 10
16.6657985306182
 20
49.2376659367106
 10
16.6657744645494
 20
49.2374560581844
 10
16.6657548888845
 20
49.2373302488471
 10
16.6657215773904
 20
49.2369761450207
 10
16.6657050044133
 20
49.2367428640176
 10
16.665688021158
 20
49.2365789501276
 10
16.6656835325047
 20
49.2364948810089
 10
16.6657114547863
 20
49.2363245521132
 10
16.6657462135823
 20
49.2361570968548
 10
16.6658005670604
 20
49.2360484494489
 10
16.6658647199816
 20
49.2359692051935
 10
16.6660140637078
 20
49.2357715164656
 10
16.6662370057872
 20
49.2355813485628
 10
16.6663657251807
 20
49.2354969542081
 10
16.666509738161
 20
49.2354144522498
 10
16.6666623273652
 20
49.2353522673927
 10
16.666835961903
 20
49.2352815052793
 10
16.6670494111261
 20
49.2352148914546
 10
16.6671735002926
 20
49.2351828504633
 10
16.6673361673987
 20
49.2351383453649
 10
16.6674308066698
 20
49.2351045817173
 10
16.6675304437973
 20
49.235062468757
 10
16.6676217363194
 20
49.2349954757902
 10
16.6677066881286
 20
49.2349149294777
 10
16.6677960675634
 20
49.2347241005582
 10
16.6678542137013
 20
49.2345758470641
 10
16.6679013922612
 20
49.2344827256295
 10
16.6679288784048
 20
49.2344534367903
 10
16.6679784025876
 20
49.2344153184858
 10
16.6680587080131
 20
49.2343684922011
 10
16.6682156608154
 20
49.2343114192535
 10
16.6684074891931
 20
49.2342527613475
 10
16.6686572159987
 20
49.2341797079781
 10
16.6687288966862
 20
49.2341587402192
 10
16.668880728808
 20
49.234114322974
 10
16.6692170558394
 20
49.2340359371472
 10
16.6694180012916
 20
49.2340039482386
 10
16.6696941235078
 20
49.2339825416765
 10
16.6698486139382
 20
49.2339868399151
 10
16.6699692397114
 20
49.234012642445
 10
16.6700630214181
 20
49.2340305608152
 10
16.6701809269807
 20
49.2340420215606
 10
16.6703887878463
 20
49.2340514351659
 10
16.6705625536418
 20
49.2340487243958
 10
16.6707298409084
 20
49.2340090100661
 10
16.6708856366666
 20
49.2339742556764
 10
16.671084164191
 20
49.2339299695671
 10
16.6712469840388
 20
49.2338926159676
 10
16.6713777271891
 20
49.2338579714345
 10
16.6714559876502
 20
49.2338398573624
 10
16.6715338866356
 20
49.2338255263233
 10
16.6716138922325
 20
49.233824935596
 10
16.6716724604732
 20
49.2338245049266
 10
16.6717980342695
 20
49.2338346287268
 10
16.6718956686461
 20
49.2338425005004
 10
16.6719966700378
 20
49.2338484842277
 10
16.672095096953
 20
49.233851315146
 10
16.6721252144564
 20
49.2338510456285
 10
16.6722225986252
 20
49.2338171800263
 10
16.6723369698249
 20
49.2337613753799
 10
16.6724506012097
 20
49.2337075816344
 10
16.6725376289577
 20
49.233666382602
 10
16.6725975977968
 20
49.2336327504008
 10
16.6726790993908
 20
49.2335870408539
 10
16.6727554021075
 20
49.2335232198085
 10
16.6728081626478
 20
49.233479089344
 10
16.6728613981788
 20
49.2334165585565
 10
16.6728827387712
 20
49.2333626216103
 10
16.6728915159761
 20
49.2333404406175
 10
16.6728908420992
 20
49.2332849521125
 10
16.6728903980664
 20
49.2332482652292
 10
16.6728339350656
 20
49.2331575143809
 10
16.6727911026835
 20
49.2330888197813
 10
16.6727534989491
 20
49.2330285506727
 10
16.6727258802455
 20
49.2329843469435
 10
16.6726414858776
 20
49.2328971031668
 10
16.6725332459681
 20
49.232794042232
 10
16.672452653309
 20
49.2327189808842
 10
16.6723718369639
 20
49.2326399659507
 10
16.6723258124608
 20
49.2325926396725
 10
16.6722950654769
 20
49.2325610216069
 10
16.6722738572445
 20
49.2325375674641
 10
16.6722356387687
 20
49.2324931327504
 10
16.6722030340404
 20
49.2324535990028
 10
16.6721546032319
 20
49.2324073318018
 10
16.672110482194
 20
49.2323651830018
 10
16.6720716100678
 20
49.232328046111
 10
16.6719234645834
 20
49.2322174115381
 10
16.6717327296189
 20
49.2320809423611
 10
16.6715577048337
 20
49.2319613203588
 10
16.6714441621781
 20
49.231884477986
 10
16.671288693503
 20
49.2318038039111
 10
16.6710979810857
 20
49.2317223549029
 10
16.6708909957123
 20
49.2316363074676
 10
16.670751412088
 20
49.2315795749679
 10
16.6705928413694
 20
49.2315151258983
 10
16.6704005024038
 20
49.2314369501359
 10
16.6702361179831
 20
49.2313610301848
 10
16.6701743450537
 20
49.2313324997606
 10
16.6700783865993
 20
49.2312623991119
 10
16.6699935010955
 20
49.2312003849219
 10
16.6698787000954
 20
49.2311322757501
 10
16.6696992055575
 20
49.2310532999061
 10
16.6695468349738
 20
49.2309769866085
 10
16.6693945604137
 20
49.230895672988
 10
16.6691746989079
 20
49.2307947395289
 10
16.6688982011817
 20
49.2306753405992
 10
16.6686096537799
 20
49.23054829836
 10
16.668440536041
 20
49.2304704926447
 10
16.6683580767211
 20
49.2304320139795
 10
16.6683000657738
 20
49.2304049451199
 10
16.6682374144835
 20
49.2303719780116
 10
16.6681751841919
 20
49.2303376304666
 10
16.6680897223951
 20
49.2302824765883
 10
16.6679558301485
 20
49.2301894417077
 10
16.667822369497
 20
49.2300939950451
 10
16.6677306500073
 20
49.2300283981986
 10
16.667654553186
 20
49.2299555922103
 10
16.6675943578574
 20
49.2298938650156
 10
16.6674834803124
 20
49.229772076699
 10
16.6674220019992
 20
49.2296971722994
 10
16.6673705799469
 20
49.2296210138943
 10
16.6673372691291
 20
49.2295623364839
 10
16.667233131706
 20
49.2293531547535
 10
16.6671839766271
 20
49.2292531894117
 10
16.6670721381933
 20
49.2290930046835
 10
16.6668965009515
 20
49.2288270080043
 10
16.6668577066388
 20
49.2287528556269
 10
16.6667589077818
 20
49.2286513286438
 10
16.6667208974405
 20
49.228612268441
 10
16.666679574035
 20
49.2285336476347
 10
16.6666520058409
 20
49.2284811944108
 10
16.6666209222352
 20
49.228422056416
 10
16.6665557236087
 20
49.2282812344992
 10
16.6665303408277
 20
49.2282143610585
 10
16.6665027200535
 20
49.2280808926441
 10
16.6664595829878
 20
49.2279315335719
 10
16.6664028695619
 20
49.2277471931566
 10
16.6663979178057
 20
49.2277143212792
 10
16.6663824337252
 20
49.2276115716585
 10
16.6663385023479
 20
49.2274698360526
 10
16.6662781297045
 20
49.2272866039273
 10
16.6662277982166
 20
49.2271382800187
 10
16.6661621871443
 20
49.2269832157195
 10
16.6660843811257
 20
49.2268992848537
 10
16.6659696404013
 20
49.2267745890365
 10
16.6658034912371
 20
49.2265895030336
 10
16.6655343142991
 20
49.2263205019289
 10
16.6652973714806
 20
49.2260810897742
 10
16.66516541451
 20
49.2259448032763
 10
16.6650780528591
 20
49.2258535955438
 10
16.6649525113504
 20
49.2257221778886
 10
16.6648320631812
 20
49.2256104818243
 10
16.6646679997367
 20
49.2254802739697
 10
16.664588264227
 20
49.2254207203846
 10
16.6644567483023
 20
49.2253224196519
 10
16.6642222190645
 20
49.225147425267
 10
16.664013861638
 20
49.2249954604418
 10
16.6638683205391
 20
49.2248994710152
 10
16.6637458290407
 20
49.2248254174522
 10
16.6636460025654
 20
49.2247805380232
 10
16.6635376946642
 20
49.2247600204618
 10
16.6633024663048
 20
49.2247737520275
 10
16.6631064052117
 20
49.2247918756901
 10
16.6629799982721
 20
49.2248226443148
 10
16.6628790857008
 20
49.2248673287805
 10
16.6627319479693
 20
49.224942075529
 10
16.6625977892169
 20
49.2250126828821
 10
16.6624554955446
 20
49.2250903214199
 10
16.6623561045819
 20
49.2251450051084
 10
16.6622838947916
 20
49.2252073508993
 10
16.6622019759508
 20
49.2252787580092
 10
16.6620610314073
 20
49.2253712937583
 10
16.6616578194985
 20
49.2253890328527
 10
16.6617484182107
 20
49.2253030820814
 10
16.661873800011
 20
49.2251894804948
 10
16.6619538921524
 20
49.2251169122513
 10
16.662026934821
 20
49.2250511142554
 10
16.6621005946066
 20
49.2249847600004
 10
16.6622076338508
 20
49.2248883317738
 10
16.6623064365119
 20
49.2247993273827
 10
16.6623695974162
 20
49.2247424273966
 10
16.6624979941285
 20
49.2246372857252
 10
16.6625856892315
 20
49.2245654726051
 10
16.662704169423
 20
49.2244749162292
 10
16.6628083784471
 20
49.2243952645603
 10
16.6628667155333
 20
49.2243493267705
 10
16.6629714360073
 20
49.2242629051779
 10
16.663136127145
 20
49.2241859361289
 10
16.6632229341064
 20
49.2241740333561
 10
16.6633659016836
 20
49.2241544294851
 10
16.6634927997247
 20
49.2241368083302
 10
16.6636770013214
 20
49.2241497627043
 10
16.6637758067073
 20
49.2241710698869
 10
16.6639927610976
 20
49.224229399275
 10
16.6641049723017
 20
49.2242803642841
 10
16.6642023477504
 20
49.2243326780911
 10
16.6642679929874
 20
49.2243779743127
 10
16.6643866467428
 20
49.2245301264863
 10
16.6644917883948
 20
49.2246645865952
 10
16.6645278087902
 20
49.2247123550108
 10
16.6645757178485
 20
49.2247992489582
 10
16.6646557869733
 20
49.2249522165836
 10
16.6647285240197
 20
49.2250911755019
 10
16.6647861065159
 20
49.2252011791314
 10
16.6648704518026
 20
49.2253064658681
 10
16.6650066632742
 20
49.2254764947896
 10
16.6651157268265
 20
49.2256126352779
 10
16.6652524924688
 20
49.2257833539294
 10
16.6653674766555
 20
49.2258993619405
 10
16.6655146719485
 20
49.2260475291706
 10
16.665641352124
 20
49.2261723415367
 10
16.6657487939675
 20
49.2262781984532
 10
16.6658937567091
 20
49.2264212961726
 10
16.6660128011522
 20
49.2265388106395
 10
16.6661584927644
 20
49.2266826266154
 10
16.6662414027115
 20
49.2267678279103
 10
16.6663055633561
 20
49.2268337646853
 10
16.6663592670346
 20
49.2269573745405
 10
16.6664201599308
 20
49.2271215988784
 10
16.6665121024236
 20
49.2274018657564
 10
16.6665670672821
 20
49.2275969262776
 10
16.6665838790173
 20
49.2276579814488
 10
16.6666222139971
 20
49.2277530118733
 10
16.6666883249177
 20
49.2279287695662
 10
16.6667439612786
 20
49.2280871215646
 10
16.6668019041897
 20
49.2282520461535
 10
16.6668452797651
 20
49.2283755038707
 10
16.6668904953422
 20
49.2284692641088
 10
16.6669736621566
 20
49.2286428360413
 10
16.6670285438305
 20
49.2287412125534
 10
16.66706875081
 20
49.2288035692581
 10
16.6671574714831
 20
49.2289291007173
 10
16.6672519475347
 20
49.2290627784169
 10
16.6673487793647
 20
49.2291997888485
 10
16.6674058328004
 20
49.2292805133764
 10
16.6674887959313
 20
49.2293978988745
 10
16.6675804723492
 20
49.229508574537
 10
16.6676962513365
 20
49.2296420812187
 10
16.6677779877077
 20
49.2297211740365
 10
16.6678628946331
 20
49.2297977076252
 10
16.667936866127
 20
49.2298643868193
 10
16.6680776496026
 20
49.2299912871819
 10
16.6682249845239
 20
49.2301110533654
 10
16.6683938222706
 20
49.2302079374666
 10
16.6685631371524
 20
49.2303046947221
 10
16.668777286659
 20
49.2304252058132
 10
16.6690122878555
 20
49.2305353817967
 10
16.6691178608266
 20
49.2305781648172
 10
16.6692282614265
 20
49.2306141321381
 10
16.6693260765592
 20
49.2306397765282
 10
16.6694503347767
 20
49.230672353559
 10
16.6696296585007
 20
49.2307324428059
 10
16.6697715282191
 20
49.2307848941732
 10
16.6699074830436
 20
49.2308390668797
 10
16.6701349570184
 20
49.2309297060459
 10
16.6703239415475
 20
49.2310050094806
 10
16.6705397082158
 20
49.2310905590924
 10
16.6707144620777
 20
49.2311571726946
 10
16.6708234207558
 20
49.2312028073762
 10
16.6709725530821
 20
49.2312629465252
 10
16.6711316923634
 20
49.2313185600493
 10
16.6712292614106
 20
49.2313488476109
 10
16.6714094629314
 20
49.231404783586
 10
16.6715234774297
 20
49.2314649529448
 10
16.6716155164746
 20
49.2315135250477
 10
16.6717523781575
 20
49.2316434138594
 10
16.6718385743806
 20
49.2317423245083
 10
16.6719074849951
 20
49.2318314678609
 10
16.6719936926566
 20
49.231941476265
 10
16.6720719713047
 20
49.2320254938049
 10
16.6721588625396
 20
49.2321187605781
 10
16.6722205859495
 20
49.2321850101573
 10
16.6722921723842
 20
49.2322618458038
 10
16.6724002703485
 20
49.232345880096
 10
16.6725594155652
 20
49.2324695955525
 10
16.6726962780135
 20
49.2325721543812
 10
16.6727234798531
 20
49.2325916981763
 10
16.6728183351435
 20
49.2326758401337
 10
16.6729275984554
 20
49.2327769883831
 10
16.6729834431523
 20
49.2328363308819
 10
16.6731002513544
 20
49.2329923900078
 10
16.6731648701267
 20
49.2330775228139
 10
16.6732245334307
 20
49.2331561222948
 10
16.6732750094394
 20
49.2332429813202
 10
16.673292898575
 20
49.2333039195771
 10
16.6732868206161
 20
49.2333628752857
 10
16.6732598241285
 20
49.2334309091181
 10
16.6732030441072
 20
49.2335113842101
 10
16.6731351226253
 20
49.2335957978349
 10
16.6730365553566
 20
49.2336636609751
 10
16.6729000199721
 20
49.2337482733351
 10
16.6727696538451
 20
49.2338244673983
 10
16.6726644205021
 20
49.2338774295459
 10
16.672570767404
 20
49.2339238312964
 10
16.672465182809
 20
49.2339690693835
 10
16.672416433156
 20
49.2339858644043
 10
16.67226316506
 20
49.2340269329327
 10
16.672153915414
 20
49.2340525354622
 10
16.6720253615326
 20
49.2340698605373
 10
16.6717997696577
 20
49.2340853319709
 10
16.671642789366
 20
49.2340936706479
 10
16.6713719977674
 20
49.2340975489661
 10
16.6711828389686
 20
49.2340945391282
 10
16.6710143433886
 20
49.2340942828799
 10
16.6708315155336
 20
49.234094004456
 10
16.6706394643512
 20
49.2340964675291
 10
16.6704939448789
 20
49.2340983347059
 10
16.6703882923977
 20
49.2340975715013
 10
16.67018926727
 20
49.2340855806627
 10
16.6700250383658
 20
49.2340690846359
 10
16.6699452980172
 20
49.2340534777123
 10
16.6698590537607
 20
49.2340313650655
 10
16.6697632626384
 20
49.2340298334913
 10
16.6697019419248
 20
49.2340452151235
 10
16.6696351238958
 20
49.2341100635418
 10
16.6695715590689
 20
49.2341829229793
 10
16.6695460562033
 20
49.2342121516029
 10
16.6694637085926
 20
49.234245406592
 10
16.6694207409828
 20
49.2342549137515
 10
16.6693560709129
 20
49.2342692233131
 10
16.6693015768632
 20
49.2342860530442
 10
16.6692321410115
 20
49.2343129354756
 10
16.6691495745172
 20
49.2343449023773
 10
16.6690638223452
 20
49.2343781042065
 10
16.668983596298
 20
49.2344152061132
 10
16.6689088146461
 20
49.2344533353745
 10
16.668834394773
 20
49.2344944564941
 10
16.6687557834363
 20
49.2345378931917
 10
16.6685779669476
 20
49.2346459098225
 10
16.6684140435317
 20
49.2347489722487
 10
16.6683021779359
 20
49.2348084053099
 10
16.668115737486
 20
49.2348666269389
 10
16.6678756505803
 20
49.2349419142673
 10
16.6677314273656
 20
49.2349767510679
 10
16.6676764698094
 20
49.2350293596887
 10
16.66762323714
 20
49.2350732967821
 10
16.6675763359137
 20
49.235099542564
 10
16.6675422658898
 20
49.2351186054957
 10
16.6674507354841
 20
49.2351494710982
 10
16.6673782219814
 20
49.2351739231713
 10
16.6672781461448
 20
49.2352012161831
 10
16.6671572936013
 20
49.2352324953239
 10
16.6669981489447
 20
49.2352795305119
 10
16.6668735661323
 20
49.2353196284583
 10
16.6667516445432
 20
49.2353680603085
 10
16.6666266868343
 20
49.2354176976843
 10
16.6665142438483
 20
49.2354754471656
 10
16.6664308591399
 20
49.2355182711808
 10
16.6663469961589
 20
49.2355812264123
 10
16.6661968217925
 20
49.235693955797
 10
16.6661152933862
 20
49.2357861927077
 10
16.666017305279
 20
49.2359006147543
 10
16.665934284661
 20
49.2360237474148
 10
16.6658850276155
 20
49.2360968079175
 10
16.6658531028607
 20
49.236144153142
 10
16.665807926596
 20
49.2362928257934
 10
16.6657877374238
 20
49.2364137255586
 10
16.6657919858523
 20
49.2365303594221
 10
16.6658028415184
 20
49.2366713198572
 10
16.6658183016632
 20
49.2368720702881
 10
16.6658289625286
 20
49.2370105380014
 10
16.6658439019783
 20
49.237174546021
 10
16.665874636776
 20
49.2374078889811
 10
16.6659075857629
 20
49.2376580251941
 10
16.6659187983177
 20
49.2377431411633
 10
16.6659282789965
 20
49.2378151208348
 10
16.6659209452769
 20
49.2379317274031
 10
16.6659009498745
 20
49.2379897087357
 10
16.6658707973387
 20
49.2380771429897
 10
16.6658415529707
 20
49.2381384111639
 10
16.6657932679397
 20
49.2382330208958
 10
16.6657625908421
 20
49.2382992865592
 10
16.6657440029269
 20
49.238339437643
 10
16.6657160646069
 20
49.2383997891784
 10
16.6656952055007
 20
49.2384889863573
 10
16.6656784509661
 20
49.2385606360226
 10
16.665681668954
 20
49.2386393303714
 10
16.6657182042076
 20
49.2387117293289
 10
16.6657542990262
 20
49.2387641006424
 10
16.6657858941384
 20
49.2387963163709
 10
16.6658686020862
 20
49.2388641482271
 10
16.6659429377269
 20
49.2389104995228
 10
16.6660040537375
 20
49.238948609411
 10
16.6660561986523
 20
49.238981124389
 10
16.6661211059322
 20
49.239036518176
 10
16.6662211418409
 20
49.2391174733268
 10
16.6662955436366
 20
49.239161175435
 10
16.6663307506688
 20
49.2391960071582
 10
16.6663890305536
 20
49.239253671732
 10
16.6664122061562
 20
49.2392766022537
 10
16.6664222162215
 20
49.2392987033556
 10
16.6664841821293
 20
49.2393428318581
 10
16.6665505783739
 20
49.2393901169741
 10
16.6665982239487
 20
49.2394240473933
 10
16.6666748072669
 20
49.2394785872852
 10
16.6667851542229
 20
49.2395571688306
 10
16.6668791181885
 20
49.2396240886969
 10
16.6669725884695
 20
49.2396766713458
 10
16.6670955145567
 20
49.2397458207647
 10
16.6673325807802
 20
49.2398791768177
 10
16.6674235736933
 20
49.2399303621735
 10
16.6674849051759
 20
49.239964862254
 10
16.6675582965066
 20
49.2400061472215
 10
16.6677153230003
 20
49.2401042746319
 10
16.6678556111944
 20
49.2401952754957
 10
16.6679997485761
 20
49.2402924090293
 10
16.6680940289282
 20
49.2403631385073
 10
16.6682523928454
 20
49.2404819335118
 10
16.6683817826743
 20
49.2405855377838
 10
16.6685471913081
 20
49.2407095573354
 10
16.6686506102593
 20
49.2407851763494
 10
16.6687744738181
 20
49.2408757408618
 10
16.6688884723595
 20
49.2409147569837
 10
16.6689818161142
 20
49.2409467036496
 10
16.6691029356263
 20
49.2409881552688
 10
16.6693022328839
 20
49.2410061822107
 10
16.669451787298
 20
49.2409872103412
 10
16.6695440408538
 20
49.2409755062571
 10
16.6697055697136
 20
49.2409379376659
 10
16.6697863868255
 20
49.2409191389045
 10
16.6698739674999
 20
49.2408766647124
 10
16.6699154621617
 20
49.2408565397407
 10
16.6700221745383
 20
49.240817127793
 10
16.6701538942949
 20
49.2407684811139
 10
16.6702746032128
 20
49.2407317226053
 10
16.6704716264527
 20
49.2406781900141
 10
16.6706013082313
 20
49.2406470429728
 10
16.6707560750727
 20
49.2406098699148
 10
16.6709472483933
 20
49.2405685729533
 10
16.6711234714831
 20
49.2405309448406
 10
16.6713543096622
 20
49.2404989350135
 10
16.6715458246472
 20
49.2404713294655
 10
16.6716803453864
 20
49.2404502137135
 10
16.6718019135478
 20
49.2404311310772
 10
16.6719350984266
 20
49.2404228226201
 10
16.6721081932231
 20
49.2404120224531
 10
16.6722519075042
 20
49.2404132249699
 10
16.6723964670085
 20
49.240422084601
 10
16.6725218002187
 20
49.2404333914819
 10
16.6726636376744
 20
49.2404615676988
 10
16.6728155404211
 20
49.2404917438483
 10
16.6730633439798
 20
49.2405653259725
 10
16.6731111759838
 20
49.2405795295094
 10
16.673161324076
 20
49.2406027669934
 97
0
 75
0
 76
1
 98
0
  0
HATCH
  5
20023
100
AcDbEntity
  8
plocha Q5
100
AcDbHatch
 10
0
 20
0
 30
0
210
0
220
0
230
1
  2
SOLID
 70
1
 71
0
 91
1
 92
2
 72
0
 73
1
 93
187
 10
16.5772633123473
 20
49.1822469324744
 10
16.5767807424469
 20
49.182336138876
 10
16.5764244685418
 20
49.1824538866089
 10
16.5761371814322
 20
49.1825388751342
 10
16.575842214096
 20
49.1826204816879
 10
16.5755808481492
 20
49.1826864465346
 10
16.5752424574321
 20
49.1827677187954
 10
16.575026061318
 20
49.1828196908488
 10
16.574804437821
 20
49.1828827275582
 10
16.5745647196124
 20
49.1829667098042
 10
16.5743055281017
 20
49.183057513544
 10
16.5742327681332
 20
49.1830830038233
 10
16.5740535441224
 20
49.1831398602812
 10
16.5738644275096
 20
49.1832198679386
 10
16.5736934153134
 20
49.1833586196081
 10
16.5735051650547
 20
49.1835558341267
 10
16.5732371434742
 20
49.1838376422936
 10
16.5727273140126
 20
49.1843401371045
 10
16.5723735749558
 20
49.1845689037468
 10
16.5719903174242
 20
49.1848167599142
 10
16.5717877108282
 20
49.1849498104559
 10
16.5716218612882
 20
49.185059792841
 10
16.5714551921023
 20
49.1851703200192
 10
16.5713260114682
 20
49.1852630876043
 10
16.5711330223406
 20
49.1854304077494
 10
16.5708924007965
 20
49.1856521650837
 10
16.5706781836266
 20
49.1858930200222
 10
16.5705339040023
 20
49.186076811176
 10
16.5705102934972
 20
49.1861068870221
 10
16.5703163920941
 20
49.1863538816676
 10
16.5700449930777
 20
49.1866257673332
 10
16.5697997504655
 20
49.1868617274611
 10
16.569537933168
 20
49.1871136328508
 10
16.5693132994357
 20
49.1872854735786
 10
16.5691483330819
 20
49.1874116669259
 10
16.5689630419668
 20
49.1875534083663
 10
16.5687980735329
 20
49.187679602995
 10
16.5687169457384
 20
49.1877416625293
 10
16.5684833818035
 20
49.1878287203416
 10
16.5682212253639
 20
49.1879264368873
 10
16.5680170792901
 20
49.1880843898833
 10
16.5677688650914
 20
49.1882764399806
 10
16.5675247452378
 20
49.1884623689128
 10
16.5672599691347
 20
49.1882789026717
 10
16.5674635888373
 20
49.1881385972803
 10
16.5676403854342
 20
49.1879861444642
 10
16.5678827385669
 20
49.1877669830911
 10
16.568055272336
 20
49.187647531775
 10
16.5682095497497
 20
49.1875802770365
 10
16.5683224376798
 20
49.187544450207
 10
16.5683724583647
 20
49.1875285763365
 10
16.5685650985544
 20
49.1873782249347
 10
16.568708014923
 20
49.1872666797796
 10
16.5688870386435
 20
49.1871153999319
 10
16.5690727211367
 20
49.1869584910507
 10
16.5692493727129
 20
49.1868092118864
 10
16.5694893969373
 20
49.1866063784319
 10
16.569653547335
 20
49.1864295045736
 10
16.5697774869233
 20
49.1862653961926
 10
16.5698698115867
 20
49.1861673246288
 10
16.5698844041646
 20
49.1861187392366
 10
16.5699062065657
 20
49.1860461494219
 10
16.569930870343
 20
49.1859640285958
 10
16.5699662928481
 20
49.1858460884593
 10
16.570096810765
 20
49.1857003176432
 10
16.5701806388788
 20
49.185606691967
 10
16.5704233858671
 20
49.1854403894785
 10
16.5706382904342
 20
49.1853788128436
 10
16.5707337652678
 20
49.1853305315814
 10
16.5708574911092
 20
49.1852300349058
 10
16.5711469313397
 20
49.1850108099111
 10
16.5713894644061
 20
49.1848331747036
 10
16.5718256000007
 20
49.1845137368371
 10
16.5721479107112
 20
49.1842668235133
 10
16.5724701116428
 20
49.1840133889666
 10
16.5726672049036
 20
49.1838667207103
 10
16.5728556043074
 20
49.1837318021104
 10
16.5730083323423
 20
49.1835901950683
 10
16.5731011435363
 20
49.1834825256303
 10
16.5732099228215
 20
49.1833563261149
 10
16.5733756921262
 20
49.1832237607459
 10
16.5736135074088
 20
49.1830904236392
 10
16.573770888174
 20
49.1830220803896
 10
16.5739407947623
 20
49.1829588535676
 10
16.5740965732996
 20
49.1829008867938
 10
16.574323006686
 20
49.1828359097185
 10
16.5744878901365
 20
49.1827956474259
 10
16.5747962266828
 20
49.1827320714784
 10
16.5748682034023
 20
49.1827133969686
 10
16.5750159501515
 20
49.1826750631691
 10
16.5752464030552
 20
49.1826152703821
 10
16.5754516817155
 20
49.1825620075759
 10
16.5756261848995
 20
49.1825058453599
 10
16.575835005518
 20
49.1824284194991
 10
16.5760338523189
 20
49.1823453158845
 10
16.5762355789022
 20
49.1822610076039
 10
16.57640516697
 20
49.1821901323258
 10
16.5766876795691
 20
49.1821395243743
 10
16.5769480568987
 20
49.1821187483475
 10
16.5771599113781
 20
49.1820985918344
 10
16.5775217422765
 20
49.1820508516945
 10
16.5777519060033
 20
49.1820304481148
 10
16.5782381233836
 20
49.1820603718484
 10
16.5786631274062
 20
49.182099781424
 10
16.5793103618932
 20
49.1821597972744
 10
16.5802319958378
 20
49.1822624280766
 10
16.580629151589
 20
49.1823175948289
 10
16.5809869427981
 20
49.1823751447892
 10
16.5811124771999
 20
49.1823953366783
 10
16.5813979959636
 20
49.1824603497548
 10
16.5817146181069
 20
49.1825324445782
 10
16.5819325420587
 20
49.182582065064
 10
16.5819813873714
 20
49.1825931886191
 10
16.5821221985388
 20
49.1826252493913
 10
16.5822476270374
 20
49.1826538093157
 10
16.5825611813187
 20
49.1827252023036
 10
16.582917636679
 20
49.1828221952591
 10
16.5832396330241
 20
49.1829098122141
 10
16.5835426238598
 20
49.1830054390282
 10
16.5839836777724
 20
49.1831714554988
 10
16.5844639081659
 20
49.1833745128753
 10
16.5849358282167
 20
49.1835926048651
 10
16.5853173429099
 20
49.1837689159495
 10
16.5858567331592
 20
49.1840181802284
 10
16.5867176934307
 20
49.1844160386156
 10
16.587145332274
 20
49.1846115217692
 10
16.58748208231
 20
49.1847522591208
 10
16.5877367648553
 20
49.1848586964969
 10
16.5880351710074
 20
49.1849834075885
 10
16.5884686187586
 20
49.185144155215
 10
16.5887033682622
 20
49.1852279738496
 10
16.5888011570555
 20
49.185262892157
 10
16.5889263295985
 20
49.1853075879133
 10
16.5891409802613
 20
49.1853842313425
 10
16.5893792735014
 20
49.1854552406603
 10
16.5898688696571
 20
49.1855927717812
 10
16.5903714234267
 20
49.1857339390193
 10
16.5908957136946
 20
49.1858437058121
 10
16.5914402040051
 20
49.1859494719983
 10
16.5918275471035
 20
49.186020476587
 10
16.5923700456018
 20
49.1861199197013
 10
16.5924114960553
 20
49.1861265642118
 10
16.5923503629899
 20
49.1863516031848
 10
16.591831270747
 20
49.186277611124
 10
16.5913202542774
 20
49.1861897892442
 10
16.5908489299455
 20
49.1860964912321
 10
16.5903996610433
 20
49.1859955378276
 10
16.5901912107666
 20
49.1859331829775
 10
16.5897769372239
 20
49.1857999444567
 10
16.5896043110317
 20
49.1857444258462
 10
16.5892724495806
 20
49.1856376920437
 10
16.5887878288765
 20
49.1854795783539
 10
16.5886761521454
 20
49.1854431416181
 10
16.5885142951904
 20
49.1853866739725
 10
16.5881394488416
 20
49.1852559015146
 10
16.5878141922665
 20
49.1851407028195
 10
16.5875601258038
 20
49.1850414037004
 10
16.5872187057171
 20
49.1848986868708
 10
16.5867576757538
 20
49.1846841900377
 10
16.5864404025796
 20
49.184534931658
 10
16.5859953411824
 20
49.184325550467
 10
16.5854533408099
 20
49.1840705604918
 10
16.5850486529102
 20
49.1838801648908
 10
16.5848191932219
 20
49.1837797422036
 10
16.5845657525595
 20
49.1836688233553
 10
16.5843359527137
 20
49.1835778838073
 10
16.5839402640893
 20
49.1834408457598
 10
16.5832829549004
 20
49.1832318985236
 10
16.5828488535629
 20
49.1830939002508
 10
16.582583790389
 20
49.1830096380204
 10
16.5823092781693
 20
49.1829390066778
 10
16.582176522402
 20
49.1829048478597
 10
16.5821012531473
 20
49.182885481364
 10
16.5820295376424
 20
49.1828670287047
 10
16.5818876250736
 20
49.1828305125158
 10
16.5814947204184
 20
49.1827558633789
 10
16.5812632826004
 20
49.1827118914799
 10
16.5806524644807
 20
49.1826004780504
 10
16.5800926742547
 20
49.1825090306791
 10
16.5796502899155
 20
49.1824401337612
 10
16.5794400708986
 20
49.1824073926971
 10
16.5789587380479
 20
49.1823338422545
 10
16.5786031365486
 20
49.1822807290816
 10
16.5781793080373
 20
49.1822465706402
 10
16.5777010169377
 20
49.1822170831233
 10
16.5774154512932
 20
49.1822343629432
 10
16.5772633123473
 20
49.1822469324744
 97
0
 75
0
 76
1
 98
0
  0
HATCH
  5
20024
100
AcDbEntity
  8
plocha Q5
100
AcDbHatch
 10
0
 20
0
 30
0
210
0
220
0
230
1
  2
SOLID
 70
1
 71
0
 91
1
 92
2
 72
0
 73
1
 93
136
 10
16.5440943740703
 20
49.2181485552489
 10
16.543701466942
 20
49.2181692951844
 10
16.5433607161661
 20
49.218187280445
 10
16.5430388893924
 20
49.2182042674575
 10
16.5429108730471
 20
49.2182110241867
 10
16.5426997122487
 20
49.2182239280675
 10
16.5423635789863
 20
49.2182487295587
 10
16.5420958483862
 20
49.218265028113
 10
16.5418249476837
 20
49.2182815212392
 10
16.5415696650203
 20
49.2182970592675
 10
16.5413101657563
 20
49.2183540990498
 10
16.5408674724428
 20
49.2184597307557
 10
16.5405146315409
 20
49.218543920123
 10
16.5401771830154
 20
49.218649662187
 10
16.539913165124
 20
49.2187281017305
 10
16.5397042729667
 20
49.2187968114102
 10
16.5394210435497
 20
49.2189037046661
 10
16.5391821776596
 20
49.2189938524717
 10
16.5389298722374
 20
49.2190890725708
 10
16.538587520095
 20
49.2192543943799
 10
16.5381058513037
 20
49.2194956927641
 10
16.5378474488375
 20
49.2196344471795
 10
16.5375810980235
 20
49.2197774692196
 10
16.5374225215584
 20
49.2198626175608
 10
16.5372473295136
 20
49.2200038869406
 10
16.5369732858054
 20
49.2202247280004
 10
16.5367912947458
 20
49.2203711756468
 10
16.536650166427
 20
49.2205613529507
 10
16.5366010331346
 20
49.2206275618442
 10
16.5365228468417
 20
49.2207329206615
 10
16.5365044642524
 20
49.2207576937823
 10
16.536447429222
 20
49.2208345468284
 10
16.5363297068293
 20
49.2209931815394
 10
16.5361716767705
 20
49.2212060157399
 10
16.5356709924929
 20
49.221077364964
 10
16.5358856586757
 20
49.2208124809408
 10
16.5359917755709
 20
49.2206780654216
 10
16.5361142295103
 20
49.2205229559523
 10
16.5361973534344
 20
49.2204176634045
 10
16.5363494210629
 20
49.2201987388017
 10
16.5364727471781
 20
49.2199945967654
 10
16.5365589637197
 20
49.2198518869698
 10
16.5367182792759
 20
49.2196886959197
 10
16.5368769621415
 20
49.2195615525244
 10
16.5370743811436
 20
49.2194273362956
 10
16.5372612333522
 20
49.2193402554981
 10
16.5376721799107
 20
49.2191487333466
 10
16.5381194801524
 20
49.2189402669123
 10
16.5386597041131
 20
49.2186884872232
 10
16.5393227992472
 20
49.2183794341865
 10
16.5395562182223
 20
49.2182859763783
 10
16.5398498463722
 20
49.2181956342239
 10
16.5401330704633
 20
49.2181183541024
 10
16.5404685716084
 20
49.2180513414238
 10
16.5407575408378
 20
49.2179999676313
 10
16.5410609730487
 20
49.2179460212013
 10
16.5411478478441
 20
49.2179305764472
 10
16.5414205467287
 20
49.2179209028086
 10
16.5416841065338
 20
49.2179115529093
 10
16.5420737352487
 20
49.2179091044082
 10
16.5424106145828
 20
49.2179099748776
 10
16.5427026294518
 20
49.2179107294824
 10
16.5429064342374
 20
49.2179112545531
 10
16.5430437479391
 20
49.2179083792329
 10
16.5432516500635
 20
49.217895190624
 10
16.5434034821509
 20
49.217881194729
 10
16.5437140170435
 20
49.2178525738736
 10
16.544050224765
 20
49.2178215812643
 10
16.5444069268854
 20
49.2178314331851
 10
16.5447835429998
 20
49.2178425299161
 10
16.5451862364931
 20
49.217854536847
 10
16.5453224637169
 20
49.2178768858955
 10
16.5456065012259
 20
49.2179234866127
 10
16.545977014833
 20
49.2179842717725
 10
16.5463253693204
 20
49.2180435403593
 10
16.5467594661
 20
49.2181143846096
 10
16.5472571172705
 20
49.2181925861701
 10
16.5477152071972
 20
49.2182588093704
 10
16.5482068704069
 20
49.218320192149
 10
16.5487901511276
 20
49.2183930098786
 10
16.5491054092854
 20
49.218432365237
 10
16.5493868091769
 20
49.2184674934357
 10
16.5495534612202
 20
49.2184808343641
 10
16.5497802656496
 20
49.2184841492603
 10
16.5500213387504
 20
49.2184774222325
 10
16.550172647932
 20
49.2184713638734
 10
16.5502890290611
 20
49.2184667054251
 10
16.5505033319987
 20
49.2184425717581
 10
16.550753113988
 20
49.2184144435747
 10
16.5511139277507
 20
49.2183738077764
 10
16.5512432888176
 20
49.2183341139305
 10
16.5513487399042
 20
49.2183017531597
 10
16.5515320060348
 20
49.2181987356961
 10
16.5515971442306
 20
49.2181621202342
 10
16.5517041019879
 20
49.218062554142
 10
16.5517897559847
 20
49.217961203649
 10
16.5518261049334
 20
49.2178862011996
 10
16.5518531561655
 20
49.2177944985997
 10
16.551998928428
 20
49.2176212943149
 10
16.5521203003316
 20
49.2174993610883
 10
16.5521658190559
 20
49.2174536303038
 10
16.552216264565
 20
49.2174222001776
 10
16.5529432430889
 20
49.2176626816436
 10
16.552977589359
 20
49.2177126349231
 10
16.5530549086394
 20
49.2178250886929
 10
16.5530592722072
 20
49.2179209952574
 10
16.5530388149921
 20
49.2179457056493
 10
16.5529577379647
 20
49.2179917406845
 10
16.5528969371649
 20
49.2180262617739
 10
16.552747515557
 20
49.2181234674926
 10
16.5526087425988
 20
49.2181959616154
 10
16.5522773721912
 20
49.2181738413985
 10
16.5518935360237
 20
49.2183555641737
 10
16.5515062065776
 20
49.2185223275595
 10
16.5512018976259
 20
49.2186134604345
 10
16.5507177125656
 20
49.2186989274054
 10
16.550484064433
 20
49.2187247500228
 10
16.5501791103501
 20
49.2187584521389
 10
16.5499843644254
 20
49.2187685094677
 10
16.5498320256576
 20
49.2187694747453
 10
16.549663547651
 20
49.2187705422931
 10
16.5493813668685
 20
49.2187723289971
 10
16.549140997393
 20
49.2187599868875
 10
16.5487520826557
 20
49.2187294304636
 10
16.5484216558806
 20
49.2186927342767
 10
16.5480416642705
 20
49.2186458557972
 10
16.5477275166925
 20
49.2186070987496
 10
16.5474073296776
 20
49.2185530513607
 10
16.5467696634712
 20
49.2184454075124
 10
16.5463975651868
 20
49.2183825935277
 10
16.5460164900287
 20
49.2183182620047
 10
16.5455360250799
 20
49.2182371486264
 10
16.545308293191
 20
49.2181987040658
 10
16.5447237528684
 20
49.2181636954398
 10
16.544419171619
 20
49.2181531833092
 10
16.5440943740703
 20
49.2181485552489
 97
0
 75
0
 76
1
 98
0
  0
HATCH
  5
20025
100
AcDbEntity
  8
plocha Q5
100
AcDbHatch
 10
0
 20
0
 30
0
210
0
220
0
230
1
  2
SOLID
 70
1
 71
0
 91
1
 92
2
 72
0
 73
1
 93
154
 10
16.5198667361649
 20
49.2325147807328
 10
16.519620307026
 20
49.232507316523
 10
16.5196032845745
 20
49.2324222681524
 10
16.5192541418965
 20
49.2324524951851
 10
16.5192118658775
 20
49.2323057259722
 10
16.5191825059237
 20
49.2321991602479
 10
16.5194111785875
 20
49.232165321109
 10
16.5198339548982
 20
49.2320791258535
 10
16.5199837213798
 20
49.2320570795978
 10
16.520253766748
 20
49.2320587315457
 10
16.5206474109077
 20
49.2321164862133
 10
16.5209642272648
 20
49.2321497762269
 10
16.5214909850589
 20
49.2321984310507
 10
16.52210283813
 20
49.2322642095242
 10
16.5224839021049
 20
49.2323036103891
 10
16.5228663335921
 20
49.2323422520415
 10
16.5230736597886
 20
49.232370761518
 10
16.5233215026595
 20
49.2323735106448
 10
16.5235794589733
 20
49.2323685799269
 10
16.5240503348695
 20
49.2322792487906
 10
16.5242695677291
 20
49.2322096146425
 10
16.5245337115118
 20
49.2321014798395
 10
16.5246509291387
 20
49.2320497288041
 10
16.5247024950532
 20
49.2320114810882
 10
16.5248465537295
 20
49.2319046193573
 10
16.5249944935055
 20
49.2317913627745
 10
16.5251865971319
 20
49.2316377347965
 10
16.5253792030201
 20
49.2314668673614
 10
16.5255518621733
 20
49.2313282050891
 10
16.5258031401613
 20
49.2311556266851
 10
16.5260227762157
 20
49.2310280319509
 10
16.5263079297981
 20
49.2309163108157
 10
16.5265577106838
 20
49.2308346275313
 10
16.5268325309798
 20
49.2307707114985
 10
16.5270903012585
 20
49.2307561253785
 10
16.5274045344995
 20
49.2307799529428
 10
16.5276553755932
 20
49.2308125567936
 10
16.5278614047063
 20
49.2308432646698
 10
16.5281224773522
 20
49.2308921825688
 10
16.5282712655807
 20
49.2309309707303
 10
16.5285900154253
 20
49.2310059109516
 10
16.5287920994401
 20
49.2310496262135
 10
16.5291900966025
 20
49.2310911114764
 10
16.529311892071
 20
49.2310948113282
 10
16.5295357092625
 20
49.2311002497028
 10
16.5297334530002
 20
49.2310890570515
 10
16.5299189118024
 20
49.2310688372534
 10
16.5301646487578
 20
49.2310160170195
 10
16.5303211527237
 20
49.230960168113
 10
16.5304749335358
 20
49.2309037570925
 10
16.5306208058889
 20
49.2308484576895
 10
16.5307700596689
 20
49.2307514610946
 10
16.5308780404908
 20
49.23061842684
 10
16.5310315695573
 20
49.2304216605017
 10
16.5311502929555
 20
49.2302190872219
 10
16.5312666360054
 20
49.230033144735
 10
16.5313501804369
 20
49.229881894545
 10
16.5314158582312
 20
49.2297213670545
 10
16.5315353613341
 20
49.2294308551164
 10
16.5315901024016
 20
49.2292977800055
 10
16.5316350901966
 20
49.2291884100357
 10
16.5316937335523
 20
49.2290458478549
 10
16.5317371280889
 20
49.2289678266074
 10
16.5318055945851
 20
49.2288620968266
 10
16.531918640392
 20
49.228697622244
 10
16.5320278050507
 20
49.2285486426601
 10
16.5321592752938
 20
49.2283692202476
 10
16.5323343439775
 20
49.2281302979934
 10
16.5325050618253
 20
49.2278973090215
 10
16.5325924252694
 20
49.2277780770732
 10
16.5326572872945
 20
49.2276861168951
 10
16.5327131883553
 20
49.2276068616944
 10
16.5328550968058
 20
49.2274265348554
 10
16.5330723116524
 20
49.2271620009826
 10
16.5333005421683
 20
49.2268840511188
 10
16.5334653489111
 20
49.2266833379934
 10
16.5335117408699
 20
49.2266268400305
 10
16.5342898923043
 20
49.2263432955383
 10
16.5342615540214
 20
49.2263949389282
 10
16.5341721845132
 20
49.2265578005208
 10
16.534100687545
 20
49.2266880903987
 10
16.534052859786
 20
49.2267752483213
 10
16.5340376723528
 20
49.226841219348
 10
16.5339312000221
 20
49.2269399074307
 10
16.5336978552103
 20
49.227156186981
 10
16.533490021089
 20
49.2273532276934
 10
16.5332709043071
 20
49.2275566479012
 10
16.5330949858044
 20
49.2277151511116
 10
16.5330563247507
 20
49.2277499847587
 10
16.5329763162174
 20
49.2278220715885
 10
16.5329146727489
 20
49.227888864649
 10
16.5327876321244
 20
49.2280457886369
 10
16.5325510811975
 20
49.2283379786602
 10
16.5324621203216
 20
49.2284903076335
 10
16.5322808522133
 20
49.2288006893783
 10
16.5322132955426
 20
49.2289163670511
 10
16.5321134711776
 20
49.2291756192165
 10
16.5320326902333
 20
49.2293428577879
 10
16.5318579653632
 20
49.2296614746291
 10
16.5317926016698
 20
49.2298309846965
 10
16.5317529297446
 20
49.2299338670194
 10
16.5315864177399
 20
49.2302053001016
 10
16.5314043436267
 20
49.2304867047081
 10
16.531195895786
 20
49.230778610614
 10
16.5310852018531
 20
49.2309336209516
 10
16.5309697975386
 20
49.2310682234317
 10
16.5308415847487
 20
49.2312071876804
 10
16.530787563299
 20
49.2312527622022
 10
16.5306145424313
 20
49.2313016435186
 10
16.5304149576671
 20
49.2313319757695
 10
16.5301400427888
 20
49.2313543210437
 10
16.5298121293762
 20
49.2313695325946
 10
16.5295753436723
 20
49.231377176262
 10
16.5293268171642
 20
49.2313741362607
 10
16.5289613085571
 20
49.2313362237118
 10
16.5285141095306
 20
49.2312660413188
 10
16.5281215339116
 20
49.2311769191412
 10
16.5278722750938
 20
49.231119461828
 10
16.52764764828
 20
49.2310764767313
 10
16.5275277546143
 20
49.2310573936486
 10
16.5273170653813
 20
49.231038848084
 10
16.5270081225464
 20
49.2310489493651
 10
16.5267739670552
 20
49.2310878383007
 10
16.5264889876415
 20
49.2311701048353
 10
16.5263260102694
 20
49.2312251684087
 10
16.5260643117037
 20
49.2313687166389
 10
16.525799883737
 20
49.2316153481745
 10
16.5255829649607
 20
49.2318046507315
 10
16.5254055466371
 20
49.2319337322569
 10
16.5251755153539
 20
49.2321106567794
 10
16.5249131353818
 20
49.2322666621211
 10
16.524827200509
 20
49.2323100673146
 10
16.5247596398847
 20
49.2323441903097
 10
16.5246274228083
 20
49.2324021786188
 10
16.5243084665305
 20
49.2325172976643
 10
16.52407201051
 20
49.2325627383754
 10
16.5237674882647
 20
49.2326222696337
 10
16.523643256965
 20
49.2326467500858
 10
16.5233523559273
 20
49.2326717645338
 10
16.5231095463463
 20
49.2326688265977
 10
16.5227510467807
 20
49.2326654490835
 10
16.5226087977145
 20
49.2326643208586
 10
16.5223374861267
 20
49.2326338647022
 10
16.5219669078275
 20
49.2325946321825
 10
16.5217503559165
 20
49.2325732528303
 10
16.5215825343245
 20
49.2325566827166
 10
16.5213553404431
 20
49.2325365049622
 10
16.5210263004615
 20
49.2325072805893
 10
16.5207610799623
 20
49.2324953775643
 10
16.5205576751135
 20
49.2324862479926
 10
16.5204490177554
 20
49.2324813716582
 10
16.5202614537966
 20
49.2324978213645
 10
16.5200163989231
 20
49.2325193115024
 10
16.5198667361649
 20
49.2325147807328
 97
0
 75
0
 76
1
 98
0
  0
HATCH
  5
20026
100
AcDbEntity
  8
plocha Q5
100
AcDbHatch
 10
0
 20
0
 30
0
210
0
220
0
230
1
  2
SOLID
 70
1
 71
0
 91
1
 92
2
 72
0
 73
1
 93
88
 10
16.5672990298416
 20
49.1992733668188
 10
16.5673817546682
 20
49.1994577576026
 10
16.567513781632
 20
49.1997487485269
 10
16.5675376117559
 20
49.1999219379764
 10
16.56758694935
 20
49.200168870677
 10
16.5676923652937
 20
49.2006775692208
 10
16.5677188501175
 20
49.2008151246884
 10
16.567739017433
 20
49.2009198610357
 10
16.5677478893771
 20
49.2010379574728
 10
16.5677586947284
 20
49.2011818147249
 10
16.5677175319665
 20
49.2014053359929
 10
16.5676627253165
 20
49.2017029462107
 10
16.567632148084
 20
49.2018689926362
 10
16.5673595284279
 20
49.2021012545576
 10
16.5667112544613
 20
49.2024556923596
 10
16.5664574276445
 20
49.2022661583587
 10
16.5667086940063
 20
49.2021219942014
 10
16.5669666433629
 20
49.2019564750559
 10
16.5672563000067
 20
49.2017368235015
 10
16.5673983811312
 20
49.2013733964348
 10
16.5674262173021
 20
49.2011879458398
 10
16.5674560265821
 20
49.2009893460975
 10
16.5674574331329
 20
49.200862295532
 10
16.5674348923915
 20
49.2006104948617
 10
16.5673799105866
 20
49.2002643426651
 10
16.5673538062888
 20
49.2001000005475
 10
16.5673250907112
 20
49.2000305985465
 10
16.5672439971307
 20
49.199834600979
 10
16.5671646914202
 20
49.1996787370531
 10
16.5670433585101
 20
49.1995321315685
 10
16.5669208128649
 20
49.199436936503
 10
16.5667784990734
 20
49.1993212855329
 10
16.5666443209133
 20
49.1992105998649
 10
16.5665527118246
 20
49.1991350299224
 10
16.5664779099964
 20
49.1989174745152
 10
16.5664504215107
 20
49.1983305780876
 10
16.5664543633584
 20
49.198103252926
 10
16.5664604877766
 20
49.197750030361
 10
16.5664647827295
 20
49.1975023797382
 10
16.5664676740351
 20
49.1973356841777
 10
16.5664986398912
 20
49.1971106082968
 10
16.5665031216344
 20
49.1970780461293
 10
16.5665455109528
 20
49.1967699536046
 10
16.5666720827645
 20
49.1958203098037
 10
16.5666347212367
 20
49.1955159721077
 10
16.5665909544136
 20
49.1951717225471
 10
16.5665488688454
 20
49.1948407104537
 10
16.5665302386371
 20
49.1946411909389
 10
16.5665434604228
 20
49.1944963532571
 10
16.5665609161304
 20
49.1944061055893
 10
16.5666406317965
 20
49.1942063629119
 10
16.566695744397
 20
49.1940915185998
 10
16.566779526393
 20
49.1939694471489
 10
16.5669294218634
 20
49.1938078018411
 10
16.5670635407224
 20
49.193647755541
 10
16.567447838914
 20
49.1937417046898
 10
16.5674167514874
 20
49.1937749293233
 10
16.5672194923576
 20
49.1939826593612
 10
16.567022485232
 20
49.1941941700515
 10
16.566957707879
 20
49.1943247962444
 10
16.5669279330893
 20
49.1943848365229
 10
16.5668939330976
 20
49.1946447403889
 10
16.5668885626464
 20
49.1947632674954
 10
16.5668966595989
 20
49.1949394600116
 10
16.5669406515327
 20
49.1951192517661
 10
16.5669859104431
 20
49.1953791412304
 10
16.5670283969919
 20
49.1956679986323
 10
16.5670422503401
 20
49.1957621964314
 10
16.5670502554937
 20
49.1958208838963
 10
16.5670393949422
 20
49.195924109386
 10
16.5670023835617
 20
49.1961559558288
 10
16.5669057658271
 20
49.1968001175868
 10
16.5668623844835
 20
49.1970938122593
 10
16.566853322989
 20
49.1971551603459
 10
16.5668294976248
 20
49.1973164655188
 10
16.5668050036413
 20
49.1974822847288
 10
16.5667707481664
 20
49.1977141872552
 10
16.5667643015486
 20
49.1978120392762
 10
16.5667656252579
 20
49.1979271263754
 10
16.5667679433312
 20
49.1981286046621
 10
16.5668466426026
 20
49.1982947378535
 10
16.5671273400591
 20
49.1988872878994
 10
16.5672339159014
 20
49.199059724007
 10
16.5673387718722
 20
49.1990036639668
 10
16.5674708479765
 20
49.1990425117056
 10
16.5674322734048
 20
49.1991089829324
 10
16.5673513219838
 20
49.1991917813586
 10
16.5672990298416
 20
49.1992733668188
 97
0
 75
0
 76
1
 98
0
  0
HATCH
  5
20027
100
AcDbEntity
  8
plocha Q5
100
AcDbHatch
 10
0
 20
0
 30
0
210
0
220
0
230
1
  2
SOLID
 70
1
 71
0
 91
1
 92
2
 72
0
 73
1
 93
91
 10
16.5530544537559
 20
49.2171816693004
 10
16.5530219138305
 20
49.2172894410189
 10
16.5529856002566
 20
49.2173861413252
 10
16.5529309134109
 20
49.2174991244017
 10
16.552362940466
 20
49.2173308084487
 10
16.5524437761127
 20
49.2172344636467
 10
16.5524976245003
 20
49.2171575339615
 10
16.5525874154525
 20
49.2169473502845
 10
16.5526577444137
 20
49.2167485476136
 10
16.5526985075493
 20
49.2165846451308
 10
16.5527274212436
 20
49.2164683914756
 10
16.5527411221629
 20
49.2163872790792
 10
16.5527744537898
 20
49.216084922893
 10
16.5527770040828
 20
49.2158164096189
 10
16.5527790977379
 20
49.2155957497142
 10
16.5527801493481
 20
49.2154849338961
 10
16.5528005282072
 20
49.2153144371729
 10
16.5528450532371
 20
49.215130677284
 10
16.5529748811598
 20
49.2148394944663
 10
16.5531190003185
 20
49.2145542687206
 10
16.5531677202486
 20
49.2144578453103
 10
16.5533697720439
 20
49.2141299202227
 10
16.5536449635483
 20
49.2136832838471
 10
16.5539803353607
 20
49.2132324271598
 10
16.554223521332
 20
49.21295883256
 10
16.5543216261092
 20
49.21284612196
 10
16.5543671305273
 20
49.2127908221203
 10
16.5545076434741
 20
49.2126200417419
 10
16.5545946429955
 20
49.212484017345
 10
16.5546427905088
 20
49.212377328524
 10
16.5546473541518
 20
49.2123014325848
 10
16.5546593531047
 20
49.2121018745857
 10
16.5546754445699
 20
49.2118342676216
 10
16.55469049967
 20
49.211583844952
 10
16.5546905197601
 20
49.2115835162183
 10
16.5547002950145
 20
49.2114209229994
 10
16.554714228636
 20
49.2111891774189
 10
16.5547800724137
 20
49.2110363575209
 10
16.5548804852741
 20
49.2108033034545
 10
16.5549963858022
 20
49.2106668755988
 10
16.5552366754567
 20
49.2104529240259
 10
16.5555595925262
 20
49.2102747533548
 10
16.5558502185761
 20
49.2101408594493
 10
16.5559470690039
 20
49.2100962373886
 10
16.5561556644517
 20
49.2100482563704
 10
16.5563961025142
 20
49.2099878991967
 10
16.5566657107364
 20
49.2098986831133
 10
16.5567762122324
 20
49.209856510703
 10
16.5570822628062
 20
49.2101181332774
 10
16.5568330375287
 20
49.2101715634044
 10
16.5565465823498
 20
49.2102372290944
 10
16.5561798716043
 20
49.2103346136257
 10
16.5560062797724
 20
49.2103923085881
 10
16.555779364552
 20
49.2104925652097
 10
16.5555538666983
 20
49.2106613816803
 10
16.5554294303695
 20
49.2108060263568
 10
16.5553072793443
 20
49.2109658016969
 10
16.5551925940412
 20
49.2111158116783
 10
16.555120605587
 20
49.2112934291631
 10
16.5550433844201
 20
49.2115638635667
 10
16.5549656398204
 20
49.2119109884966
 10
16.5549535502709
 20
49.2121452951478
 10
16.5549441382812
 20
49.2123276409556
 10
16.5549400158912
 20
49.2124075411796
 10
16.5548500588347
 20
49.2126480111722
 10
16.5547448273392
 20
49.2127755228424
 10
16.5547039590293
 20
49.2128250430115
 10
16.5546563170532
 20
49.2128827730872
 10
16.5545210032357
 20
49.2130467330601
 10
16.5543670864109
 20
49.2132332370997
 10
16.5542342548243
 20
49.2133941870639
 10
16.5541033184106
 20
49.2135528414956
 10
16.5540108912974
 20
49.213664834299
 10
16.5538487860124
 20
49.2138633682103
 10
16.5537628787051
 20
49.2139695209555
 10
16.553679826167
 20
49.2140848505103
 10
16.5535635321768
 20
49.2142804942708
 10
16.5534706336289
 20
49.2144367778239
 10
16.5533772458515
 20
49.2145938830786
 10
16.5532315304611
 20
49.2148390206424
 10
16.5530855183086
 20
49.2152085175162
 10
16.5530540151164
 20
49.2154094049759
 10
16.55302106492
 20
49.2156195144282
 10
16.5530867541216
 20
49.2159269252082
 10
16.5531585577357
 20
49.2162629690034
 10
16.5532076633268
 20
49.2164927702876
 10
16.5532143683325
 20
49.2165241519776
 10
16.5532093916375
 20
49.2165232136674
 10
16.5532135633876
 20
49.2165966498042
 10
16.5531714292556
 20
49.2167942509773
 10
16.5530544537559
 20
49.2171816693004
 97
0
 75
0
 76
1
 98
0
  0
HATCH
  5
20028
100
AcDbEntity
  8
plocha Q5
100
AcDbHatch
 10
0
 20
0
 30
0
210
0
220
0
230
1
  2
SOLID
 70
1
 71
0
 91
1
 92
2
 72
0
 73
1
 93
53
 10
16.535935242849
 20
49.2215016496261
 10
16.5357615418052
 20
49.2217006009724
 10
16.535562236884
 20
49.2219288712789
 10
16.5354143949136
 20
49.2220981975526
 10
16.5352826597468
 20
49.2222490776046
 10
16.5351676206038
 20
49.2223808362345
 10
16.5350653341176
 20
49.2224979887308
 10
16.5350040981205
 20
49.2226156103896
 10
16.53485123673
 20
49.2229092253504
 10
16.5347311896826
 20
49.2231398040967
 10
16.5345803308853
 20
49.2234295601034
 10
16.5345219106763
 20
49.2236603380034
 10
16.5344636708794
 20
49.223957288637
 10
16.534446874192
 20
49.2241140015841
 10
16.5344382720805
 20
49.2241942734381
 10
16.5344222808283
 20
49.2244746813753
 10
16.5344222697755
 20
49.2247204927233
 10
16.534439099257
 20
49.224825531296
 10
16.5344866537302
 20
49.2251223201983
 10
16.5345204706057
 20
49.2253333683163
 10
16.5345126364545
 20
49.2255774102478
 10
16.5345077768252
 20
49.2257287073655
 10
16.5339567325192
 20
49.225938444572
 10
16.5339987373176
 20
49.2257477139419
 10
16.5340119305961
 20
49.2256861921222
 10
16.5339973371636
 20
49.2255377961594
 10
16.5339828022129
 20
49.2253691931197
 10
16.5339713518213
 20
49.2251297260333
 10
16.5339604195477
 20
49.2249010696177
 10
16.5339488378921
 20
49.2246588847742
 10
16.533932883057
 20
49.2243252237394
 10
16.5339365685497
 20
49.2241601416727
 10
16.5339366510758
 20
49.2241586016263
 10
16.5339399262861
 20
49.2241027511164
 10
16.5339627211774
 20
49.2237157864297
 10
16.5339959748663
 20
49.2234979449955
 10
16.5340188401941
 20
49.2233999375662
 10
16.5340869472226
 20
49.2232161154533
 10
16.5342311523656
 20
49.2229386590497
 10
16.5343235933869
 20
49.2227607993859
 10
16.5343712461388
 20
49.2226691106761
 10
16.5344490457873
 20
49.2225800747223
 10
16.53457738132
 20
49.2224332013029
 10
16.5347602580355
 20
49.2222239062166
 10
16.5349939426211
 20
49.2219564617507
 10
16.5352611267923
 20
49.2216506752825
 10
16.535346820318
 20
49.2215478381353
 10
16.5354245002327
 20
49.2214117274769
 10
16.535536464087
 20
49.2212542016624
 10
16.5356103117721
 20
49.2211609234496
 10
16.5361068162276
 20
49.2212931166744
 10
16.5360459357714
 20
49.221374867285
 10
16.535935242849
 20
49.2215016496261
 97
0
 75
0
 76
1
 98
0
  0
HATCH
  5
20029
100
AcDbEntity
  8
plocha Q5
100
AcDbHatch
 10
0
 20
0
 30
0
210
0
220
0
230
1
  2
SOLID
 70
1
 71
0
 91
1
 92
2
 72
0
 73
1
 93
84
 10
16.6407497518509
 20
49.2134172490254
 10
16.6410756619416
 20
49.213794158692
 10
16.6412021741005
 20
49.213940463602
 10
16.6414016018304
 20
49.2141710926842
 10
16.6415299871726
 20
49.2145740589534
 10
16.6417690444425
 20
49.2149106938072
 10
16.6420136732784
 20
49.2152208053087
 10
16.6420505342066
 20
49.215267736743
 10
16.6420828397916
 20
49.2153208218466
 10
16.6421460440858
 20
49.2154454503155
 10
16.6421783633304
 20
49.2155091817279
 10
16.6421843957387
 20
49.2155280145638
 10
16.6418252462753
 20
49.2155723858215
 10
16.6417997515229
 20
49.215513764599
 10
16.6417805362222
 20
49.2154695826482
 10
16.6417463493229
 20
49.215415857357
 10
16.6416711707429
 20
49.2152977118959
 10
16.6416225663675
 20
49.2152213288384
 10
16.6415790230933
 20
49.2151490815228
 10
16.6415064493689
 20
49.2150286667472
 10
16.6414297701967
 20
49.2149334515928
 10
16.6412944302506
 20
49.2147653883603
 10
16.6411900981544
 20
49.2146358331077
 10
16.641034347328
 20
49.2144548259852
 10
16.6408785409112
 20
49.2142830002697
 10
16.6406641646115
 20
49.2141300989433
 10
16.6404098509283
 20
49.2138776113641
 10
16.6403452672273
 20
49.2137990827433
 10
16.6402564538758
 20
49.2136910924969
 10
16.6401164550718
 20
49.2135208599083
 10
16.6400385945095
 20
49.2134261841829
 10
16.6399706130758
 20
49.2133794440903
 10
16.6399144129072
 20
49.2133408051209
 10
16.6398204032568
 20
49.2132761691342
 10
16.6397976231391
 20
49.2132605085604
 10
16.6397724427996
 20
49.2133174582854
 10
16.6397143178144
 20
49.2134489171253
 10
16.6397082172262
 20
49.2135179008912
 10
16.6397378478947
 20
49.2136302959328
 10
16.6397499320976
 20
49.2136761360511
 10
16.639801930969
 20
49.2137334559393
 10
16.6398887676761
 20
49.2138291766073
 10
16.6399040275984
 20
49.2138682800603
 10
16.639893916918
 20
49.2139297868784
 10
16.6398323285461
 20
49.2141079950897
 10
16.6398146297683
 20
49.2141689231574
 10
16.6398067993038
 20
49.2142679068208
 10
16.6397983122111
 20
49.2143751931771
 10
16.6398255000992
 20
49.2144300480697
 10
16.6399093287
 20
49.2145297557837
 10
16.6399931968165
 20
49.2145947984772
 10
16.6400685073098
 20
49.2146498509586
 10
16.6400723455318
 20
49.2146790280793
 10
16.6400332327592
 20
49.2146856109002
 10
16.6399772399134
 20
49.2146950358229
 10
16.639883451168
 20
49.2146822707419
 10
16.6398055517067
 20
49.214649493983
 10
16.639737831613
 20
49.2146083862505
 10
16.6396163895058
 20
49.2145187151373
 10
16.6394381250239
 20
49.2143954637627
 10
16.6393249055102
 20
49.2143195150258
 10
16.6392669572156
 20
49.2142818061396
 10
16.6391476819368
 20
49.2142193666789
 10
16.6391070235919
 20
49.2141984432684
 10
16.6389991845942
 20
49.2140841793605
 10
16.6389032000223
 20
49.2139824780051
 10
16.6388748895147
 20
49.2139524803357
 10
16.6388644595
 20
49.213916980758
 10
16.6388839052186
 20
49.2137987005822
 10
16.638894794851
 20
49.2137324632522
 10
16.6389404511202
 20
49.2136908788547
 10
16.639105817264
 20
49.2136131095831
 10
16.6392612326605
 20
49.2135400195391
 10
16.6392844921506
 20
49.2135290814591
 10
16.6393351790563
 20
49.2134870921362
 10
16.6393620948871
 20
49.2134335887858
 10
16.6393936189912
 20
49.2133709318794
 10
16.6394151478011
 20
49.213328135254
 10
16.6394184541452
 20
49.2132979363359
 10
16.6394885371297
 20
49.2130495811575
 10
16.6402121377387
 20
49.2128175721426
 10
16.6403441884409
 20
49.2129569620212
 10
16.6405119454467
 20
49.2131422310123
 10
16.6407497518509
 20
49.2134172490254
 97
0
 75
0
 76
1
 98
0
  0
HATCH
  5
2002A
100
AcDbEntity
  8
plocha Q5
100
AcDbHatch
 10
0
 20
0
 30
0
210
0
220
0
230
1
  2
SOLID
 70
1
 71
0
 91
1
 92
2
 72
0
 73
1
 93
41
 10
16.6366217594198
 20
49.2089742141947
 10
16.6367013271489
 20
49.2090364486956
 10
16.6367586694067
 20
49.2090812962896
 10
16.6368383343461
 20
49.2091742737574
 10
16.6369530383976
 20
49.2093081411589
 10
16.6371417273854
 20
49.209528351147
 10
16.637274817426
 20
49.2096836761528
 10
16.6374209213792
 20
49.2098541863451
 10
16.6374752683878
 20
49.2099176130876
 10
16.6375459238861
 20
49.2099505329433
 10
16.6378241866924
 20
49.2100801830427
 10
16.6381123887577
 20
49.2104002002345
 10
16.6382404405814
 20
49.2105423863963
 10
16.6387834063664
 20
49.2111943414683
 10
16.6389679795146
 20
49.2114298442927
 10
16.6392053178788
 20
49.2117326701446
 10
16.6392398944614
 20
49.2117767880206
 10
16.6393056578651
 20
49.2118606946078
 10
16.6395191080379
 20
49.2120860144652
 10
16.6397327493036
 20
49.2123115353918
 10
16.6400401426673
 20
49.2126360184272
 10
16.6394267701154
 20
49.2127912432182
 10
16.6390635793496
 20
49.2123303575207
 10
16.6389667003123
 20
49.2122086550261
 10
16.6385080231201
 20
49.211681412074
 10
16.6382655206244
 20
49.2114106692428
 10
16.6380022599264
 20
49.2110934106991
 10
16.6378732344729
 20
49.210921069761
 10
16.6377027436066
 20
49.2106933437398
 10
16.6373935524349
 20
49.2102946839278
 10
16.6371925216233
 20
49.2100538891185
 10
16.6371795209903
 20
49.2100383175186
 10
16.6371504131606
 20
49.2100034493741
 10
16.6370131996993
 20
49.2098390952591
 10
16.6368328560586
 20
49.2096176118687
 10
16.636713053896
 20
49.2094658344173
 10
16.636598360968
 20
49.2093205252334
 10
16.6364782850655
 20
49.209220775219
 10
16.6362698277601
 20
49.2091369565259
 10
16.6364842084815
 20
49.2089207916382
 10
16.6366217594198
 20
49.2089742141947
 97
0
 75
0
 76
1
 98
0
  0
HATCH
  5
2002B
100
AcDbEntity
  8
plocha Q5
100
AcDbHatch
 10
0
 20
0
 30
0
210
0
220
0
230
1
  2
SOLID
 70
1
 71
0
 91
1
 92
2
 72
0
 73
1
 93
55
 10
16.6252542261716
 20
49.1618006884235
 10
16.6250979723801
 20
49.1621668284744
 10
16.624890887222
 20
49.1626059868585
 10
16.6246812800462
 20
49.1630050980438
 10
16.624527872746
 20
49.1632402144121
 10
16.6243966579203
 20
49.1634413168582
 10
16.6241149741919
 20
49.1637599272696
 10
16.6238661439558
 20
49.1640413741268
 10
16.6237095378582
 20
49.1642464318965
 10
16.623609874971
 20
49.164376928578
 10
16.6235372933461
 20
49.1644756993637
 10
16.623508168981
 20
49.1645560647786
 10
16.6234915215933
 20
49.1646019957954
 10
16.6233903824026
 20
49.1648810630766
 10
16.6233267643586
 20
49.1651504972088
 10
16.6232313098625
 20
49.1656424160817
 10
16.6231699469905
 20
49.1660114033809
 10
16.6231250790309
 20
49.166217776988
 10
16.623101136625
 20
49.1662984846765
 10
16.6227843646671
 20
49.1662719887277
 10
16.6229017343862
 20
49.165544467183
 10
16.6230623609544
 20
49.1648789040559
 10
16.6231544478053
 20
49.1645812007434
 10
16.6231906550603
 20
49.1644984730167
 10
16.623246538568
 20
49.1643707784509
 10
16.6234880455971
 20
49.1640080395724
 10
16.623677338039
 20
49.1637851224194
 10
16.6238402042723
 20
49.1636065206512
 10
16.624036044918
 20
49.1633917590983
 10
16.6241694863582
 20
49.1632454253036
 10
16.6242839123103
 20
49.1631086105221
 10
16.6244107755718
 20
49.1629397553074
 10
16.6244641530453
 20
49.1628687071716
 10
16.6246612746715
 20
49.1624860825086
 10
16.6248092338337
 20
49.1621988814439
 10
16.6250402538088
 20
49.1617222482117
 10
16.6250994653884
 20
49.1614238147813
 10
16.6251527583034
 20
49.161155218364
 10
16.6251858573279
 20
49.1609184780322
 10
16.6252039283374
 20
49.1607331324665
 10
16.6252153682251
 20
49.1604191564566
 10
16.6252049684374
 20
49.159972414041
 10
16.625190647874
 20
49.1596323878901
 10
16.6251718933283
 20
49.1594328231548
 10
16.6254695310633
 20
49.1594355233943
 10
16.6254973292705
 20
49.1598786784847
 10
16.6255084894191
 20
49.1602760356097
 10
16.6255089536644
 20
49.1606453278833
 10
16.6255008207917
 20
49.1608729193243
 10
16.6254761575592
 20
49.1610389789327
 10
16.6254704616704
 20
49.1610773184396
 10
16.6254695264511
 20
49.1610772522715
 10
16.6254639368105
 20
49.1611095130493
 10
16.6253734548033
 20
49.1614323791454
 10
16.6252542261716
 20
49.1618006884235
 97
0
 75
0
 76
1
 98
0
  0
HATCH
  5
2002C
100
AcDbEntity
  8
plocha Q5
100
AcDbHatch
 10
0
 20
0
 30
0
210
0
220
0
230
1
  2
SOLID
 70
1
 71
0
 91
1
 92
2
 72
0
 73
1
 93
127
 10
16.6531884064453
 20
49.2286885509872
 10
16.652787852933
 20
49.2287119889733
 10
16.6526278865182
 20
49.2287202036237
 10
16.6525346059785
 20
49.2287158808014
 10
16.6523184823549
 20
49.2286961721063
 10
16.6522029875863
 20
49.2286856395125
 10
16.6522181464459
 20
49.2284285302508
 10
16.6522922359102
 20
49.2284358920692
 10
16.6525260634276
 20
49.2284418257914
 10
16.653005883761
 20
49.2284407114524
 10
16.6533309419235
 20
49.2284370190913
 10
16.6534598107126
 20
49.2284352287082
 10
16.6537975682085
 20
49.2284143730687
 10
16.6540447095717
 20
49.2283929621584
 10
16.6542497632405
 20
49.2283727082465
 10
16.6544899510597
 20
49.2283436898756
 10
16.6546918202675
 20
49.2283193011526
 10
16.6549454148395
 20
49.2282886616261
 10
16.6550895041069
 20
49.2282886879903
 10
16.6552522253454
 20
49.2282549726729
 10
16.6553594234485
 20
49.2282322356489
 10
16.6554815587549
 20
49.2281932536379
 10
16.6555775300152
 20
49.2281626191167
 10
16.6556568146988
 20
49.2281243450628
 10
16.6557645769243
 20
49.2280759262693
 10
16.6558495044954
 20
49.2280459124344
 10
16.6559166932263
 20
49.2280221693742
 10
16.6559879228366
 20
49.2280005286169
 10
16.6560970993153
 20
49.2279702570282
 10
16.6562305444691
 20
49.2279368729085
 10
16.6563409554269
 20
49.2279138963149
 10
16.6564337140653
 20
49.2278945936622
 10
16.656528187692
 20
49.2278621038521
 10
16.6566120667259
 20
49.2278332565926
 10
16.6566973945501
 20
49.227802244745
 10
16.656730032515
 20
49.2277887848846
 10
16.6568246387483
 20
49.2277497696823
 10
16.6569330971168
 20
49.2277050401647
 10
16.6570297013699
 20
49.2276596698199
 10
16.6571591943504
 20
49.2275906732072
 10
16.6572585235148
 20
49.2275400715139
 10
16.6573377896342
 20
49.2275057755523
 10
16.657481560023
 20
49.2274515714674
 10
16.6575805695298
 20
49.227421406143
 10
16.6576986691999
 20
49.2273854238287
 10
16.6578099252711
 20
49.2273515256657
 10
16.6579443687865
 20
49.2273105639746
 10
16.6580518391537
 20
49.2272778200517
 10
16.6581857251067
 20
49.2272449849585
 10
16.6582533241278
 20
49.2272284064095
 10
16.6583607712906
 20
49.2271714571797
 10
16.6585289419024
 20
49.2270994658496
 10
16.6587262106782
 20
49.2270150175074
 10
16.658904511058
 20
49.2269386881653
 10
16.6590801501041
 20
49.2268717772534
 10
16.6592515112511
 20
49.2268064951567
 10
16.6594151061192
 20
49.2267454698151
 10
16.6595515944558
 20
49.2266950019027
 10
16.659734471591
 20
49.2266285550619
 10
16.6598450409105
 20
49.2265903533141
 10
16.6599347403884
 20
49.226562346648
 10
16.660040563835
 20
49.2265316594477
 10
16.6601277794087
 20
49.2265000202697
 10
16.6601991042173
 20
49.2264741430349
 10
16.6603430961426
 20
49.2264219067635
 10
16.6604222198571
 20
49.2263932018548
 10
16.6605367272586
 20
49.2263441412762
 10
16.6606377238453
 20
49.2262990872738
 10
16.6607637461559
 20
49.226242869487
 10
16.6608785509809
 20
49.2261903909142
 10
16.6610012727453
 20
49.2261254807243
 10
16.6610969622521
 20
49.2260717495142
 10
16.6611910452936
 20
49.2260189209008
 10
16.6612417540335
 20
49.2259695791528
 10
16.6613313995512
 20
49.2258823450874
 10
16.6613912962256
 20
49.2258240618042
 10
16.6614469885475
 20
49.2257698674016
 10
16.661483073879
 20
49.2256890603096
 10
16.661528498851
 20
49.2255873387584
 10
16.6615383360561
 20
49.2255653106838
 10
16.6619177114322
 20
49.2255609946129
 10
16.6617752232634
 20
49.2257437210664
 10
16.6615583073037
 20
49.2259002700571
 10
16.6614756443561
 20
49.225973135749
 10
16.6613478676813
 20
49.2260638169141
 10
16.6612804693032
 20
49.2261116518555
 10
16.6611954734717
 20
49.2261646431565
 10
16.6611119654683
 20
49.2262149434915
 10
16.660998643594
 20
49.2262719040222
 10
16.6608910031474
 20
49.2263217537856
 10
16.6607158330708
 20
49.2263895900956
 10
16.6606019990636
 20
49.2264340232426
 10
16.6604400047917
 20
49.2264993420506
 10
16.6603075806286
 20
49.2265530353185
 10
16.6601512054313
 20
49.2266171021292
 10
16.6600482158481
 20
49.226659296858
 10
16.6599033147017
 20
49.2267114543903
 10
16.6597776168755
 20
49.2267566963855
 10
16.6596227122355
 20
49.2268124539597
 10
16.6595220703345
 20
49.2268487827361
 10
16.659468927969
 20
49.2268680297036
 10
16.6592959990394
 20
49.2269286091244
 10
16.6590642908971
 20
49.2270055929244
 10
16.6589690817786
 20
49.227037226081
 10
16.6588093363252
 20
49.2270938847549
 10
16.6584026806953
 20
49.2272820287479
 10
16.6580707874735
 20
49.2274788260446
 10
16.6575284304475
 20
49.2277925243148
 10
16.6574562486657
 20
49.2278320871461
 10
16.6573284001878
 20
49.2278968757601
 10
16.657160578025
 20
49.2279801304242
 10
16.6570077377366
 20
49.2280394381324
 10
16.6568004583902
 20
49.2280959325933
 10
16.6567089117902
 20
49.2281208840141
 10
16.65655313935
 20
49.2281633387703
 10
16.6564203169571
 20
49.2281926311591
 10
16.6561907501539
 20
49.228235878821
 10
16.6559444220345
 20
49.2282822821019
 10
16.655742162338
 20
49.2283203837929
 10
16.6552129213371
 20
49.2284163802736
 10
16.6550136825063
 20
49.228449926153
 10
16.6549213072377
 20
49.2284654769475
 10
16.6545923085278
 20
49.2285183896753
 10
16.6542871311071
 20
49.2285674226545
 10
16.6539086190196
 20
49.2286141976736
 10
16.653526160962
 20
49.2286578573641
 10
16.6531884064453
 20
49.2286885509872
 97
0
 75
0
 76
1
 98
0
  0
HATCH
  5
2002D
100
AcDbEntity
  8
plocha Q5
100
AcDbHatch
 10
0
 20
0
 30
0
210
0
220
0
230
1
  2
SOLID
 70
1
 71
0
 91
1
 92
2
 72
0
 73
1
 93
56
 10
16.6129575011089
 20
49.1796145213863
 10
16.6125929952647
 20
49.1798871371853
 10
16.6124104282967
 20
49.1800328826142
 10
16.6122163185675
 20
49.1801927840417
 10
16.6119546160819
 20
49.1804083641058
 10
16.6117667919924
 20
49.1805694881287
 10
16.6114948190536
 20
49.1808164105145
 10
16.611338287026
 20
49.1809585197181
 10
16.6111064117185
 20
49.1811690298419
 10
16.6109266477028
 20
49.1813322299055
 10
16.6107701152923
 20
49.1814743376254
 10
16.6105724513585
 20
49.1816610830145
 10
16.6103648525313
 20
49.181861705628
 10
16.6101417329329
 20
49.1820773282905
 10
16.6101050710414
 20
49.1821127583447
 10
16.6100690841792
 20
49.1821475334267
 10
16.6099362678174
 20
49.1822758837243
 10
16.6097030903279
 20
49.1824707096532
 10
16.6093910954521
 20
49.1826700895602
 10
16.6091629555786
 20
49.1827851846615
 10
16.6089714804633
 20
49.1828753600805
 10
16.6087760027216
 20
49.1829572802311
 10
16.6085670035859
 20
49.1830257887181
 10
16.6082227871175
 20
49.1831196873041
 10
16.607930600847
 20
49.183171369173
 10
16.607729087487
 20
49.1832021826623
 10
16.6075055558184
 20
49.1832363611298
 10
16.6074024132311
 20
49.1829425709316
 10
16.6079058894499
 20
49.1828665940955
 10
16.6082028421641
 20
49.1827996295139
 10
16.6084699110113
 20
49.1827394041312
 10
16.6087286241098
 20
49.1826716675153
 10
16.6089603700939
 20
49.1825900899062
 10
16.6092486605238
 20
49.1824408870841
 10
16.6094778095155
 20
49.1823022234862
 10
16.609636208122
 20
49.1821675233005
 10
16.6097561608676
 20
49.1820655179332
 10
16.6098652158318
 20
49.1819727747692
 10
16.6099584802596
 20
49.1818934623921
 10
16.6100624864566
 20
49.1817958370535
 10
16.6103022526651
 20
49.1815528373248
 10
16.6107271152566
 20
49.1811222377426
 10
16.6110087366265
 20
49.1808596172447
 10
16.6111494864603
 20
49.1807326151379
 10
16.6114989893168
 20
49.1804275395686
 10
16.6117213694255
 20
49.1802431863519
 10
16.6118950311977
 20
49.1801060747854
 10
16.6121136782508
 20
49.179933443815
 10
16.6122860327222
 20
49.1797973607682
 10
16.6125213444752
 20
49.1796229674238
 10
16.6126627246095
 20
49.1795338897341
 10
16.6130983643363
 20
49.1792594068158
 10
16.61316233062
 20
49.1792177615797
 10
16.6132716108259
 20
49.1793888944127
 10
16.6131463609256
 20
49.179473267751
 10
16.6129575011089
 20
49.1796145213863
 97
0
 75
0
 76
1
 98
0
  0
HATCH
  5
2002E
100
AcDbEntity
  8
plocha Q5
100
AcDbHatch
 10
0
 20
0
 30
0
210
0
220
0
230
1
  2
SOLID
 70
1
 71
0
 91
1
 92
2
 72
0
 73
1
 93
46
 10
16.5951963251094
 20
49.1866288509416
 10
16.5952684130426
 20
49.1863491665548
 10
16.5955380601714
 20
49.18635089209
 10
16.5957263525256
 20
49.1863386089782
 10
16.5959477375692
 20
49.1863192863393
 10
16.5960954772063
 20
49.1863049439268
 10
16.5963020579079
 20
49.1862704513574
 10
16.5965726909401
 20
49.1862114909879
 10
16.5969943311497
 20
49.1861177846451
 10
16.5973827801754
 20
49.1860308110131
 10
16.597697499194
 20
49.1859604230052
 10
16.5980277287701
 20
49.1858759299303
 10
16.5985420421814
 20
49.1857241721535
 10
16.598964289824
 20
49.1855927371195
 10
16.5991753048365
 20
49.1855185930811
 10
16.5995510762953
 20
49.1853664433344
 10
16.5999333622582
 20
49.1851746622753
 10
16.6003137497166
 20
49.1849692203502
 10
16.6006986765773
 20
49.1847612945071
 10
16.6011182818321
 20
49.18453463386
 10
16.6017202811289
 20
49.1842094425785
 10
16.6018326026651
 20
49.1841488664423
 10
16.6020306391011
 20
49.1843199644287
 10
16.601739734709
 20
49.1844888001167
 10
16.6014406560269
 20
49.1846623793506
 10
16.6010702997661
 20
49.1848773242343
 10
16.6007627777746
 20
49.1850584201987
 10
16.6005475101797
 20
49.1851853082969
 10
16.6002554532842
 20
49.185334656554
 10
16.5999895940105
 20
49.1854572041718
 10
16.5997282347357
 20
49.1855672309889
 10
16.5993727376184
 20
49.1857058898947
 10
16.5991779895005
 20
49.1857781971939
 10
16.598913374884
 20
49.1858700929889
 10
16.5984821244176
 20
49.1860017819885
 10
16.5982272041297
 20
49.1860714230844
 10
16.597562480165
 20
49.1862420589469
 10
16.5964467897505
 20
49.1864852173939
 10
16.5962162560654
 20
49.1865324382073
 10
16.5959626811301
 20
49.1865748728458
 10
16.5958704425661
 20
49.1865903105267
 10
16.5957468308898
 20
49.1866109963293
 10
16.5957475456895
 20
49.1866068446863
 10
16.5956750111499
 20
49.1866166010827
 10
16.5954577937941
 20
49.1866335571247
 10
16.5951963251094
 20
49.1866288509416
 97
0
 75
0
 76
1
 98
0
  0
HATCH
  5
2002F
100
AcDbEntity
  8
plocha Q5
100
AcDbHatch
 10
0
 20
0
 30
0
210
0
220
0
230
1
  2
SOLID
 70
1
 71
0
 91
1
 92
2
 72
0
 73
1
 93
64
 10
16.6314436008277
 20
49.1777506639453
 10
16.6313994960112
 20
49.1779078840647
 10
16.6313897195617
 20
49.1779526056553
 10
16.6311933815267
 20
49.1788505502562
 10
16.6310262660998
 20
49.1795782016408
 10
16.6308725891237
 20
49.1802685129764
 10
16.6307030641956
 20
49.1810773593897
 10
16.6306002072703
 20
49.1815917821383
 10
16.6304600679741
 20
49.1822662995618
 10
16.6302768030342
 20
49.1831363953312
 10
16.6301327640665
 20
49.1838345676947
 10
16.6299814216984
 20
49.1844391248759
 10
16.6298710449245
 20
49.1849794702184
 10
16.6296712751211
 20
49.1859148302856
 10
16.6295662797866
 20
49.1864005533209
 10
16.62950413572
 20
49.1866880330415
 10
16.6293171023771
 20
49.1875484127711
 10
16.6291451450412
 20
49.1883378992548
 10
16.629118901643
 20
49.1884794420195
 10
16.6289451899809
 20
49.1884130611094
 10
16.6290010253515
 20
49.1881951289365
 10
16.629023889343
 20
49.188109037459
 10
16.6291480414505
 20
49.1875816843236
 10
16.6291824260751
 20
49.1874263829356
 10
16.629233826214
 20
49.1871933916777
 10
16.629287540987
 20
49.1869505298143
 10
16.6293559795131
 20
49.1866418582371
 10
16.6294019660923
 20
49.18643445083
 10
16.6295460540265
 20
49.1857722264616
 10
16.6296050342036
 20
49.1854984691976
 10
16.6296557636329
 20
49.1852630047653
 10
16.6296928625818
 20
49.1850908052575
 10
16.6297583019611
 20
49.1847870564156
 10
16.6298598741157
 20
49.1843155856628
 10
16.6299295348763
 20
49.1839922250738
 10
16.6299945653234
 20
49.1836903657316
 10
16.6300397271945
 20
49.1834807248148
 10
16.6301199723496
 20
49.1831082244225
 10
16.6301722368183
 20
49.1828656200865
 10
16.6302732251597
 20
49.182396811587
 10
16.630345908866
 20
49.1820594002797
 10
16.6304077723588
 20
49.1817722101544
 10
16.6304707664136
 20
49.1814797689886
 10
16.6304976824355
 20
49.1813548193247
 10
16.6305992744218
 20
49.1808831917852
 10
16.6306987325489
 20
49.1804214485453
 10
16.6307510424371
 20
49.1801786086772
 10
16.6307946592128
 20
49.1799761088367
 10
16.6308551487318
 20
49.1796952867936
 10
16.6308973105604
 20
49.1794995400143
 10
16.6309958525079
 20
49.1790420418611
 10
16.6310603304531
 20
49.1787426905459
 10
16.6311187428105
 20
49.1784719141936
 10
16.6311614804108
 20
49.1782738194157
 10
16.6311996967251
 20
49.1780966818524
 10
16.6312306835791
 20
49.1779530531819
 10
16.6312383027394
 20
49.1779177348543
 10
16.6313276877202
 20
49.1775034093405
 10
16.6313903192042
 20
49.1772130979757
 10
16.6314935728523
 20
49.1767411438964
 10
16.6316798060193
 20
49.176735939827
 10
16.6315888108472
 20
49.17713394074
 10
16.6315101568395
 20
49.1774346960484
 10
16.6314436008277
 20
49.1777506639453
 97
0
 75
0
 76
1
 98
0
  0
HATCH
  5
20030
100
AcDbEntity
  8
plocha Q5
100
AcDbHatch
 10
0
 20
0
 30
0
210
0
220
0
230
1
  2
SOLID
 70
1
 71
0
 91
1
 92
2
 72
0
 73
1
 93
75
 10
16.6312922544834
 20
49.147992295091
 10
16.6316615792116
 20
49.148753747241
 10
16.6319446507399
 20
49.1493283284598
 10
16.6321399518226
 20
49.149722818334
 10
16.6324206894476
 20
49.1502881904877
 10
16.6327186006156
 20
49.1508881326059
 10
16.6329939754095
 20
49.1514426765337
 10
16.6331610948534
 20
49.1517792104303
 10
16.6332810109758
 20
49.1525977659825
 10
16.6333835380417
 20
49.1533362472141
 10
16.6334473194546
 20
49.1538154621789
 10
16.6335163118696
 20
49.1543338263444
 10
16.6335998739301
 20
49.1549664807456
 10
16.6336357603205
 20
49.1552455014373
 10
16.6337011819099
 20
49.1557541410828
 10
16.633758597268
 20
49.1562005315848
 10
16.6337913088367
 20
49.1564548490637
 10
16.6337982451023
 20
49.1565087636823
 10
16.6338440016551
 20
49.1568645196355
 10
16.6339026847744
 20
49.157320742371
 10
16.6339544053834
 20
49.1577228368959
 10
16.6339808506741
 20
49.15792842068
 10
16.6340043582257
 20
49.1581111796304
 10
16.6340104540983
 20
49.1581585624075
 10
16.6340177989996
 20
49.1582217848009
 10
16.6340713169194
 20
49.1586824447921
 10
16.634108414075
 20
49.1590203653093
 10
16.6341194930373
 20
49.1590939490829
 10
16.633999461045
 20
49.1590477236528
 10
16.6339849297084
 20
49.158972893689
 10
16.633915049433
 20
49.1585014164966
 10
16.6338781380485
 20
49.1582047834709
 10
16.6338725334602
 20
49.1581597408968
 10
16.6337989734017
 20
49.1575685943143
 10
16.6337611942518
 20
49.1572649724413
 10
16.6337135605461
 20
49.1568821540824
 10
16.6336904127857
 20
49.1566961244668
 10
16.6336683158293
 20
49.1565185218884
 10
16.6336584730135
 20
49.1564394284736
 10
16.6336149951395
 20
49.1560900072911
 10
16.6335818561227
 20
49.1558236535135
 10
16.633544520554
 20
49.1555235919056
 10
16.6335070766403
 20
49.1552226398188
 10
16.6334882896112
 20
49.1550716544594
 10
16.6334654089997
 20
49.1548877436969
 10
16.6334498536247
 20
49.154762720752
 10
16.6334218719082
 20
49.1545642364988
 10
16.6333911664752
 20
49.1543491724721
 10
16.6333460604491
 20
49.1540332639517
 10
16.6333111705425
 20
49.1537888867919
 10
16.6332872898436
 20
49.1536216270328
 10
16.6332529277892
 20
49.1533809475107
 10
16.6332323724639
 20
49.1532369813751
 10
16.6332063645952
 20
49.1530548092945
 10
16.63315623404
 20
49.1527012928046
 10
16.6331302613491
 20
49.1525172400311
 10
16.6330823428614
 20
49.1521776585102
 10
16.633054794653
 20
49.1519824362131
 10
16.6330286071551
 20
49.1517968504549
 10
16.6329253601142
 20
49.1515872532452
 10
16.6328225412793
 20
49.1513785209773
 10
16.6325246158612
 20
49.1507736979248
 10
16.6321201223209
 20
49.1502067021392
 10
16.6320353079787
 20
49.1500305654775
 10
16.6319461053313
 20
49.1498453169778
 10
16.6318073512679
 20
49.1495571655648
 10
16.6317601880687
 20
49.1494592180865
 10
16.6315728894313
 20
49.1490702406341
 10
16.6314882545895
 20
49.1488944696109
 10
16.6314113768856
 20
49.1487348112298
 10
16.6313415078295
 20
49.1485904076046
 10
16.6312469940562
 20
49.1484004329524
 10
16.6310608139761
 20
49.1480451271444
 10
16.6311888990656
 20
49.1477031995462
 10
16.6312922544834
 20
49.147992295091
 97
0
 75
0
 76
1
 98
0
  0
HATCH
  5
20031
100
AcDbEntity
  8
plocha Q5
100
AcDbHatch
 10
0
 20
0
 30
0
210
0
220
0
230
1
  2
SOLID
 70
1
 71
0
 91
1
 92
2
 72
0
 73
1
 93
53
 10
16.6229090958679
 20
49.1672564040869
 10
16.622815793249
 20
49.1678241805106
 10
16.6227885493448
 20
49.1681578617633
 10
16.622784285371
 20
49.1682100534793
 10
16.6227624200446
 20
49.1684778203941
 10
16.6227156852738
 20
49.1689232017085
 10
16.6226711103952
 20
49.1690622772779
 10
16.6225838698253
 20
49.1692483080877
 10
16.6224285648845
 20
49.1695265027003
 10
16.6223744345333
 20
49.1696203327363
 10
16.6222329846367
 20
49.1697919773264
 10
16.6220631671215
 20
49.1699980423379
 10
16.6218760747559
 20
49.170225068016
 10
16.6217442692432
 20
49.1703850042424
 10
16.6214890965823
 20
49.170646241679
 10
16.6211244546559
 20
49.1709539566873
 10
16.6209248353558
 20
49.1711036015864
 10
16.6206700115872
 20
49.171294631904
 10
16.6204187758747
 20
49.17148296804
 10
16.6203034376132
 20
49.1716004879026
 10
16.6202683213445
 20
49.1716362683699
 10
16.6201682096917
 20
49.1717382749336
 10
16.6200997085735
 20
49.1718080725077
 10
16.6199340458566
 20
49.1719981125999
 10
16.6198236174719
 20
49.1721347179142
 10
16.61969191796
 20
49.1723074757395
 10
16.6195855094349
 20
49.1724830629984
 10
16.6194945948492
 20
49.1726511507455
 10
16.6193566819631
 20
49.1730023958248
 10
16.6190322933446
 20
49.173066353716
 10
16.619171842839
 20
49.1728055051354
 10
16.6193416970565
 20
49.172502490928
 10
16.6195510315198
 20
49.1721834317722
 10
16.6197406114755
 20
49.1719416209315
 10
16.6199113371338
 20
49.1717507364905
 10
16.6199982163444
 20
49.1716535966427
 10
16.6200747144365
 20
49.1715680627396
 10
16.6203234856734
 20
49.1713012180328
 10
16.6206788657852
 20
49.1710377182812
 10
16.6209683581878
 20
49.1708230636785
 10
16.6212422190586
 20
49.1706069756815
 10
16.6215151778332
 20
49.1703531796354
 10
16.6218202259863
 20
49.1700335483141
 10
16.6220553507629
 20
49.169755659297
 10
16.6223235152726
 20
49.1692061420064
 10
16.6225439502315
 20
49.168216826622
 10
16.6225594748026
 20
49.1680734802363
 10
16.6225835624935
 20
49.1678510585146
 10
16.6227131997854
 20
49.1668307691833
 10
16.6227514626207
 20
49.1665303286668
 10
16.623033662552
 20
49.1665386518702
 10
16.6230092583439
 20
49.16667976078
 10
16.6229090958679
 20
49.1672564040869
 97
0
 75
0
 76
1
 98
0
  0
HATCH
  5
20032
100
AcDbEntity
  8
plocha Q5
100
AcDbHatch
 10
0
 20
0
 30
0
210
0
220
0
230
1
  2
SOLID
 70
1
 71
0
 91
1
 92
2
 72
0
 73
1
 93
67
 10
16.567077606285
 20
49.1887909629347
 10
16.5670094658948
 20
49.188862937795
 10
16.5669548106715
 20
49.1889682705334
 10
16.5669563043569
 20
49.1890290424952
 10
16.5669576928898
 20
49.1890855790917
 10
16.566980698489
 20
49.1891855189065
 10
16.5669951570875
 20
49.1892483350155
 10
16.5670504886077
 20
49.1893550139982
 10
16.56711853484
 20
49.1894949407496
 10
16.5671342115654
 20
49.1895315645478
 10
16.5671538595784
 20
49.1895774651405
 10
16.5672550683149
 20
49.1898015929326
 10
16.5673674286572
 20
49.1900322659122
 10
16.5674612868296
 20
49.1902376757343
 10
16.5675854654273
 20
49.1905094316755
 10
16.5677006481139
 20
49.1907615014148
 10
16.5677745070138
 20
49.1909231390746
 10
16.5678502869648
 20
49.1910889757898
 10
16.5679437621785
 20
49.1912935308725
 10
16.5680826865356
 20
49.1916001896255
 10
16.5681567108419
 20
49.1917737985802
 10
16.5682245993676
 20
49.1919540775693
 10
16.5682482093696
 20
49.1921005139061
 10
16.5682639141977
 20
49.1923433586503
 10
16.5682734157804
 20
49.1924919064906
 10
16.5682033269008
 20
49.1927264141021
 10
16.5681394308099
 20
49.1928854564947
 10
16.5680394464
 20
49.1930537696169
 10
16.5679324173103
 20
49.1932339353883
 10
16.5678145133941
 20
49.1933581464384
 10
16.5676493152952
 20
49.1935297953759
 10
16.5672881746734
 20
49.1934177677297
 10
16.5674143561523
 20
49.1933168209672
 10
16.5675750542667
 20
49.1931882576516
 10
16.5676433647626
 20
49.1931190169504
 10
16.56771132689
 20
49.1930352514728
 10
16.5678099997176
 20
49.1928821492425
 10
16.5678838243858
 20
49.1927199596951
 10
16.5679415404844
 20
49.1924791410802
 10
16.5679623741228
 20
49.1922854037706
 10
16.5679621977278
 20
49.1921212045205
 10
16.5679207320432
 20
49.1919125814112
 10
16.5678162471769
 20
49.1916210088783
 10
16.5676659408998
 20
49.1913025470307
 10
16.5675473355482
 20
49.1911232208982
 10
16.5675099997303
 20
49.1910653038676
 10
16.567458138907
 20
49.1909591420683
 10
16.5673472552622
 20
49.190672646165
 10
16.5672034839462
 20
49.1903553831625
 10
16.5671071243571
 20
49.1901427403227
 10
16.5669795561604
 20
49.1898351453619
 10
16.5669417802008
 20
49.1897350255671
 10
16.5668576122779
 20
49.1896118460976
 10
16.5668163885313
 20
49.1895515116052
 10
16.5667894663343
 20
49.1895121130535
 10
16.5666931461408
 20
49.189371146398
 10
16.5666263846344
 20
49.1892734385118
 10
16.566576951873
 20
49.189153844499
 10
16.5665532816941
 20
49.1890112383215
 10
16.5665489151426
 20
49.1888580398669
 10
16.5666107265753
 20
49.1887843715783
 10
16.5667435580338
 20
49.1886860789497
 10
16.566884732783
 20
49.188562730083
 10
16.5669681408914
 20
49.1884898527436
 10
16.5672244806205
 20
49.1886636063326
 10
16.5671931994233
 20
49.1886846407469
 10
16.567077606285
 20
49.1887909629347
 97
0
 75
0
 76
1
 98
0
  0
HATCH
  5
20033
100
AcDbEntity
  8
plocha Q5
100
AcDbHatch
 10
0
 20
0
 30
0
210
0
220
0
230
1
  2
SOLID
 70
1
 71
0
 91
1
 92
2
 72
0
 73
1
 93
79
 10
16.6287831266887
 20
49.2031762201534
 10
16.6288917299375
 20
49.2033001566084
 10
16.6289860397964
 20
49.2034077829402
 10
16.6290944607605
 20
49.2035444330401
 10
16.6292677378009
 20
49.2037628285512
 10
16.6293857483842
 20
49.2039186015765
 10
16.6295053694992
 20
49.2040890935818
 10
16.6296375536069
 20
49.2042774716022
 10
16.6297925491346
 20
49.2044810072822
 10
16.630021816786
 20
49.2047778046502
 10
16.6301973948599
 20
49.2050073734985
 10
16.6304476801772
 20
49.2053479817546
 10
16.6306156738452
 20
49.2055765960071
 10
16.6308457510579
 20
49.2058896987308
 10
16.6310820530118
 20
49.2062112640006
 10
16.6312375439139
 20
49.2064135628595
 10
16.6313564364136
 20
49.2065596785374
 10
16.6314370173369
 20
49.2066587103225
 10
16.6316260958233
 20
49.206891076498
 10
16.6317825145856
 20
49.2070833061973
 10
16.6318923543634
 20
49.207218288983
 10
16.6319538383828
 20
49.2073417496187
 10
16.6320498381919
 20
49.2075345060321
 10
16.6321085278918
 20
49.2076523514232
 10
16.6322191041307
 20
49.2077809070652
 10
16.6324301233833
 20
49.2080174999124
 10
16.6326085781579
 20
49.2081982074867
 10
16.6327563175523
 20
49.2083114568277
 10
16.6328721717472
 20
49.2083846530702
 10
16.6329865010743
 20
49.2084450256309
 10
16.6331358867148
 20
49.2085091461923
 10
16.6333455901917
 20
49.2085782638981
 10
16.6335254070363
 20
49.208623799757
 10
16.6337518789935
 20
49.2086572140064
 10
16.6336821011907
 20
49.2087803579761
 10
16.63343960016
 20
49.208735017897
 10
16.6332734073606
 20
49.2086904774541
 10
16.6331736729093
 20
49.2086637472154
 10
16.6330588030301
 20
49.2086203514945
 10
16.6328546334576
 20
49.208535377162
 10
16.6326552020885
 20
49.208432664931
 10
16.6325556923907
 20
49.2083620888696
 10
16.6324339926542
 20
49.2082619560186
 10
16.6323497693979
 20
49.2081776188461
 10
16.6322421497598
 20
49.2080641362095
 10
16.6321393907105
 20
49.2079462428507
 10
16.6320168389642
 20
49.20780008342
 10
16.6319319016131
 20
49.2076876325497
 10
16.6318485312034
 20
49.2075643762651
 10
16.6318047001357
 20
49.2074995814914
 10
16.6317545762676
 20
49.2074109048141
 10
16.6317228620968
 20
49.2073434637154
 10
16.6316876294588
 20
49.2072685374588
 10
16.6316592720624
 20
49.2072082317808
 10
16.631612065821
 20
49.2071436670112
 10
16.6314837273213
 20
49.2069888112993
 10
16.6311982325244
 20
49.2066443229167
 10
16.6309059314322
 20
49.2062842002057
 10
16.6307723036442
 20
49.206113302559
 10
16.6303231558815
 20
49.2055388695128
 10
16.6301808393423
 20
49.2053568507567
 10
16.6300421556888
 20
49.2051794786916
 10
16.6298657554292
 20
49.2049538664535
 10
16.6297698532236
 20
49.204831209499
 10
16.6296775448165
 20
49.204713147788
 10
16.6295927431582
 20
49.2045967894406
 10
16.6295268121568
 20
49.2045016734544
 10
16.6294582859497
 20
49.2044054777198
 10
16.6293173348344
 20
49.2042222288395
 10
16.629179349687
 20
49.2040453631842
 10
16.6290076813084
 20
49.2038346769953
 10
16.6287524888259
 20
49.2035327454324
 10
16.6286521593862
 20
49.2034201802257
 10
16.6285946620958
 20
49.2033556724408
 10
16.6284954231493
 20
49.2032443273531
 10
16.6284038636017
 20
49.203141602642
 10
16.6283222227555
 20
49.2030328015502
 10
16.6285901247029
 20
49.202964560039
 10
16.6287831266887
 20
49.2031762201534
 97
0
 75
0
 76
1
 98
0
  0
HATCH
  5
20034
100
AcDbEntity
  8
plocha Q5
100
AcDbHatch
 10
0
 20
0
 30
0
210
0
220
0
230
1
  2
SOLID
 70
1
 71
0
 91
1
 92
2
 72
0
 73
1
 93
47
 10
16.6187054009248
 20
49.1750903477386
 10
16.6186553960561
 20
49.1751871335402
 10
16.6184849030573
 20
49.175517113943
 10
16.6183097169267
 20
49.1758116796471
 10
16.6181060518627
 20
49.1761398215589
 10
16.6179181959909
 20
49.1764424896645
 10
16.6177310107057
 20
49.1766789477286
 10
16.6175980290096
 20
49.1767693296417
 10
16.617184135187
 20
49.1770419090408
 10
16.616784803529
 20
49.1773026411196
 10
16.6163262884147
 20
49.1775960475449
 10
16.6159787042856
 20
49.1777903164411
 10
16.6154817443789
 20
49.1780673979238
 10
16.6150531681496
 20
49.178304456801
 10
16.6147585622161
 20
49.1784660632834
 10
16.61450379355
 20
49.1786137881805
 10
16.6144264756837
 20
49.1786595011239
 10
16.6142266978244
 20
49.1787796700452
 10
16.6139889558399
 20
49.1789316019395
 10
16.6138578213133
 20
49.1787626810542
 10
16.6141171712118
 20
49.1786194235378
 10
16.6142662220976
 20
49.1785370082603
 10
16.6145794757646
 20
49.1783638010953
 10
16.6151488440225
 20
49.1780489751665
 10
16.615529219201
 20
49.1778386476444
 10
16.6159057558476
 20
49.1776304369391
 10
16.6162904946999
 20
49.1774176902142
 10
16.6164130552863
 20
49.1773499174129
 10
16.6166292853475
 20
49.1771886399705
 10
16.6168271101318
 20
49.1770410871302
 10
16.6170603607019
 20
49.1768671112944
 10
16.6173263941965
 20
49.1766686814831
 10
16.6175634382519
 20
49.1763975519311
 10
16.6176671942115
 20
49.1762766277121
 10
16.6178068758563
 20
49.1760822445616
 10
16.6179174215253
 20
49.1759043333566
 10
16.6180362428313
 20
49.1756906701841
 10
16.6181237916796
 20
49.1754722694967
 10
16.6181843666521
 20
49.1753211551866
 10
16.6182445700076
 20
49.1751709715066
 10
16.6182584365561
 20
49.1751363733598
 10
16.6182879008426
 20
49.1750628721571
 10
16.6183180645797
 20
49.1749876196349
 10
16.618348161715
 20
49.1748793902124
 10
16.6187886077354
 20
49.1749120265775
 10
16.6187640860985
 20
49.1749767641337
 10
16.6187054009248
 20
49.1750903477386
 97
0
 75
0
 76
1
 98
0
  0
HATCH
  5
20035
100
AcDbEntity
  8
plocha Q5
100
AcDbHatch
 10
0
 20
0
 30
0
210
0
220
0
230
1
  2
SOLID
 70
1
 71
0
 91
1
 92
2
 72
0
 73
1
 93
55
 10
16.6344362322765
 20
49.1633382279924
 10
16.634345753642
 20
49.1639538421762
 10
16.6341518502655
 20
49.1650119874726
 10
16.6339332624764
 20
49.1659727571453
 10
16.6337981893545
 20
49.166566435058
 10
16.6336499615001
 20
49.1672575126521
 10
16.6334994970855
 20
49.1679835138488
 10
16.633274604214
 20
49.1690685860662
 10
16.6331210506056
 20
49.1698094447239
 10
16.6328513065559
 20
49.1711108113754
 10
16.6328099319354
 20
49.1714587056394
 10
16.6325965712347
 20
49.1714771708277
 10
16.632601673915
 20
49.1714503431005
 10
16.632627657934
 20
49.171313811034
 10
16.6326484429983
 20
49.171204557553
 10
16.6327075653538
 20
49.1709267359421
 10
16.6327443923174
 20
49.1707614302208
 10
16.6327827326989
 20
49.1705893330715
 10
16.6328200421478
 20
49.1704218527379
 10
16.6328592534041
 20
49.1702458474235
 10
16.632901804851
 20
49.1700548405785
 10
16.6329464333152
 20
49.1698545107314
 10
16.6329847724391
 20
49.1696824125972
 10
16.6330078326449
 20
49.1695788950689
 10
16.6331013592178
 20
49.1691590612002
 10
16.6331421999191
 20
49.1689757317963
 10
16.633174266048
 20
49.1688317778967
 10
16.6332213546262
 20
49.1686203947505
 10
16.6332937957104
 20
49.1682951968076
 10
16.6333509793612
 20
49.1680384923497
 10
16.6333789921699
 20
49.1679127384422
 10
16.633510656554
 20
49.1672926225871
 10
16.6335514323975
 20
49.1670969715612
 10
16.6335867078676
 20
49.1669277104263
 10
16.6336359275194
 20
49.1666915308501
 10
16.6336747507197
 20
49.1665052369492
 10
16.6337101656963
 20
49.1663353064241
 10
16.6337548258137
 20
49.1661210048139
 10
16.6338644446122
 20
49.1655949831273
 10
16.6339042912808
 20
49.1654037770432
 10
16.6339446147947
 20
49.1652102801763
 10
16.634008885812
 20
49.1649018544295
 10
16.6340531503375
 20
49.1646894405477
 10
16.6341190890473
 20
49.1643730069237
 10
16.6341446133229
 20
49.1642390057007
 10
16.6341577142236
 20
49.1641465524136
 10
16.6341778860692
 20
49.1640042136098
 10
16.6341967086346
 20
49.163871419278
 10
16.6342262591844
 20
49.1636628922037
 10
16.634251422654
 20
49.1634853325183
 10
16.6342886924138
 20
49.1632223583875
 10
16.6343050161711
 20
49.1630924961289
 10
16.6343086925698
 20
49.1629904234769
 10
16.634483421881
 20
49.1629327685355
 10
16.6344362322765
 20
49.1633382279924
 97
0
 75
0
 76
1
 98
0
  0
HATCH
  5
20036
100
AcDbEntity
  8
plocha Q5
100
AcDbHatch
 10
0
 20
0
 30
0
210
0
220
0
230
1
  2
SOLID
 70
1
 71
0
 91
1
 92
2
 72
0
 73
1
 93
59
 10
16.6297713531218
 20
49.1988257915847
 10
16.6298059973048
 20
49.1990602133014
 10
16.629806801591
 20
49.199187776789
 10
16.6297962866104
 20
49.1992690375224
 10
16.6297268407136
 20
49.1994941298631
 10
16.629657701986
 20
49.1996981426312
 10
16.6296234662145
 20
49.1997975541448
 10
16.6295525127794
 20
49.2000035813623
 10
16.629379703473
 20
49.2003997974042
 10
16.6292214782773
 20
49.2007867428894
 10
16.6290852059031
 20
49.2011255054586
 10
16.6289064548541
 20
49.2013733074788
 10
16.6288157766766
 20
49.2014990139563
 10
16.6286359662765
 20
49.2017482793792
 10
16.6285447364681
 20
49.2018951683444
 10
16.6284161819659
 20
49.2021102234298
 10
16.6283765912744
 20
49.2021764521653
 10
16.6283520643931
 20
49.2023027766004
 10
16.6283420753951
 20
49.2023542197758
 10
16.6283532964126
 20
49.2025081314851
 10
16.6283880918041
 20
49.2026092482104
 10
16.6284491397046
 20
49.2027680322334
 10
16.6282004741086
 20
49.2028525221481
 10
16.6281997758236
 20
49.202851489642
 10
16.6281658310443
 20
49.202772085089
 10
16.6281403166325
 20
49.2026527813049
 10
16.6281108096789
 20
49.2025041546002
 10
16.6281055754613
 20
49.202419207617
 10
16.6281194825471
 20
49.2023014234228
 10
16.6281388708098
 20
49.2022002274649
 10
16.6281755940597
 20
49.2020969353376
 10
16.6281890858736
 20
49.2020589893018
 10
16.6282765342602
 20
49.2019231590837
 10
16.6283846442743
 20
49.201765125271
 10
16.6285275871327
 20
49.2015608661773
 10
16.6286398654994
 20
49.2014004242352
 10
16.6286790273486
 20
49.2013325262648
 10
16.6287170447137
 20
49.2012666168409
 10
16.6287889318929
 20
49.2011419830488
 10
16.6288509265793
 20
49.2010344999072
 10
16.6289108736464
 20
49.2009191686831
 10
16.6289596132249
 20
49.200816683986
 10
16.6290115182566
 20
49.2007075435637
 10
16.6290632112507
 20
49.2005988430974
 10
16.6290892759183
 20
49.2005440388576
 10
16.6291245649132
 20
49.2004507427814
 10
16.6291873482199
 20
49.2002740147988
 10
16.6292637010544
 20
49.2000494042902
 10
16.6293270082362
 20
49.1998563008001
 10
16.6293725976323
 20
49.199717244615
 10
16.6293910552292
 20
49.1996439943236
 10
16.6294252132748
 20
49.1994520772373
 10
16.629447426785
 20
49.1993170800915
 10
16.6294506250098
 20
49.1992449756378
 10
16.6294482849799
 20
49.1990351460526
 10
16.629425034935
 20
49.1987759029046
 10
16.6294142872443
 20
49.1985173876133
 10
16.6297661079862
 20
49.1985106628887
 10
16.6297713531218
 20
49.1988257915847
 97
0
 75
0
 76
1
 98
0
  0
HATCH
  5
20037
100
AcDbEntity
  8
plocha Q5
100
AcDbHatch
 10
0
 20
0
 30
0
210
0
220
0
230
1
  2
SOLID
 70
1
 71
0
 91
1
 92
2
 72
0
 73
1
 93
46
 10
16.6511406357704
 20
49.2286830100927
 10
16.6507804415465
 20
49.2286671458952
 10
16.6505554035676
 20
49.2286637461022
 10
16.649965852093
 20
49.2286270049916
 10
16.6495369143917
 20
49.2284769090164
 10
16.6490175347664
 20
49.2282993563629
 10
16.6489855314046
 20
49.2282889075288
 10
16.6490292004294
 20
49.2282049894616
 10
16.649125353293
 20
49.2282422682413
 10
16.6497977884087
 20
49.2284761803522
 10
16.6500303541796
 20
49.2285512469777
 10
16.6502169887317
 20
49.22856374842
 10
16.6505705662156
 20
49.2285744308418
 10
16.6508759472273
 20
49.2285836576193
 10
16.6513261873851
 20
49.2285847248546
 10
16.6513826936238
 20
49.228585034266
 10
16.6514304338979
 20
49.2285683677304
 10
16.6514239519734
 20
49.2285465312332
 10
16.6513990265119
 20
49.2285112826731
 10
16.6513551884702
 20
49.2284845035172
 10
16.651166143563
 20
49.2283963145165
 10
16.6510193353106
 20
49.228326820885
 10
16.6509217785565
 20
49.2282806411166
 10
16.6506773081055
 20
49.2281721002305
 10
16.6504907776435
 20
49.2281027221062
 10
16.6502334043198
 20
49.2280072620815
 10
16.6499608188349
 20
49.2279367532816
 10
16.6492479245492
 20
49.2277591897149
 10
16.6493446129348
 20
49.2275566829529
 10
16.6494274725333
 20
49.2275681837376
 10
16.6497751121412
 20
49.227616435459
 10
16.6499422577318
 20
49.2276541977587
 10
16.6502483319253
 20
49.2277363424583
 10
16.6506859245443
 20
49.2278791499698
 10
16.6510571962007
 20
49.2279543176248
 10
16.6513852282594
 20
49.2280471946491
 10
16.6516487779718
 20
49.2281615030606
 10
16.6517992055784
 20
49.2283190453447
 10
16.6519932459801
 20
49.2284061840752
 10
16.6519818731099
 20
49.2286716510975
 10
16.6518331585128
 20
49.2286663343659
 10
16.6516844440945
 20
49.2286610165487
 10
16.6515464069466
 20
49.2286560805826
 10
16.6514560431457
 20
49.2286571320516
 10
16.6513061244671
 20
49.2286719910411
 10
16.6511406357704
 20
49.2286830100927
 97
0
 75
0
 76
1
 98
0
  0
HATCH
  5
20038
100
AcDbEntity
  8
plocha Q5
100
AcDbHatch
 10
0
 20
0
 30
0
210
0
220
0
230
1
  2
SOLID
 70
1
 71
0
 91
1
 92
2
 72
0
 73
1
 93
26
 10
16.6256545654975
 20
49.15645492211
 10
16.6255511657029
 20
49.1566433028946
 10
16.6254675002847
 20
49.1567957267528
 10
16.6253931601556
 20
49.157029981234
 10
16.6253128601732
 20
49.1573273754813
 10
16.6252859430773
 20
49.1574933108504
 10
16.6252782831042
 20
49.1575898621425
 10
16.6252762650211
 20
49.1577033727818
 10
16.6253149727805
 20
49.1580155842467
 10
16.6253898520434
 20
49.1586488280235
 10
16.6254477203197
 20
49.1591216884663
 10
16.625156232171
 20
49.1591214383471
 10
16.6250956720084
 20
49.1586807114265
 10
16.6250506384676
 20
49.1582511019579
 10
16.6250077104177
 20
49.1578415860875
 10
16.6249846434469
 20
49.1576212729387
 10
16.6249812381056
 20
49.1574884902105
 10
16.6249893893918
 20
49.1574198570083
 10
16.6250089514803
 20
49.1572551377965
 10
16.6251638616401
 20
49.1567676994993
 10
16.6252278161754
 20
49.1565843389021
 10
16.625496403052
 20
49.1560718411032
 10
16.6255477935129
 20
49.1559793745202
 10
16.6259259561155
 20
49.1560845404069
 10
16.6257836704789
 20
49.1562787263191
 10
16.6256545654975
 20
49.15645492211
 97
0
 75
0
 76
1
 98
0
  0
HATCH
  5
20039
100
AcDbEntity
  8
plocha Q5
100
AcDbHatch
 10
0
 20
0
 30
0
210
0
220
0
230
1
  2
SOLID
 70
1
 71
0
 91
1
 92
2
 72
0
 73
1
 93
23
 10
16.6293263475325
 20
49.1959226493961
 10
16.6293895090358
 20
49.1963625682633
 10
16.6294185832284
 20
49.1965655879689
 10
16.6294418021248
 20
49.1967277305968
 10
16.6295189535369
 20
49.1971904481777
 10
16.6296152386784
 20
49.1975893297656
 10
16.629657998044
 20
49.1978843059353
 10
16.6296811806433
 20
49.1980319227494
 10
16.629708271699
 20
49.1983880897368
 10
16.6293822029823
 20
49.1983966203942
 10
16.6293759532289
 20
49.1983497839758
 10
16.629347366474
 20
49.1981664439111
 10
16.6293065474169
 20
49.1978624450692
 10
16.6292371410321
 20
49.1973455342909
 10
16.6291959558608
 20
49.1970387779032
 10
16.6291720177931
 20
49.1968561152943
 10
16.6291360404317
 20
49.1965630071723
 10
16.6291167439829
 20
49.1964058023349
 10
16.6291169217076
 20
49.1961988901106
 10
16.6291170404288
 20
49.1960627756716
 10
16.6291171845854
 20
49.1958981984313
 10
16.6291106052774
 20
49.1958556077526
 10
16.6293263475325
 20
49.1959226493961
 97
0
 75
0
 76
1
 98
0
  0
HATCH
  5
2003A
100
AcDbEntity
  8
plocha Q5
100
AcDbHatch
 10
0
 20
0
 30
0
210
0
220
0
230
1
  2
SOLID
 70
1
 71
0
 91
1
 92
2
 72
0
 73
1
 93
16
 10
16.6068077322334
 20
49.1832804254614
 10
16.6065370576513
 20
49.183288800791
 10
16.6059405363127
 20
49.1833049886491
 10
16.6053846262933
 20
49.1833198132215
 10
16.6050024604864
 20
49.1833391404727
 10
16.6046659567004
 20
49.1833599890769
 10
16.6046177274458
 20
49.1831122349654
 10
16.6049334062127
 20
49.1830849507329
 10
16.6053689497119
 20
49.1830542984142
 10
16.605858442312
 20
49.1830228805216
 10
16.6067563971374
 20
49.1829752838391
 10
16.6070488283376
 20
49.18295977972
 10
16.6071381982355
 20
49.1829554304095
 10
16.6071658226797
 20
49.1832627605385
 10
16.6070739395571
 20
49.183268858356
 10
16.6068077322334
 20
49.1832804254614
 97
0
 75
0
 76
1
 98
0
  0
HATCH
  5
2003B
100
AcDbEntity
  8
plocha Q5
100
AcDbHatch
 10
0
 20
0
 30
0
210
0
220
0
230
1
  2
SOLID
 70
1
 71
0
 91
1
 92
2
 72
0
 73
1
 93
32
 10
16.6285883252897
 20
49.1916300754199
 10
16.6286034505183
 20
49.1917972028032
 10
16.628612017762
 20
49.1918763761893
 10
16.6286555883592
 20
49.1921163188159
 10
16.628732700212
 20
49.192540968982
 10
16.6288490477122
 20
49.1931816618406
 10
16.6288834867136
 20
49.1933713177875
 10
16.6289823119265
 20
49.1939155164988
 10
16.6290802713341
 20
49.1944549251648
 10
16.6291686137826
 20
49.194941372797
 10
16.629224770217
 20
49.1952557511864
 10
16.628972772772
 20
49.1950486899414
 10
16.6289486449551
 20
49.1948813408601
 10
16.6289207790816
 20
49.1947081849794
 10
16.6289101420434
 20
49.194644570677
 10
16.6288687015494
 20
49.1943967192835
 10
16.6288288593816
 20
49.1941584307134
 10
16.6287920984463
 20
49.193938574105
 10
16.6287687654335
 20
49.1937990112381
 10
16.6287225271294
 20
49.1935224717198
 10
16.6286769326656
 20
49.1932497637577
 10
16.6286425752666
 20
49.1930442770572
 10
16.628630309581
 20
49.1929709140249
 10
16.628580646087
 20
49.1926738602919
 10
16.6285249720434
 20
49.1923408666633
 10
16.6284729527331
 20
49.1920297228141
 10
16.6284516355211
 20
49.1919022168049
 10
16.6284168943504
 20
49.1916944189452
 10
16.6283901731684
 20
49.1915345741227
 10
16.6283646308705
 20
49.1913691424681
 10
16.6285664179383
 20
49.1913832848481
 10
16.6285883252897
 20
49.1916300754199
 97
0
 75
0
 76
1
 98
0
  0
HATCH
  5
2003C
100
AcDbEntity
  8
plocha Q5
100
AcDbHatch
 10
0
 20
0
 30
0
210
0
220
0
230
1
  2
SOLID
 70
1
 71
0
 91
1
 92
2
 72
0
 73
1
 93
12
 10
16.5940798404925
 20
49.18654564873
 10
16.5932571876929
 20
49.186470605878
 10
16.592813867957
 20
49.186417499717
 10
16.5925075566694
 20
49.1863581299671
 10
16.5925668864584
 20
49.1861514720947
 10
16.5928905518544
 20
49.1861839361714
 10
16.5935529511327
 20
49.1862412379822
 10
16.5942258882036
 20
49.1862939391615
 10
16.5948239870888
 20
49.186325893882
 10
16.5947532183944
 20
49.1866036167513
 10
16.5947061337615
 20
49.1866009356746
 10
16.5940798404925
 20
49.18654564873
 97
0
 75
0
 76
1
 98
0
  0
HATCH
  5
2003D
100
AcDbEntity
  8
plocha Q5
100
AcDbHatch
 10
0
 20
0
 30
0
210
0
220
0
230
1
  2
SOLID
 70
1
 71
0
 91
1
 92
2
 72
0
 73
1
 93
16
 10
16.61909173188
 20
49.1735965836917
 10
16.6190400609056
 20
49.1738266977304
 10
16.6189894768603
 20
49.1740519592629
 10
16.6189383635768
 20
49.1742795856501
 10
16.6188328051942
 20
49.1747498594562
 10
16.6183982728457
 20
49.1746991830343
 10
16.6184740052074
 20
49.1744638196407
 10
16.6185802197372
 20
49.1741629793318
 10
16.6186874139194
 20
49.1738593655517
 10
16.6188249833711
 20
49.1735109537771
 10
16.6189228669182
 20
49.1732960803133
 10
16.618927333843
 20
49.1732867058609
 10
16.619239790415
 20
49.1732447779649
 10
16.6192153826652
 20
49.1733005221459
 10
16.6191324827102
 20
49.1734990134235
 10
16.61909173188
 20
49.1735965836917
 97
0
 75
0
 76
1
 98
0
  0
HATCH
  5
2003E
100
AcDbEntity
  8
plocha Q5
100
AcDbHatch
 10
0
 20
0
 30
0
210
0
220
0
230
1
  2
SOLID
 70
1
 71
0
 91
1
 92
2
 72
0
 73
1
 93
20
 10
16.6358904443849
 20
49.2091115245379
 10
16.6355852572902
 20
49.2090526019256
 10
16.6350016810212
 20
49.2089587555997
 10
16.6343997699137
 20
49.2088875437062
 10
16.634056764421
 20
49.2088633253811
 10
16.633837106846
 20
49.208805178361
 10
16.6338815981664
 20
49.2086702852971
 10
16.6339774687798
 20
49.2086799462055
 10
16.6341831733517
 20
49.2086963735409
 10
16.6345869223213
 20
49.2087286166062
 10
16.6347453158791
 20
49.2087412657348
 10
16.6350443871549
 20
49.2087651479875
 10
16.6351730298573
 20
49.2087718069396
 10
16.6353380147261
 20
49.2087712894388
 10
16.6356141417016
 20
49.2087784151489
 10
16.6359482652063
 20
49.2087870330297
 10
16.6362002716485
 20
49.2088267282207
 10
16.6363169834682
 20
49.2088612729395
 10
16.6360013047984
 20
49.2091177376149
 10
16.6358904443849
 20
49.2091115245379
 97
0
 75
0
 76
1
 98
0
  0
HATCH
  5
2003F
100
AcDbEntity
  8
plocha Q5
100
AcDbHatch
 10
0
 20
0
 30
0
210
0
220
0
230
1
  2
SOLID
 70
1
 71
0
 91
1
 92
2
 72
0
 73
1
 93
22
 10
16.603681693982
 20
49.1835620277044
 10
16.6034286576057
 20
49.1836393398007
 10
16.603261830424
 20
49.1837091303324
 10
16.6031586068606
 20
49.1837523124832
 10
16.6029041047917
 20
49.1838636176831
 10
16.6027008826554
 20
49.1839639495138
 10
16.6023520239167
 20
49.1841419808059
 10
16.6022055360924
 20
49.1839514328384
 10
16.6024817562114
 20
49.1837986862364
 10
16.6027653996791
 20
49.183666772611
 10
16.6029057321968
 20
49.1836060356966
 10
16.6030143442669
 20
49.1835594487432
 10
16.6030145244659
 20
49.1835589504763
 10
16.6030618149873
 20
49.1835390872727
 10
16.6031964128416
 20
49.1834825518327
 10
16.6032935110881
 20
49.1834417673253
 10
16.6037968967391
 20
49.1832817473658
 10
16.6039911592174
 20
49.183231524065
 10
16.6042024226909
 20
49.183187141529
 10
16.6042845828563
 20
49.1834223675658
 10
16.6040184144656
 20
49.1834704088675
 10
16.603681693982
 20
49.1835620277044
 97
0
 75
0
 76
1
 98
0
  0
HATCH
  5
20040
100
AcDbEntity
  8
plocha Q5
100
AcDbHatch
 10
0
 20
0
 30
0
210
0
220
0
230
1
  2
SOLID
 70
1
 71
0
 91
1
 92
2
 72
0
 73
1
 93
12
 10
16.6286178413356
 20
49.1911357358717
 10
16.6283647479523
 20
49.1911140660463
 10
16.6283676368331
 20
49.1910757514798
 10
16.6283805432205
 20
49.1909830553836
 10
16.6284516738089
 20
49.1906415273255
 10
16.62848212486
 20
49.1905022419453
 10
16.6286588474076
 20
49.1896938179553
 10
16.628745289846
 20
49.1892983784909
 10
16.6288122741567
 20
49.1889940405282
 10
16.6290027977379
 20
49.1891056403657
 10
16.6288101424316
 20
49.1900325058366
 10
16.6286178413356
 20
49.1911357358717
 97
0
 75
0
 76
1
 98
0
  0
HATCH
  5
20041
100
AcDbEntity
  8
plocha Q5
100
AcDbHatch
 10
0
 20
0
 30
0
210
0
220
0
230
1
  2
SOLID
 70
1
 71
0
 91
1
 92
2
 72
0
 73
1
 93
11
 10
16.6323565745744
 20
49.173416613214
 10
16.6322771249006
 20
49.1737806739541
 10
16.6321229459721
 20
49.1736648589728
 10
16.6321646475133
 20
49.1734318589932
 10
16.6322547427225
 20
49.1730170429199
 10
16.6324492131239
 20
49.172078341555
 10
16.6325188160805
 20
49.1717862120747
 10
16.6327537054027
 20
49.1717169810434
 10
16.6326650166622
 20
49.1721199168287
 10
16.632462947769
 20
49.1730604735898
 10
16.6323565745744
 20
49.173416613214
 97
0
 75
0
 76
1
 98
0
  0
HATCH
  5
20042
100
AcDbEntity
  8
plocha Q5
100
AcDbHatch
 10
0
 20
0
 30
0
210
0
220
0
230
1
  2
SOLID
 70
1
 71
0
 91
1
 92
2
 72
0
 73
1
 93
20
 10
16.6320439114215
 20
49.1748781774732
 10
16.631909402645
 20
49.1755147186029
 10
16.6318434964463
 20
49.1758265980539
 10
16.6317247265995
 20
49.1763727978907
 10
16.6315675967947
 20
49.1763857217393
 10
16.6316070751423
 20
49.1761969894456
 10
16.6316248327591
 20
49.1761120982213
 10
16.6316814571293
 20
49.1758414017631
 10
16.6317328879582
 20
49.1755955340756
 10
16.6317648817965
 20
49.1754425818654
 10
16.6317964263278
 20
49.1752917821967
 10
16.6318477989059
 20
49.1750461862645
 10
16.6318931549078
 20
49.1748293442184
 10
16.6319375261952
 20
49.1746172136085
 10
16.6319957118258
 20
49.1743390390164
 10
16.6320356276954
 20
49.1741553113497
 10
16.6320818059974
 20
49.1739694286451
 10
16.6322197381729
 20
49.1740485153725
 10
16.6320872022274
 20
49.1746733030237
 10
16.6320439114215
 20
49.1748781774732
 97
0
 75
0
 76
1
 98
0
  0
HATCH
  5
20043
100
AcDbEntity
  8
plocha Q5
100
AcDbHatch
 10
0
 20
0
 30
0
210
0
220
0
230
1
  2
SOLID
 70
1
 71
0
 91
1
 92
2
 72
0
 73
1
 93
16
 10
16.6343696956616
 20
49.1607750512377
 10
16.6344428873856
 20
49.1614470605736
 10
16.6344593746307
 20
49.1619016050464
 10
16.6344731632705
 20
49.1623326560307
 10
16.6344840260461
 20
49.1626721841763
 10
16.6343144282616
 20
49.1627464152112
 10
16.6343192654943
 20
49.1624707349832
 10
16.6343222886056
 20
49.1620881721146
 10
16.6343121122206
 20
49.1616559110496
 10
16.6342908896743
 20
49.1612924771831
 10
16.6342552537294
 20
49.1609893991517
 10
16.6341998854146
 20
49.1605644150339
 10
16.6341714016014
 20
49.1603515837671
 10
16.6341586532884
 20
49.1602294739667
 10
16.6342824841686
 20
49.1601943509415
 10
16.6343696956616
 20
49.1607750512377
 97
0
 75
0
 76
1
 98
0
  0
HATCH
  5
20044
100
AcDbEntity
  8
plocha Q5
100
AcDbHatch
 10
0
 20
0
 30
0
210
0
220
0
230
1
  2
SOLID
 70
1
 71
0
 91
1
 92
2
 72
0
 73
1
 93
8
 10
16.6292668424435
 20
49.1954922795014
 10
16.6293103331647
 20
49.1958110963298
 10
16.6290947297781
 20
49.1957528595063
 10
16.629081083998
 20
49.1956645332346
 10
16.6290448695508
 20
49.1954610023419
 10
16.6290102932101
 20
49.1952666915818
 10
16.6290101655513
 20
49.1952659408938
 10
16.6292668424435
 20
49.1954922795014
 97
0
 75
0
 76
1
 98
0
  0
HATCH
  5
20045
100
AcDbEntity
  8
plocha Q5
100
AcDbHatch
 10
0
 20
0
 30
0
210
0
220
0
230
1
  2
SOLID
 70
1
 71
0
 91
1
 92
2
 72
0
 73
1
 93
6
 10
16.6134638363189
 20
49.1792598316514
 10
16.6133332508901
 20
49.1790965414881
 10
16.6136310726739
 20
49.1789071211401
 10
16.6137496615728
 20
49.1790730688644
 10
16.61360561241
 20
49.1791655123685
 10
16.6134638363189
 20
49.1792598316514
 97
0
 75
0
 76
1
 98
0
  0
HATCH
  5
20046
100
AcDbEntity
  8
plocha Q5
100
AcDbHatch
 10
0
 20
0
 30
0
210
0
220
0
230
1
  2
SOLID
 70
1
 71
0
 91
1
 92
2
 72
0
 73
1
 93
5
 10
16.6288558630008
 20
49.1887922178723
 10
16.628900166574
 20
49.188588791458
 10
16.629138251294
 20
49.1886258036971
 10
16.6290467872629
 20
49.1888683898131
 10
16.6288558630008
 20
49.1887922178723
 97
0
 75
0
 76
1
 98
0
  0
HATCH
  5
20047
100
AcDbEntity
  8
plocha Q5
100
AcDbHatch
 10
0
 20
0
 30
0
210
0
220
0
230
1
  2
SOLID
 70
1
 71
0
 91
1
 92
2
 72
0
 73
1
 93
6
 10
16.6341461187873
 20
49.1592708222157
 10
16.6341767623995
 20
49.1594743825588
 10
16.634053546456
 20
49.1594641706883
 10
16.6340302071278
 20
49.1593116040636
 10
16.6340184302154
 20
49.1592235021514
 10
16.6341461187873
 20
49.1592708222157
 97
0
 75
0
 76
1
 98
0
  0
HATCH
  5
20048
100
AcDbEntity
  8
plocha Q5
100
AcDbHatch
 10
0
 20
0
 30
0
210
0
220
0
230
1
  2
SOLID
 70
1
 71
0
 91
1
 92
2
 72
0
 73
1
 93
5
 10
16.6340960001277
 20
49.1598203311831
 10
16.6342132361616
 20
49.1598271247044
 10
16.6342583384918
 20
49.1600302434218
 10
16.6341376901887
 20
49.1600527569125
 10
16.6340960001277
 20
49.1598203311831
 97
0
 75
0
 76
1
 98
0
  0
ENDSEC
  0
SECTION
  2
OBJECTS
  0
DICTIONARY
  5
C
330
0
100
AcDbDictionary
281
     1
  3
ACAD_GROUP
350
D
  3
ACAD_LAYOUT
350
1A
  3
ACAD_MLEADERSTYLE
350
43
  3
ACAD_PLOTSETTINGS
350
19
  3
ACAD_PLOTSTYLENAME
350
E
  3
ACAD_TABLESTYLE
350
42
  0
DICTIONARY
  5
D
102
{ACAD_REACTORS
330
C
102
}
330
C
100
AcDbDictionary
281
     1
  0
DICTIONARY
  5
1A
102
{ACAD_REACTORS
330
C
102
}
330
C
100
AcDbDictionary
281
     1
  3
Layout1
350
1E
  3
Model
350
22
  0
DICTIONARY
  5
43
102
{ACAD_REACTORS
330
C
102
}
330
C
100
AcDbDictionary
281
     1
  0
DICTIONARY
  5
19
102
{ACAD_REACTORS
330
C
102
}
330
C
100
AcDbDictionary
281
     1
  0
ACDBDICTIONARYWDFLT
  5
E
102
{ACAD_REACTORS
330
C
102
}
330
C
100
AcDbDictionary
281
     1
  3
Normal
350
F
100
AcDbDictionaryWithDefault
340
F
  0
DICTIONARY
  5
42
102
{ACAD_REACTORS
330
C
102
}
330
C
100
AcDbDictionary
281
     1
  0
LAYOUT
  5
1E
102
{ACAD_REACTORS
330
1A
102
}
330
1A
100
AcDbPlotSettings
  1

  2
none_device
  4

  6

 40
0.0
 41
0.0
 42
0.0
 43
0.0
 44
0.0
 45
0.0
 46
0.0
 47
0.0
 48
0.0
 49
0.0
140
0.0
141
0.0
142
1.0
143
1.0
 70
   688
 72
     0
 73
     0
 74
     5
  7

 75
    16
 76
     0
 77
     2
 78
   300
147
1.0
148
0.0
149
0.0
100
AcDbLayout
  1
Layout1
 70
     1
 71
     1
 10
0.0
 20
0.0
 11
12.0
 21
9.0
 12
0.0
 22
0.0
 32
0.0
 14
1.000000000000000E+20
 24
1.000000000000000E+20
 34
1.000000000000000E+20
 15
-1.000000000000000E+20
 25
-1.000000000000000E+20
 35
-1.000000000000000E+20
146
0.0
 13
0.0
 23
0.0
 33
0.0
 16
1.0
 26
0.0
 36
0.0
 17
0.0
 27
1.0
 37
0.0
 76
     0
330
1B
  0
LAYOUT
  5
22
102
{ACAD_REACTORS
330
1A
102
}
330
1A
100
AcDbPlotSettings
  1

  2
none_device
  4

  6

 40
0.0
 41
0.0
 42
0.0
 43
0.0
 44
0.0
 45
0.0
 46
0.0
 47
0.0
 48
0.0
 49
0.0
140
0.0
141
0.0
142
1.0
143
1.0
 70
  1712
 72
     0
 73
     0
 74
     0
  7

 75
     0
 76
     0
 77
     2
 78
   300
147
1.0
148
0.0
149
0.0
100
AcDbLayout
  1
Model
 70
     1
 71
     0
 10
0.0
 20
0.0
 11
12.0
 21
9.0
 12
0.0
 22
0.0
 32
0.0
 14
30.0
 24
49.75
 34
0.0
 15
130.5
 25
163.1318914119703
 35
0.0
146
0.0
 13
0.0
 23
0.0
 33
0.0
 16
1.0
 26
0.0
 36
0.0
 17
0.0
 27
1.0
 37
0.0
 76
     0
330
1F
331
29
  0
ENDSEC
  0
EOF
