  0
SECTION
  2
HEADER
  9
$ACADVER
  1
AC1018
  9
$ACADMAINTVER
 70
     0
  9
$DWGCODEPAGE
  3
ANSI_1252
  9
$EXTMIN
 10
-608558.96
 20
-1169476.79
 30
0.0
  9
$EXTMAX
 10
-589806.555
 20
-1150563.15
 30
0.0
  9
$LIMMIN
 10
0.0
 20
0.0
  9
$LIMMAX
 10
12.0
 20
9.0
  9
$ORTHOMODE
 70
     0
  9
$REGENMODE
 70
     1
  9
$FILLMODE
 70
     1
  9
$QTEXTMODE
 70
     0
  9
$MIRRTEXT
 70
     1
  9
$LTSCALE
 40
1.0
  9
$ATTMODE
 70
     1
  9
$TEXTSIZE
 40
0.2
  9
$TRACEWID
 40
0.05
  9
$TEXTSTYLE
  7
Standard
  9
$CLAYER
  8
0
  9
$CELTYPE
  6
ByLayer
  9
$CECOLOR
 62
   256
  9
$CELTSCALE
 40
1.0
  9
$DISPSILH
 70
     0
  9
$LUNITS
 70
     2
  9
$LUPREC
 70
     4
  9
$SKETCHINC
 40
0.1
  9
$FILLETRAD
 40
0.5
  9
$AUNITS
 70
     0
  9
$AUPREC
 70
     0
  9
$MENU
  1
.
  9
$ELEVATION
 40
0.0
  9
$PELEVATION
 40
0.0
  9
$THICKNESS
 40
0.0
  9
$LIMCHECK
 70
     0
  9
$CHAMFERA
 40
0.5
  9
$CHAMFERB
 40
0.5
  9
$CHAMFERC
 40
1.0
  9
$CHAMFERD
 40
0.0
  9
$SKPOLY
 70
     0
  9
$ANGBASE
 50
0.0
  9
$ANGDIR
 70
     0
  9
$PDMODE
 70
     0
  9
$PDSIZE
 40
0.0
  9
$PLINEWID
 40
0.0
  9
$SPLFRAME
 70
     0
  9
$SPLINETYPE
 70
     6
  9
$SPLINESEGS
 70
     8
  9
$HANDSEED
  5
00020155
  9
$SURFTAB1
 70
     6
  9
$SURFTAB2
 70
     6
  9
$SURFTYPE
 70
     6
  9
$SURFU
 70
     6
  9
$SURFV
 70
     6
  9
$UCSBASE
  2

  9
$UCSNAME
  2

  9
$UCSORG
 10
0.0
 20
0.0
 30
0.0
  9
$UCSXDIR
 10
1.0
 20
0.0
 30
0.0
  9
$UCSYDIR
 10
0.0
 20
1.0
 30
0.0
  9
$UCSORTHOREF
  2

  9
$UCSORTHOVIEW
 70
     0
  9
$UCSORGTOP
 10
0.0
 20
0.0
 30
0.0
  9
$UCSORGBOTTOM
 10
0.0
 20
0.0
 30
0.0
  9
$UCSORGLEFT
 10
0.0
 20
0.0
 30
0.0
  9
$UCSORGRIGHT
 10
0.0
 20
0.0
 30
0.0
  9
$UCSORGFRONT
 10
0.0
 20
0.0
 30
0.0
  9
$UCSORGBACK
 10
0.0
 20
0.0
 30
0.0
  9
$PUCSBASE
  2

  9
$PUCSNAME
  2

  9
$PUCSORG
 10
0.0
 20
0.0
 30
0.0
  9
$PUCSXDIR
 10
1.0
 20
0.0
 30
0.0
  9
$PUCSYDIR
 10
0.0
 20
1.0
 30
0.0
  9
$PUCSORTHOREF
  2

  9
$PUCSORTHOVIEW
 70
     0
  9
$PUCSORGTOP
 10
0.0
 20
0.0
 30
0.0
  9
$PUCSORGBOTTOM
 10
0.0
 20
0.0
 30
0.0
  9
$PUCSORGLEFT
 10
0.0
 20
0.0
 30
0.0
  9
$PUCSORGRIGHT
 10
0.0
 20
0.0
 30
0.0
  9
$PUCSORGFRONT
 10
0.0
 20
0.0
 30
0.0
  9
$PUCSORGBACK
 10
0.0
 20
0.0
 30
0.0
  9
$WORLDVIEW
 70
     1
  9
$SHADEDGE
 70
     3
  9
$SHADEDIF
 70
    70
  9
$TILEMODE
 70
     1
  9
$MAXACTVP
 70
    64
  9
$PINSBASE
 10
0.0
 20
0.0
 30
0.0
  9
$PLIMCHECK
 70
     0
  9
$PEXTMIN
 10
1.000000000000000E+20
 20
1.000000000000000E+20
 30
1.000000000000000E+20
  9
$PEXTMAX
 10
-1.000000000000000E+20
 20
-1.000000000000000E+20
 30
-1.000000000000000E+20
  9
$PLIMMIN
 10
0.0
 20
0.0
  9
$PLIMMAX
 10
12.0
 20
9.0
  9
$UNITMODE
 70
     0
  9
$VISRETAIN
 70
     1
  9
$PLINEGEN
 70
     0
  9
$PSLTSCALE
 70
     1
  9
$TREEDEPTH
 70
  3020
  9
$CMLSTYLE
  2
Standard
  9
$CMLJUST
 70
     0
  9
$CMLSCALE
 40
1.0
  9
$PROXYGRAPHICS
 70
     1
  9
$MEASUREMENT
 70
     0
  9
$CELWEIGHT
370
    -1
  9
$ENDCAPS
280
     0
  9
$JOINSTYLE
280
     0
  9
$LWDISPLAY
290
     0
  9
$INSUNITS
 70
     1
  9
$HYPERLINKBASE
  1

  9
$STYLESHEET
  1

  9
$XEDIT
290
     1
  9
$CEPSNTYPE
380
     0
  9
$PSTYLEMODE
290
     1
  9
$EXTNAMES
290
     1
  9
$PSVPSCALE
 40
0.0
  9
$OLESTARTUP
290
     0
  9
$SORTENTS
280
   127
  9
$INDEXCTL
280
     0
  9
$HIDETEXT
280
     1
  9
$XCLIPFRAME
290
     0
  9
$HALOGAP
280
     0
  9
$OBSCOLOR
 70
   257
  9
$OBSLTYPE
280
     0
  9
$INTERSECTIONDISPLAY
280
     0
  9
$INTERSECTIONCOLOR
 70
   257
  9
$DIMASSOC
280
     2
  9
$PROJECTNAME
  1

  0
ENDSEC
  0
SECTION
  2
CLASSES
  0
CLASS
  1
ACDBDICTIONARYWDFLT
  2
AcDbDictionaryWithDefault
  3
ObjectDBX Classes
 90
        0
 91
        4
280
     0
281
     0
  0
ENDSEC
  0
SECTION
  2
TABLES
  0
TABLE
  2
VPORT
  5
8
330
0
100
AcDbSymbolTable
 70
     1
  0
VPORT
  5
29
330
8
100
AcDbSymbolTableRecord
100
AcDbViewportTableRecord
  2
*Active
 70
     0
 10
0.0
 20
0.0
 11
1.0
 21
1.0
 12
80.25
 22
106.4409457059851
 13
0.0
 23
0.0
 14
0.5
 24
0.5
 15
0.5
 25
0.5
 16
0.0
 26
0.0
 36
1.0
 17
0.0
 27
0.0
 37
0.0
 40
113.3818914119703
 41
0.8863849310366128
 42
50.0
 43
0.0
 44
0.0
 50
0.0
 51
0.0
 71
     0
 72
  1000
 73
     1
 74
     3
 75
     0
 76
     0
 77
     0
 78
     0
281
     0
 65
     1
110
0.0
120
0.0
130
0.0
111
1.0
121
0.0
131
0.0
112
0.0
122
1.0
132
0.0
 79
     0
146
0.0
  0
ENDTAB
  0
TABLE
  2
LTYPE
  5
5
330
0
100
AcDbSymbolTable
 70
     1
  0
LTYPE
  5
14
330
5
100
AcDbSymbolTableRecord
100
AcDbLinetypeTableRecord
  2
ByBlock
 70
     0
  3

 72
    65
 73
     0
 40
0.0
  0
LTYPE
  5
15
330
5
100
AcDbSymbolTableRecord
100
AcDbLinetypeTableRecord
  2
ByLayer
 70
     0
  3

 72
    65
 73
     0
 40
0.0
  0
LTYPE
  5
16
330
5
100
AcDbSymbolTableRecord
100
AcDbLinetypeTableRecord
  2
Continuous
 70
     0
  3
Solid line
 72
    65
 73
     0
 40
0.0
  0
ENDTAB
  0
TABLE
  2
LAYER
  5
2
330
0
100
AcDbSymbolTable
 70
     1
  0
LAYER
  5
10
330
2
100
AcDbSymbolTableRecord
100
AcDbLayerTableRecord
  2
0
 70
     0
 62
     7
  6
Continuous
370
    -3
390
F
  0
LAYER
  5
20154
330
2
100
AcDbSymbolTableRecord
100
AcDbLayerTableRecord
  2
vodní toky
 70
     0
 62
     7
  6
Continuous
370
    -3
390
F
  0
ENDTAB
  0
TABLE
  2
STYLE
  5
3
330
0
100
AcDbSymbolTable
 70
     1
  0
STYLE
  5
11
330
3
100
AcDbSymbolTableRecord
100
AcDbTextStyleTableRecord
  2
Standard
 70
     0
 40
0.0
 41
1.0
 50
0.0
 71
     0
 42
0.2
  3
txt
  4

  0
ENDTAB
  0
TABLE
  2
VIEW
  5
6
330
0
100
AcDbSymbolTable
 70
     0
  0
ENDTAB
  0
TABLE
  2
UCS
  5
7
330
0
100
AcDbSymbolTable
 70
     0
  0
ENDTAB
  0
TABLE
  2
APPID
  5
9
330
0
100
AcDbSymbolTable
 70
     1
  0
APPID
  5
12
330
9
100
AcDbSymbolTableRecord
100
AcDbRegAppTableRecord
  2
ACAD
 70
     0
  0
ENDTAB
  0
TABLE
  2
DIMSTYLE
  5
A
330
0
100
AcDbSymbolTable
 70
     1
100
AcDbDimStyleTable
  0
DIMSTYLE
105
27
330
A
100
AcDbSymbolTableRecord
100
AcDbDimStyleTableRecord
  2
Standard
 70
     0
340
11
  0
ENDTAB
  0
TABLE
  2
BLOCK_RECORD
  5
1
330
0
100
AcDbSymbolTable
 70
     1
  0
BLOCK_RECORD
  5
1F
330
1
100
AcDbSymbolTableRecord
100
AcDbBlockTableRecord
  2
*Model_Space
340
22
  0
BLOCK_RECORD
  5
1B
330
1
100
AcDbSymbolTableRecord
100
AcDbBlockTableRecord
  2
*Paper_Space
340
1E
  0
ENDTAB
  0
ENDSEC
  0
SECTION
  2
BLOCKS
  0
BLOCK
  5
20
330
1F
100
AcDbEntity
  8
0
100
AcDbBlockBegin
  2
*Model_Space
 70
     0
 10
0.0
 20
0.0
 30
0.0
  3
*Model_Space
  1

  0
ENDBLK
  5
21
330
1F
100
AcDbEntity
  8
0
100
AcDbBlockEnd
  0
BLOCK
  5
1C
330
1B
100
AcDbEntity
 67
     1
  8
0
100
AcDbBlockBegin
  2
*Paper_Space
 70
     0
 10
0.0
 20
0.0
 30
0.0
  3
*Paper_Space
  1

  0
ENDBLK
  5
1D
330
1B
100
AcDbEntity
 67
     1
  8
0
100
AcDbBlockEnd
  0
ENDSEC
  0
SECTION
  2
ENTITIES
  0
HATCH
  5
20000
100
AcDbEntity
  8
vodní toky
100
AcDbHatch
 10
0
 20
0
 30
0
210
0
220
0
230
1
  2
SOLID
 70
1
 71
0
 91
1
 92
2
 72
0
 73
1
 93
27
 10
-601100.66
 20
-1164088.27
 10
-601100.79
 20
-1164089.6
 10
-601066.075
 20
-1164092.82
 10
-601031.36
 20
-1164096.04
 10
-600995.14
 20
-1164099.15
 10
-600910.775
 20
-1164105.17
 10
-600862.63
 20
-1164108.08
 10
-600826.88
 20
-1164110.115
 10
-600786.62
 20
-1164112.64
 10
-600744.955
 20
-1164112.31
 10
-600714.45
 20
-1164112.065
 10
-600688.59
 20
-1164111.86
 10
-600688.51
 20
-1164110.2
 10
-600714.64
 20
-1164110.42
 10
-600740.77
 20
-1164110.64
 10
-600767.45
 20
-1164110.86
 10
-600784.06
 20
-1164111
 10
-600790.94
 20
-1164110.46
 10
-600826.9
 20
-1164108.695
 10
-600862.86
 20
-1164106.93
 10
-600887.51
 20
-1164105.465
 10
-600912.16
 20
-1164104
 10
-600958.81
 20
-1164101.03
 10
-600995.07
 20
-1164097.835
 10
-601031.33
 20
-1164094.64
 10
-601065.995
 20
-1164091.455
 10
-601100.66
 20
-1164088.27
 97
0
 75
0
 76
1
 98
0
  0
HATCH
  5
20001
100
AcDbEntity
  8
vodní toky
100
AcDbHatch
 10
0
 20
0
 30
0
210
0
220
0
230
1
  2
SOLID
 70
1
 71
0
 91
1
 92
2
 72
0
 73
1
 93
9
 10
-600683.34
 20
-1164110.16
 10
-600683.42
 20
-1164111.82
 10
-600617.29
 20
-1164111.295
 10
-600551.16
 20
-1164110.77
 10
-600547.21
 20
-1164110.74
 10
-600548.29
 20
-1164109.04
 10
-600550.95
 20
-1164109.06
 10
-600618.475
 20
-1164109.62
 10
-600683.34
 20
-1164110.16
 97
0
 75
0
 76
1
 98
0
  0
HATCH
  5
20002
100
AcDbEntity
  8
vodní toky
100
AcDbHatch
 10
0
 20
0
 30
0
210
0
220
0
230
1
  2
SOLID
 70
1
 71
0
 91
1
 92
2
 72
0
 73
1
 93
46
 10
-600540.8
 20
-1164110.69
 10
-600488.44
 20
-1164110.62
 10
-600441.02
 20
-1164110.56
 10
-600413.9
 20
-1164108.93
 10
-600394.94
 20
-1164105.59
 10
-600381.39
 20
-1164098.95
 10
-600365.47
 20
-1164088.61
 10
-600359.68
 20
-1164084.95
 10
-600347.93
 20
-1164079.59
 10
-600334.95
 20
-1164076.89
 10
-600319.71
 20
-1164077.55
 10
-600305.4658
 20
-1164079.3187
 10
-600291.3
 20
-1164081.57
 10
-600256.415
 20
-1164083.585
 10
-600221.53
 20
-1164085.6
 10
-600192.18
 20
-1164087.35
 10
-600189.94
 20
-1164088.05
 10
-600148.265
 20
-1164094.865
 10
-600132.43
 20
-1164097.19
 10
-600112.68
 20
-1164098.08
 10
-600093.51
 20
-1164103.98
 10
-600093.3
 20
-1164102.33
 10
-600111.89
 20
-1164095.54
 10
-600122.2
 20
-1164095.27
 10
-600132.51
 20
-1164095
 10
-600153.86
 20
-1164092.21
 10
-600172.81
 20
-1164088.935
 10
-600191.76
 20
-1164085.66
 10
-600206.235
 20
-1164084.765
 10
-600220.71
 20
-1164083.87
 10
-600256.115
 20
-1164081.74
 10
-600291.52
 20
-1164079.61
 10
-600305.515
 20
-1164077.7
 10
-600319.51
 20
-1164075.79
 10
-600335.36
 20
-1164074.93
 10
-600342.06
 20
-1164076.35
 10
-600348.76
 20
-1164077.77
 10
-600360.76
 20
-1164083.27
 10
-600372.36
 20
-1164090.6
 10
-600382.27
 20
-1164097.15
 10
-600395.29
 20
-1164103.62
 10
-600414.02
 20
-1164106.93
 10
-600442.97
 20
-1164107.91
 10
-600490.535
 20
-1164108.43
 10
-600541.89
 20
-1164108.99
 10
-600540.8
 20
-1164110.69
 97
0
 75
0
 76
1
 98
0
  0
HATCH
  5
20003
100
AcDbEntity
  8
vodní toky
100
AcDbHatch
 10
0
 20
0
 30
0
210
0
220
0
230
1
  2
SOLID
 70
1
 71
0
 91
1
 92
2
 72
0
 73
1
 93
51
 10
-600092.52
 20
-1164104.12
 10
-600078.8
 20
-1164106.16
 10
-600065.08
 20
-1164108.2
 10
-600047.42
 20
-1164116.18
 10
-600019.45
 20
-1164131.17
 10
-600006.14
 20
-1164137.77
 10
-599989.06
 20
-1164148.43
 10
-599971.3
 20
-1164158.59
 10
-599950.21
 20
-1164166.55
 10
-599928.58
 20
-1164175.46
 10
-599915.11
 20
-1164181.24
 10
-599893.185
 20
-1164190.74
 10
-599871.26
 20
-1164200.24
 10
-599843.13
 20
-1164211.86
 10
-599829.91
 20
-1164218.99
 10
-599814.44
 20
-1164236.32
 10
-599797.59
 20
-1164248.105
 10
-599789.2052
 20
-1164254.182
 10
-599780.74
 20
-1164259.89
 10
-599779.14
 20
-1164261.02
 10
-599759.735
 20
-1164266.39
 10
-599740.175
 20
-1164272.48
 10
-599738.4236
 20
-1164272.7521
 10
-599720.105
 20
-1164277.355
 10
-599699.88
 20
-1164282.95
 10
-599699.25
 20
-1164279.34
 10
-599717.745
 20
-1164274.165
 10
-599736.24
 20
-1164268.99
 10
-599741.812
 20
-1164267.1195
 10
-599748.5007
 20
-1164264.6552
 10
-599753.765
 20
-1164262.8
 10
-599770.3857
 20
-1164257.1147
 10
-599782.49
 20
-1164251.9
 10
-599789.5
 20
-1164247.74
 10
-599801.785
 20
-1164238.2
 10
-599814.07
 20
-1164228.66
 10
-599827.0933
 20
-1164218.8902
 10
-599842.32
 20
-1164210.37
 10
-599856.405
 20
-1164204.505
 10
-599870.49
 20
-1164198.64
 10
-599892.395
 20
-1164189.145
 10
-599941.42
 20
-1164167.81
 10
-599958.8
 20
-1164161.3
 10
-599973.06
 20
-1164155.32
 10
-599995.94
 20
-1164142.41
 10
-600018.82
 20
-1164129.5
 10
-600043.34
 20
-1164114.89
 10
-600055.11
 20
-1164110.1
 10
-600066.88
 20
-1164105.31
 10
-600092.3
 20
-1164102.44
 10
-600092.52
 20
-1164104.12
 97
0
 75
0
 76
1
 98
0
  0
HATCH
  5
20004
100
AcDbEntity
  8
vodní toky
100
AcDbHatch
 10
0
 20
0
 30
0
210
0
220
0
230
1
  2
SOLID
 70
1
 71
0
 91
1
 92
2
 72
0
 73
1
 93
31
 10
-604559.685
 20
-1162015.915
 10
-604553.635
 20
-1162022.075
 10
-604540.425
 20
-1162036.225
 10
-604526.525
 20
-1162048.2
 10
-604512.625
 20
-1162060.175
 10
-604499.555
 20
-1162070.125
 10
-604486.485
 20
-1162080.075
 10
-604478.835
 20
-1162085.065
 10
-604463.29
 20
-1162095.08
 10
-604449.2338
 20
-1162110.7448
 10
-604438.4108
 20
-1162119.7234
 10
-604425.65
 20
-1162133.19
 10
-604410.14
 20
-1162144.11
 10
-604393.355
 20
-1162156.33
 10
-604385.09
 20
-1162163.21
 10
-604392.475
 20
-1162155.65
 10
-604409.105
 20
-1162143.52
 10
-604424.46
 20
-1162132.69
 10
-604437.3208
 20
-1162119.2334
 10
-604448.2438
 20
-1162110.2648
 10
-604459.115
 20
-1162096.65
 10
-604471.475
 20
-1162088.685
 10
-604480.265
 20
-1162083.015
 10
-604485.175
 20
-1162079.855
 10
-604498.69
 20
-1162069.675
 10
-604512.205
 20
-1162059.495
 10
-604526.035
 20
-1162047.575
 10
-604539.865
 20
-1162035.655
 10
-604552.485
 20
-1162021.155
 10
-604557.275
 20
-1162014.125
 10
-604559.685
 20
-1162015.915
 97
0
 75
0
 76
1
 98
0
  0
HATCH
  5
20005
100
AcDbEntity
  8
vodní toky
100
AcDbHatch
 10
0
 20
0
 30
0
210
0
220
0
230
1
  2
SOLID
 70
1
 71
0
 91
1
 92
2
 72
0
 73
1
 93
4
 10
-604385.09
 20
-1162163.21
 10
-604359.1032
 20
-1162190.2714
 10
-604358.5432
 20
-1162189.0914
 10
-604385.09
 20
-1162163.21
 97
0
 75
0
 76
1
 98
0
  0
HATCH
  5
20006
100
AcDbEntity
  8
vodní toky
100
AcDbHatch
 10
0
 20
0
 30
0
210
0
220
0
230
1
  2
SOLID
 70
1
 71
0
 91
1
 92
2
 72
0
 73
1
 93
52
 10
-604846.33
 20
-1161682.16
 10
-604836.0606
 20
-1161698.1826
 10
-604828.12
 20
-1161702.085
 10
-604807.07
 20
-1161712.43
 10
-604799.03
 20
-1161716.49
 10
-604789.78
 20
-1161722.33
 10
-604779.67
 20
-1161734.9
 10
-604772.68
 20
-1161744.55
 10
-604766.84
 20
-1161755.42
 10
-604752.165
 20
-1161772.7
 10
-604740.42
 20
-1161786.52
 10
-604728.37
 20
-1161804
 10
-604721.74
 20
-1161813.75
 10
-604713.73
 20
-1161826.39
 10
-604710.17
 20
-1161832.01
 10
-604701.78
 20
-1161843.56
 10
-604693.81
 20
-1161854.51
 10
-604690.97
 20
-1161860.27
 10
-604687.62
 20
-1161867.05
 10
-604680.11
 20
-1161876.95
 10
-604676.25
 20
-1161882.55
 10
-604668.55
 20
-1161893.96
 10
-604660
 20
-1161905.93
 10
-604652.2
 20
-1161917.09
 10
-604643.075
 20
-1161929.42
 10
-604633.96
 20
-1161942.05
 10
-604621.34
 20
-1161959.99
 10
-604617.67
 20
-1161966.57
 10
-604604.84
 20
-1161981.14
 10
-604585.57
 20
-1162000
 10
-604570.05
 20
-1162010.78
 10
-604567.115
 20
-1162012.9046
 10
-604564.18
 20
-1162009.5
 10
-604583.53
 20
-1161997.6
 10
-604602.26
 20
-1161978.67
 10
-604614.81
 20
-1161963.8
 10
-604622.27
 20
-1161953.33
 10
-604631.65
 20
-1161940.26
 10
-604651.34
 20
-1161912.85
 10
-604665.71
 20
-1161892.525
 10
-604679.76
 20
-1161872.91
 10
-604685.34
 20
-1161861.84
 10
-604691.32
 20
-1161852.8
 10
-604707.58
 20
-1161830.19
 10
-604719.58
 20
-1161811.72
 10
-604733.08
 20
-1161791.45
 10
-604764.04
 20
-1161752.47
 10
-604776.91
 20
-1161732.53
 10
-604787.45
 20
-1161719.56
 10
-604804.07
 20
-1161709.63
 10
-604832.24
 20
-1161695.3
 10
-604846.33
 20
-1161682.16
 97
0
 75
0
 76
1
 98
0
  0
HATCH
  5
20007
100
AcDbEntity
  8
vodní toky
100
AcDbHatch
 10
0
 20
0
 30
0
210
0
220
0
230
1
  2
SOLID
 70
1
 71
0
 91
1
 92
2
 72
0
 73
1
 93
15
 10
-604360.06
 20
-1162190.48
 10
-604344.62
 20
-1162202.04
 10
-604334.27
 20
-1162209.79
 10
-604317.36
 20
-1162224.18
 10
-604309.16
 20
-1162232.32
 10
-604299.145
 20
-1162247.23
 10
-604289.47
 20
-1162264.14
 10
-604288
 20
-1162263.41
 10
-604297.85
 20
-1162246.385
 10
-604308.8
 20
-1162230.5
 10
-604316.62
 20
-1162222.57
 10
-604330.75
 20
-1162210.66
 10
-604344.04
 20
-1162200.67
 10
-604358.46
 20
-1162189.83
 10
-604360.06
 20
-1162190.48
 97
0
 75
0
 76
1
 98
0
  0
HATCH
  5
20008
100
AcDbEntity
  8
vodní toky
100
AcDbHatch
 10
0
 20
0
 30
0
210
0
220
0
230
1
  2
SOLID
 70
1
 71
0
 91
1
 92
2
 72
0
 73
1
 93
7
 10
-604286.32
 20
-1162272.18
 10
-604276.67
 20
-1162299.595
 10
-604267.02
 20
-1162327.01
 10
-604265.93
 20
-1162326.51
 10
-604275.37
 20
-1162299.035
 10
-604284.81
 20
-1162271.56
 10
-604286.32
 20
-1162272.18
 97
0
 75
0
 76
1
 98
0
  0
HATCH
  5
20009
100
AcDbEntity
  8
vodní toky
100
AcDbHatch
 10
0
 20
0
 30
0
210
0
220
0
230
1
  2
SOLID
 70
1
 71
0
 91
1
 92
2
 72
0
 73
1
 93
11
 10
-604265.28
 20
-1162332.58
 10
-604259.375
 20
-1162352.805
 10
-604253.47
 20
-1162373.03
 10
-604241.41
 20
-1162399.27
 10
-604227.88
 20
-1162428.7
 10
-604226.8
 20
-1162427.84
 10
-604240.325
 20
-1162398.75
 10
-604252.39
 20
-1162372.81
 10
-604258.28
 20
-1162352.515
 10
-604264.17
 20
-1162332.22
 10
-604265.28
 20
-1162332.58
 97
0
 75
0
 76
1
 98
0
  0
HATCH
  5
2000A
100
AcDbEntity
  8
vodní toky
100
AcDbHatch
 10
0
 20
0
 30
0
210
0
220
0
230
1
  2
SOLID
 70
1
 71
0
 91
1
 92
2
 72
0
 73
1
 93
19
 10
-604227.65
 20
-1162429.2
 10
-604220.18
 20
-1162438.59
 10
-604214.8
 20
-1162445.35
 10
-604207.08
 20
-1162455.06
 10
-604190.79
 20
-1162475.43
 10
-604183.44
 20
-1162481.23
 10
-604164.24
 20
-1162483.97
 10
-604143.74
 20
-1162485.13
 10
-604143.72
 20
-1162483.93
 10
-604153.88
 20
-1162483.545
 10
-604164.04
 20
-1162483.16
 10
-604170.09
 20
-1162482.51
 10
-604183.43
 20
-1162480.64
 10
-604190.1
 20
-1162474.95
 10
-604194.345
 20
-1162469.73
 10
-604206.27
 20
-1162454.57
 10
-604219.205
 20
-1162437.83
 10
-604226.61
 20
-1162428.25
 10
-604227.65
 20
-1162429.2
 97
0
 75
0
 76
1
 98
0
  0
HATCH
  5
2000B
100
AcDbEntity
  8
vodní toky
100
AcDbHatch
 10
0
 20
0
 30
0
210
0
220
0
230
1
  2
SOLID
 70
1
 71
0
 91
1
 92
2
 72
0
 73
1
 93
18
 10
-604137.75
 20
-1162485.48
 10
-604129.6
 20
-1162485.96
 10
-604116.15
 20
-1162486.755
 10
-604101.66
 20
-1162487.61
 10
-604089.2
 20
-1162491.54
 10
-604079.28
 20
-1162497.73
 10
-604071.05
 20
-1162502.86
 10
-604066.01
 20
-1162505.44
 10
-604051.49
 20
-1162512.88
 10
-604051.12
 20
-1162512.17
 10
-604065.52
 20
-1162504.63
 10
-604070.5
 20
-1162502.02
 10
-604080.64
 20
-1162495.69
 10
-604090.23
 20
-1162489.75
 10
-604101.55
 20
-1162486.62
 10
-604116.06
 20
-1162485.695
 10
-604137.74
 20
-1162484.31
 10
-604137.75
 20
-1162485.48
 97
0
 75
0
 76
1
 98
0
  0
HATCH
  5
2000C
100
AcDbEntity
  8
vodní toky
100
AcDbHatch
 10
0
 20
0
 30
0
210
0
220
0
230
1
  2
SOLID
 70
1
 71
0
 91
1
 92
2
 72
0
 73
1
 93
7
 10
-604049.83
 20
-1162513.73
 10
-604041.75
 20
-1162517.635
 10
-604033.67
 20
-1162521.54
 10
-604033.03
 20
-1162520.42
 10
-604041.255
 20
-1162516.725
 10
-604049.48
 20
-1162513.03
 10
-604049.83
 20
-1162513.73
 97
0
 75
0
 76
1
 98
0
  0
HATCH
  5
2000D
100
AcDbEntity
  8
vodní toky
100
AcDbHatch
 10
0
 20
0
 30
0
210
0
220
0
230
1
  2
SOLID
 70
1
 71
0
 91
1
 92
2
 72
0
 73
1
 93
8
 10
-604030.75
 20
-1162522.51
 10
-604024.26
 20
-1162524.68
 10
-604021.74
 20
-1162526.61
 10
-604017.27
 20
-1162527.46
 10
-604021.4
 20
-1162524.3
 10
-604024.73
 20
-1162523.19
 10
-604030.13
 20
-1162521.39
 10
-604030.75
 20
-1162522.51
 97
0
 75
0
 76
1
 98
0
  0
HATCH
  5
2000E
100
AcDbEntity
  8
vodní toky
100
AcDbHatch
 10
0
 20
0
 30
0
210
0
220
0
230
1
  2
SOLID
 70
1
 71
0
 91
1
 92
2
 72
0
 73
1
 93
24
 10
-604009.77
 20
-1162539.93
 10
-604008.005
 20
-1162541.6725
 10
-604006.24
 20
-1162543.415
 10
-603982.64
 20
-1162574.53
 10
-603971.655
 20
-1162589.61
 10
-603960.67
 20
-1162604.69
 10
-603946.54
 20
-1162618.715
 10
-603921.8
 20
-1162642.44
 10
-603886.03
 20
-1162674.55
 10
-603882.15
 20
-1162676.76
 10
-603881.19
 20
-1162675.8
 10
-603885.31
 20
-1162673.6
 10
-603910.41
 20
-1162651.14
 10
-603920.83
 20
-1162641.53
 10
-603931.25
 20
-1162631.92
 10
-603945.5
 20
-1162617.98
 10
-603959.75
 20
-1162604.04
 10
-603970.96
 20
-1162588.945
 10
-603982.17
 20
-1162573.85
 10
-603992.245
 20
-1162559.01
 10
-604003.01
 20
-1162543.33
 10
-604004.35
 20
-1162541.675
 10
-604005.29
 20
-1162540.51
 10
-604009.77
 20
-1162539.93
 97
0
 75
0
 76
1
 98
0
  0
HATCH
  5
2000F
100
AcDbEntity
  8
vodní toky
100
AcDbHatch
 10
0
 20
0
 30
0
210
0
220
0
230
1
  2
SOLID
 70
1
 71
0
 91
1
 92
2
 72
0
 73
1
 93
28
 10
-603231.27
 20
-1156553.49
 10
-603228.73
 20
-1156558.08
 10
-603222.1
 20
-1156586.72
 10
-603218.39
 20
-1156592.51
 10
-603211.095
 20
-1156604.67
 10
-603199.56
 20
-1156624.815
 10
-603190.335
 20
-1156643.39
 10
-603185.35
 20
-1156653.98
 10
-603179.02
 20
-1156669.63
 10
-603175.16
 20
-1156682.09
 10
-603172.36
 20
-1156691.08
 10
-603141.32
 20
-1156714.52
 10
-603121.79
 20
-1156729.86
 10
-603123.88
 20
-1156718.28
 10
-603127.07
 20
-1156701.64
 10
-603132.79
 20
-1156680.54
 10
-603137.29
 20
-1156666.24
 10
-603143.35
 20
-1156649.57
 10
-603147.925
 20
-1156638.66
 10
-603152.5
 20
-1156627.75
 10
-603158.305
 20
-1156615.57
 10
-603164.11
 20
-1156603.39
 10
-603171.21
 20
-1156590.85
 10
-603178.31
 20
-1156578.31
 10
-603187.82
 20
-1156566.01
 10
-603194.355
 20
-1156554.52
 10
-603200.89
 20
-1156543.03
 10
-603231.27
 20
-1156553.49
 97
0
 75
0
 76
1
 98
0
  0
HATCH
  5
20010
100
AcDbEntity
  8
vodní toky
100
AcDbHatch
 10
0
 20
0
 30
0
210
0
220
0
230
1
  2
SOLID
 70
1
 71
0
 91
1
 92
2
 72
0
 73
1
 93
72
 10
-603882.15
 20
-1162676.76
 10
-603860.35
 20
-1162689.2
 10
-603731.99
 20
-1162718.53
 10
-603724.12
 20
-1162720.26
 10
-603715.095
 20
-1162722.73
 10
-603709.39
 20
-1162726.36
 10
-603706.33
 20
-1162729.375
 10
-603701.15
 20
-1162734.85
 10
-603689.74
 20
-1162751.3
 10
-603680.34
 20
-1162764.85
 10
-603667.57
 20
-1162783.24
 10
-603664.33
 20
-1162787.9
 10
-603652.19
 20
-1162805.41
 10
-603642.07
 20
-1162820.08
 10
-603629.89
 20
-1162837.89
 10
-603621.53
 20
-1162846.6
 10
-603607.545
 20
-1162853.81
 10
-603576.425
 20
-1162869.77
 10
-603534.58
 20
-1162889.745
 10
-603492.54
 20
-1162909.58
 10
-603467.185
 20
-1162921.675
 10
-603439.66
 20
-1162935.2
 10
-603426.465
 20
-1162944.285
 10
-603413.27
 20
-1162953.37
 10
-603391.66
 20
-1162972.75
 10
-603379.775
 20
-1162983.4
 10
-603368.955
 20
-1162993.105
 10
-603350.1
 20
-1163009.94
 10
-603349.25
 20
-1163009.36
 10
-603357.78
 20
-1163001.78
 10
-603384.56
 20
-1162977.77
 10
-603390.9
 20
-1162972.08
 10
-603404.99
 20
-1162959.455
 10
-603412.7
 20
-1162952.54
 10
-603438.94
 20
-1162934.5
 10
-603456.58
 20
-1162925.685
 10
-603472.75
 20
-1162917.88
 10
-603498.9
 20
-1162905.47
 10
-603512.93
 20
-1162898.845
 10
-603526.96
 20
-1162892.22
 10
-603551.23
 20
-1162880.81
 10
-603563.28
 20
-1162875.16
 10
-603572.81
 20
-1162870.425
 10
-603587.305
 20
-1162863.13
 10
-603595.17
 20
-1162859.075
 10
-603610.08
 20
-1162851.38
 10
-603616.43
 20
-1162848.1
 10
-603620.93
 20
-1162845.78
 10
-603629.11
 20
-1162837.26
 10
-603634.84
 20
-1162828.885
 10
-603647.37
 20
-1162810.58
 10
-603655.21
 20
-1162799.15
 10
-603663.55
 20
-1162786.99
 10
-603681.25
 20
-1162761.2
 10
-603686.61
 20
-1162753.38
 10
-603693.095
 20
-1162743.93
 10
-603700
 20
-1162733.87
 10
-603702.94
 20
-1162730.96
 10
-603709.26
 20
-1162725.2
 10
-603715.8038
 20
-1162720.8941
 10
-603745.39
 20
-1162714.24
 10
-603763.82
 20
-1162710.095
 10
-603773.9
 20
-1162707.97
 10
-603786.96
 20
-1162705.21
 10
-603804.12
 20
-1162701.585
 10
-603818.56
 20
-1162698.135
 10
-603837.01
 20
-1162693.585
 10
-603850.08
 20
-1162689.98
 10
-603859.59
 20
-1162687.34
 10
-603870.39
 20
-1162681.57
 10
-603881.19
 20
-1162675.8
 10
-603882.15
 20
-1162676.76
 97
0
 75
0
 76
1
 98
0
  0
HATCH
  5
20011
100
AcDbEntity
  8
vodní toky
100
AcDbHatch
 10
0
 20
0
 30
0
210
0
220
0
230
1
  2
SOLID
 70
1
 71
0
 91
1
 92
2
 72
0
 73
1
 93
27
 10
-596668.6
 20
-1163566.25
 10
-596666.97
 20
-1163633.07
 10
-596665.06
 20
-1163709.74
 10
-596660.235
 20
-1163853.36
 10
-596652.19
 20
-1164119.57
 10
-596646.11
 20
-1164285.72
 10
-596645.73
 20
-1164328.76
 10
-596645.47
 20
-1164374.805
 10
-596645.36
 20
-1164394.31
 10
-596645.75
 20
-1164416.09
 10
-596646.665
 20
-1164452.045
 10
-596648.33
 20
-1164485.17
 10
-596651.8
 20
-1164496.45
 10
-596639.87
 20
-1164508.34
 10
-596628.87
 20
-1164519.13
 10
-596616.28
 20
-1164531.49
 10
-596614.87
 20
-1164514.66
 10
-596613.53
 20
-1164461.09
 10
-596611.87
 20
-1164367.59
 10
-596613.63
 20
-1164249.27
 10
-596616.53
 20
-1164162.78
 10
-596619.445
 20
-1164070.11
 10
-596625.05
 20
-1163899.855
 10
-596630.31
 20
-1163758.28
 10
-596632.89
 20
-1163645.25
 10
-596636.99
 20
-1163576.425
 10
-596668.6
 20
-1163566.25
 97
0
 75
0
 76
1
 98
0
  0
HATCH
  5
20012
100
AcDbEntity
  8
vodní toky
100
AcDbHatch
 10
0
 20
0
 30
0
210
0
220
0
230
1
  2
SOLID
 70
1
 71
0
 91
1
 92
2
 72
0
 73
1
 93
28
 10
-596653.59
 20
-1164516.68
 10
-596651.57
 20
-1164548.53
 10
-596653.16
 20
-1164572.53
 10
-596658.635
 20
-1164606.115
 10
-596672.255
 20
-1164693.115
 10
-596680.4
 20
-1164746.53
 10
-596686.785
 20
-1164778.385
 10
-596693.17
 20
-1164810.24
 10
-596683.93
 20
-1164816.02
 10
-596672.84
 20
-1164822.68
 10
-596663.3
 20
-1164828.3
 10
-596659.79
 20
-1164809.34
 10
-596657.29
 20
-1164794.105
 10
-596655.46
 20
-1164783.59
 10
-596652.75
 20
-1164772.02
 10
-596650.135
 20
-1164758.21
 10
-596647.52
 20
-1164744.4
 10
-596647.22
 20
-1164740.4
 10
-596642.715
 20
-1164714.325
 10
-596638.09
 20
-1164687.415
 10
-596633.43
 20
-1164655.64
 10
-596630.25
 20
-1164634.98
 10
-596625.995
 20
-1164607.33
 10
-596621.74
 20
-1164579.68
 10
-596618.45
 20
-1164552.25
 10
-596629.99
 20
-1164540.26
 10
-596643.11
 20
-1164527.15
 10
-596653.59
 20
-1164516.68
 97
0
 75
0
 76
1
 98
0
  0
HATCH
  5
20013
100
AcDbEntity
  8
vodní toky
100
AcDbHatch
 10
0
 20
0
 30
0
210
0
220
0
230
1
  2
SOLID
 70
1
 71
0
 91
1
 92
2
 72
0
 73
1
 93
51
 10
-596004.96
 20
-1163901.29
 10
-596008.2
 20
-1163921.095
 10
-596015.78
 20
-1163968.79
 10
-596032.17
 20
-1164071.55
 10
-596044.44
 20
-1164153.05
 10
-596052.165
 20
-1164204.355
 10
-596061.14
 20
-1164259.66
 10
-596055.535
 20
-1164285.52
 10
-596049.93
 20
-1164311.38
 10
-596045.46
 20
-1164324.97
 10
-596037.76
 20
-1164348.05
 10
-596040
 20
-1164418.28
 10
-596040.48
 20
-1164429.5
 10
-596041.65
 20
-1164498.51
 10
-596042.545
 20
-1164547.785
 10
-596043.44
 20
-1164597.06
 10
-596041.1
 20
-1164613.47
 10
-596034.58
 20
-1164630.78
 10
-596004.23
 20
-1164684.1
 10
-595995.105
 20
-1164698.56
 10
-595980.95
 20
-1164723
 10
-595980.23
 20
-1164742.34
 10
-595978.04
 20
-1164751.7
 10
-595977.11
 20
-1164751.51
 10
-595973.775
 20
-1164750.86
 10
-595972.99
 20
-1164741.42
 10
-595974.28
 20
-1164723.88
 10
-595987.62
 20
-1164700.27
 10
-595999.58
 20
-1164679.07
 10
-596014.055
 20
-1164653.31
 10
-596028.53
 20
-1164627.55
 10
-596034.04
 20
-1164611.62
 10
-596036.33
 20
-1164596.89
 10
-596035.51
 20
-1164547.74
 10
-596033.835
 20
-1164464.16
 10
-596033
 20
-1164428.56
 10
-596033.06
 20
-1164416.3
 10
-596032.1
 20
-1164388.31
 10
-596031.14
 20
-1164360.32
 10
-596030.46
 20
-1164340
 10
-596027.77
 20
-1164338.46
 10
-596036.7
 20
-1164294.37
 10
-596047.87
 20
-1164247.31
 10
-596052.47
 20
-1164243.7
 10
-596046.44
 20
-1164205.16
 10
-596038.36
 20
-1164153.77
 10
-596031.885
 20
-1164113.255
 10
-596019.405
 20
-1164033.02
 10
-596008.34
 20
-1163959.83
 10
-595999.83
 20
-1163904.81
 10
-596004.96
 20
-1163901.29
 97
0
 75
0
 76
1
 98
0
  0
HATCH
  5
20014
100
AcDbEntity
  8
vodní toky
100
AcDbHatch
 10
0
 20
0
 30
0
210
0
220
0
230
1
  2
SOLID
 70
1
 71
0
 91
1
 92
2
 72
0
 73
1
 93
27
 10
-595965.28
 20
-1164816.535
 10
-595965.49
 20
-1164819.99
 10
-595964.21
 20
-1164827.23
 10
-595964.59
 20
-1164837.6
 10
-595974.88
 20
-1164867.13
 10
-595990.955
 20
-1164906.84
 10
-596007.03
 20
-1164946.55
 10
-596012.43
 20
-1164963.16
 10
-596018.92
 20
-1164983.13
 10
-596026.01
 20
-1164996.09
 10
-596030.025
 20
-1165001.275
 10
-596052.74
 20
-1165025.865
 10
-596071.44
 20
-1165045.27
 10
-596079.36
 20
-1165050.93
 10
-596072.94
 20
-1165057.01
 10
-596066.15
 20
-1165049.09
 10
-596046.9
 20
-1165028.575
 10
-596029.66
 20
-1165010.41
 10
-596021.03
 20
-1164998.88
 10
-596011.96
 20
-1164980.5
 10
-595997.67
 20
-1164947.34
 10
-595979.925
 20
-1164898.15
 10
-595962.18
 20
-1164848.96
 10
-595957.74
 20
-1164834.16
 10
-595958.04
 20
-1164821.5
 10
-595961.83
 20
-1164816
 10
-595965.28
 20
-1164816.535
 97
0
 75
0
 76
1
 98
0
  0
HATCH
  5
20015
100
AcDbEntity
  8
vodní toky
100
AcDbHatch
 10
0
 20
0
 30
0
210
0
220
0
230
1
  2
SOLID
 70
1
 71
0
 91
1
 92
2
 72
0
 73
1
 93
24
 10
-596092
 20
-1165063.35
 10
-596098.36
 20
-1165071.88
 10
-596106.54
 20
-1165081.295
 10
-596114.72
 20
-1165090.71
 10
-596121.3
 20
-1165101.38
 10
-596125.03
 20
-1165109.19
 10
-596124.17
 20
-1165109.48
 10
-596121.69
 20
-1165109.72
 10
-596118.34
 20
-1165109.94
 10
-596116.295
 20
-1165105.305
 10
-596114.25
 20
-1165100.67
 10
-596113.1561
 20
-1165098.9048
 10
-596112.406
 20
-1165097.6048
 10
-596111.5685
 20
-1165096.1547
 10
-596102.6
 20
-1165086.94
 10
-596092.57
 20
-1165082.1
 10
-596084.355
 20
-1165081.37
 10
-596076.14
 20
-1165080.64
 10
-596072.46
 20
-1165079.97
 10
-596078.2
 20
-1165074.22
 10
-596095.56
 20
-1165077.44
 10
-596086.02
 20
-1165070.84
 10
-596085.37
 20
-1165070.01
 10
-596092
 20
-1165063.35
 97
0
 75
0
 76
1
 98
0
  0
HATCH
  5
20016
100
AcDbEntity
  8
vodní toky
100
AcDbHatch
 10
0
 20
0
 30
0
210
0
220
0
230
1
  2
SOLID
 70
1
 71
0
 91
1
 92
2
 72
0
 73
1
 93
14
 10
-596125.16
 20
-1165122.09
 10
-596132.04
 20
-1165126.81
 10
-596162.02
 20
-1165134
 10
-596176.9
 20
-1165148.69
 10
-596181.58
 20
-1165186.53
 10
-596189.24
 20
-1165210.54
 10
-596173.92
 20
-1165192.89
 10
-596176.86
 20
-1165188.4
 10
-596173.61
 20
-1165170.725
 10
-596170.31
 20
-1165152.07
 10
-596163.52
 20
-1165143.84
 10
-596146.42
 20
-1165137.275
 10
-596129.32
 20
-1165130.71
 10
-596125.16
 20
-1165122.09
 97
0
 75
0
 76
1
 98
0
  0
HATCH
  5
20017
100
AcDbEntity
  8
vodní toky
100
AcDbHatch
 10
0
 20
0
 30
0
210
0
220
0
230
1
  2
SOLID
 70
1
 71
0
 91
1
 92
2
 72
0
 73
1
 93
58
 10
-596125.16
 20
-1165122.09
 10
-596129.32
 20
-1165130.71
 10
-596137.74
 20
-1165155.74
 10
-596153.43
 20
-1165167.85
 10
-596173.92
 20
-1165192.89
 10
-596189.24
 20
-1165210.54
 10
-596190.7107
 20
-1165216.0556
 10
-596193.37
 20
-1165223.69
 10
-596190.46
 20
-1165301.59
 10
-596182.13
 20
-1165315.45
 10
-596158.04
 20
-1165355.54
 10
-596142.02
 20
-1165392.03
 10
-596121.65
 20
-1165428.34
 10
-596090.5
 20
-1165457.3
 10
-596041
 20
-1165482.93
 10
-596040.11
 20
-1165481.19
 10
-596036.9
 20
-1165485.78
 10
-596036.4522
 20
-1165491.8775
 10
-596035.52
 20
-1165497.92
 10
-596036.36
 20
-1165505.39
 10
-596046.25
 20
-1165523.34
 10
-596033.2
 20
-1165530.92
 10
-596024.26
 20
-1165500.19
 10
-596024.19
 20
-1165493.59
 10
-596025.79
 20
-1165479.68
 10
-596031.67
 20
-1165471.84
 10
-596039.83
 20
-1165467.785
 10
-596047.99
 20
-1165463.73
 10
-596054.92
 20
-1165461.315
 10
-596072.67
 20
-1165454.21
 10
-596080.8
 20
-1165448.49
 10
-596088.83
 20
-1165440.62
 10
-596104.34
 20
-1165425.67
 10
-596116.36
 20
-1165414.3
 10
-596123.7
 20
-1165399.72
 10
-596133.82
 20
-1165380.78
 10
-596143.57
 20
-1165358.74
 10
-596145.708
 20
-1165354.4389
 10
-596153.39
 20
-1165338.72
 10
-596160.85
 20
-1165326.91
 10
-596165.4
 20
-1165320.48
 10
-596172.2
 20
-1165308.27
 10
-596179.42
 20
-1165295
 10
-596182.9
 20
-1165285.25
 10
-596182.9
 20
-1165281.18
 10
-596182.995
 20
-1165272.56
 10
-596183.09
 20
-1165263.94
 10
-596182.26
 20
-1165246.67
 10
-596182.26
 20
-1165233.17
 10
-596182.46
 20
-1165221.32
 10
-596178.33
 20
-1165207.57
 10
-596157.64
 20
-1165185.73
 10
-596147.45
 20
-1165175.23
 10
-596133.81
 20
-1165156.64
 10
-596128.17
 20
-1165141.825
 10
-596122.53
 20
-1165127.01
 10
-596121.6
 20
-1165123.23
 10
-596125.16
 20
-1165122.09
 97
0
 75
0
 76
1
 98
0
  0
HATCH
  5
20018
100
AcDbEntity
  8
vodní toky
100
AcDbHatch
 10
0
 20
0
 30
0
210
0
220
0
230
1
  2
SOLID
 70
1
 71
0
 91
1
 92
2
 72
0
 73
1
 93
43
 10
-595769.6856
 20
-1164496.3626
 10
-595777.286
 20
-1164494.1625
 10
-595790.2868
 20
-1164500.5629
 10
-595823.0888
 20
-1164547.9657
 10
-595838.8897
 20
-1164564.5667
 10
-595876.34
 20
-1164598.57
 10
-595902.98
 20
-1164611.19
 10
-595941.05
 20
-1164630.6
 10
-595950.5
 20
-1164646.44
 10
-595958.57
 20
-1164664.97
 10
-595971.78
 20
-1164681.5
 10
-595971.8
 20
-1164702.77
 10
-595974.52
 20
-1164718.47
 10
-595976.13
 20
-1164720.72
 10
-595974.28
 20
-1164723.88
 10
-595973.635
 20
-1164732.65
 10
-595970.1
 20
-1164730.71
 10
-595964.48
 20
-1164701.97
 10
-595962.62
 20
-1164690.6
 10
-595960.31
 20
-1164682.25
 10
-595955.05
 20
-1164675.51
 10
-595950.41
 20
-1164666.82
 10
-595943.77
 20
-1164653.455
 10
-595940.9
 20
-1164642
 10
-595935.24
 20
-1164634.95
 10
-595919.7
 20
-1164623.82
 10
-595910.17
 20
-1164620.08
 10
-595890.44
 20
-1164609.79
 10
-595878.32
 20
-1164603.94
 10
-595861.995
 20
-1164591.73
 10
-595846.865
 20
-1164579.15
 10
-595836.145
 20
-1164571.04
 10
-595827.88
 20
-1164565
 10
-595821.56
 20
-1164557.24
 10
-595817.02
 20
-1164550.31
 10
-595806.59
 20
-1164535.565
 10
-595798.235
 20
-1164523.55
 10
-595796.02
 20
-1164520.57
 10
-595790.65
 20
-1164515.54
 10
-595784.835
 20
-1164506.855
 10
-595782.63
 20
-1164503.97
 10
-595778.7
 20
-1164500.84
 10
-595769.6856
 20
-1164496.3626
 97
0
 75
0
 76
1
 98
0
  0
HATCH
  5
20019
100
AcDbEntity
  8
vodní toky
100
AcDbHatch
 10
0
 20
0
 30
0
210
0
220
0
230
1
  2
SOLID
 70
1
 71
0
 91
1
 92
2
 72
0
 73
1
 93
42
 10
-594921.72
 20
-1165133.65
 10
-594923.87
 20
-1165131.66
 10
-594936.71
 20
-1165142.46
 10
-594960.845
 20
-1165160.04
 10
-595012.72
 20
-1165200.4
 10
-595042.36
 20
-1165224.85
 10
-595073.015
 20
-1165256.4
 10
-595084.785
 20
-1165268.035
 10
-595087.45
 20
-1165270.49
 10
-595115.43
 20
-1165288.85
 10
-595120.11
 20
-1165293.79
 10
-595122.48
 20
-1165297.46
 10
-595126.28
 20
-1165312.29
 10
-595128.29
 20
-1165334.38
 10
-595129.26
 20
-1165351.95
 10
-595127.09
 20
-1165381.92
 10
-595130.48
 20
-1165403.31
 10
-595125.74
 20
-1165401.72
 10
-595124.11
 20
-1165381.71
 10
-595126.53
 20
-1165352.14
 10
-595125.71
 20
-1165333.2
 10
-595124.305
 20
-1165321.535
 10
-595122.9
 20
-1165309.87
 10
-595120.69
 20
-1165303.445
 10
-595117.05
 20
-1165294.6
 10
-595113.24
 20
-1165290.17
 10
-595096.905
 20
-1165278.995
 10
-595080.57
 20
-1165267.82
 10
-595072.7185
 20
-1165260.3045
 10
-595064.5551
 20
-1165253.085
 10
-595050.785
 20
-1165240.9
 10
-595040.69
 20
-1165226.87
 10
-595025.34
 20
-1165214.31
 10
-594996.515
 20
-1165191.41
 10
-594982.27
 20
-1165180.72
 10
-594958.585
 20
-1165163.95
 10
-594934.9
 20
-1165147.18
 10
-594926.31
 20
-1165145.59
 10
-594926.53
 20
-1165143.44
 10
-594935.87
 20
-1165144.95
 10
-594928.795
 20
-1165139.3
 10
-594921.72
 20
-1165133.65
 97
0
 75
0
 76
1
 98
0
  0
HATCH
  5
2001A
100
AcDbEntity
  8
vodní toky
100
AcDbHatch
 10
0
 20
0
 30
0
210
0
220
0
230
1
  2
SOLID
 70
1
 71
0
 91
1
 92
2
 72
0
 73
1
 93
21
 10
-595139.93
 20
-1165406.48
 10
-595131.93
 20
-1165419.775
 10
-595123.93
 20
-1165433.07
 10
-595118.61
 20
-1165448.25
 10
-595116.61
 20
-1165458.09
 10
-595116.52
 20
-1165462.07
 10
-595116.43
 20
-1165466.05
 10
-595120.465
 20
-1165485.87
 10
-595124.5
 20
-1165505.69
 10
-595124.65
 20
-1165508.45
 10
-595123.86
 20
-1165510.15
 10
-595121.78
 20
-1165510.79
 10
-595113.175
 20
-1165508.28
 10
-595104.57
 20
-1165505.77
 10
-595103.13
 20
-1165503.36
 10
-595102.55
 20
-1165499.88
 10
-595103.93
 20
-1165474.36
 10
-595105.31
 20
-1165448.84
 10
-595115.52
 20
-1165423.08
 10
-595122.99
 20
-1165400.8
 10
-595139.93
 20
-1165406.48
 97
0
 75
0
 76
1
 98
0
  0
HATCH
  5
2001B
100
AcDbEntity
  8
vodní toky
100
AcDbHatch
 10
0
 20
0
 30
0
210
0
220
0
230
1
  2
SOLID
 70
1
 71
0
 91
1
 92
2
 72
0
 73
1
 93
11
 10
-595124.51
 20
-1165513.55
 10
-595131.26
 20
-1165545.56
 10
-595137.54
 20
-1165581.615
 10
-595143.56
 20
-1165617.985
 10
-595123.68
 20
-1165623.06
 10
-595120.92
 20
-1165620.23
 10
-595112.005
 20
-1165565.225
 10
-595103.09
 20
-1165510.22
 10
-595103.33
 20
-1165508.89
 10
-595104.44
 20
-1165508.32
 10
-595124.51
 20
-1165513.55
 97
0
 75
0
 76
1
 98
0
  0
HATCH
  5
2001C
100
AcDbEntity
  8
vodní toky
100
AcDbHatch
 10
0
 20
0
 30
0
210
0
220
0
230
1
  2
SOLID
 70
1
 71
0
 91
1
 92
2
 72
0
 73
1
 93
10
 10
-595154.93
 20
-1165646.26
 10
-595154.27
 20
-1165648.7
 10
-595147.3
 20
-1165655.05
 10
-595141.82
 20
-1165650
 10
-595134.395
 20
-1165638.565
 10
-595126.97
 20
-1165627.13
 10
-595134.785
 20
-1165624.25
 10
-595142.6
 20
-1165621.37
 10
-595148.765
 20
-1165633.815
 10
-595154.93
 20
-1165646.26
 97
0
 75
0
 76
1
 98
0
  0
HATCH
  5
2001D
100
AcDbEntity
  8
vodní toky
100
AcDbHatch
 10
0
 20
0
 30
0
210
0
220
0
230
1
  2
SOLID
 70
1
 71
0
 91
1
 92
2
 72
0
 73
1
 93
26
 10
-603737.32
 20
-1157659.87
 10
-603735.89
 20
-1157677.26
 10
-603735.33
 20
-1157697.26
 10
-603735.68
 20
-1157713.12
 10
-603739.61
 20
-1157723.54
 10
-603749.11
 20
-1157745.39
 10
-603753.065
 20
-1157756.81
 10
-603756.47
 20
-1157776.19
 10
-603753.86
 20
-1157792.88
 10
-603755.5
 20
-1157807.28
 10
-603760.51
 20
-1157821.28
 10
-603762.6314
 20
-1157824.0779
 10
-603756.44
 20
-1157829.7895
 10
-603753.86
 20
-1157826
 10
-603747.69
 20
-1157809.41
 10
-603745
 20
-1157792.165
 10
-603748.16
 20
-1157778.67
 10
-603744.4
 20
-1157754.8
 10
-603740.025
 20
-1157745.125
 10
-603730.35
 20
-1157726.91
 10
-603727.23
 20
-1157720.705
 10
-603727.25
 20
-1157712.14
 10
-603727.3
 20
-1157705.29
 10
-603728.275
 20
-1157680.795
 10
-603732.02
 20
-1157658.79
 10
-603737.32
 20
-1157659.87
 97
0
 75
0
 76
1
 98
0
  0
HATCH
  5
2001E
100
AcDbEntity
  8
vodní toky
100
AcDbHatch
 10
0
 20
0
 30
0
210
0
220
0
230
1
  2
SOLID
 70
1
 71
0
 91
1
 92
2
 72
0
 73
1
 93
35
 10
-596722.6698
 20
-1164948.2537
 10
-596732.781
 20
-1165009.1179
 10
-596745.4
 20
-1165070.88
 10
-596752.16
 20
-1165108.445
 10
-596777.57
 20
-1165233.315
 10
-596796.22
 20
-1165320.62
 10
-596809.18
 20
-1165388.79
 10
-596817.46
 20
-1165460.54
 10
-596819.5733
 20
-1165473.4022
 10
-596827.325
 20
-1165513.48
 10
-596837.19
 20
-1165566.42
 10
-596842.765
 20
-1165586.61
 10
-596848.1345
 20
-1165606.1657
 10
-596858.93
 20
-1165698.74
 10
-596868.16
 20
-1165739.79
 10
-596841.98
 20
-1165757.99
 10
-596823.78
 20
-1165657.14
 10
-596809.39
 20
-1165585.76
 10
-596800.07
 20
-1165539.53
 10
-596774.1
 20
-1165407.03
 10
-596759.34
 20
-1165334.61
 10
-596757.63
 20
-1165326.2
 10
-596748.08
 20
-1165278.15
 10
-596743.07
 20
-1165273.91
 10
-596744.13
 20
-1165252.16
 10
-596735.15
 20
-1165206.56
 10
-596728.25
 20
-1165187.17
 10
-596727
 20
-1165162.59
 10
-596718.56
 20
-1165117.51
 10
-596707.7
 20
-1165085.86
 10
-596709.46
 20
-1165063.685
 10
-596698.69
 20
-1165009.14
 10
-596687.31
 20
-1164951.97
 10
-596682.46
 20
-1164927.28
 10
-596722.6698
 20
-1164948.2537
 97
0
 75
0
 76
1
 98
0
  0
HATCH
  5
2001F
100
AcDbEntity
  8
vodní toky
100
AcDbHatch
 10
0
 20
0
 30
0
210
0
220
0
230
1
  2
SOLID
 70
1
 71
0
 91
1
 92
2
 72
0
 73
1
 93
12
 10
-603159.9
 20
-1157361.37
 10
-603150.39
 20
-1157366.605
 10
-603141.14
 20
-1157371.82
 10
-603134.715
 20
-1157376.745
 10
-603128.29
 20
-1157381.67
 10
-603125.88
 20
-1157383.26
 10
-603120.59
 20
-1157377.85
 10
-603134.205
 20
-1157369.555
 10
-603143.41
 20
-1157363.95
 10
-603150.76
 20
-1157360.71
 10
-603159.72
 20
-1157359.37
 10
-603159.9
 20
-1157361.37
 97
0
 75
0
 76
1
 98
0
  0
HATCH
  5
20020
100
AcDbEntity
  8
vodní toky
100
AcDbHatch
 10
0
 20
0
 30
0
210
0
220
0
230
1
  2
SOLID
 70
1
 71
0
 91
1
 92
2
 72
0
 73
1
 93
34
 10
-603238.6853
 20
-1157358.2657
 10
-603244.98
 20
-1157357.85
 10
-603260.64
 20
-1157359.82
 10
-603276.69
 20
-1157363.17
 10
-603299.6
 20
-1157373.64
 10
-603345.4
 20
-1157393.77
 10
-603393.81
 20
-1157413.23
 10
-603414.75
 20
-1157423.93
 10
-603421.03
 20
-1157428.065
 10
-603439.975
 20
-1157442.47
 10
-603452.64
 20
-1157452.74
 10
-603475.36
 20
-1157466.61
 10
-603489.57
 20
-1157471.6
 10
-603508.98
 20
-1157473.35
 10
-603530.02
 20
-1157468.64
 10
-603539.34
 20
-1157467.66
 10
-603541.545
 20
-1157470.22
 10
-603543.75
 20
-1157472.78
 10
-603515.71
 20
-1157481.31
 10
-603501
 20
-1157482.3
 10
-603489.01
 20
-1157480.15
 10
-603473.02
 20
-1157474.08
 10
-603447.83
 20
-1157458.88
 10
-603435.295
 20
-1157448.455
 10
-603422.76
 20
-1157438.03
 10
-603411.65
 20
-1157430.17
 10
-603390.21
 20
-1157422.46
 10
-603376.44
 20
-1157416.86
 10
-603333.23
 20
-1157398.28
 10
-603320.36
 20
-1157392.59
 10
-603274.74
 20
-1157373.03
 10
-603245.69
 20
-1157365.32
 10
-603238.08
 20
-1157364.13
 10
-603238.6853
 20
-1157358.2657
 97
0
 75
0
 76
1
 98
0
  0
HATCH
  5
20021
100
AcDbEntity
  8
vodní toky
100
AcDbHatch
 10
0
 20
0
 30
0
210
0
220
0
230
1
  2
SOLID
 70
1
 71
0
 91
1
 92
2
 72
0
 73
1
 93
20
 10
-603543.75
 20
-1157472.78
 10
-603539.34
 20
-1157467.66
 10
-603557.53
 20
-1157460.795
 10
-603568.24
 20
-1157456.78
 10
-603576.945
 20
-1157453.96
 10
-603586.06
 20
-1157452.35
 10
-603607.57
 20
-1157454.45
 10
-603620.98
 20
-1157459.94
 10
-603632.18
 20
-1157466.99
 10
-603657.57
 20
-1157495.47
 10
-603652.37
 20
-1157501.38
 10
-603638.505
 20
-1157486.6
 10
-603626.63
 20
-1157473.2
 10
-603617.24
 20
-1157466.32
 10
-603605.53
 20
-1157461.94
 10
-603591.915
 20
-1157459.615
 10
-603576.92
 20
-1157461.01
 10
-603564.125
 20
-1157465.865
 10
-603551.33
 20
-1157470.72
 10
-603543.75
 20
-1157472.78
 97
0
 75
0
 76
1
 98
0
  0
HATCH
  5
20022
100
AcDbEntity
  8
vodní toky
100
AcDbHatch
 10
0
 20
0
 30
0
210
0
220
0
230
1
  2
SOLID
 70
1
 71
0
 91
1
 92
2
 72
0
 73
1
 93
14
 10
-603733.76
 20
-1157555.67
 10
-603738.63
 20
-1157564.69
 10
-603742.77
 20
-1157575.66
 10
-603744.31
 20
-1157579.82
 10
-603746.35
 20
-1157592.54
 10
-603743.12
 20
-1157620.05
 10
-603737.34
 20
-1157659.65
 10
-603732.02
 20
-1157658.79
 10
-603739.72
 20
-1157592.66
 10
-603737.51
 20
-1157582.48
 10
-603735.93
 20
-1157579.08
 10
-603730.93
 20
-1157568.71
 10
-603725.82
 20
-1157559.99
 10
-603733.76
 20
-1157555.67
 97
0
 75
0
 76
1
 98
0
  0
HATCH
  5
20023
100
AcDbEntity
  8
vodní toky
100
AcDbHatch
 10
0
 20
0
 30
0
210
0
220
0
230
1
  2
SOLID
 70
1
 71
0
 91
1
 92
2
 72
0
 73
1
 93
25
 10
-603756.44
 20
-1157829.7895
 10
-603762.6482
 20
-1157824.162
 10
-603769.5857
 20
-1157829.7842
 10
-603776.55
 20
-1157835.42
 10
-603787.89
 20
-1157839.63
 10
-603801.38
 20
-1157842.82
 10
-603815.135
 20
-1157846.03
 10
-603823.59
 20
-1157848.67
 10
-603833.78
 20
-1157852.38
 10
-603845.36
 20
-1157861.5
 10
-603854.67
 20
-1157872.15
 10
-603861.44
 20
-1157885.78
 10
-603864.0449
 20
-1157902.1549
 10
-603855.74
 20
-1157900.66
 10
-603853.85
 20
-1157888.5
 10
-603848.41
 20
-1157876.41
 10
-603840.13
 20
-1157867.73
 10
-603830.19
 20
-1157859.4
 10
-603816.37
 20
-1157854.8
 10
-603806.62
 20
-1157852.74
 10
-603794.34
 20
-1157849.97
 10
-603779.585
 20
-1157845.335
 10
-603770.085
 20
-1157841.16
 10
-603763.84
 20
-1157836.71
 10
-603756.44
 20
-1157829.7895
 97
0
 75
0
 76
1
 98
0
  0
HATCH
  5
20024
100
AcDbEntity
  8
vodní toky
100
AcDbHatch
 10
0
 20
0
 30
0
210
0
220
0
230
1
  2
SOLID
 70
1
 71
0
 91
1
 92
2
 72
0
 73
1
 93
6
 10
-603864.16
 20
-1157901.995
 10
-603862.21
 20
-1157921.26
 10
-603860.09
 20
-1157926.88
 10
-603854.05
 20
-1157925.54
 10
-603855.74
 20
-1157900.66
 10
-603864.16
 20
-1157901.995
 97
0
 75
0
 76
1
 98
0
  0
HATCH
  5
20025
100
AcDbEntity
  8
vodní toky
100
AcDbHatch
 10
0
 20
0
 30
0
210
0
220
0
230
1
  2
SOLID
 70
1
 71
0
 91
1
 92
2
 72
0
 73
1
 93
22
 10
-604390.975
 20
-1157953.32
 10
-604393.4131
 20
-1157956.2847
 10
-604386.7
 20
-1157966.54
 10
-604384.505
 20
-1157980.785
 10
-604382.31
 20
-1157995.03
 10
-604372.31
 20
-1158010.18
 10
-604358.46
 20
-1158022.44
 10
-604306.18
 20
-1158065.85
 10
-604277.88
 20
-1158089.38
 10
-604260.7
 20
-1158121.3
 10
-604245.47
 20
-1158128.43
 10
-604243.76
 20
-1158113.25
 10
-604261.84
 20
-1158099.34
 10
-604270.65
 20
-1158082.48
 10
-604308.125
 20
-1158050.94
 10
-604350.31
 20
-1158015.47
 10
-604369.11
 20
-1157999.6
 10
-604373.15
 20
-1157991.97
 10
-604375
 20
-1157984.94
 10
-604378.41
 20
-1157971.98
 10
-604383.88
 20
-1157960.78
 10
-604390.975
 20
-1157953.32
 97
0
 75
0
 76
1
 98
0
  0
HATCH
  5
20026
100
AcDbEntity
  8
vodní toky
100
AcDbHatch
 10
0
 20
0
 30
0
210
0
220
0
230
1
  2
SOLID
 70
1
 71
0
 91
1
 92
2
 72
0
 73
1
 93
173
 10
-606836.81
 20
-1152780.78
 10
-606754.045
 20
-1152723.475
 10
-606803.46
 20
-1152680.42
 10
-606871.65
 20
-1152646.51
 10
-606956.56
 20
-1152590.69
 10
-607072.68
 20
-1152534.925
 10
-607109.83
 20
-1152513.31
 10
-607228.26
 20
-1152468.515
 10
-607253.74
 20
-1152457.19
 10
-607276.43
 20
-1152437.49
 10
-607365.19
 20
-1152399.45
 10
-607459.25
 20
-1152344.52
 10
-607541.19
 20
-1152302.67
 10
-607592.67
 20
-1152283.31
 10
-607689.335
 20
-1152268.69
 10
-607718.52
 20
-1152285.73
 10
-607751.11
 20
-1152327.84
 10
-607799.68
 20
-1152396.62
 10
-607831.38
 20
-1152450.22
 10
-607868.91
 20
-1152515.37
 10
-607896.67
 20
-1152578.1
 10
-607901.72
 20
-1152615.16
 10
-607932.05
 20
-1152631.57
 10
-607946.075
 20
-1152629.68
 10
-607979.9
 20
-1152631.875
 10
-608065.7
 20
-1152636.53
 10
-608155.7
 20
-1152618.36
 10
-608219.43
 20
-1152609.54
 10
-608347.8
 20
-1152563.87
 10
-608426.14
 20
-1152532.99
 10
-608459.68
 20
-1152507.26
 10
-608489.01
 20
-1152494.23
 10
-608500.71
 20
-1152468.73
 10
-608497.63
 20
-1152432.365
 10
-608493.54
 20
-1152377.73
 10
-608451.45
 20
-1152307.24
 10
-608388.53
 20
-1152249.55
 10
-608364.71
 20
-1152197.11
 10
-608343.425
 20
-1152140.86
 10
-608324.99
 20
-1152094.33
 10
-608304.15
 20
-1152038.15
 10
-608299.69
 20
-1151901.97
 10
-608286.29
 20
-1151890.49
 10
-608294.195
 20
-1151815.745
 10
-608351.03
 20
-1151713.64
 10
-608375.495
 20
-1151668.745
 10
-608427.35
 20
-1151569.27
 10
-608443.86
 20
-1151534.57
 10
-608468.73
 20
-1151500.16
 10
-608457.54
 20
-1151447.57
 10
-608428.47
 20
-1151393.26
 10
-608389.3
 20
-1151294.74
 10
-608343.35
 20
-1151183.76
 10
-608308.85
 20
-1151120.79
 10
-608280.37
 20
-1151077.27
 10
-608241.245
 20
-1151031.355
 10
-608208.525
 20
-1150974.32
 10
-608171.96
 20
-1150913.71
 10
-608157.6359
 20
-1150856.5186
 10
-608152.4
 20
-1150826.46
 10
-608146.94
 20
-1150795.09
 10
-608137.03
 20
-1150715.97
 10
-608139.83
 20
-1150677.11
 10
-608141.84
 20
-1150669.61
 10
-608111.07
 20
-1150654.78
 10
-608172.1
 20
-1150578.56
 10
-608205.295
 20
-1150612.89
 10
-608198.5
 20
-1150621.57
 10
-608196.16
 20
-1150641.655
 10
-608189.88
 20
-1150663.5
 10
-608172.72
 20
-1150684.49
 10
-608156.05
 20
-1150719.8
 10
-608164.02
 20
-1150794.77
 10
-608174.55
 20
-1150848.98
 10
-608239.94
 20
-1151000
 10
-608268.61
 20
-1151038.02
 10
-608298.06
 20
-1151064.16
 10
-608354.365
 20
-1151142.635
 10
-608374.86
 20
-1151170.45
 10
-608407.86
 20
-1151256.12
 10
-608454.41
 20
-1151406.7
 10
-608473.22
 20
-1151427.655
 10
-608492.03
 20
-1151448.61
 10
-608527.39
 20
-1151515.17
 10
-608495.55
 20
-1151518.43
 10
-608493.58
 20
-1151534.54
 10
-608481.03
 20
-1151531.95
 10
-608487.625
 20
-1151548.155
 10
-608480.415
 20
-1151567.305
 10
-608471
 20
-1151570.61
 10
-608457.02
 20
-1151632.36
 10
-608436.15
 20
-1151677.58
 10
-608410.55
 20
-1151703.61
 10
-608397.36
 20
-1151734.15
 10
-608380.69
 20
-1151750.2
 10
-608379.38
 20
-1151760.925
 10
-608370.29
 20
-1151782.03
 10
-608350.37
 20
-1151817.24
 10
-608350.92
 20
-1151822.07
 10
-608344.635
 20
-1151840.14
 10
-608330.16
 20
-1151860.2
 10
-608330.55
 20
-1151922.41
 10
-608344.61
 20
-1152000
 10
-608353.84
 20
-1152048.185
 10
-608367.65
 20
-1152087.48
 10
-608397.615
 20
-1152153.515
 10
-608431.66
 20
-1152209.585
 10
-608451.58
 20
-1152220.37
 10
-608452.015
 20
-1152236.07
 10
-608453.28
 20
-1152241.21
 10
-608463.365
 20
-1152249.415
 10
-608527.48
 20
-1152327.47
 10
-608540.92
 20
-1152342.08
 10
-608548.02
 20
-1152356.04
 10
-608550.78
 20
-1152402.12
 10
-608558.96
 20
-1152489.19
 10
-608554.89
 20
-1152505.43
 10
-608547.64
 20
-1152525.64
 10
-608519.56
 20
-1152555.31
 10
-608496.21
 20
-1152542.67
 10
-608493.15
 20
-1152560.82
 10
-608486.76
 20
-1152578.82
 10
-608456.635
 20
-1152591.615
 10
-608444.87
 20
-1152609.24
 10
-608408.55
 20
-1152639.79
 10
-608320.93
 20
-1152671.04
 10
-608207.7
 20
-1152698.37
 10
-608138.52
 20
-1152692.67
 10
-608096.64
 20
-1152691.1
 10
-608026.57
 20
-1152694.96
 10
-607996.61
 20
-1152697.64
 10
-607964.63
 20
-1152691.76
 10
-607907
 20
-1152696.48
 10
-607894.19
 20
-1152680.09
 10
-607881.5
 20
-1152677.29
 10
-607868.81
 20
-1152667.67
 10
-607844.185
 20
-1152673.925
 10
-607846.98
 20
-1152665.87
 10
-607857.02
 20
-1152652.93
 10
-607857.53
 20
-1152640.62
 10
-607862.87
 20
-1152632.25
 10
-607863.39
 20
-1152614.23
 10
-607843.62
 20
-1152559.59
 10
-607827.335
 20
-1152526.51
 10
-607815.795
 20
-1152508.22
 10
-607809.39
 20
-1152496.86
 10
-607787.955
 20
-1152480.905
 10
-607749.14
 20
-1152436.76
 10
-607723.205
 20
-1152396.5
 10
-607702.09
 20
-1152369.57
 10
-607684.33
 20
-1152358.185
 10
-607665.42
 20
-1152353.215
 10
-607644.225
 20
-1152349.45
 10
-607607.55
 20
-1152340.4
 10
-607568.45
 20
-1152339.98
 10
-607557.4
 20
-1152354.69
 10
-607475.03
 20
-1152392.67
 10
-607464.73
 20
-1152394.17
 10
-607406.07
 20
-1152428.08
 10
-607392.05
 20
-1152443.44
 10
-607383.54
 20
-1152439.95
 10
-607315.89
 20
-1152524.94
 10
-607215.96
 20
-1152590.03
 10
-607162.07
 20
-1152590.81
 10
-607164.33
 20
-1152645.94
 10
-607151.59
 20
-1152711.84
 10
-607119.51
 20
-1152726.61
 10
-607101.475
 20
-1152728.245
 10
-607076.07
 20
-1152721.74
 10
-607068.7
 20
-1152713.6
 10
-607050.95
 20
-1152650.61
 10
-606976
 20
-1152683.2
 10
-606836.81
 20
-1152780.78
 97
0
 75
0
 76
1
 98
0
  0
HATCH
  5
20027
100
AcDbEntity
  8
vodní toky
100
AcDbHatch
 10
0
 20
0
 30
0
210
0
220
0
230
1
  2
SOLID
 70
1
 71
0
 91
1
 92
2
 72
0
 73
1
 93
100
 10
-605726.469
 20
-1153911.2114
 10
-605777.888
 20
-1153869.2744
 10
-605792.204
 20
-1153870.9514
 10
-605818.224
 20
-1153848.6314
 10
-605825.984
 20
-1153826.8014
 10
-605884.798
 20
-1153809.6824
 10
-605929.943
 20
-1153813.6024
 10
-606030.154
 20
-1153850.8114
 10
-606106.384
 20
-1153843.0014
 10
-606141.304
 20
-1153799.3714
 10
-606190.374
 20
-1153749.8414
 10
-606196.284
 20
-1153735.0614
 10
-606196.314
 20
-1153710.6914
 10
-606189.504
 20
-1153673.6214
 10
-606191.674
 20
-1153653.4414
 10
-606198.239
 20
-1153620.6964
 10
-606211.854
 20
-1153578.2464
 10
-606234.524
 20
-1153552.0514
 10
-606260.234
 20
-1153542.9314
 10
-606333.924
 20
-1153544.5814
 10
-606366.179
 20
-1153535.6614
 10
-606382.444
 20
-1153528.3914
 10
-606402.199
 20
-1153503.8864
 10
-606410.134
 20
-1153473.3214
 10
-606428.184
 20
-1153452.1514
 10
-606437.099
 20
-1153435.1914
 10
-606446.014
 20
-1153418.2314
 10
-606457.234
 20
-1153409.8414
 10
-606494.144
 20
-1153398.7214
 10
-606526.134
 20
-1153399.4114
 10
-606557.909
 20
-1153386.8764
 10
-606564.944
 20
-1153382.7714
 10
-606569.464
 20
-1153354.9714
 10
-606578.299
 20
-1153346.7664
 10
-606587.134
 20
-1153338.5614
 10
-606589.563
 20
-1153324.9717
 10
-606594.824
 20
-1153278.3914
 10
-606591.744
 20
-1153238.3714
 10
-606583.369
 20
-1153210.5214
 10
-606574.994
 20
-1153182.6714
 10
-606569.774
 20
-1153148.6014
 10
-606566.319
 20
-1153120.9064
 10
-606562.864
 20
-1153093.2114
 10
-606561.904
 20
-1153063.3914
 10
-606559.204
 20
-1153049.9414
 10
-606566.624
 20
-1153018.4414
 10
-606572.009
 20
-1152987.6864
 10
-606582.394
 20
-1152949.7614
 10
-606590.814
 20
-1152923.0514
 10
-606621.434
 20
-1152856.3014
 10
-606641.624
 20
-1152843.0814
 10
-606679.434
 20
-1152793.7714
 10
-606712.024
 20
-1152753.5914
 10
-606749.779
 20
-1152722.3764
 10
-606832.544
 20
-1152779.6814
 10
-606782.334
 20
-1152838.2514
 10
-606741.334
 20
-1152903.2914
 10
-606663.354
 20
-1153041.4914
 10
-606693.594
 20
-1153038.6414
 10
-606740.92
 20
-1153061.15
 10
-606716.734
 20
-1153116.1614
 10
-606699.817
 20
-1153138.7807
 10
-606682.9
 20
-1153161.4
 10
-606710.614
 20
-1153269.7614
 10
-606716.23
 20
-1153307.54
 10
-606730.39
 20
-1153337.97
 10
-606730.08
 20
-1153369.955
 10
-606729.77
 20
-1153401.94
 10
-606705.19
 20
-1153425.09
 10
-606615.224
 20
-1153480.7714
 10
-606550.624
 20
-1153484.9714
 10
-606530.604
 20
-1153503.7914
 10
-606491.289
 20
-1153520.8164
 10
-606469.224
 20
-1153532.6014
 10
-606429.824
 20
-1153572.0214
 10
-606381.664
 20
-1153628.1214
 10
-606334.614
 20
-1153635.6164
 10
-606276.844
 20
-1153629.7114
 10
-606310.554
 20
-1153725.9514
 10
-606289.964
 20
-1153773.2014
 10
-606271.194
 20
-1153783.0114
 10
-606257.604
 20
-1153822.9714
 10
-606269.174
 20
-1153852.3114
 10
-606252.974
 20
-1153878.2314
 10
-606210.52
 20
-1153901.94
 10
-606204.691
 20
-1153910.054
 10
-606157.034
 20
-1153922.3814
 10
-606140.554
 20
-1153912.8914
 10
-606115.91
 20
-1153912.84
 10
-606096.24
 20
-1153924.45
 10
-606071.76
 20
-1153924.3
 10
-606051.075
 20
-1153936.725
 10
-606013.09
 20
-1153936.065
 10
-605964.234
 20
-1153940.0114
 10
-605940.544
 20
-1153923.2414
 10
-605907.89
 20
-1153934.85
 10
-605878.58
 20
-1153948.28
 10
-605824.649
 20
-1153960.6664
 10
-605813.674
 20
-1153963.7714
 10
-605726.469
 20
-1153911.2114
 97
0
 75
0
 76
1
 98
0
  0
HATCH
  5
20028
100
AcDbEntity
  8
vodní toky
100
AcDbHatch
 10
0
 20
0
 30
0
210
0
220
0
230
1
  2
SOLID
 70
1
 71
0
 91
1
 92
2
 72
0
 73
1
 93
24
 10
-603426.45
 20
-1156153.91
 10
-603410.51
 20
-1156155.29
 10
-603402.2
 20
-1156157.32
 10
-603381.15
 20
-1156163.61
 10
-603367.08
 20
-1156170.84
 10
-603336.91
 20
-1156193.83
 10
-603324.98
 20
-1156208.75
 10
-603316.81
 20
-1156221.13
 10
-603306.975
 20
-1156244.49
 10
-603300.58
 20
-1156272.99
 10
-603286.805
 20
-1156366.715
 10
-603278.16
 20
-1156435.99
 10
-603244.8
 20
-1156528.98
 10
-603232.54
 20
-1156551.18
 10
-603201.7
 20
-1156540.51
 10
-603228.25
 20
-1156472.87
 10
-603249.36
 20
-1156375.24
 10
-603258.1
 20
-1156315.45
 10
-603291.94
 20
-1156190.71
 10
-603307.03
 20
-1156146.34
 10
-603320.72
 20
-1156139.55
 10
-603346.27
 20
-1156133.51
 10
-603417.84
 20
-1156122.17
 10
-603426.45
 20
-1156153.91
 97
0
 75
0
 76
1
 98
0
  0
HATCH
  5
20029
100
AcDbEntity
  8
vodní toky
100
AcDbHatch
 10
0
 20
0
 30
0
210
0
220
0
230
1
  2
SOLID
 70
1
 71
0
 91
1
 92
2
 72
0
 73
1
 93
39
 10
-603815.35
 20
-1158073.05
 10
-603820.93
 20
-1158082.75
 10
-603828.43
 20
-1158107.79
 10
-603830.33
 20
-1158119.17
 10
-603834.03
 20
-1158144
 10
-603853.78
 20
-1158166.49
 10
-603878.87
 20
-1158180.11
 10
-603925.41
 20
-1158183.735
 10
-603967.95
 20
-1158179.13
 10
-604001.61
 20
-1158177.23
 10
-604022.15
 20
-1158175.185
 10
-604058.215
 20
-1158172.415
 10
-604094.07
 20
-1158155.82
 10
-604150.61
 20
-1158126.59
 10
-604243.76
 20
-1158113.25
 10
-604245.47
 20
-1158128.43
 10
-604152.58
 20
-1158142.3
 10
-604119.91
 20
-1158156.605
 10
-604061.26
 20
-1158181.37
 10
-604047.595
 20
-1158182.865
 10
-604002.34
 20
-1158186.03
 10
-603949.7
 20
-1158189.74
 10
-603903.5
 20
-1158191.1
 10
-603877.2
 20
-1158187.61
 10
-603854.98
 20
-1158176.73
 10
-603841.38
 20
-1158165.02
 10
-603835.6
 20
-1158164.84
 10
-603834.46
 20
-1158157.7
 10
-603826.76
 20
-1158146.09
 10
-603822.9
 20
-1158132.45
 10
-603820.965
 20
-1158115.81
 10
-603816.295
 20
-1158094.285
 10
-603813.56
 20
-1158089.4
 10
-603810.68
 20
-1158083.81
 10
-603809.08
 20
-1158080.075
 10
-603807.73
 20
-1158076.34
 10
-603805.55
 20
-1158071.37
 10
-603813.31
 20
-1158068.11
 10
-603815.35
 20
-1158073.05
 97
0
 75
0
 76
1
 98
0
  0
HATCH
  5
2002A
100
AcDbEntity
  8
vodní toky
100
AcDbHatch
 10
0
 20
0
 30
0
210
0
220
0
230
1
  2
SOLID
 70
1
 71
0
 91
1
 92
2
 72
0
 73
1
 93
11
 10
-596561.3
 20
-1160481.4
 10
-596564.28
 20
-1160496.785
 10
-596567.26
 20
-1160512.17
 10
-596567.82
 20
-1160531.34
 10
-596570.31
 20
-1160549.01
 10
-596559.895
 20
-1160550.8
 10
-596547.67
 20
-1160552.91
 10
-596540.165
 20
-1160518.18
 10
-596533.49
 20
-1160487.36
 10
-596547.395
 20
-1160484.38
 10
-596561.3
 20
-1160481.4
 97
0
 75
0
 76
1
 98
0
  0
HATCH
  5
2002B
100
AcDbEntity
  8
vodní toky
100
AcDbHatch
 10
0
 20
0
 30
0
210
0
220
0
230
1
  2
SOLID
 70
1
 71
0
 91
1
 92
2
 72
0
 73
1
 93
13
 10
-603159.9
 20
-1157361.37
 10
-603159.72
 20
-1157359.37
 10
-603164.96
 20
-1157358.99
 10
-603193.24
 20
-1157358.16
 10
-603230.4
 20
-1157359.49
 10
-603238.5996
 20
-1157358.2933
 10
-603238.08
 20
-1157364.13
 10
-603231.67
 20
-1157361.9
 10
-603215.915
 20
-1157361.63
 10
-603194.515
 20
-1157361.305
 10
-603178.065
 20
-1157361.29
 10
-603165.9605
 20
-1157361.5479
 10
-603159.9
 20
-1157361.37
 97
0
 75
0
 76
1
 98
0
  0
HATCH
  5
2002C
100
AcDbEntity
  8
vodní toky
100
AcDbHatch
 10
0
 20
0
 30
0
210
0
220
0
230
1
  2
SOLID
 70
1
 71
0
 91
1
 92
2
 72
0
 73
1
 93
26
 10
-603124.66
 20
-1157384.12
 10
-603116.9
 20
-1157391.36
 10
-603110.25
 20
-1157398.16
 10
-603102.195
 20
-1157405.23
 10
-603095.88
 20
-1157409.79
 10
-603091.99
 20
-1157411.15
 10
-603088.4
 20
-1157413
 10
-603079.84
 20
-1157416.86
 10
-603076
 20
-1157419.5
 10
-603064.58
 20
-1157429.29
 10
-603050.76
 20
-1157441.27
 10
-603050.2293
 20
-1157433.2395
 10
-603065.92
 20
-1157419.635
 10
-603070.32
 20
-1157415.82
 10
-603094.79
 20
-1157403.76
 10
-603095.48
 20
-1157402.2
 10
-603097.82
 20
-1157400.8
 10
-603101.44
 20
-1157399.91
 10
-603105.14
 20
-1157396.92
 10
-603111.76
 20
-1157390.69
 10
-603114.91
 20
-1157387.52
 10
-603118.92
 20
-1157380.09
 10
-603119.84
 20
-1157378.89
 10
-603120.59
 20
-1157377.85
 10
-603125.88
 20
-1157383.26
 10
-603124.66
 20
-1157384.12
 97
0
 75
0
 76
1
 98
0
  0
HATCH
  5
2002D
100
AcDbEntity
  8
vodní toky
100
AcDbHatch
 10
0
 20
0
 30
0
210
0
220
0
230
1
  2
SOLID
 70
1
 71
0
 91
1
 92
2
 72
0
 73
1
 93
13
 10
-603090.84
 20
-1157320.19
 10
-603079.17
 20
-1157341.03
 10
-603068.14
 20
-1157371.04
 10
-603049.91
 20
-1157422.65
 10
-603050.76
 20
-1157441.27
 10
-603005.25
 20
-1157420.13
 10
-603027.1
 20
-1157382.21
 10
-603031.51
 20
-1157358.31
 10
-603039.4
 20
-1157330.68
 10
-603045.6
 20
-1157312.21
 10
-603051.51
 20
-1157294.22
 10
-603097.76
 20
-1157308.7
 10
-603090.84
 20
-1157320.19
 97
0
 75
0
 76
1
 98
0
  0
HATCH
  5
2002E
100
AcDbEntity
  8
vodní toky
100
AcDbHatch
 10
0
 20
0
 30
0
210
0
220
0
230
1
  2
SOLID
 70
1
 71
0
 91
1
 92
2
 72
0
 73
1
 93
84
 10
-604160.4
 20
-1155970.6
 10
-604145.3
 20
-1155963.85
 10
-604144.82
 20
-1155962.26
 10
-604123.035
 20
-1155967.06
 10
-604093.6
 20
-1155973.54
 10
-604072.7
 20
-1155973.35
 10
-604047.395
 20
-1155970.505
 10
-604019.08
 20
-1155967.37
 10
-604011.34
 20
-1155967
 10
-603990.9
 20
-1155965.98
 10
-603958.82
 20
-1155964.42
 10
-603923.07
 20
-1155962.85
 10
-603910.585
 20
-1155962.52
 10
-603891.14
 20
-1155962.01
 10
-603874.825
 20
-1155962.095
 10
-603856.665
 20
-1155963.43
 10
-603832.97
 20
-1155968.08
 10
-603812.795
 20
-1155975.355
 10
-603793.8
 20
-1155984.24
 10
-603774.605
 20
-1155998.095
 10
-603761.85
 20
-1156008.63
 10
-603739
 20
-1156032.66
 10
-603719.805
 20
-1156063.6
 10
-603710.05
 20
-1156080.39
 10
-603695.54
 20
-1156102.67
 10
-603691.8
 20
-1156109.81
 10
-603688.06
 20
-1156116.95
 10
-603662.08
 20
-1156146.37
 10
-603636.1
 20
-1156175.79
 10
-603604.73
 20
-1156191.73
 10
-603592.62
 20
-1156194.08
 10
-603568.27
 20
-1156195.86
 10
-603556.35
 20
-1156194.28
 10
-603530.03
 20
-1156185.4
 10
-603503.3984
 20
-1156173.4342
 10
-603493.76
 20
-1156169.74
 10
-603493.95
 20
-1156164.4
 10
-603476.255
 20
-1156160.03
 10
-603458.56
 20
-1156155.66
 10
-603444.04
 20
-1156153.88
 10
-603426.45
 20
-1156153.91
 10
-603422.61
 20
-1156139.75
 10
-603442.01
 20
-1156138.73
 10
-603452.28
 20
-1156139.71
 10
-603462.55
 20
-1156140.69
 10
-603497.55
 20
-1156148.3
 10
-603514.8
 20
-1156155.02
 10
-603532.05
 20
-1156161.74
 10
-603544.195
 20
-1156164.945
 10
-603556.34
 20
-1156168.15
 10
-603570.54
 20
-1156168.72
 10
-603576.275
 20
-1156168.4
 10
-603586.42
 20
-1156167.41
 10
-603597.74
 20
-1156164.65
 10
-603613.84
 20
-1156157.855
 10
-603629.94
 20
-1156151.06
 10
-603650.28
 20
-1156131.82
 10
-603673.6
 20
-1156106.62
 10
-603683.96
 20
-1156090.625
 10
-603694.32
 20
-1156074.63
 10
-603705.34
 20
-1156056.065
 10
-603716.36
 20
-1156037.5
 10
-603728.655
 20
-1156021.125
 10
-603745.67
 20
-1156000
 10
-603762.95
 20
-1155986.26
 10
-603775.46
 20
-1155977.45
 10
-603786.77
 20
-1155970.36
 10
-603800.24
 20
-1155963.84
 10
-603816.11
 20
-1155957.32
 10
-603832.49
 20
-1155952.77
 10
-603850.08
 20
-1155948.85
 10
-603869.67
 20
-1155947.54
 10
-603882.08
 20
-1155946.98
 10
-603900.645
 20
-1155947.415
 10
-603934.635
 20
-1155948.57
 10
-604011.755
 20
-1155952.565
 10
-604049.78
 20
-1155953.875
 10
-604073.46
 20
-1155953.81
 10
-604088.12
 20
-1155952.43
 10
-604144.551
 20
-1155940.208
 10
-604158.7854
 20
-1155937.1899
 10
-604161.4914
 20
-1155948.8843
 10
-604167.942
 20
-1155973.5324
 10
-604160.4
 20
-1155970.6
 97
0
 75
0
 76
1
 98
0
  0
HATCH
  5
2002F
100
AcDbEntity
  8
vodní toky
100
AcDbHatch
 10
0
 20
0
 30
0
210
0
220
0
230
1
  2
SOLID
 70
1
 71
0
 91
1
 92
2
 72
0
 73
1
 93
47
 10
-603151.55
 20
-1156757.89
 10
-603150.38
 20
-1156785.49
 10
-603150.51
 20
-1156811.7
 10
-603152.255
 20
-1156836.6
 10
-603154
 20
-1156861.5
 10
-603159.45
 20
-1156881.43
 10
-603166.575
 20
-1156916.55
 10
-603171.79
 20
-1156944.67
 10
-603170.63
 20
-1156953.815
 10
-603168.52
 20
-1156973.285
 10
-603168.76
 20
-1156991.805
 10
-603171.065
 20
-1157007.66
 10
-603181.23
 20
-1157031.39
 10
-603185.9479
 20
-1157047.7931
 10
-603185.235
 20
-1157060.2683
 10
-603182.9461
 20
-1157079.6584
 10
-603181.97
 20
-1157097.39
 10
-603167.76
 20
-1157121.045
 10
-603162.86
 20
-1157131.49
 10
-603155.73
 20
-1157154.73
 10
-603147.2
 20
-1157171.97
 10
-603130.505
 20
-1157210.65
 10
-603122.12
 20
-1157236.54
 10
-603112.99
 20
-1157265.1
 10
-603102.62
 20
-1157286.03
 10
-603097.35
 20
-1157308.58
 10
-603051.51
 20
-1157294.22
 10
-603052.1721
 20
-1157277.7855
 10
-603068.8
 20
-1157241.85
 10
-603085.915
 20
-1157205.43
 10
-603102.43
 20
-1157170.03
 10
-603109.875
 20
-1157150.02
 10
-603111.5542
 20
-1157136.2045
 10
-603112.7091
 20
-1157126.7031
 10
-603113.2334
 20
-1157122.3891
 10
-603120.65
 20
-1157061.37
 10
-603124.85
 20
-1157032.58
 10
-603124.65
 20
-1157016.29
 10
-603122.11
 20
-1156952.335
 10
-603113.87
 20
-1156877.87
 10
-603116.96
 20
-1156876.24
 10
-603118.05
 20
-1156802.15
 10
-603118.71
 20
-1156781.01
 10
-603121.79
 20
-1156729.86
 10
-603146.0303
 20
-1156709.0538
 10
-603172.5304
 20
-1156690.5486
 10
-603151.55
 20
-1156757.89
 97
0
 75
0
 76
1
 98
0
  0
HATCH
  5
20030
100
AcDbEntity
  8
vodní toky
100
AcDbHatch
 10
0
 20
0
 30
0
210
0
220
0
230
1
  2
SOLID
 70
1
 71
0
 91
1
 92
2
 72
0
 73
1
 93
12
 10
-603657.57
 20
-1157495.47
 10
-603695.74
 20
-1157521.5
 10
-603716.43
 20
-1157536.435
 10
-603726.56
 20
-1157545.92
 10
-603733.6936
 20
-1157555.6661
 10
-603725.82
 20
-1157559.99
 10
-603720.39
 20
-1157551.64
 10
-603709.18
 20
-1157540.12
 10
-603691.99
 20
-1157527.28
 10
-603676.74
 20
-1157515.52
 10
-603652.37
 20
-1157501.38
 10
-603657.57
 20
-1157495.47
 97
0
 75
0
 76
1
 98
0
  0
HATCH
  5
20031
100
AcDbEntity
  8
vodní toky
100
AcDbHatch
 10
0
 20
0
 30
0
210
0
220
0
230
1
  2
SOLID
 70
1
 71
0
 91
1
 92
2
 72
0
 73
1
 93
17
 10
-603801.33
 20
-1158056.335
 10
-603798.95
 20
-1158047.61
 10
-603806.91
 20
-1158008.91
 10
-603815.39
 20
-1157986.12
 10
-603822.2625
 20
-1157975.9025
 10
-603829.135
 20
-1157965.685
 10
-603842.88
 20
-1157945.25
 10
-603854.05
 20
-1157925.54
 10
-603860.09
 20
-1157926.88
 10
-603857.51
 20
-1157933.71
 10
-603848.88
 20
-1157948.95
 10
-603822.19
 20
-1157989.03
 10
-603814.26
 20
-1158010.93
 10
-603807.71
 20
-1158048.12
 10
-603813.31
 20
-1158068.11
 10
-603805.55
 20
-1158071.37
 10
-603801.33
 20
-1158056.335
 97
0
 75
0
 76
1
 98
0
  0
HATCH
  5
20032
100
AcDbEntity
  8
vodní toky
100
AcDbHatch
 10
0
 20
0
 30
0
210
0
220
0
230
1
  2
SOLID
 70
1
 71
0
 91
1
 92
2
 72
0
 73
1
 93
341
 10
-604844.7087
 20
-1156103.67
 10
-604883.8087
 20
-1156105.47
 10
-604889.1887
 20
-1156123.86
 10
-604894.5687
 20
-1156142.25
 10
-604901.7587
 20
-1156173.32
 10
-604905.5727
 20
-1156186.9295
 10
-604914.8987
 20
-1156221.2
 10
-604902.4387
 20
-1156226.25
 10
-604894.9887
 20
-1156229.31
 10
-604884.5987
 20
-1156235.68
 10
-604875.2937
 20
-1156242.76
 10
-604865.9887
 20
-1156249.84
 10
-604862.6987
 20
-1156260.56
 10
-604860.1937
 20
-1156272.75
 10
-604854.3687
 20
-1156302.65
 10
-604855.619
 20
-1156303.6845
 10
-604859.5887
 20
-1156307.53
 10
-604858.5736
 20
-1156307.8804
 10
-604857.3137
 20
-1156323.875
 10
-604855.3163
 20
-1156340.4684
 10
-604848.4287
 20
-1156349.54
 10
-604841.3787
 20
-1156359.46
 10
-604827.2985
 20
-1156371.9833
 10
-604817.7201
 20
-1156374.2489
 10
-604811.78
 20
-1156374.9333
 10
-604811.9682
 20
-1156374.802
 10
-604808.9447
 20
-1156372.221
 10
-604804.7414
 20
-1156368.3495
 10
-604801.1887
 20
-1156364.96
 10
-604779.7137
 20
-1156343.205
 10
-604769.5987
 20
-1156332.08
 10
-604760.2137
 20
-1156311.99
 10
-604750.8287
 20
-1156291.9
 10
-604746.5756
 20
-1156284.4322
 10
-604742.3224
 20
-1156276.9645
 10
-604739.1904
 20
-1156272.6506
 10
-604734.4442
 20
-1156267.8528
 10
-604728.9711
 20
-1156263.4916
 10
-604723.4981
 20
-1156260.0843
 10
-604719.0592
 20
-1156257.8023
 10
-604714.6203
 20
-1156255.5204
 10
-604709.7751
 20
-1156253.3322
 10
-604704.9298
 20
-1156251.144
 10
-604699.7407
 20
-1156249.2997
 10
-604694.5517
 20
-1156247.4554
 10
-604688.6905
 20
-1156245.8924
 10
-604686.346
 20
-1156245.4548
 10
-604682.4491
 20
-1156244.8296
 10
-604676.0539
 20
-1156243.9448
 10
-604669.6587
 20
-1156243.06
 10
-604661.8802
 20
-1156242.7257
 10
-604654.1017
 20
-1156242.3913
 10
-604642.9733
 20
-1156242.7039
 10
-604638.2531
 20
-1156243.2197
 10
-604633.5329
 20
-1156243.7355
 10
-604627.7186
 20
-1156244.6733
 10
-604624.3738
 20
-1156245.3766
 10
-604620.5601
 20
-1156246.4082
 10
-604617.3494
 20
-1156247.5041
 10
-604614.1387
 20
-1156248.6
 10
-604611.2768
 20
-1156249.747
 10
-604600.7728
 20
-1156255.0827
 10
-604590.5821
 20
-1156262.8976
 10
-604586.831
 20
-1156266.2737
 10
-604583.0798
 20
-1156269.6497
 10
-604571.7013
 20
-1156281.2783
 10
-604569.8726
 20
-1156283.9473
 10
-604567.6766
 20
-1156287.4052
 10
-604563.652
 20
-1156293.5321
 10
-604562.7671
 20
-1156295.6372
 10
-604561.9483
 20
-1156298.2992
 10
-604561.7998
 20
-1156300.4326
 10
-604561.6514
 20
-1156302.5661
 10
-604561.9796
 20
-1156304.6761
 10
-604562.3078
 20
-1156306.7862
 10
-604569.6587
 20
-1156329.38
 10
-604561.2083
 20
-1156348.4364
 10
-604552.4935
 20
-1156361.3763
 10
-604544.5601
 20
-1156368.5862
 10
-604535.039
 20
-1156376.1122
 10
-604519.4313
 20
-1156386.2959
 10
-604512.403
 20
-1156394.1082
 10
-604505.5482
 20
-1156405.4524
 10
-604498.6935
 20
-1156416.7966
 10
-604492.8863
 20
-1156423.138
 10
-604488.4113
 20
-1156424.8616
 10
-604485.1893
 20
-1156425.1286
 10
-604480.0688
 20
-1156424.3927
 10
-604469.5253
 20
-1156420.8916
 10
-604462.5689
 20
-1156415.6713
 10
-604460.5069
 20
-1156411.9826
 10
-604459.2331
 20
-1156403.3953
 10
-604457.9593
 20
-1156394.808
 10
-604455.8961
 20
-1156385.0993
 10
-604452.4063
 20
-1156377.178
 10
-604448.6595
 20
-1156371.8936
 10
-604446.1108
 20
-1156369.2514
 10
-604443.562
 20
-1156366.6093
 10
-604441.7344
 20
-1156364.8431
 10
-604439.9068
 20
-1156363.0769
 10
-604437.3123
 20
-1156361.3108
 10
-604434.7177
 20
-1156359.5446
 10
-604437.8987
 20
-1156353.04
 10
-604406.4687
 20
-1156308.81
 10
-604410.4287
 20
-1156306.47
 10
-604394.5037
 20
-1156285.315
 10
-604378.5787
 20
-1156264.16
 10
-604347.941
 20
-1156223.5183
 10
-604350.6137
 20
-1156220.0485
 10
-604353.2551
 20
-1156216.5787
 10
-604355.8645
 20
-1156212.7882
 10
-604360.1939
 20
-1156206.0987
 10
-604362.7268
 20
-1156201.4647
 10
-604363.5396
 20
-1156199.7298
 10
-604363.9083
 20
-1156197.9447
 10
-604364.4148
 20
-1156195.58
 10
-604364.6469
 20
-1156193.291
 10
-604364.879
 20
-1156191.002
 10
-604364.7042
 20
-1156189.3489
 10
-604363.81
 20
-1156187.5456
 10
-604362.4413
 20
-1156185.6512
 10
-604356.9186
 20
-1156178.5851
 10
-604354.6462
 20
-1156175.8787
 10
-604346.75
 20
-1156166.17
 10
-604346.378
 20
-1156164.9561
 10
-604346.8782
 20
-1156163.7421
 10
-604347.6487
 20
-1156162.99
 10
-604369.0587
 20
-1156152.21
 10
-604385.2287
 20
-1156134.86
 10
-604390.4087
 20
-1156124.37
 10
-604393.9587
 20
-1156124.55
 10
-604394.0787
 20
-1156122.08
 10
-604383.6687
 20
-1156121.6
 10
-604376.0787
 20
-1156121.12
 10
-604378.9987
 20
-1156104.48
 10
-604373.16
 20
-1156078.33
 10
-604355.5987
 20
-1156049.99
 10
-604340.0687
 20
-1156012.54
 10
-604331.1087
 20
-1155994.96
 10
-604308.3987
 20
-1155974.81
 10
-604299.0087
 20
-1155971.67
 10
-604262.9037
 20
-1155974.46
 10
-604226.7987
 20
-1155977.25
 10
-604175.4524
 20
-1155984.1198
 10
-604169.9887
 20
-1155981.17
 10
-604161.7487
 20
-1155950.27
 10
-604158.7387
 20
-1155937.15
 10
-604148.1687
 20
-1155894.87
 10
-604146.2187
 20
-1155881.19
 10
-604149.6287
 20
-1155880.42
 10
-604154.7337
 20
-1155864.195
 10
-604154.0587
 20
-1155836.807
 10
-604157.8277
 20
-1155807.786
 10
-604161.3277
 20
-1155792.006
 10
-604165.1887
 20
-1155784.84
 10
-604166.5587
 20
-1155783.79
 10
-604170.3387
 20
-1155777.33
 10
-604172.1927
 20
-1155757.126
 10
-604176.6987
 20
-1155730.685
 10
-604176.2947
 20
-1155711.487
 10
-604173.4787
 20
-1155711.62
 10
-604177.3487
 20
-1155656.49
 10
-604179.8087
 20
-1155643.55
 10
-604188.9287
 20
-1155604.19
 10
-604198.0887
 20
-1155575.68
 10
-604196.9987
 20
-1155556.85
 10
-604192.4087
 20
-1155536.68
 10
-604183.9287
 20
-1155514.68
 10
-604177.4287
 20
-1155498.46
 10
-604201.2087
 20
-1155487.96
 10
-604204.4987
 20
-1155474.67
 10
-604218.1687
 20
-1155466.28
 10
-604223.2587
 20
-1155470.07
 10
-604236.0287
 20
-1155458.04
 10
-604232.7887
 20
-1155454.86
 10
-604249.8987
 20
-1155436.33
 10
-604254.8987
 20
-1155431.97
 10
-604275.6437
 20
-1155413.775
 10
-604296.3887
 20
-1155395.58
 10
-604313.5987
 20
-1155369.51
 10
-604321.5387
 20
-1155352.21
 10
-604344.7737
 20
-1155314.71
 10
-604365.7787
 20
-1155277.39
 10
-604394.8387
 20
-1155233.94
 10
-604429.3837
 20
-1155200.809
 10
-604447.5887
 20
-1155154.71
 10
-604489.1587
 20
-1155121.09
 10
-604494.9987
 20
-1155098.38
 10
-604523.0687
 20
-1155003.34
 10
-604533.1487
 20
-1154954.12
 10
-604501.6387
 20
-1154900.36
 10
-604479.5187
 20
-1154922.01
 10
-604458.9587
 20
-1154933.78
 10
-604397.6987
 20
-1154922.214
 10
-604389.3344
 20
-1154908.2164
 10
-604390.8587
 20
-1154903.86
 10
-604409.9502
 20
-1154906.3483
 10
-604443.8795
 20
-1154896.1392
 10
-604474.4897
 20
-1154885.807
 10
-604489.3645
 20
-1154865.7578
 10
-604504.3622
 20
-1154850.1366
 10
-604508.2258
 20
-1154844.0216
 10
-604525.5887
 20
-1154837.98
 10
-604549.4187
 20
-1154832.89
 10
-604557.0802
 20
-1154808.089
 10
-604563.8687
 20
-1154773.6
 10
-604597.4487
 20
-1154735.3
 10
-604619.6087
 20
-1154710.38
 10
-604672.4887
 20
-1154654.29
 10
-604685.9887
 20
-1154642.47
 10
-604719.5487
 20
-1154605.23
 10
-604742.5187
 20
-1154608.78
 10
-604754.0087
 20
-1154607.08
 10
-604763.7237
 20
-1154601.13
 10
-604778.8787
 20
-1154590.62
 10
-604804.5387
 20
-1154559.59
 10
-604819.0687
 20
-1154552.13
 10
-604841.3487
 20
-1154543.8
 10
-604856.7987
 20
-1154534.07
 10
-604880.3287
 20
-1154521.74
 10
-604901.1787
 20
-1154503.24
 10
-604917.9187
 20
-1154473.64
 10
-604883.7487
 20
-1154467.31
 10
-604893.9887
 20
-1154454.77
 10
-604925.0037
 20
-1154451.395
 10
-604928.3987
 20
-1154433.65
 10
-604920.7987
 20
-1154431.7
 10
-604918.7087
 20
-1154423.49
 10
-604919.6237
 20
-1154398.86
 10
-604915.3423
 20
-1154388.4267
 10
-604908.4787
 20
-1154375.04
 10
-604893.0587
 20
-1154357.97
 10
-604885.8687
 20
-1154340.4
 10
-604897.8387
 20
-1154335.71
 10
-604917.5337
 20
-1154354.28
 10
-604931.0687
 20
-1154365.98
 10
-604956.3687
 20
-1154394.66
 10
-604965.0787
 20
-1154389.25
 10
-604969.1987
 20
-1154380.66
 10
-604976.4987
 20
-1154376.66
 10
-604980.9687
 20
-1154372.18
 10
-604997.1887
 20
-1154363.94
 10
-605000.1487
 20
-1154362.32
 10
-605017.4487
 20
-1154349.81
 10
-605035.2537
 20
-1154339.695
 10
-605057.1587
 20
-1154333.16
 10
-605113.8887
 20
-1154320.52
 10
-605130.5987
 20
-1154310.54
 10
-605139.7437
 20
-1154302.03
 10
-605157.4887
 20
-1154294.87
 10
-605168.0587
 20
-1154288.79
 10
-605178.0287
 20
-1154277.13
 10
-605181.8887
 20
-1154262.57
 10
-605197.4287
 20
-1154276.73
 10
-605198.4387
 20
-1154240.7
 10
-605220.2287
 20
-1154259.98
 10
-605247.5087
 20
-1154248.92
 10
-605257.1887
 20
-1154237.62
 10
-605264.6587
 20
-1154247.07
 10
-605301.6387
 20
-1154235.57
 10
-605328.7787
 20
-1154206.501
 10
-605381.9087
 20
-1154167.7
 10
-605410.7887
 20
-1154148.94
 10
-605423.6287
 20
-1154135.51
 10
-605463.8087
 20
-1154111.07
 10
-605502.1537
 20
-1154081
 10
-605500.9087
 20
-1154077.89
 10
-605534.5187
 20
-1154055.05
 10
-605555.0487
 20
-1154028.64
 10
-605560.2387
 20
-1154020.06
 10
-605570.2687
 20
-1153999.62
 10
-605588.0687
 20
-1153966.19
 10
-605589.9287
 20
-1153914.22
 10
-605606.8787
 20
-1153875.25
 10
-605612.2187
 20
-1153857.65
 10
-605612.2087
 20
-1153839.82
 10
-605619.4187
 20
-1153854.21
 10
-605627.4987
 20
-1153897.2
 10
-605639.0487
 20
-1153893.43
 10
-605646.1387
 20
-1153875.1
 10
-605682.2687
 20
-1153848.51
 10
-605701.9187
 20
-1153823.09
 10
-605711.5287
 20
-1153804.73
 10
-605726.4377
 20
-1153911.2114
 10
-605817.9087
 20
-1153964.87
 10
-605780.1745
 20
-1154002.5344
 10
-605741.2187
 20
-1154042.85
 10
-605725.8387
 20
-1154064.62
 10
-605710.5887
 20
-1154086.32
 10
-605698.0087
 20
-1154099.26
 10
-605668.2687
 20
-1154137.97
 10
-605640.1487
 20
-1154199.15
 10
-605655.6687
 20
-1154240.995
 10
-605619.4837
 20
-1154248.27
 10
-605606.6487
 20
-1154259.565
 10
-605549.4787
 20
-1154376.46
 10
-605529.8987
 20
-1154405.335
 10
-605494.6987
 20
-1154438.37
 10
-605462.8887
 20
-1154505.49
 10
-605420.6687
 20
-1154571.08
 10
-605385.7987
 20
-1154648.735
 10
-605388.5587
 20
-1154681.74
 10
-605386.7587
 20
-1154702.94
 10
-605332.8987
 20
-1154732.33
 10
-605292.4537
 20
-1154799.07
 10
-605243.0287
 20
-1154834.31
 10
-605219.7487
 20
-1154879.73
 10
-605200.0387
 20
-1154901.8
 10
-605153.7287
 20
-1154938.37
 10
-605120.8587
 20
-1154981.06
 10
-605122.3137
 20
-1154989.965
 10
-605119.1587
 20
-1155007.07
 10
-605095.9687
 20
-1155033.36
 10
-605057.5187
 20
-1155127.95
 10
-605030.0987
 20
-1155197.94
 10
-605035.3087
 20
-1155239.2
 10
-605052.9687
 20
-1155314.61
 10
-605061.3687
 20
-1155406.02
 10
-605089.0287
 20
-1155456.03
 10
-605080.9187
 20
-1155474.45
 10
-605062.0287
 20
-1155483.09
 10
-605051.5087
 20
-1155495.15
 10
-605054.6787
 20
-1155499.09
 10
-605015.7687
 20
-1155530.46
 10
-605011.5187
 20
-1155540.04
 10
-604981.5687
 20
-1155572.9
 10
-604966.4287
 20
-1155596.68
 10
-604902.6987
 20
-1155624.77
 10
-604885.6937
 20
-1155632.425
 10
-604884.4987
 20
-1155635.04
 10
-604845.6387
 20
-1155693.91
 10
-604794.1487
 20
-1155763.6
 10
-604776.6537
 20
-1155822.89
 10
-604773.8237
 20
-1155861.005
 10
-604779.4887
 20
-1155897.99
 10
-604787.6787
 20
-1155920.25
 10
-604796.4687
 20
-1155960.59
 10
-604818.0287
 20
-1156000
 10
-604826.0987
 20
-1156049.21
 10
-604822.8287
 20
-1156085.6
 10
-604844.7087
 20
-1156103.67
 97
0
 75
0
 76
1
 98
0
  0
HATCH
  5
20033
100
AcDbEntity
  8
vodní toky
100
AcDbHatch
 10
0
 20
0
 30
0
210
0
220
0
230
1
  2
SOLID
 70
1
 71
0
 91
1
 92
2
 72
0
 73
1
 93
19
 10
-596744.68
 20
-1161347.37
 10
-596746.21
 20
-1161356.03
 10
-596746.37
 20
-1161381.07
 10
-596745.69
 20
-1161402.78
 10
-596744.74
 20
-1161414.35
 10
-596739.27
 20
-1161460.47
 10
-596737.56
 20
-1161487.91
 10
-596735.92
 20
-1161519.35
 10
-596736.765
 20
-1161538.695
 10
-596736.42
 20
-1161575.48
 10
-596735.59
 20
-1161619.36
 10
-596702.83
 20
-1161604.88
 10
-596704.17
 20
-1161564
 10
-596706.04
 20
-1161500.53
 10
-596707.92
 20
-1161435.685
 10
-596709.8
 20
-1161370.84
 10
-596707.64
 20
-1161363.5
 10
-596706.02
 20
-1161354.92
 10
-596744.68
 20
-1161347.37
 97
0
 75
0
 76
1
 98
0
  0
HATCH
  5
20034
100
AcDbEntity
  8
vodní toky
100
AcDbHatch
 10
0
 20
0
 30
0
210
0
220
0
230
1
  2
SOLID
 70
1
 71
0
 91
1
 92
2
 72
0
 73
1
 93
52
 10
-596729.98
 20
-1161670.78
 10
-596729.34
 20
-1161688.985
 10
-596729.14
 20
-1161720.69
 10
-596725.005
 20
-1161829.555
 10
-596718.895
 20
-1162012.705
 10
-596714.65
 20
-1162131.42
 10
-596713.28
 20
-1162188.56
 10
-596708.755
 20
-1162311.56
 10
-596706.41
 20
-1162374.8
 10
-596703.485
 20
-1162453.02
 10
-596700.805
 20
-1162521.135
 10
-596699.58
 20
-1162547.91
 10
-596695.2771
 20
-1162680.0511
 10
-596688.82
 20
-1162892.78
 10
-596689.33
 20
-1162902.15
 10
-596689.84
 20
-1162911.52
 10
-596690.27
 20
-1162920.56
 10
-596690.08
 20
-1162927.41
 10
-596690.73
 20
-1162932.42
 10
-596688.505
 20
-1162933.725
 10
-596686.28
 20
-1162935.03
 10
-596686.4
 20
-1162936.1
 10
-596682.45
 20
-1162936.12
 10
-596673.35
 20
-1162936.16
 10
-596659.77
 20
-1162936.06
 10
-596659.01
 20
-1162933.89
 10
-596658.72
 20
-1162931.88
 10
-596658.61
 20
-1162926.58
 10
-596658.5
 20
-1162921.28
 10
-596657.73
 20
-1162917.22
 10
-596660.74
 20
-1162895.85
 10
-596662.32
 20
-1162873.89
 10
-596663.45
 20
-1162841.88
 10
-596664.58
 20
-1162809.87
 10
-596666.15
 20
-1162763.59
 10
-596667.94
 20
-1162722.98
 10
-596671.05
 20
-1162615.15
 10
-596672.49
 20
-1162559.73
 10
-596674.28
 20
-1162514.39
 10
-596675.45
 20
-1162460.41
 10
-596677.07
 20
-1162428.655
 10
-596678.32
 20
-1162376.2
 10
-596682.29
 20
-1162277.54
 10
-596682.375
 20
-1162239.53
 10
-596685.1
 20
-1162190.42
 10
-596693.77
 20
-1161925.45
 10
-596697.005
 20
-1161828.15
 10
-596698.78
 20
-1161769.97
 10
-596700.315
 20
-1161713.755
 10
-596700.882
 20
-1161686.3128
 10
-596701.77
 20
-1161660.34
 10
-596729.98
 20
-1161670.78
 97
0
 75
0
 76
1
 98
0
  0
HATCH
  5
20035
100
AcDbEntity
  8
vodní toky
100
AcDbHatch
 10
0
 20
0
 30
0
210
0
220
0
230
1
  2
SOLID
 70
1
 71
0
 91
1
 92
2
 72
0
 73
1
 93
8
 10
-596687.16
 20
-1162943.25
 10
-596687.03
 20
-1162946.83
 10
-596691.56
 20
-1162949.93
 10
-596690.7
 20
-1162966.42
 10
-596658.12
 20
-1162974.58
 10
-596658.76
 20
-1162945.87
 10
-596659.23
 20
-1162942.95
 10
-596687.16
 20
-1162943.25
 97
0
 75
0
 76
1
 98
0
  0
HATCH
  5
20036
100
AcDbEntity
  8
vodní toky
100
AcDbHatch
 10
0
 20
0
 30
0
210
0
220
0
230
1
  2
SOLID
 70
1
 71
0
 91
1
 92
2
 72
0
 73
1
 93
29
 10
-596689.11
 20
-1162996.91
 10
-596687.89
 20
-1163020.33
 10
-596684.765
 20
-1163093.715
 10
-596680.9
 20
-1163198.37
 10
-596679.28
 20
-1163236.845
 10
-596679.16
 20
-1163247.31
 10
-596679.04
 20
-1163257.775
 10
-596679.005
 20
-1163275.205
 10
-596679.09
 20
-1163282.17
 10
-596678.585
 20
-1163288.34
 10
-596677.94
 20
-1163295.97
 10
-596677.77
 20
-1163301.46
 10
-596662.55
 20
-1163283.07
 10
-596640.45
 20
-1163257.005
 10
-596639.89
 20
-1163243.365
 10
-596644.07
 20
-1163239.55
 10
-596643.97
 20
-1163230.395
 10
-596643.87
 20
-1163221.24
 10
-596644.86
 20
-1163219.56
 10
-596646.045
 20
-1163209.485
 10
-596648.61
 20
-1163188.01
 10
-596649.13
 20
-1163168.59
 10
-596649.65
 20
-1163149.17
 10
-596650.69
 20
-1163113.97
 10
-596651.41
 20
-1163091.74
 10
-596652.18
 20
-1163065.93
 10
-596652.9
 20
-1163038.14
 10
-596655.37
 20
-1163005.74
 10
-596689.11
 20
-1162996.91
 97
0
 75
0
 76
1
 98
0
  0
HATCH
  5
20037
100
AcDbEntity
  8
vodní toky
100
AcDbHatch
 10
0
 20
0
 30
0
210
0
220
0
230
1
  2
SOLID
 70
1
 71
0
 91
1
 92
2
 72
0
 73
1
 93
14
 10
-596677.64
 20
-1163311.74
 10
-596674.64
 20
-1163376.76
 10
-596672.8083
 20
-1163456.5334
 10
-596671.485
 20
-1163508.857
 10
-596654.4155
 20
-1163516.3242
 10
-596645.1265
 20
-1163520.3179
 10
-596634.6361
 20
-1163524.2361
 10
-596636.69
 20
-1163472.535
 10
-596637.39
 20
-1163408.66
 10
-596639.34
 20
-1163392.67
 10
-596641.29
 20
-1163367.36
 10
-596640.2162
 20
-1163305.622
 10
-596639.23
 20
-1163262.84
 10
-596677.64
 20
-1163311.74
 97
0
 75
0
 76
1
 98
0
  0
HATCH
  5
20038
100
AcDbEntity
  8
vodní toky
100
AcDbHatch
 10
0
 20
0
 30
0
210
0
220
0
230
1
  2
SOLID
 70
1
 71
0
 91
1
 92
2
 72
0
 73
1
 93
27
 10
-593785.2
 20
-1168985.25
 10
-593785.95
 20
-1168998.28
 10
-593798.64
 20
-1169012.2
 10
-593818.97
 20
-1169033.25
 10
-593841.97
 20
-1169046.9
 10
-593889.63
 20
-1169068.91
 10
-593900.92
 20
-1169073.9
 10
-593908.07
 20
-1169073.48
 10
-593951.09
 20
-1169062.92
 10
-594018.35
 20
-1169046.425
 10
-594091.86
 20
-1169028.53
 10
-594130.63
 20
-1169019.08
 10
-594169.4
 20
-1169009.63
 10
-594168.45
 20
-1169014.11
 10
-594130.63
 20
-1169023.365
 10
-594092.81
 20
-1169032.62
 10
-593991.605
 20
-1169057.57
 10
-593908.19
 20
-1169078.38
 10
-593899.61
 20
-1169077.39
 10
-593869.25
 20
-1169065.38
 10
-593840.5
 20
-1169051.32
 10
-593814.76
 20
-1169035.89
 10
-593803.905
 20
-1169024.735
 10
-593793.05
 20
-1169013.58
 10
-593783.54
 20
-1169001.06
 10
-593780.156
 20
-1168982.957
 10
-593785.2
 20
-1168985.25
 97
0
 75
0
 76
1
 98
0
  0
HATCH
  5
20039
100
AcDbEntity
  8
vodní toky
100
AcDbHatch
 10
0
 20
0
 30
0
210
0
220
0
230
1
  2
SOLID
 70
1
 71
0
 91
1
 92
2
 72
0
 73
1
 93
59
 10
-594168.45
 20
-1169014.11
 10
-594169.4
 20
-1169009.63
 10
-594173.99
 20
-1169010.04
 10
-594200.305
 20
-1169014.795
 10
-594227.62
 20
-1169019.47
 10
-594266.91
 20
-1169008.74
 10
-594268.57
 20
-1169008.5
 10
-594275.92
 20
-1169006.34
 10
-594316.34
 20
-1168998.34
 10
-594321.88
 20
-1168987.54
 10
-594341.87
 20
-1168982.38
 10
-594353.355
 20
-1168990.82
 10
-594364.84
 20
-1168999.26
 10
-594392.75
 20
-1168990.15
 10
-594410.38
 20
-1168984.32
 10
-594432.48
 20
-1168975.37
 10
-594457.3
 20
-1168965.07
 10
-594478.76
 20
-1168965.52
 10
-594498.98
 20
-1168966.25
 10
-594509.92
 20
-1168966.58
 10
-594555.52
 20
-1168971.38
 10
-594573.79
 20
-1168975.97
 10
-594592.06
 20
-1168980.56
 10
-594622
 20
-1169000.04
 10
-594647.485
 20
-1169016.705
 10
-594687.79
 20
-1169043.605
 10
-594722.03
 20
-1169067.5
 10
-594750.96
 20
-1169087.27
 10
-594753.62
 20
-1169097.66
 10
-594749.74
 20
-1169098.9
 10
-594746.37
 20
-1169089.52
 10
-594707.72
 20
-1169062.39
 10
-594651.2
 20
-1169023.58
 10
-594602.695
 20
-1168991.04
 10
-594589.56
 20
-1168982.38
 10
-594572.935
 20
-1168978.1
 10
-594556.31
 20
-1168973.82
 10
-594537.99
 20
-1168971.73
 10
-594509.82
 20
-1168968.25
 10
-594483.94
 20
-1168968.45
 10
-594457.96
 20
-1168968.45
 10
-594422.42
 20
-1168982.28
 10
-594403.5
 20
-1168988.98
 10
-594389.315
 20
-1168993.805
 10
-594373.36
 20
-1168999.23
 10
-594364.75
 20
-1169002.09
 10
-594351.985
 20
-1168993.17
 10
-594342.33
 20
-1168986.44
 10
-594332.7
 20
-1168988.25
 10
-594323.07
 20
-1168990.06
 10
-594318.05
 20
-1168999.94
 10
-594291.125
 20
-1169005.31
 10
-594277.23
 20
-1169007.94
 10
-594242.49
 20
-1169017.26
 10
-594227.25
 20
-1169021.51
 10
-594207.975
 20
-1169018.74
 10
-594188.7
 20
-1169015.97
 10
-594174.65
 20
-1169014.2
 10
-594168.45
 20
-1169014.11
 97
0
 75
0
 76
1
 98
0
  0
HATCH
  5
2003A
100
AcDbEntity
  8
vodní toky
100
AcDbHatch
 10
0
 20
0
 30
0
210
0
220
0
230
1
  2
SOLID
 70
1
 71
0
 91
1
 92
2
 72
0
 73
1
 93
41
 10
-594761.82
 20
-1169107.37
 10
-594774.52
 20
-1169109.48
 10
-594784.67
 20
-1169111.16
 10
-594802.17
 20
-1169114.06
 10
-594814.97
 20
-1169113.12
 10
-594831.39
 20
-1169111.91
 10
-594846.49
 20
-1169110.8
 10
-594858.405
 20
-1169110.545
 10
-594874.47
 20
-1169109.94
 10
-594887.665
 20
-1169108.96
 10
-594889.13
 20
-1169108.42
 10
-594897.51
 20
-1169105.31
 10
-594913.25
 20
-1169099.48
 10
-594923.49
 20
-1169095.68
 10
-594927.27
 20
-1169093.32
 10
-594937.26
 20
-1169087.12
 10
-594953.81
 20
-1169076.85
 10
-594959.83
 20
-1169073.11
 10
-594972.68
 20
-1169065.57
 10
-594981.95
 20
-1169062.47
 10
-594985.145
 20
-1169061.405
 10
-594998.22
 20
-1169057.03
 10
-595012.61
 20
-1169052.05
 10
-595053.3
 20
-1169037.8
 10
-595059.4
 20
-1169042.64
 10
-595025.99
 20
-1169054.89
 10
-594975.03
 20
-1169071.56
 10
-594950.56
 20
-1169083.87
 10
-594939.885
 20
-1169089.33
 10
-594924.565
 20
-1169097.165
 10
-594915.72
 20
-1169101.27
 10
-594887.97
 20
-1169112.7
 10
-594866.04
 20
-1169113.46
 10
-594844.88
 20
-1169114.19
 10
-594824.125
 20
-1169115.74
 10
-594801.08
 20
-1169117.26
 10
-594795.56
 20
-1169116.48
 10
-594777.49
 20
-1169113.92
 10
-594761.62
 20
-1169111.68
 10
-594757.69
 20
-1169108.61
 10
-594761.82
 20
-1169107.37
 97
0
 75
0
 76
1
 98
0
  0
HATCH
  5
2003B
100
AcDbEntity
  8
vodní toky
100
AcDbHatch
 10
0
 20
0
 30
0
210
0
220
0
230
1
  2
SOLID
 70
1
 71
0
 91
1
 92
2
 72
0
 73
1
 93
67
 10
-595071.597
 20
-1169031.468
 10
-595078.64
 20
-1169028.61
 10
-595090.01
 20
-1169024
 10
-595097.09
 20
-1169021.31
 10
-595111.325
 20
-1169016.115
 10
-595125.53
 20
-1169011.24
 10
-595146.5
 20
-1169004.245
 10
-595160.02
 20
-1168999.76
 10
-595175.49
 20
-1168997.14
 10
-595191.895
 20
-1168994.505
 10
-595207.37
 20
-1168994.62
 10
-595222.5
 20
-1168995.02
 10
-595228.8
 20
-1168995.185
 10
-595238.985
 20
-1168995.77
 10
-595253.08
 20
-1168997.42
 10
-595277.6
 20
-1169000.91
 10
-595304.23
 20
-1168998.52
 10
-595317.54
 20
-1168997.29
 10
-595329.3
 20
-1168998.9
 10
-595338.27
 20
-1169000.75
 10
-595358.91
 20
-1169005.125
 10
-595376.47
 20
-1169008.76
 10
-595392.665
 20
-1169011.945
 10
-595407.39
 20
-1169014.95
 10
-595420.74
 20
-1169016.425
 10
-595451.38
 20
-1169020.125
 10
-595484.36
 20
-1169024.25
 10
-595491.01
 20
-1169024.965
 10
-595506.88
 20
-1169026.72
 10
-595521.865
 20
-1169028.19
 10
-595548.41
 20
-1169030.57
 10
-595569.28
 20
-1169032.42
 10
-595557.83
 20
-1169033.84
 10
-595528.18
 20
-1169032.17
 10
-595520.815
 20
-1169031.57
 10
-595512.03
 20
-1169030.85
 10
-595507.695
 20
-1169030.21
 10
-595503.36
 20
-1169029.57
 10
-595500.845
 20
-1169029.19
 10
-595498.33
 20
-1169028.81
 10
-595493.39
 20
-1169028.385
 10
-595488.45
 20
-1169027.96
 10
-595485.5
 20
-1169028.15
 10
-595479.03
 20
-1169028.62
 10
-595405.04
 20
-1169021.11
 10
-595392.55
 20
-1169018.935
 10
-595369.35
 20
-1169015.13
 10
-595351.41
 20
-1169012.32
 10
-595319.54
 20
-1169007.12
 10
-595289.022
 20
-1169006.9463
 10
-595270.78
 20
-1169007.46
 10
-595252.245
 20
-1169006.01
 10
-595237.31
 20
-1169004.715
 10
-595212.3
 20
-1169002.91
 10
-595203.94
 20
-1169002.26
 10
-595194.835
 20
-1169001.745
 10
-595178.92
 20
-1169004.66
 10
-595163.24
 20
-1169007.88
 10
-595149.555
 20
-1169012.55
 10
-595135.87
 20
-1169017.22
 10
-595128.05
 20
-1169019.89
 10
-595120.72
 20
-1169022.39
 10
-595106.67
 20
-1169027.18
 10
-595092.66
 20
-1169031.78
 10
-595081.24
 20
-1169035.17
 10
-595078.98
 20
-1169035.57
 10
-595071.597
 20
-1169031.468
 97
0
 75
0
 76
1
 98
0
  0
HATCH
  5
2003C
100
AcDbEntity
  8
vodní toky
100
AcDbHatch
 10
0
 20
0
 30
0
210
0
220
0
230
1
  2
SOLID
 70
1
 71
0
 91
1
 92
2
 72
0
 73
1
 93
18
 10
-595610.33
 20
-1169035.69
 10
-595626.37
 20
-1169037.1
 10
-595642.93
 20
-1169038.53
 10
-595667.625
 20
-1169040.695
 10
-595691.84
 20
-1169042.84
 10
-595707.75
 20
-1169044.07
 10
-595728.48
 20
-1169045.6
 10
-595729.44
 20
-1169051.69
 10
-595718.02
 20
-1169050.63
 10
-595708.57
 20
-1169049.75
 10
-595692.45
 20
-1169048.26
 10
-595676.67
 20
-1169046.795
 10
-595660.89
 20
-1169045.33
 10
-595643.5
 20
-1169043.72
 10
-595626.54
 20
-1169042.15
 10
-595597.63
 20
-1169038.35
 10
-595605.25
 20
-1169037.23
 10
-595610.33
 20
-1169035.69
 97
0
 75
0
 76
1
 98
0
  0
HATCH
  5
2003D
100
AcDbEntity
  8
vodní toky
100
AcDbHatch
 10
0
 20
0
 30
0
210
0
220
0
230
1
  2
SOLID
 70
1
 71
0
 91
1
 92
2
 72
0
 73
1
 93
34
 10
-595742.95
 20
-1169053.31
 10
-595741.9
 20
-1169047.11
 10
-595757.6
 20
-1169050.17
 10
-595768.17
 20
-1169052.23
 10
-595799.145
 20
-1169058.22
 10
-595830.12
 20
-1169064.21
 10
-595844.86
 20
-1169069.27
 10
-595870.188
 20
-1169081.822
 10
-595901.83
 20
-1169096.175
 10
-595911.43
 20
-1169100.71
 10
-595919.15
 20
-1169104.61
 10
-595930.18
 20
-1169110.25
 10
-595943.47
 20
-1169117.045
 10
-595950.98
 20
-1169120.89
 10
-596001.66
 20
-1169145.91
 10
-596053.79
 20
-1169171.465
 10
-596087.85
 20
-1169188.01
 10
-596124.06
 20
-1169205.42
 10
-596122.16
 20
-1169210.61
 10
-596064.64
 20
-1169182.74
 10
-596023.53
 20
-1169163.07
 10
-595982.7
 20
-1169143.24
 10
-595950.975
 20
-1169127.83
 10
-595923.905
 20
-1169114.63
 10
-595896.93
 20
-1169101.44
 10
-595869.4
 20
-1169087.294
 10
-595843.725
 20
-1169075.525
 10
-595836.295
 20
-1169072.46
 10
-595828.73
 20
-1169069.955
 10
-595804.17
 20
-1169065.015
 10
-595777.83
 20
-1169059.98
 10
-595768.41
 20
-1169058.18
 10
-595750.465
 20
-1169054.745
 10
-595742.95
 20
-1169053.31
 97
0
 75
0
 76
1
 98
0
  0
HATCH
  5
2003E
100
AcDbEntity
  8
vodní toky
100
AcDbHatch
 10
0
 20
0
 30
0
210
0
220
0
230
1
  2
SOLID
 70
1
 71
0
 91
1
 92
2
 72
0
 73
1
 93
13
 10
-596122.16
 20
-1169210.61
 10
-596124.06
 20
-1169205.42
 10
-596161.845
 20
-1169221.745
 10
-596199.01
 20
-1169239.79
 10
-596232.93
 20
-1169255.95
 10
-596268.465
 20
-1169272.31
 10
-596290.66
 20
-1169283.38
 10
-596288.01
 20
-1169292.57
 10
-596283.94
 20
-1169289.16
 10
-596248.98
 20
-1169272.3
 10
-596193.35
 20
-1169246.7
 10
-596157.3
 20
-1169228.66
 10
-596122.16
 20
-1169210.61
 97
0
 75
0
 76
1
 98
0
  0
HATCH
  5
2003F
100
AcDbEntity
  8
vodní toky
100
AcDbHatch
 10
0
 20
0
 30
0
210
0
220
0
230
1
  2
SOLID
 70
1
 71
0
 91
1
 92
2
 72
0
 73
1
 93
33
 10
-596323.18
 20
-1169301.64
 10
-596325.78
 20
-1169292.27
 10
-596331.26
 20
-1169295.73
 10
-596341.0285
 20
-1169297.9145
 10
-596358.3365
 20
-1169301.811
 10
-596365.879
 20
-1169303.522
 10
-596442.37
 20
-1169312.77
 10
-596478.197
 20
-1169313.0585
 10
-596513.45
 20
-1169313.34
 10
-596554.58
 20
-1169305.58
 10
-596583.815
 20
-1169303.925
 10
-596613.05
 20
-1169302.27
 10
-596640.82
 20
-1169300.33
 10
-596686.82
 20
-1169291.125
 10
-596735.49
 20
-1169281.47
 10
-596736.55
 20
-1169286.95
 10
-596706.69
 20
-1169293.33
 10
-596690.665
 20
-1169296.59
 10
-596674.64
 20
-1169299.85
 10
-596658.015
 20
-1169303.455
 10
-596641.39
 20
-1169307.06
 10
-596604.54
 20
-1169309.46
 10
-596588.85
 20
-1169310.375
 10
-596554.69
 20
-1169312.54
 10
-596534.035
 20
-1169316.08
 10
-596513.38
 20
-1169319.62
 10
-596477.36
 20
-1169319.165
 10
-596441.34
 20
-1169318.71
 10
-596423.485
 20
-1169316.77
 10
-596362.8
 20
-1169309.8
 10
-596346.455
 20
-1169306.66
 10
-596330.11
 20
-1169303.52
 10
-596323.18
 20
-1169301.64
 97
0
 75
0
 76
1
 98
0
  0
HATCH
  5
20040
100
AcDbEntity
  8
vodní toky
100
AcDbHatch
 10
0
 20
0
 30
0
210
0
220
0
230
1
  2
SOLID
 70
1
 71
0
 91
1
 92
2
 72
0
 73
1
 93
34
 10
-596345.645
 20
-1166748.51
 10
-596348.53
 20
-1166738.56
 10
-596355.09
 20
-1166738.54
 10
-596386.25
 20
-1166755.68
 10
-596414.865
 20
-1166771.295
 10
-596449.51
 20
-1166790.31
 10
-596450.29
 20
-1166802.07
 10
-596452.27
 20
-1166803.3
 10
-596452.11
 20
-1166805.44
 10
-596453.12
 20
-1166807.37
 10
-596455.24
 20
-1166814.16
 10
-596457.265
 20
-1166827.99
 10
-596459.29
 20
-1166841.82
 10
-596464.15
 20
-1166874.63
 10
-596469.01
 20
-1166907.44
 10
-596475.71
 20
-1166953.75
 10
-596484.165
 20
-1167011.285
 10
-596485.92
 20
-1167022.51
 10
-596487.05
 20
-1167030.92
 10
-596488.47
 20
-1167038.73
 10
-596488.47
 20
-1167039.93
 10
-596495.235
 20
-1167085.07
 10
-596504.01
 20
-1167143.64
 10
-596501.14
 20
-1167149.23
 10
-596496.11
 20
-1167129.09
 10
-596477.28
 20
-1166999.81
 10
-596472.51
 20
-1166964.33
 10
-596453.94
 20
-1166846.34
 10
-596447.6
 20
-1166808.32
 10
-596436.79
 20
-1166792.98
 10
-596413.8507
 20
-1166782.6201
 10
-596371.32
 20
-1166760.12
 10
-596355.78
 20
-1166752.39
 10
-596345.645
 20
-1166748.51
 97
0
 75
0
 76
1
 98
0
  0
HATCH
  5
20041
100
AcDbEntity
  8
vodní toky
100
AcDbHatch
 10
0
 20
0
 30
0
210
0
220
0
230
1
  2
SOLID
 70
1
 71
0
 91
1
 92
2
 72
0
 73
1
 93
27
 10
-596496.11
 20
-1167129.09
 10
-596501.14
 20
-1167149.23
 10
-596499.46
 20
-1167152.49
 10
-596493.115
 20
-1167164.825
 10
-596486.77
 20
-1167177.16
 10
-596465.26
 20
-1167218.85
 10
-596458.28
 20
-1167232.35
 10
-596450.86
 20
-1167246.7
 10
-596443.44
 20
-1167261.05
 10
-596440.72
 20
-1167266.31
 10
-596438.66
 20
-1167269.51
 10
-596433.015
 20
-1167281.23
 10
-596414.04
 20
-1167318.14
 10
-596395.4396
 20
-1167353.092
 10
-596386.4688
 20
-1167352.9576
 10
-596393.13
 20
-1167339.98
 10
-596403.56
 20
-1167319.66
 10
-596413.99
 20
-1167299.34
 10
-596425.155
 20
-1167277.6
 10
-596437.465
 20
-1167253.995
 10
-596454.66
 20
-1167221.02
 10
-596469.6
 20
-1167192.37
 10
-596476.17
 20
-1167179.76
 10
-596487.99
 20
-1167156.63
 10
-596493.24
 20
-1167146.11
 10
-596494.98
 20
-1167140.98
 10
-596496.11
 20
-1167129.09
 97
0
 75
0
 76
1
 98
0
  0
HATCH
  5
20042
100
AcDbEntity
  8
vodní toky
100
AcDbHatch
 10
0
 20
0
 30
0
210
0
220
0
230
1
  2
SOLID
 70
1
 71
0
 91
1
 92
2
 72
0
 73
1
 93
50
 10
-596416.73
 20
-1167373.92
 10
-596417.39
 20
-1167384.96
 10
-596414.48
 20
-1167390.63
 10
-596407.535
 20
-1167400.255
 10
-596400.59
 20
-1167409.88
 10
-596396.38
 20
-1167416.61
 10
-596389.87
 20
-1167427.945
 10
-596387.57
 20
-1167432.55
 10
-596385.165
 20
-1167439.155
 10
-596378.78
 20
-1167457.8
 10
-596374.8
 20
-1167469.84
 10
-596373.55
 20
-1167475.22
 10
-596373.82
 20
-1167484.09
 10
-596375.47
 20
-1167488.69
 10
-596381.58
 20
-1167508.13
 10
-596378.72
 20
-1167537.79
 10
-596375.91
 20
-1167556.58
 10
-596367.57
 20
-1167610.48
 10
-596363.08
 20
-1167638.97
 10
-596362.71
 20
-1167653.89
 10
-596362.22
 20
-1167676.74
 10
-596362.1
 20
-1167684.67
 10
-596362.75
 20
-1167692.26
 10
-596362.71
 20
-1167697.84
 10
-596374.94
 20
-1167756.98
 10
-596378.13
 20
-1167773.62
 10
-596382.41
 20
-1167795.3
 10
-596369.055
 20
-1167797.27
 10
-596355.7
 20
-1167799.24
 10
-596353.46
 20
-1167790.9
 10
-596352.28
 20
-1167779.91
 10
-596343.665
 20
-1167757.635
 10
-596337.1111
 20
-1167740.9357
 10
-596335.13
 20
-1167703.96
 10
-596335.2687
 20
-1167675.7516
 10
-596335.17
 20
-1167654
 10
-596341.84
 20
-1167609.04
 10
-596345.125
 20
-1167592.16
 10
-596353.1423
 20
-1167556.1556
 10
-596357.4
 20
-1167536.92
 10
-596362.48
 20
-1167515.38
 10
-596362.505
 20
-1167512.12
 10
-596362.53
 20
-1167508.86
 10
-596356.7565
 20
-1167493.2423
 10
-596355.75
 20
-1167469.75
 10
-596365.5922
 20
-1167450.9757
 10
-596389.68
 20
-1167400.56
 10
-596406.96
 20
-1167376.07
 10
-596412.73
 20
-1167374.44
 10
-596416.73
 20
-1167373.92
 97
0
 75
0
 76
1
 98
0
  0
HATCH
  5
20043
100
AcDbEntity
  8
vodní toky
100
AcDbHatch
 10
0
 20
0
 30
0
210
0
220
0
230
1
  2
SOLID
 70
1
 71
0
 91
1
 92
2
 72
0
 73
1
 93
15
 10
-596346.29
 20
-1167975.16
 10
-596363.4
 20
-1167999.86
 10
-596395.995
 20
-1168045.045
 10
-596428.59
 20
-1168090.23
 10
-596460.17
 20
-1168134.35
 10
-596517.56
 20
-1168213.59
 10
-596529.25
 20
-1168228.87
 10
-596522.25
 20
-1168237.35
 10
-596515.905
 20
-1168227.63
 10
-596502.38
 20
-1168208.14
 10
-596453.8
 20
-1168140.39
 10
-596421.17
 20
-1168095.14
 10
-596386.425
 20
-1168047.54
 10
-596337.59
 20
-1167980.63
 10
-596346.29
 20
-1167975.16
 97
0
 75
0
 76
1
 98
0
  0
HATCH
  5
20044
100
AcDbEntity
  8
vodní toky
100
AcDbHatch
 10
0
 20
0
 30
0
210
0
220
0
230
1
  2
SOLID
 70
1
 71
0
 91
1
 92
2
 72
0
 73
1
 93
14
 10
-596526.92
 20
-1168231.68
 10
-596527.67
 20
-1168232.43
 10
-596532.505
 20
-1168235.705
 10
-596537.34
 20
-1168238.98
 10
-596544.925
 20
-1168241.79
 10
-596552.51
 20
-1168244.6
 10
-596558.09
 20
-1168245.96
 10
-596557.72
 20
-1168247.555
 10
-596557.14
 20
-1168250.04
 10
-596546.88
 20
-1168246.98
 10
-596536.54
 20
-1168243.17
 10
-596531.365
 20
-1168239.17
 10
-596525.75
 20
-1168233.11
 10
-596526.92
 20
-1168231.68
 97
0
 75
0
 76
1
 98
0
  0
HATCH
  5
20045
100
AcDbEntity
  8
vodní toky
100
AcDbHatch
 10
0
 20
0
 30
0
210
0
220
0
230
1
  2
SOLID
 70
1
 71
0
 91
1
 92
2
 72
0
 73
1
 93
31
 10
-596584.76
 20
-1168252.59
 10
-596604.98
 20
-1168265.25
 10
-596605.09
 20
-1168285.59
 10
-596574.725
 20
-1168412.83
 10
-596568.97
 20
-1168437.36
 10
-596568.695
 20
-1168462.0399
 10
-596592.52
 20
-1168576.045
 10
-596634.05
 20
-1168774.77
 10
-596651.76
 20
-1168858.32
 10
-596672.01
 20
-1168955.94
 10
-596701.57
 20
-1169096.75
 10
-596730.115
 20
-1169233.045
 10
-596738.48
 20
-1169273.21
 10
-596733.64
 20
-1169271.87
 10
-596712.2478
 20
-1169170.3978
 10
-596704.975
 20
-1169135.9
 10
-596676.31
 20
-1168999.93
 10
-596646.345
 20
-1168859.955
 10
-596607.54
 20
-1168678.91
 10
-596591.48
 20
-1168605.14
 10
-596581.92
 20
-1168556.26
 10
-596570.23
 20
-1168499.88
 10
-596562.2495
 20
-1168456.277
 10
-596563.91
 20
-1168437.8
 10
-596582.49
 20
-1168361.41
 10
-596601.07
 20
-1168285.02
 10
-596601.015
 20
-1168276.25
 10
-596600.96
 20
-1168267.48
 10
-596592.38
 20
-1168262.095
 10
-596583.8678
 20
-1168256.879
 10
-596584.76
 20
-1168252.59
 97
0
 75
0
 76
1
 98
0
  0
HATCH
  5
20046
100
AcDbEntity
  8
vodní toky
100
AcDbHatch
 10
0
 20
0
 30
0
210
0
220
0
230
1
  2
SOLID
 70
1
 71
0
 91
1
 92
2
 72
0
 73
1
 93
8
 10
-596738.18
 20
-1169280.95
 10
-596761.025
 20
-1169380.755
 10
-596780.949
 20
-1169476.0225
 10
-596776.32
 20
-1169476.79
 10
-596761.06
 20
-1169405.855
 10
-596745.8
 20
-1169334.92
 10
-596735.49
 20
-1169281.47
 10
-596738.18
 20
-1169280.95
 97
0
 75
0
 76
1
 98
0
  0
HATCH
  5
20047
100
AcDbEntity
  8
vodní toky
100
AcDbHatch
 10
0
 20
0
 30
0
210
0
220
0
230
1
  2
SOLID
 70
1
 71
0
 91
1
 92
2
 72
0
 73
1
 93
54
 10
-596312.81
 20
-1167946.66
 10
-596284.855
 20
-1167938.105
 10
-596227.695
 20
-1167922.375
 10
-596190.44
 20
-1167912.27
 10
-596150.01
 20
-1167890.07
 10
-596112.99
 20
-1167869.7
 10
-596037.285
 20
-1167827.345
 10
-596001.43
 20
-1167805.16
 10
-595961.21
 20
-1167755.37
 10
-595932.43
 20
-1167718.54
 10
-595918.675
 20
-1167709.115
 10
-595903.72
 20
-1167700.975
 10
-595880.85
 20
-1167690.07
 10
-595842.48
 20
-1167670.215
 10
-595795.64
 20
-1167645.81
 10
-595781.75
 20
-1167638.48
 10
-595744.53
 20
-1167618.28
 10
-595706.43
 20
-1167597.6
 10
-595644.85
 20
-1167566.69
 10
-595637.32
 20
-1167563.665
 10
-595629.79
 20
-1167560.64
 10
-595611.69
 20
-1167558.91
 10
-595597.745
 20
-1167558.695
 10
-595588.76
 20
-1167558.85
 10
-595570.57
 20
-1167561.89
 10
-595569.17
 20
-1167558.58
 10
-595568.86
 20
-1167557.7879
 10
-595574.25
 20
-1167556.42
 10
-595587.48
 20
-1167552.33
 10
-595603.28
 20
-1167551.5
 10
-595631.2
 20
-1167554.18
 10
-595649.315
 20
-1167562.68
 10
-595664.79
 20
-1167568.31
 10
-595672.07
 20
-1167572.355
 10
-595695.05
 20
-1167585.38
 10
-595740.94
 20
-1167608.475
 10
-595798.23
 20
-1167636.26
 10
-595688.17
 20
-1167568.43
 10
-595843.76
 20
-1167662.105
 10
-595920.35
 20
-1167703.5
 10
-595928.4
 20
-1167707.86
 10
-595941.59
 20
-1167719.76
 10
-595970.9
 20
-1167757.75
 10
-595984.37
 20
-1167775.13
 10
-595998.905
 20
-1167793.635
 10
-596005.88
 20
-1167800.3
 10
-596011.88
 20
-1167804.47
 10
-596043.51
 20
-1167822.22
 10
-596104.36
 20
-1167855.865
 10
-596165.21
 20
-1167889.51
 10
-596193.41
 20
-1167904.3
 10
-596241.61
 20
-1167917.915
 10
-596310.15
 20
-1167936.63
 10
-596312.81
 20
-1167946.66
 97
0
 75
0
 76
1
 98
0
  0
HATCH
  5
20048
100
AcDbEntity
  8
vodní toky
100
AcDbHatch
 10
0
 20
0
 30
0
210
0
220
0
230
1
  2
SOLID
 70
1
 71
0
 91
1
 92
2
 72
0
 73
1
 93
22
 10
-595562.4
 20
-1167564.22
 10
-595552.17
 20
-1167565.96
 10
-595550.905
 20
-1167566.01
 10
-595545.69
 20
-1167565.8
 10
-595540.57
 20
-1167564.53
 10
-595537.46
 20
-1167563.37
 10
-595534.09
 20
-1167561.15
 10
-595530.69
 20
-1167558.15
 10
-595516
 20
-1167545.19
 10
-595497.99
 20
-1167529.51
 10
-595499.92
 20
-1167527.43
 10
-595506.46
 20
-1167533.17
 10
-595515.32
 20
-1167541.09
 10
-595523.16
 20
-1167548.085
 10
-595532.68
 20
-1167556.55
 10
-595537.46
 20
-1167559.93
 10
-595545.96
 20
-1167562.81
 10
-595548.22
 20
-1167562.87
 10
-595553.22
 20
-1167562.94
 10
-595560.39
 20
-1167561.51
 10
-595561.28
 20
-1167560.43
 10
-595562.4
 20
-1167564.22
 97
0
 75
0
 76
1
 98
0
  0
HATCH
  5
20049
100
AcDbEntity
  8
vodní toky
100
AcDbHatch
 10
0
 20
0
 30
0
210
0
220
0
230
1
  2
SOLID
 70
1
 71
0
 91
1
 92
2
 72
0
 73
1
 93
21
 10
-595499.92
 20
-1167527.43
 10
-595497.99
 20
-1167529.51
 10
-595482.42
 20
-1167527.25
 10
-595464.295
 20
-1167530.235
 10
-595460.67
 20
-1167530.74
 10
-595449.35
 20
-1167531.16
 10
-595440.8998
 20
-1167530.6141
 10
-595429.3
 20
-1167529.7885
 10
-595429.7647
 20
-1167527.8991
 10
-595434.665
 20
-1167528.13
 10
-595437.11
 20
-1167528.12
 10
-595439.78
 20
-1167528.29
 10
-595449.37
 20
-1167529.2
 10
-595452.675
 20
-1167528.97
 10
-595463.5936
 20
-1167528.283
 10
-595464.61
 20
-1167527.99
 10
-595469.64
 20
-1167526.54
 10
-595474.645
 20
-1167525.55
 10
-595480.26
 20
-1167524.2
 10
-595487.565
 20
-1167525.425
 10
-595499.92
 20
-1167527.43
 97
0
 75
0
 76
1
 98
0
  0
HATCH
  5
2004A
100
AcDbEntity
  8
vodní toky
100
AcDbHatch
 10
0
 20
0
 30
0
210
0
220
0
230
1
  2
SOLID
 70
1
 71
0
 91
1
 92
2
 72
0
 73
1
 93
85
 10
-595228.3611
 20
-1167480.722
 10
-595211.76
 20
-1167481.92
 10
-595201.63
 20
-1167480.75
 10
-595196.725
 20
-1167475.42
 10
-595190.88
 20
-1167474.32
 10
-595183.53
 20
-1167477.34
 10
-595174.17
 20
-1167476.02
 10
-595169.16
 20
-1167479.45
 10
-595164.37
 20
-1167485.89
 10
-595156.59
 20
-1167487.5
 10
-595153.19
 20
-1167482.65
 10
-595146.09
 20
-1167477.92
 10
-595141.8
 20
-1167466.47
 10
-595133.465
 20
-1167456.69
 10
-595126.18
 20
-1167448.36
 10
-595119.48
 20
-1167441.66
 10
-595112.1
 20
-1167440.29
 10
-595110.09
 20
-1167432.47
 10
-595102.61
 20
-1167429.24
 10
-595094.05
 20
-1167420.64
 10
-595075.235
 20
-1167411.5
 10
-595056.42
 20
-1167402.36
 10
-595053.79
 20
-1167398.22
 10
-595046.79
 20
-1167397.49
 10
-595029.63
 20
-1167388.85
 10
-595007.69
 20
-1167384.81
 10
-594995.805
 20
-1167368.255
 10
-594989.65
 20
-1167360.74
 10
-594975.295
 20
-1167349.475
 10
-594960.94
 20
-1167338.21
 10
-594955.07
 20
-1167334.34
 10
-594950.615
 20
-1167336.035
 10
-594941.59
 20
-1167339.28
 10
-594934.84
 20
-1167333.89
 10
-594929.035
 20
-1167316.63
 10
-594923.23
 20
-1167299.37
 10
-594910.8
 20
-1167277.36
 10
-594903.94
 20
-1167266.77
 10
-594902.86
 20
-1167254.17
 10
-594894.278
 20
-1167242.887
 10
-594867.29
 20
-1167226.96
 10
-594868.76
 20
-1167225.49
 10
-594895.04
 20
-1167239.25
 10
-594905.34
 20
-1167252.16
 10
-594910.08
 20
-1167269.08
 10
-594917.76
 20
-1167283.745
 10
-594925.44
 20
-1167298.41
 10
-594930.85
 20
-1167315.34
 10
-594936.26
 20
-1167332.27
 10
-594941.99
 20
-1167337.08
 10
-594955.28
 20
-1167332.2
 10
-594962.09
 20
-1167334.67
 10
-594970.5
 20
-1167340.69
 10
-594977.04
 20
-1167345.52
 10
-594992.99
 20
-1167360.46
 10
-595000.04
 20
-1167369.29
 10
-595004.555
 20
-1167375.82
 10
-595009.07
 20
-1167382.35
 10
-595030.1
 20
-1167386.21
 10
-595038.53
 20
-1167390.425
 10
-595046.96
 20
-1167394.64
 10
-595055.13
 20
-1167395.6
 10
-595058.75
 20
-1167401.06
 10
-595076.665
 20
-1167409.525
 10
-595094.58
 20
-1167417.99
 10
-595103.68
 20
-1167427.21
 10
-595112.09
 20
-1167430.39
 10
-595114.04
 20
-1167438.64
 10
-595120.24
 20
-1167439.61
 10
-595126.5
 20
-1167445.77
 10
-595136.82
 20
-1167457.72
 10
-595143.3
 20
-1167465.05
 10
-595147.3
 20
-1167476.31
 10
-595154.99
 20
-1167481.73
 10
-595156.83
 20
-1167484.84
 10
-595163.05
 20
-1167483.81
 10
-595168.28
 20
-1167477.75
 10
-595173.78
 20
-1167473.98
 10
-595182.97
 20
-1167475.38
 10
-595190.36
 20
-1167472.37
 10
-595196.52
 20
-1167472.82
 10
-595203.14
 20
-1167478.01
 10
-595212.96
 20
-1167479.53
 10
-595223.2
 20
-1167479.185
 10
-595228.3611
 20
-1167480.722
 97
0
 75
0
 76
1
 98
0
  0
HATCH
  5
2004B
100
AcDbEntity
  8
vodní toky
100
AcDbHatch
 10
0
 20
0
 30
0
210
0
220
0
230
1
  2
SOLID
 70
1
 71
0
 91
1
 92
2
 72
0
 73
1
 93
35
 10
-595268.18
 20
-1167492.58
 10
-595281.43
 20
-1167490.88
 10
-595291.95
 20
-1167484.39
 10
-595305.17
 20
-1167482.25
 10
-595318.2
 20
-1167486.26
 10
-595323.06
 20
-1167488.14
 10
-595327.81
 20
-1167490
 10
-595336.38
 20
-1167494.105
 10
-595345.82
 20
-1167498.72
 10
-595356.66
 20
-1167502.79
 10
-595379.26
 20
-1167510.14
 10
-595387.65
 20
-1167513.17
 10
-595403.62
 20
-1167518.98
 10
-595412.33
 20
-1167522.16
 10
-595419.07
 20
-1167524.59
 10
-595423.43
 20
-1167526.19
 10
-595429.53
 20
-1167527.87
 10
-595429.03
 20
-1167529.78
 10
-595422.69
 20
-1167528.48
 10
-595411.81
 20
-1167524.32
 10
-595403.28
 20
-1167521.21
 10
-595387.045
 20
-1167515.77
 10
-595378.44
 20
-1167512.86
 10
-595361.22
 20
-1167507.19
 10
-595350.53
 20
-1167502.92
 10
-595345.15
 20
-1167500.77
 10
-595323.13
 20
-1167490.81
 10
-595315.6
 20
-1167488.53
 10
-595304.83
 20
-1167487.34
 10
-595293.11
 20
-1167489.58
 10
-595283.5
 20
-1167493.35
 10
-595267.53
 20
-1167496.73
 10
-595250.37
 20
-1167489.84
 10
-595236.6865
 20
-1167483.2013
 10
-595268.18
 20
-1167492.58
 97
0
 75
0
 76
1
 98
0
  0
HATCH
  5
2004C
100
AcDbEntity
  8
vodní toky
100
AcDbHatch
 10
0
 20
0
 30
0
210
0
220
0
230
1
  2
SOLID
 70
1
 71
0
 91
1
 92
2
 72
0
 73
1
 93
4
 10
-595236.6865
 20
-1167483.2013
 10
-595228.3611
 20
-1167480.722
 10
-595231.16
 20
-1167480.52
 10
-595236.6865
 20
-1167483.2013
 97
0
 75
0
 76
1
 98
0
  0
HATCH
  5
2004D
100
AcDbEntity
  8
vodní toky
100
AcDbHatch
 10
0
 20
0
 30
0
210
0
220
0
230
1
  2
SOLID
 70
1
 71
0
 91
1
 92
2
 72
0
 73
1
 93
14
 10
-596349.2596
 20
-1166739.3303
 10
-596345.645
 20
-1166748.51
 10
-596325.835
 20
-1166746.285
 10
-596266.71
 20
-1166752.34
 10
-596156.85
 20
-1166761.49
 10
-596086.97
 20
-1166767.71
 10
-596078.98
 20
-1166767.9
 10
-596079.96
 20
-1166760.81
 10
-596103.83
 20
-1166758.41
 10
-596122.66
 20
-1166757.43
 10
-596151.61
 20
-1166755.52
 10
-596218.135
 20
-1166749.405
 10
-596324.53
 20
-1166738.83
 10
-596349.2596
 20
-1166739.3303
 97
0
 75
0
 76
1
 98
0
  0
HATCH
  5
2004E
100
AcDbEntity
  8
vodní toky
100
AcDbHatch
 10
0
 20
0
 30
0
210
0
220
0
230
1
  2
SOLID
 70
1
 71
0
 91
1
 92
2
 72
0
 73
1
 93
7
 10
-597337.6307
 20
-1164775.1092
 10
-597341.8884
 20
-1164801.4537
 10
-597347.0525
 20
-1164834.7786
 10
-597318.8104
 20
-1164836.3661
 10
-597312.4601
 20
-1164791.1861
 10
-597310.2217
 20
-1164784.9551
 10
-597337.6307
 20
-1164775.1092
 97
0
 75
0
 76
1
 98
0
  0
HATCH
  5
2004F
100
AcDbEntity
  8
vodní toky
100
AcDbHatch
 10
0
 20
0
 30
0
210
0
220
0
230
1
  2
SOLID
 70
1
 71
0
 91
1
 92
2
 72
0
 73
1
 93
68
 10
-598397.35
 20
-1165066.36
 10
-598400.2
 20
-1165069.16
 10
-598387.45
 20
-1165075.54
 10
-598373.7307
 20
-1165084.4407
 10
-598351.53
 20
-1165097.87
 10
-598321.76
 20
-1165126.65
 10
-598298.54
 20
-1165162.78
 10
-598285.52
 20
-1165188.47
 10
-598276.61
 20
-1165199.73
 10
-598260.98
 20
-1165215.69
 10
-598236.64
 20
-1165234.76
 10
-598221.5
 20
-1165246.035
 10
-598205.815
 20
-1165256.06
 10
-598189.39
 20
-1165264.73
 10
-598164.84
 20
-1165274.32
 10
-598123.42
 20
-1165285.75
 10
-598084.98
 20
-1165293.33
 10
-598035.64
 20
-1165316.33
 10
-598006.55
 20
-1165319.46
 10
-597991.48
 20
-1165324.23
 10
-597975.17
 20
-1165331.2
 10
-597944.53
 20
-1165346.65
 10
-597935.28
 20
-1165348.74
 10
-597911.18
 20
-1165350.85
 10
-597880.745
 20
-1165343.27
 10
-597864.9
 20
-1165338.145
 10
-597847.35
 20
-1165335.18
 10
-597826.19
 20
-1165339.615
 10
-597795.42
 20
-1165349.57
 10
-597770.37
 20
-1165357.54
 10
-597754.48
 20
-1165368.15
 10
-597738.77
 20
-1165385.24
 10
-597726.21
 20
-1165401.17
 10
-597712.71
 20
-1165414.65
 10
-597706.24
 20
-1165417.24
 10
-597679.3
 20
-1165424.73
 10
-597678.63
 20
-1165422.17
 10
-597711.07
 20
-1165412.49
 10
-597724.08
 20
-1165399.98
 10
-597752.92
 20
-1165366.1
 10
-597770.23
 20
-1165355.06
 10
-597813
 20
-1165341.01
 10
-597836.77
 20
-1165334.48
 10
-597848.48
 20
-1165333.18
 10
-597868.96
 20
-1165336.79
 10
-597889.58
 20
-1165343.55
 10
-597907.72
 20
-1165347.5
 10
-597913.3674
 20
-1165347.8855
 10
-597930
 20
-1165346.98
 10
-597946.395
 20
-1165342.715
 10
-597971.59
 20
-1165329.195
 10
-597993.68
 20
-1165320.4
 10
-598011.98
 20
-1165316.02
 10
-598036.39
 20
-1165312.88
 10
-598087.24
 20
-1165289.7
 10
-598117.79
 20
-1165283.64
 10
-598163.46
 20
-1165272.7
 10
-598190.01
 20
-1165261.72
 10
-598208.43
 20
-1165251.99
 10
-598231.47
 20
-1165236.28
 10
-598263.8289
 20
-1165208.9782
 10
-598286.07
 20
-1165183.23
 10
-598296.54
 20
-1165161.13
 10
-598320.72
 20
-1165124.29
 10
-598352.64
 20
-1165093.84
 10
-598365.8637
 20
-1165085.1611
 10
-598379.305
 20
-1165077.135
 10
-598397.35
 20
-1165066.36
 97
0
 75
0
 76
1
 98
0
  0
HATCH
  5
20050
100
AcDbEntity
  8
vodní toky
100
AcDbHatch
 10
0
 20
0
 30
0
210
0
220
0
230
1
  2
SOLID
 70
1
 71
0
 91
1
 92
2
 72
0
 73
1
 93
17
 10
-597664.2
 20
-1165428.83
 10
-597659.13
 20
-1165430.1
 10
-597633.62
 20
-1165431.87
 10
-597623.84
 20
-1165430.68
 10
-597578.785
 20
-1165421.355
 10
-597560.19
 20
-1165421.22
 10
-597482.1
 20
-1165419.34
 10
-597481.98
 20
-1165415.42
 10
-597485.13
 20
-1165415.1
 10
-597573.15
 20
-1165418.45
 10
-597583.83
 20
-1165419.34
 10
-597589.61
 20
-1165420.435
 10
-597595.39
 20
-1165421.53
 10
-597628.83
 20
-1165429.12
 10
-597658.3881
 20
-1165427.8337
 10
-597663.64
 20
-1165426.7
 10
-597664.2
 20
-1165428.83
 97
0
 75
0
 76
1
 98
0
  0
HATCH
  5
20051
100
AcDbEntity
  8
vodní toky
100
AcDbHatch
 10
0
 20
0
 30
0
210
0
220
0
230
1
  2
SOLID
 70
1
 71
0
 91
1
 92
2
 72
0
 73
1
 93
20
 10
-597473.62
 20
-1165419.02
 10
-597462.99
 20
-1165418.71
 10
-597451.21
 20
-1165416.14
 10
-597439.54
 20
-1165412.91
 10
-597403.3006
 20
-1165399.9841
 10
-597400.2238
 20
-1165398.9696
 10
-597398.29
 20
-1165398.175
 10
-597375.06
 20
-1165390.79
 10
-597351.83
 20
-1165383.405
 10
-597327.8513
 20
-1165378.97
 10
-597328.29
 20
-1165369.92
 10
-597349.43
 20
-1165377.84
 10
-597373.05
 20
-1165385.88
 10
-597394.3988
 20
-1165393.3684
 10
-597405.9201
 20
-1165397.4977
 10
-597435.9901
 20
-1165408.2749
 10
-597452.69
 20
-1165413.65
 10
-597462.26
 20
-1165415.14
 10
-597473.48
 20
-1165415.44
 10
-597473.62
 20
-1165419.02
 97
0
 75
0
 76
1
 98
0
  0
HATCH
  5
20052
100
AcDbEntity
  8
vodní toky
100
AcDbHatch
 10
0
 20
0
 30
0
210
0
220
0
230
1
  2
SOLID
 70
1
 71
0
 91
1
 92
2
 72
0
 73
1
 93
25
 10
-597351.9338
 20
-1164864.8534
 10
-597363.92
 20
-1164920.54
 10
-597366.1
 20
-1164940.81
 10
-597371.984
 20
-1164962.9049
 10
-597373.87
 20
-1164968.11
 10
-597378.76
 20
-1164992.12
 10
-597383.41
 20
-1165044.04
 10
-597383.4695
 20
-1165043.7126
 10
-597374.44
 20
-1165168.84
 10
-597361.04
 20
-1165220.98
 10
-597330.33
 20
-1165213.57
 10
-597338.6286
 20
-1165185.2449
 10
-597348.68
 20
-1165142.45
 10
-597349.56
 20
-1165135.91
 10
-597354.5
 20
-1165101.58
 10
-597356.4577
 20
-1165071.7508
 10
-597357.69
 20
-1165044.64
 10
-597353.89
 20
-1165015.96
 10
-597345.1481
 20
-1164972.2271
 10
-597342.22
 20
-1164954.1
 10
-597334.23
 20
-1164921.11
 10
-597331.3106
 20
-1164895.0564
 10
-597328.1174
 20
-1164876.429
 10
-597325.5894
 20
-1164866.5831
 10
-597351.9338
 20
-1164864.8534
 97
0
 75
0
 76
1
 98
0
  0
HATCH
  5
20053
100
AcDbEntity
  8
vodní toky
100
AcDbHatch
 10
0
 20
0
 30
0
210
0
220
0
230
1
  2
SOLID
 70
1
 71
0
 91
1
 92
2
 72
0
 73
1
 93
24
 10
-596051.11
 20
-1165526.86
 10
-596058.64
 20
-1165530.71
 10
-596067.65
 20
-1165544.86
 10
-596069.04
 20
-1165562
 10
-596061.8
 20
-1165579.49
 10
-596036.73
 20
-1165609.54
 10
-596021.41
 20
-1165625.74
 10
-596018.39
 20
-1165628.04
 10
-596008.86
 20
-1165644.72
 10
-596004.4
 20
-1165663.29
 10
-596003.64
 20
-1165671.66
 10
-595998.63
 20
-1165672.42
 10
-595992.49
 20
-1165671.66
 10
-595982.34
 20
-1165669.86
 10
-595973.59
 20
-1165653.15
 10
-595976.08
 20
-1165639.41
 10
-595980.295
 20
-1165628.81
 10
-595984.51
 20
-1165618.21
 10
-595996.93
 20
-1165613.8
 10
-596017.13
 20
-1165598.95
 10
-596033.44
 20
-1165582.03
 10
-596037.55
 20
-1165557.52
 10
-596034.3
 20
-1165534.78
 10
-596051.11
 20
-1165526.86
 97
0
 75
0
 76
1
 98
0
  0
HATCH
  5
20054
100
AcDbEntity
  8
vodní toky
100
AcDbHatch
 10
0
 20
0
 30
0
210
0
220
0
230
1
  2
SOLID
 70
1
 71
0
 91
1
 92
2
 72
0
 73
1
 93
39
 10
-597358.76
 20
-1165227.65
 10
-597344.14
 20
-1165284.61
 10
-597334.92
 20
-1165341.24
 10
-597317.01
 20
-1165434.14
 10
-597315.03
 20
-1165453.275
 10
-597302.975
 20
-1165520.01
 10
-597288.91
 20
-1165607.65
 10
-597261.68
 20
-1165709.3
 10
-597240.61
 20
-1165811.4
 10
-597240.46
 20
-1165815.61
 10
-597204.17
 20
-1165947.15
 10
-597196.8
 20
-1165995.81
 10
-597201.515
 20
-1166077.495
 10
-597220.86
 20
-1166136.86
 10
-597277.2246
 20
-1166240.5545
 10
-597289.9977
 20
-1166282.067
 10
-597262.52
 20
-1166306.99
 10
-597167.65
 20
-1166110.67
 10
-597168.695
 20
-1166084.87
 10
-597165
 20
-1166008
 10
-597163.6
 20
-1165966.66
 10
-597186.8679
 20
-1165886.1817
 10
-597188.4783
 20
-1165878.2513
 10
-597202.5819
 20
-1165808.7976
 10
-597222.03
 20
-1165732.58
 10
-597230.91
 20
-1165706.84
 10
-597247.54
 20
-1165637.97
 10
-597255.8031
 20
-1165600.9689
 10
-597263.74
 20
-1165558.78
 10
-597271.395
 20
-1165530.525
 10
-597274.33
 20
-1165517.4
 10
-597288.41
 20
-1165440.82
 10
-597287.88
 20
-1165436.62
 10
-597295.25
 20
-1165347.84
 10
-597305.09
 20
-1165303.4
 10
-597316.41
 20
-1165264.86
 10
-597323.69
 20
-1165232.89
 10
-597327.67
 20
-1165220.04
 10
-597358.76
 20
-1165227.65
 97
0
 75
0
 76
1
 98
0
  0
HATCH
  5
20055
100
AcDbEntity
  8
vodní toky
100
AcDbHatch
 10
0
 20
0
 30
0
210
0
220
0
230
1
  2
SOLID
 70
1
 71
0
 91
1
 92
2
 72
0
 73
1
 93
5
 10
-591506.63
 20
-1159530.51
 10
-591510.4
 20
-1159550.18
 10
-591495.18
 20
-1159553.67
 10
-591491.79
 20
-1159533.4
 10
-591506.63
 20
-1159530.51
 97
0
 75
0
 76
1
 98
0
  0
HATCH
  5
20056
100
AcDbEntity
  8
vodní toky
100
AcDbHatch
 10
0
 20
0
 30
0
210
0
220
0
230
1
  2
SOLID
 70
1
 71
0
 91
1
 92
2
 72
0
 73
1
 93
27
 10
-599164.37
 20
-1164469.83
 10
-599164.42
 20
-1164475.67
 10
-599162.88
 20
-1164476.27
 10
-599155.59
 20
-1164475.96
 10
-599155.35
 20
-1164480.09
 10
-599101.57
 20
-1164477.34
 10
-599088.32
 20
-1164482.92
 10
-599074.24
 20
-1164504.73
 10
-599073.69
 20
-1164537.38
 10
-599073.4
 20
-1164549.95
 10
-599066.82
 20
-1164566.83
 10
-599004.09
 20
-1164596.39
 10
-598910.75
 20
-1164620.28
 10
-598899.54
 20
-1164627.5
 10
-598885.97
 20
-1164625.9
 10
-598905.97
 20
-1164608.57
 10
-598955.4
 20
-1164591.44
 10
-598997.11
 20
-1164577.02
 10
-599027.81
 20
-1164572.31
 10
-599063.7338
 20
-1164555.716
 10
-599067.64
 20
-1164504.36
 10
-599070.29
 20
-1164499.07
 10
-599073.43
 20
-1164498.55
 10
-599075.03
 20
-1164491.36
 10
-599088.23
 20
-1164478.1
 10
-599106.05
 20
-1164469.41
 10
-599164.37
 20
-1164469.83
 97
0
 75
0
 76
1
 98
0
  0
HATCH
  5
20057
100
AcDbEntity
  8
vodní toky
100
AcDbHatch
 10
0
 20
0
 30
0
210
0
220
0
230
1
  2
SOLID
 70
1
 71
0
 91
1
 92
2
 72
0
 73
1
 93
21
 10
-598899.54
 20
-1164627.5
 10
-598897.2171
 20
-1164629.6803
 10
-598886.2545
 20
-1164640.882
 10
-598879.09
 20
-1164654.23
 10
-598846.9489
 20
-1164712.7529
 10
-598844.165
 20
-1164719.945
 10
-598840.2211
 20
-1164720.0284
 10
-598832.5625
 20
-1164726.5496
 10
-598772.4496
 20
-1164777.7348
 10
-598712.3367
 20
-1164828.92
 10
-598699.56
 20
-1164834.63
 10
-598698.43
 20
-1164825.76
 10
-598703.01
 20
-1164823.21
 10
-598709.66
 20
-1164820.86
 10
-598735.66
 20
-1164800.505
 10
-598783.5958
 20
-1164761.6276
 10
-598831.417
 20
-1164721.644
 10
-598843.55
 20
-1164709.82
 10
-598883.28
 20
-1164638.7
 10
-598885.97
 20
-1164625.9
 10
-598899.54
 20
-1164627.5
 97
0
 75
0
 76
1
 98
0
  0
HATCH
  5
20058
100
AcDbEntity
  8
vodní toky
100
AcDbHatch
 10
0
 20
0
 30
0
210
0
220
0
230
1
  2
SOLID
 70
1
 71
0
 91
1
 92
2
 72
0
 73
1
 93
11
 10
-597653.05
 20
-1163081.95
 10
-597648.37
 20
-1163132.68
 10
-597643.69
 20
-1163183.41
 10
-597635.96
 20
-1163225.15
 10
-597628.46
 20
-1163262.36
 10
-597602.97
 20
-1163269.67
 10
-597613.21
 20
-1163228.18
 10
-597616.32
 20
-1163165.68
 10
-597617.57
 20
-1163117.03
 10
-597617.21
 20
-1163081.13
 10
-597653.05
 20
-1163081.95
 97
0
 75
0
 76
1
 98
0
  0
HATCH
  5
20059
100
AcDbEntity
  8
vodní toky
100
AcDbHatch
 10
0
 20
0
 30
0
210
0
220
0
230
1
  2
SOLID
 70
1
 71
0
 91
1
 92
2
 72
0
 73
1
 93
24
 10
-597437.25
 20
-1164046.17
 10
-597439.63
 20
-1164154.48
 10
-597433.4413
 20
-1164207.4072
 10
-597409.6
 20
-1164303.64
 10
-597386.01
 20
-1164356.95
 10
-597367.235
 20
-1164397.605
 10
-597342.345
 20
-1164493.765
 10
-597329.87
 20
-1164548.41
 10
-597328.8
 20
-1164581.32
 10
-597326.86
 20
-1164674.12
 10
-597330.35
 20
-1164711.49
 10
-597337.62
 20
-1164774.84
 10
-597309.33
 20
-1164785.47
 10
-597300.42
 20
-1164690.8
 10
-597302.72
 20
-1164581.43
 10
-597309.88
 20
-1164521.73
 10
-597322.77
 20
-1164461.52
 10
-597341.7717
 20
-1164373.2096
 10
-597378.94
 20
-1164306.67
 10
-597399.65
 20
-1164257.36
 10
-597405.24
 20
-1164197
 10
-597408.47
 20
-1164131.13
 10
-597407.9
 20
-1164048.29
 10
-597437.25
 20
-1164046.17
 97
0
 75
0
 76
1
 98
0
  0
HATCH
  5
2005A
100
AcDbEntity
  8
vodní toky
100
AcDbHatch
 10
0
 20
0
 30
0
210
0
220
0
230
1
  2
SOLID
 70
1
 71
0
 91
1
 92
2
 72
0
 73
1
 93
20
 10
-599698.4917
 20
-1164276.0892
 10
-599699.83
 20
-1164282.688
 10
-599662.765
 20
-1164293.265
 10
-599603.99
 20
-1164306.83
 10
-599551.93
 20
-1164324.08
 10
-599447.9002
 20
-1164349.9102
 10
-599372.5501
 20
-1164370.1501
 10
-599292.78
 20
-1164392.68
 10
-599293.31
 20
-1164395.73
 10
-599287.706
 20
-1164397.394
 10
-599286.17
 20
-1164386.15
 10
-599333.74
 20
-1164372.95
 10
-599405.61
 20
-1164354.28
 10
-599449.27
 20
-1164341.59
 10
-599458.9
 20
-1164340.8
 10
-599508.5006
 20
-1164328.5631
 10
-599572.8574
 20
-1164311.2426
 10
-599624.18
 20
-1164297.43
 10
-599656.3688
 20
-1164288.767
 10
-599698.4917
 20
-1164276.0892
 97
0
 75
0
 76
1
 98
0
  0
HATCH
  5
2005B
100
AcDbEntity
  8
vodní toky
100
AcDbHatch
 10
0
 20
0
 30
0
210
0
220
0
230
1
  2
SOLID
 70
1
 71
0
 91
1
 92
2
 72
0
 73
1
 93
15
 10
-599288.39
 20
-1164420.03
 10
-599282.09
 20
-1164430.47
 10
-599266.12
 20
-1164443.17
 10
-599217.54
 20
-1164462.59
 10
-599215.645
 20
-1164474.715
 10
-599215.15
 20
-1164474.12
 10
-599196.58
 20
-1164476.22
 10
-599196.21
 20
-1164464.24
 10
-599196.62
 20
-1164463.2
 10
-599202.13
 20
-1164460.78
 10
-599214.7
 20
-1164456.65
 10
-599264.76
 20
-1164439.29
 10
-599279.18
 20
-1164429.02
 10
-599282.58
 20
-1164418.87
 10
-599288.39
 20
-1164420.03
 97
0
 75
0
 76
1
 98
0
  0
HATCH
  5
2005C
100
AcDbEntity
  8
vodní toky
100
AcDbHatch
 10
0
 20
0
 30
0
210
0
220
0
230
1
  2
SOLID
 70
1
 71
0
 91
1
 92
2
 72
0
 73
1
 93
8
 10
-598686.02
 20
-1164834.08
 10
-598680.73
 20
-1164832.31
 10
-598660.26
 20
-1164834.64
 10
-598655.71
 20
-1164837.69
 10
-598653.55
 20
-1164834.34
 10
-598680.75
 20
-1164830.88
 10
-598685.36
 20
-1164829.81
 10
-598686.02
 20
-1164834.08
 97
0
 75
0
 76
1
 98
0
  0
HATCH
  5
2005D
100
AcDbEntity
  8
vodní toky
100
AcDbHatch
 10
0
 20
0
 30
0
210
0
220
0
230
1
  2
SOLID
 70
1
 71
0
 91
1
 92
2
 72
0
 73
1
 93
26
 10
-598636.98
 20
-1164850.87
 10
-598634.06
 20
-1164853.87
 10
-598627.18
 20
-1164857.445
 10
-598612.1
 20
-1164866.4
 10
-598605.72
 20
-1164873.72
 10
-598568.4697
 20
-1164962.5806
 10
-598540.77
 20
-1164998.62
 10
-598511.084
 20
-1165014.52
 10
-598497.451
 20
-1165017.796
 10
-598489.672
 20
-1165022.886
 10
-598486.816
 20
-1165025.977
 10
-598472.273
 20
-1165004.84
 10
-598480.681
 20
-1165001.441
 10
-598491.711
 20
-1164995.405
 10
-598505.4
 20
-1164989.71
 10
-598525.99
 20
-1164986.51
 10
-598536.93
 20
-1164979.83
 10
-598550.54
 20
-1164955.43
 10
-598552.3
 20
-1164954.45
 10
-598567.0384
 20
-1164930.5794
 10
-598581.8632
 20
-1164900.0096
 10
-598595.2
 20
-1164870.14
 10
-598605.45
 20
-1164858.35
 10
-598628.31
 20
-1164844.36
 10
-598632.95
 20
-1164843.56
 10
-598636.98
 20
-1164850.87
 97
0
 75
0
 76
1
 98
0
  0
HATCH
  5
2005E
100
AcDbEntity
  8
vodní toky
100
AcDbHatch
 10
0
 20
0
 30
0
210
0
220
0
230
1
  2
SOLID
 70
1
 71
0
 91
1
 92
2
 72
0
 73
1
 93
13
 10
-598486.816
 20
-1165025.977
 10
-598480.3773
 20
-1165031.0482
 10
-598461.5149
 20
-1165039.26
 10
-598456.7724
 20
-1165042.9414
 10
-598429.36
 20
-1165065.81
 10
-598415.5367
 20
-1165066.27
 10
-598403.8867
 20
-1165074.41
 10
-598389.61
 20
-1165058.08
 10
-598400.75
 20
-1165052.28
 10
-598436.89
 20
-1165027.24
 10
-598467.32
 20
-1165007
 10
-598472.273
 20
-1165004.84
 10
-598486.816
 20
-1165025.977
 97
0
 75
0
 76
1
 98
0
  0
HATCH
  5
2005F
100
AcDbEntity
  8
vodní toky
100
AcDbHatch
 10
0
 20
0
 30
0
210
0
220
0
230
1
  2
SOLID
 70
1
 71
0
 91
1
 92
2
 72
0
 73
1
 93
35
 10
-597628.015
 20
-1163272.46
 10
-597625.77
 20
-1163293.06
 10
-597620.21
 20
-1163317.34
 10
-597611.15
 20
-1163349.19
 10
-597602.09
 20
-1163381.04
 10
-597589.76
 20
-1163414.61
 10
-597565.67
 20
-1163464.58
 10
-597536.88
 20
-1163505.71
 10
-597531.9588
 20
-1163516.3158
 10
-597531.77
 20
-1163516.67
 10
-597496.85
 20
-1163569.87
 10
-597465.565
 20
-1163641.275
 10
-597449.71
 20
-1163682.08
 10
-597437.7
 20
-1163735.55
 10
-597436.535
 20
-1163780.515
 10
-597438.03
 20
-1163808.08
 10
-597438.62
 20
-1163863.8
 10
-597439.21
 20
-1163919.52
 10
-597434.78
 20
-1163986.69
 10
-597437.07
 20
-1164030.04
 10
-597408.52
 20
-1164032.03
 10
-597410.845
 20
-1163979.3
 10
-597415.64
 20
-1163934.93
 10
-597410.785
 20
-1163860.01
 10
-597410.19
 20
-1163791.02
 10
-597412.675
 20
-1163746.175
 10
-597421.38
 20
-1163702.41
 10
-597443.84
 20
-1163628.34
 10
-597474.145
 20
-1163571.265
 10
-597503.89
 20
-1163514.92
 10
-597555.56
 20
-1163443.5
 10
-597578.33
 20
-1163384.7
 10
-597604.1
 20
-1163300.12
 10
-597600.33
 20
-1163279.55
 10
-597628.015
 20
-1163272.46
 97
0
 75
0
 76
1
 98
0
  0
HATCH
  5
20060
100
AcDbEntity
  8
vodní toky
100
AcDbHatch
 10
0
 20
0
 30
0
210
0
220
0
230
1
  2
SOLID
 70
1
 71
0
 91
1
 92
2
 72
0
 73
1
 93
7
 10
-597337.6307
 20
-1164775.1092
 10
-597341.8884
 20
-1164801.4537
 10
-597347.0525
 20
-1164834.7786
 10
-597318.8104
 20
-1164836.3661
 10
-597312.4601
 20
-1164791.1861
 10
-597310.2217
 20
-1164784.9551
 10
-597337.6307
 20
-1164775.1092
 97
0
 75
0
 76
1
 98
0
  0
HATCH
  5
20061
100
AcDbEntity
  8
vodní toky
100
AcDbHatch
 10
0
 20
0
 30
0
210
0
220
0
230
1
  2
SOLID
 70
1
 71
0
 91
1
 92
2
 72
0
 73
1
 93
18
 10
-597848.21
 20
-1162665.42
 10
-597867.03
 20
-1162683.19
 10
-597815.525
 20
-1162738.96
 10
-597792.1
 20
-1162763.21
 10
-597761.055
 20
-1162799.13
 10
-597741.13
 20
-1162817.54
 10
-597697.73
 20
-1162886.17
 10
-597675.92
 20
-1162934.03
 10
-597663.63
 20
-1163018.43
 10
-597654.39
 20
-1163071.56
 10
-597618.78
 20
-1163070.81
 10
-597654.1002
 20
-1162914.9499
 10
-597680.42
 20
-1162859.64
 10
-597698.6693
 20
-1162835.1268
 10
-597727.9
 20
-1162796.31
 10
-597777.42
 20
-1162738.81
 10
-597788.99
 20
-1162726.95
 10
-597848.21
 20
-1162665.42
 97
0
 75
0
 76
1
 98
0
  0
HATCH
  5
20062
100
AcDbEntity
  8
vodní toky
100
AcDbHatch
 10
0
 20
0
 30
0
210
0
220
0
230
1
  2
SOLID
 70
1
 71
0
 91
1
 92
2
 72
0
 73
1
 93
44
 10
-596868.2656
 20
-1165739.7128
 10
-596884.9256
 20
-1165762.5128
 10
-596901.07
 20
-1165786.64
 10
-596922.265
 20
-1165837.645
 10
-596953.58
 20
-1165906.26
 10
-596973.76
 20
-1165949.7
 10
-597000.785
 20
-1166007.27
 10
-597011.65
 20
-1166030.05
 10
-597027.94
 20
-1166067.16
 10
-597052.28
 20
-1166122.38
 10
-597080.87
 20
-1166186.38
 10
-597103.375
 20
-1166237.08
 10
-597125.88
 20
-1166287.78
 10
-597132.02
 20
-1166301.83
 10
-597148.535
 20
-1166346.96
 10
-597165.05
 20
-1166392.09
 10
-597177.88
 20
-1166419.86
 10
-597195.57
 20
-1166453.91
 10
-597228.29
 20
-1166521.62
 10
-597197.99
 20
-1166528.91
 10
-597181.505
 20
-1166494.405
 10
-597162.6
 20
-1166455.3
 10
-597143.915
 20
-1166413.965
 10
-597137.79
 20
-1166398.43
 10
-597134.3
 20
-1166392.235
 10
-597124.565
 20
-1166372.495
 10
-597118.32
 20
-1166358.95
 10
-597110.8
 20
-1166339.85
 10
-597090.53
 20
-1166288.94
 10
-597077.66
 20
-1166260.73
 10
-597056.94
 20
-1166213.85
 10
-597045.96
 20
-1166189.04
 10
-597033.435
 20
-1166160.705
 10
-597017.7
 20
-1166125.17
 10
-596989.43
 20
-1166066.43
 10
-596982.965
 20
-1166048.94
 10
-596976.5
 20
-1166031.45
 10
-596961.42
 20
-1165999.155
 10
-596927.54
 20
-1165925.59
 10
-596896.8
 20
-1165858.58
 10
-596883.62
 20
-1165826.47
 10
-596858.71
 20
-1165779.59
 10
-596851.4
 20
-1165751.5
 10
-596868.2656
 20
-1165739.7128
 97
0
 75
0
 76
1
 98
0
  0
HATCH
  5
20063
100
AcDbEntity
  8
vodní toky
100
AcDbHatch
 10
0
 20
0
 30
0
210
0
220
0
230
1
  2
SOLID
 70
1
 71
0
 91
1
 92
2
 72
0
 73
1
 93
5
 10
-594761.38
 20
-1157391.11
 10
-594767.33
 20
-1157392.74
 10
-594766.6984
 20
-1157404.8592
 10
-594762.0935
 20
-1157402.795
 10
-594761.38
 20
-1157391.11
 97
0
 75
0
 76
1
 98
0
  0
HATCH
  5
20064
100
AcDbEntity
  8
vodní toky
100
AcDbHatch
 10
0
 20
0
 30
0
210
0
220
0
230
1
  2
SOLID
 70
1
 71
0
 91
1
 92
2
 72
0
 73
1
 93
59
 10
-596004.37
 20
-1165676.23
 10
-596005.41
 20
-1165686.44
 10
-596003.31
 20
-1165712.54
 10
-596004.72
 20
-1165719.765
 10
-596006.13
 20
-1165726.99
 10
-596005.84
 20
-1165735.43
 10
-596003.6
 20
-1165737.49
 10
-596004.63
 20
-1165738.94
 10
-596007.72
 20
-1165741.08
 10
-596014.6
 20
-1165759.26
 10
-596027.09
 20
-1165783.78
 10
-596036.08
 20
-1165787.62
 10
-596039.54
 20
-1165803.27
 10
-596046.695
 20
-1165818.875
 10
-596053.85
 20
-1165834.48
 10
-596055.11
 20
-1165855.9
 10
-596056.72
 20
-1165880.065
 10
-596057.95
 20
-1165900.37
 10
-596056.48
 20
-1165915.32
 10
-596064.28
 20
-1165935.91
 10
-596072.08
 20
-1165956.5
 10
-596074.1
 20
-1165964.15
 10
-596080.2
 20
-1165974.935
 10
-596086.3
 20
-1165985.72
 10
-596092.815
 20
-1166000.245
 10
-596099.33
 20
-1166014.77
 10
-596094.36
 20
-1166017.755
 10
-596087.035
 20
-1166019.265
 10
-596080.76
 20
-1166020.36
 10
-596073.93
 20
-1166009.96
 10
-596067.1
 20
-1165999.56
 10
-596060.39
 20
-1165987.795
 10
-596052.13
 20
-1165972.265
 10
-596044.92
 20
-1165957.2
 10
-596036.27
 20
-1165938.845
 10
-596032.04
 20
-1165929.87
 10
-596030.44
 20
-1165915.44
 10
-596029
 20
-1165901.19
 10
-596028.07
 20
-1165881.06
 10
-596028.56
 20
-1165872.8
 10
-596029.57
 20
-1165859.99
 10
-596030.14
 20
-1165844.875
 10
-596030.25
 20
-1165838.96
 10
-596026.79
 20
-1165830.31
 10
-596023.33
 20
-1165821.66
 10
-596016.44
 20
-1165805.39
 10
-595998.22
 20
-1165767.28
 10
-595994.94
 20
-1165759.62
 10
-595989.89
 20
-1165747.64
 10
-595990.52
 20
-1165744.395
 10
-595991.15
 20
-1165741.15
 10
-595991.4
 20
-1165738.8
 10
-595988.08
 20
-1165734.68
 10
-595982.585
 20
-1165701.745
 10
-595978.34
 20
-1165679.52
 10
-595982.75
 20
-1165674.27
 10
-595990.475
 20
-1165674.6
 10
-596000.4
 20
-1165675.04
 10
-596004.37
 20
-1165676.23
 97
0
 75
0
 76
1
 98
0
  0
HATCH
  5
20065
100
AcDbEntity
  8
vodní toky
100
AcDbHatch
 10
0
 20
0
 30
0
210
0
220
0
230
1
  2
SOLID
 70
1
 71
0
 91
1
 92
2
 72
0
 73
1
 93
31
 10
-596103.79
 20
-1166018.44
 10
-596112.99
 20
-1166031.445
 10
-596122.19
 20
-1166044.45
 10
-596128.9
 20
-1166055.52
 10
-596135.61
 20
-1166066.59
 10
-596142.165
 20
-1166080.27
 10
-596148.72
 20
-1166093.95
 10
-596155.905
 20
-1166107.285
 10
-596163.09
 20
-1166120.62
 10
-596167.98
 20
-1166136.615
 10
-596172.87
 20
-1166152.61
 10
-596178.865
 20
-1166163.37
 10
-596186.88
 20
-1166177.32
 10
-596174.22
 20
-1166183.82
 10
-596163.2
 20
-1166191.76
 10
-596161.23
 20
-1166189.08
 10
-596157.365
 20
-1166182.325
 10
-596153.5
 20
-1166175.57
 10
-596135.91
 20
-1166136.605
 10
-596118.32
 20
-1166097.64
 10
-596116.21
 20
-1166092.71
 10
-596114.1
 20
-1166087.78
 10
-596108.445
 20
-1166078.295
 10
-596102.79
 20
-1166068.81
 10
-596097.695
 20
-1166059.145
 10
-596092.6
 20
-1166049.48
 10
-596088.605
 20
-1166041.275
 10
-596084.61
 20
-1166033.07
 10
-596087.08
 20
-1166025.05
 10
-596095.565
 20
-1166020.655
 10
-596103.79
 20
-1166018.44
 97
0
 75
0
 76
1
 98
0
  0
HATCH
  5
20066
100
AcDbEntity
  8
vodní toky
100
AcDbHatch
 10
0
 20
0
 30
0
210
0
220
0
230
1
  2
SOLID
 70
1
 71
0
 91
1
 92
2
 72
0
 73
1
 93
27
 10
-596186.88
 20
-1166177.32
 10
-596195.905
 20
-1166192.9
 10
-596204.93
 20
-1166208.48
 10
-596216.66
 20
-1166232.97
 10
-596221.9
 20
-1166244.66
 10
-596227.14
 20
-1166256.35
 10
-596237.06
 20
-1166300.3
 10
-596236.96
 20
-1166309.09
 10
-596236.86
 20
-1166317.88
 10
-596227.405
 20
-1166321.415
 10
-596217.95
 20
-1166324.95
 10
-596208.435
 20
-1166327.445
 10
-596198.92
 20
-1166329.94
 10
-596196.38
 20
-1166325.54
 10
-596195.48
 20
-1166317.24
 10
-596194.58
 20
-1166308.94
 10
-596194.725
 20
-1166294.88
 10
-596194.87
 20
-1166280.82
 10
-596192.3
 20
-1166268.53
 10
-596189.73
 20
-1166256.24
 10
-596184.755
 20
-1166243.405
 10
-596176.005
 20
-1166220.165
 10
-596172.23
 20
-1166209.76
 10
-596167.715
 20
-1166200.76
 10
-596163.2
 20
-1166191.76
 10
-596174.22
 20
-1166183.82
 10
-596186.88
 20
-1166177.32
 97
0
 75
0
 76
1
 98
0
  0
HATCH
  5
20067
100
AcDbEntity
  8
vodní toky
100
AcDbHatch
 10
0
 20
0
 30
0
210
0
220
0
230
1
  2
SOLID
 70
1
 71
0
 91
1
 92
2
 72
0
 73
1
 93
17
 10
-596234.13
 20
-1166327.89
 10
-596235.95
 20
-1166334.53
 10
-596240.675
 20
-1166352.665
 10
-596245.4
 20
-1166370.8
 10
-596256.64
 20
-1166404.94
 10
-596258.605
 20
-1166411.82
 10
-596260.57
 20
-1166418.7
 10
-596253.63
 20
-1166422.565
 10
-596239.89
 20
-1166429.91
 10
-596236.735
 20
-1166423.475
 10
-596233.58
 20
-1166417.04
 10
-596229.365
 20
-1166404.665
 10
-596225.15
 20
-1166392.29
 10
-596220.945
 20
-1166381.855
 10
-596200.16
 20
-1166333.02
 10
-596223.65
 20
-1166326.01
 10
-596234.13
 20
-1166327.89
 97
0
 75
0
 76
1
 98
0
  0
HATCH
  5
20068
100
AcDbEntity
  8
vodní toky
100
AcDbHatch
 10
0
 20
0
 30
0
210
0
220
0
230
1
  2
SOLID
 70
1
 71
0
 91
1
 92
2
 72
0
 73
1
 93
15
 10
-596258.39
 20
-1166423.66
 10
-596270.385
 20
-1166442.75
 10
-596282.38
 20
-1166461.84
 10
-596288.64
 20
-1166490.265
 10
-596294.9
 20
-1166518.69
 10
-596300.915
 20
-1166544.91
 10
-596306.93
 20
-1166571.13
 10
-596303.53
 20
-1166572.82
 10
-596296.535
 20
-1166546.37
 10
-596289.54
 20
-1166519.92
 10
-596283.275
 20
-1166491.47
 10
-596277.01
 20
-1166463.02
 10
-596265.515
 20
-1166444.56
 10
-596254.02
 20
-1166426.1
 10
-596258.39
 20
-1166423.66
 97
0
 75
0
 76
1
 98
0
  0
HATCH
  5
20069
100
AcDbEntity
  8
vodní toky
100
AcDbHatch
 10
0
 20
0
 30
0
210
0
220
0
230
1
  2
SOLID
 70
1
 71
0
 91
1
 92
2
 72
0
 73
1
 93
34
 10
-596199.72
 20
-1166384.79
 10
-596208.455
 20
-1166403.375
 10
-596217.19
 20
-1166421.96
 10
-596228.395
 20
-1166448.175
 10
-596239.6
 20
-1166474.39
 10
-596245.62
 20
-1166489.285
 10
-596251.64
 20
-1166504.18
 10
-596252.68
 20
-1166511.63
 10
-596252.51
 20
-1166515.97
 10
-596252.25
 20
-1166521.95
 10
-596250.78
 20
-1166527.11
 10
-596244.12
 20
-1166540.13
 10
-596232.64
 20
-1166552.07
 10
-596194.42
 20
-1166581.86
 10
-596146.83
 20
-1166618.66
 10
-596138.44
 20
-1166619.79
 10
-596131.35
 20
-1166615.58
 10
-596125.46
 20
-1166607.01
 10
-596117.1
 20
-1166575.6
 10
-596108.04
 20
-1166539.08
 10
-596098.98
 20
-1166502.56
 10
-596093.85
 20
-1166475.92
 10
-596094.315
 20
-1166466.04
 10
-596094.78
 20
-1166456.16
 10
-596097.67
 20
-1166447.6
 10
-596102.05
 20
-1166441.245
 10
-596106.43
 20
-1166434.89
 10
-596130.48
 20
-1166412.31
 10
-596154.53
 20
-1166389.73
 10
-596164.04
 20
-1166381.69
 10
-596171.59
 20
-1166377.39
 10
-596178.24
 20
-1166375.57
 10
-596189.13
 20
-1166376.39
 10
-596199.72
 20
-1166384.79
 97
0
 75
0
 76
1
 98
0
  0
HATCH
  5
2006A
100
AcDbEntity
  8
vodní toky
100
AcDbHatch
 10
0
 20
0
 30
0
210
0
220
0
230
1
  2
SOLID
 70
1
 71
0
 91
1
 92
2
 72
0
 73
1
 93
19
 10
-596174.19
 20
-1166357.79
 10
-596171.2
 20
-1166360.83
 10
-596158.44
 20
-1166370.375
 10
-596145.68
 20
-1166379.92
 10
-596093.02
 20
-1166422.85
 10
-596084.14
 20
-1166438.8
 10
-596072.77
 20
-1166434.22
 10
-596072.05
 20
-1166430.86
 10
-596082.51
 20
-1166412.64
 10
-596094.66
 20
-1166398.24
 10
-596106.81
 20
-1166383.84
 10
-596119.88
 20
-1166374.565
 10
-596132.95
 20
-1166365.29
 10
-596145.97
 20
-1166357.13
 10
-596164.37
 20
-1166346.01
 10
-596166.39
 20
-1166346.86
 10
-596169.77
 20
-1166350.58
 10
-596173.15
 20
-1166354.3
 10
-596174.19
 20
-1166357.79
 97
0
 75
0
 76
1
 98
0
  0
HATCH
  5
2006B
100
AcDbEntity
  8
vodní toky
100
AcDbHatch
 10
0
 20
0
 30
0
210
0
220
0
230
1
  2
SOLID
 70
1
 71
0
 91
1
 92
2
 72
0
 73
1
 93
27
 10
-596084.14
 20
-1166438.8
 10
-596084.82
 20
-1166441.18
 10
-596084.695
 20
-1166447.615
 10
-596084.57
 20
-1166454.05
 10
-596084.955
 20
-1166463.41
 10
-596085.34
 20
-1166472.77
 10
-596085.485
 20
-1166485.03
 10
-596085.63
 20
-1166497.29
 10
-596084.63
 20
-1166505.605
 10
-596083.63
 20
-1166513.92
 10
-596084.945
 20
-1166520.3
 10
-596086.26
 20
-1166526.68
 10
-596079.37
 20
-1166529.125
 10
-596072.48
 20
-1166531.57
 10
-596065.96
 20
-1166530.83
 10
-596063.76
 20
-1166527.38
 10
-596061.3
 20
-1166519.58
 10
-596060.49
 20
-1166511.575
 10
-596059.68
 20
-1166503.57
 10
-596060.31
 20
-1166491.135
 10
-596060.94
 20
-1166478.7
 10
-596063.1
 20
-1166455.45
 10
-596065.675
 20
-1166445.885
 10
-596068.25
 20
-1166436.32
 10
-596070.5
 20
-1166434.43
 10
-596072.77
 20
-1166434.22
 10
-596084.14
 20
-1166438.8
 97
0
 75
0
 76
1
 98
0
  0
HATCH
  5
2006C
100
AcDbEntity
  8
vodní toky
100
AcDbHatch
 10
0
 20
0
 30
0
210
0
220
0
230
1
  2
SOLID
 70
1
 71
0
 91
1
 92
2
 72
0
 73
1
 93
11
 10
-596308.45
 20
-1166575.38
 10
-596314.12
 20
-1166599.555
 10
-596319.79
 20
-1166623.73
 10
-596335.84
 20
-1166681.14
 10
-596351.89
 20
-1166738.55
 10
-596347.51
 20
-1166738.84
 10
-596329.41
 20
-1166675.185
 10
-596311.31
 20
-1166611.53
 10
-596308.13
 20
-1166594.345
 10
-596304.95
 20
-1166577.16
 10
-596308.45
 20
-1166575.38
 97
0
 75
0
 76
1
 98
0
  0
HATCH
  5
2006D
100
AcDbEntity
  8
vodní toky
100
AcDbHatch
 10
0
 20
0
 30
0
210
0
220
0
230
1
  2
SOLID
 70
1
 71
0
 91
1
 92
2
 72
0
 73
1
 93
25
 10
-596077.75
 20
-1166775.29
 10
-595998.99
 20
-1166730.37
 10
-595920.23
 20
-1166685.45
 10
-595906.17
 20
-1166675.5
 10
-595882.8
 20
-1166665.33
 10
-595844.8
 20
-1166640.08
 10
-595841.52
 20
-1166637.71
 10
-595841.27
 20
-1166636.41
 10
-595844.02
 20
-1166631.51
 10
-595854.02
 20
-1166638.22
 10
-595862.605
 20
-1166643.055
 10
-595883.4992
 20
-1166654.5492
 10
-595912.64
 20
-1166670.43
 10
-595939.715
 20
-1166685.185
 10
-595966.79
 20
-1166699.94
 10
-595977.595
 20
-1166703.715
 10
-595988.4
 20
-1166707.49
 10
-595998.75
 20
-1166715.175
 10
-596009.1
 20
-1166722.86
 10
-596035.22
 20
-1166739.11
 10
-596063.95
 20
-1166756.55
 10
-596078.89
 20
-1166760.85
 10
-596078.99
 20
-1166768.32
 10
-596079.7
 20
-1166769.74
 10
-596077.75
 20
-1166775.29
 97
0
 75
0
 76
1
 98
0
  0
HATCH
  5
2006E
100
AcDbEntity
  8
vodní toky
100
AcDbHatch
 10
0
 20
0
 30
0
210
0
220
0
230
1
  2
SOLID
 70
1
 71
0
 91
1
 92
2
 72
0
 73
1
 93
6
 10
-595506.32
 20
-1158615.02
 10
-595502.38
 20
-1158618.41
 10
-595486.58
 20
-1158625.9
 10
-595482.31
 20
-1158615.47
 10
-595494.12
 20
-1158604.88
 10
-595506.32
 20
-1158615.02
 97
0
 75
0
 76
1
 98
0
  0
HATCH
  5
2006F
100
AcDbEntity
  8
vodní toky
100
AcDbHatch
 10
0
 20
0
 30
0
210
0
220
0
230
1
  2
SOLID
 70
1
 71
0
 91
1
 92
2
 72
0
 73
1
 93
10
 10
-595661.22
 20
-1159030.12
 10
-595752.26
 20
-1159159.82
 10
-595775.12
 20
-1159190.98
 10
-595861.62
 20
-1159314.49
 10
-595836.78
 20
-1159332.04
 10
-595782.955
 20
-1159255.285
 10
-595729.13
 20
-1159178.53
 10
-595687.07
 20
-1159121.34
 10
-595633.26
 20
-1159048.17
 10
-595661.22
 20
-1159030.12
 97
0
 75
0
 76
1
 98
0
  0
HATCH
  5
20070
100
AcDbEntity
  8
vodní toky
100
AcDbHatch
 10
0
 20
0
 30
0
210
0
220
0
230
1
  2
SOLID
 70
1
 71
0
 91
1
 92
2
 72
0
 73
1
 93
7
 10
-595863.73
 20
-1159317.46
 10
-595897.5977
 20
-1159364.8334
 10
-595923.08
 20
-1159401.52
 10
-595897.18
 20
-1159419.51
 10
-595868.01
 20
-1159377.235
 10
-595838.84
 20
-1159334.96
 10
-595863.73
 20
-1159317.46
 97
0
 75
0
 76
1
 98
0
  0
HATCH
  5
20071
100
AcDbEntity
  8
vodní toky
100
AcDbHatch
 10
0
 20
0
 30
0
210
0
220
0
230
1
  2
SOLID
 70
1
 71
0
 91
1
 92
2
 72
0
 73
1
 93
20
 10
-595470.71
 20
-1158750.29
 10
-595489.82
 20
-1158791.02
 10
-595513.43
 20
-1158833.17
 10
-595550.96
 20
-1158886.3
 10
-595607.7
 20
-1158957.51
 10
-595658.94
 20
-1159027.34
 10
-595631.02
 20
-1159045.16
 10
-595575.075
 20
-1158969.06
 10
-595519.13
 20
-1158892.96
 10
-595503.99
 20
-1158872.77
 10
-595497.98
 20
-1158864.13
 10
-595494.19
 20
-1158858.5
 10
-595487.525
 20
-1158848.12
 10
-595477.0625
 20
-1158831.0772
 10
-595472.19
 20
-1158822.78
 10
-595467.54
 20
-1158814.51
 10
-595455.815
 20
-1158791.56
 10
-595444.09
 20
-1158768.61
 10
-595440.37
 20
-1158759.26
 10
-595470.71
 20
-1158750.29
 97
0
 75
0
 76
1
 98
0
  0
HATCH
  5
20072
100
AcDbEntity
  8
vodní toky
100
AcDbHatch
 10
0
 20
0
 30
0
210
0
220
0
230
1
  2
SOLID
 70
1
 71
0
 91
1
 92
2
 72
0
 73
1
 93
39
 10
-596131.487
 20
-1159458.9671
 10
-596135.98
 20
-1159431.97
 10
-596139.98
 20
-1159431.98
 10
-596144.97
 20
-1159431.34
 10
-596148.35
 20
-1159434.54
 10
-596183.71
 20
-1159451.05
 10
-596196.04
 20
-1159458.1
 10
-596207.43
 20
-1159465.37
 10
-596218.82
 20
-1159473.41
 10
-596223.07
 20
-1159477.06
 10
-596227.32
 20
-1159480.71
 10
-596236.25
 20
-1159490.35
 10
-596245.18
 20
-1159499.99
 10
-596256.74
 20
-1159515.82
 10
-596271.35
 20
-1159538.7
 10
-596285.96
 20
-1159561.58
 10
-596294.81
 20
-1159589.21
 10
-596303.31
 20
-1159604.46
 10
-596351.47
 20
-1159678.785
 10
-596399.63
 20
-1159753.11
 10
-596495.62
 20
-1159901.25
 10
-596483.57
 20
-1159910.09
 10
-596435.035
 20
-1159835.195
 10
-596386.5
 20
-1159760.3
 10
-596289.05
 20
-1159609.9
 10
-596280.97
 20
-1159595.89
 10
-596258.61
 20
-1159563
 10
-596249.35
 20
-1159547.86
 10
-596240.09
 20
-1159532.72
 10
-596231.82
 20
-1159520.58
 10
-596219.1886
 20
-1159506.3218
 10
-596213.725
 20
-1159500.85
 10
-596208.43
 20
-1159495.56
 10
-596197.25
 20
-1159486.53
 10
-596182.295
 20
-1159477.805
 10
-596167.34
 20
-1159469.08
 10
-596158.615
 20
-1159465.515
 10
-596149.89
 20
-1159461.95
 10
-596131.487
 20
-1159458.9671
 97
0
 75
0
 76
1
 98
0
  0
HATCH
  5
20073
100
AcDbEntity
  8
vodní toky
100
AcDbHatch
 10
0
 20
0
 30
0
210
0
220
0
230
1
  2
SOLID
 70
1
 71
0
 91
1
 92
2
 72
0
 73
1
 93
17
 10
-595968.43
 20
-1159423.74
 10
-595977.5
 20
-1159423.78
 10
-595977.678
 20
-1159420.255
 10
-596003.58
 20
-1159421.44
 10
-596028.345
 20
-1159423.71
 10
-596053.11
 20
-1159425.98
 10
-596084.49
 20
-1159432.63
 10
-596107.53
 20
-1159432.365
 10
-596130.57
 20
-1159432.1
 10
-596126.31
 20
-1159458.44
 10
-596102.95
 20
-1159456.74
 10
-596049.14
 20
-1159458.865
 10
-596005.98
 20
-1159460.46
 10
-595976.81
 20
-1159462.18
 10
-595976.77
 20
-1159461.73
 10
-595967.89
 20
-1159461.58
 10
-595968.43
 20
-1159423.74
 97
0
 75
0
 76
1
 98
0
  0
HATCH
  5
20074
100
AcDbEntity
  8
vodní toky
100
AcDbHatch
 10
0
 20
0
 30
0
210
0
220
0
230
1
  2
SOLID
 70
1
 71
0
 91
1
 92
2
 72
0
 73
1
 93
26
 10
-595968.43
 20
-1159423.74
 10
-595967.89
 20
-1159461.58
 10
-595959.8098
 20
-1159461.4708
 10
-595959.06
 20
-1159461.46
 10
-595958.66
 20
-1159461.56
 10
-595958.27
 20
-1159461.76
 10
-595957.89
 20
-1159462.08
 10
-595957.62
 20
-1159462.45
 10
-595957.4695
 20
-1159462.79
 10
-595957.37
 20
-1159463.17
 10
-595957.3712
 20
-1159463.6058
 10
-595957.42
 20
-1159463.9
 10
-595957.53
 20
-1159464.2
 10
-595957.65
 20
-1159464.45
 10
-595960.14
 20
-1159472.95
 10
-595953.46
 20
-1159474.34
 10
-595951.47
 20
-1159470.92
 10
-595948.84
 20
-1159467.25
 10
-595947.43
 20
-1159464.15
 10
-595946.005
 20
-1159462.825
 10
-595942.81
 20
-1159460.11
 10
-595940.68
 20
-1159458.45
 10
-595932.87
 20
-1159453.55
 10
-595947.84
 20
-1159423.24
 10
-595951.52
 20
-1159423.65
 10
-595968.43
 20
-1159423.74
 97
0
 75
0
 76
1
 98
0
  0
HATCH
  5
20075
100
AcDbEntity
  8
vodní toky
100
AcDbHatch
 10
0
 20
0
 30
0
210
0
220
0
230
1
  2
SOLID
 70
1
 71
0
 91
1
 92
2
 72
0
 73
1
 93
29
 10
-595947.1
 20
-1159422.99
 10
-595932.87
 20
-1159453.55
 10
-595924.45
 20
-1159448.275
 10
-595916.03
 20
-1159443
 10
-595912.68
 20
-1159440.27
 10
-595909.85
 20
-1159437.41
 10
-595901.21
 20
-1159425.31
 10
-595914.145
 20
-1159416.28
 10
-595927.08
 20
-1159407.25
 10
-595930.68
 20
-1159412.225
 10
-595934.2162
 20
-1159417.1605
 10
-595935.86
 20
-1159418.53
 10
-595937.67
 20
-1159420.06
 10
-595937.805
 20
-1159420.155
 10
-595937.94
 20
-1159420.25
 10
-595938.32
 20
-1159420.51
 10
-595939.55
 20
-1159421.24
 10
-595939.96
 20
-1159421.45
 10
-595940.33
 20
-1159421.6
 10
-595940.7029
 20
-1159421.7497
 10
-595941.24
 20
-1159421.94
 10
-595941.94
 20
-1159422.15
 10
-595942.19
 20
-1159422.19
 10
-595942.49
 20
-1159422.22
 10
-595942.645
 20
-1159422.215
 10
-595942.8
 20
-1159422.21
 10
-595943.61
 20
-1159422.13
 10
-595944.42
 20
-1159422.06
 10
-595947.1
 20
-1159422.99
 97
0
 75
0
 76
1
 98
0
  0
HATCH
  5
20076
100
AcDbEntity
  8
vodní toky
100
AcDbHatch
 10
0
 20
0
 30
0
210
0
220
0
230
1
  2
SOLID
 70
1
 71
0
 91
1
 92
2
 72
0
 73
1
 93
29
 10
-595487.26
 20
-1158626.08
 10
-595485.575
 20
-1158630.95
 10
-595482.64
 20
-1158632.59
 10
-595473.03
 20
-1158645.48
 10
-595466.37
 20
-1158656.58
 10
-595461.16
 20
-1158669.45
 10
-595458.77
 20
-1158684.39
 10
-595458.36
 20
-1158699.58
 10
-595459.52
 20
-1158715.11
 10
-595464.82
 20
-1158737.64
 10
-595436.79
 20
-1158745.81
 10
-595436.26
 20
-1158744.07
 10
-595435.73
 20
-1158742.33
 10
-595433.98
 20
-1158735.34
 10
-595432.19
 20
-1158727.63
 10
-595430.8
 20
-1158720.3
 10
-595429.4
 20
-1158710.98
 10
-595428.62
 20
-1158701.69
 10
-595428.92
 20
-1158685.45
 10
-595430.06
 20
-1158675.25
 10
-595432.57
 20
-1158663.42
 10
-595435.89
 20
-1158651.7
 10
-595438.85
 20
-1158643.81
 10
-595441.94
 20
-1158637.61
 10
-595444.64
 20
-1158632.67
 10
-595452.82
 20
-1158619.97
 10
-595463.98
 20
-1158607.22
 10
-595476.7
 20
-1158602.03
 10
-595487.26
 20
-1158626.08
 97
0
 75
0
 76
1
 98
0
  0
HATCH
  5
20077
100
AcDbEntity
  8
vodní toky
100
AcDbHatch
 10
0
 20
0
 30
0
210
0
220
0
230
1
  2
SOLID
 70
1
 71
0
 91
1
 92
2
 72
0
 73
1
 93
95
 10
-595494.91
 20
-1158604.13
 10
-595514.52
 20
-1158586.52
 10
-595529.04
 20
-1158572.73
 10
-595537.685
 20
-1158565.5
 10
-595546.33
 20
-1158558.27
 10
-595566.73
 20
-1158543.9
 10
-595587.65
 20
-1158520.85
 10
-595600.045
 20
-1158503.535
 10
-595612.97
 20
-1158481.94
 10
-595626.63
 20
-1158462.95
 10
-595641.77
 20
-1158440.13
 10
-595646.66
 20
-1158422.46
 10
-595647.56
 20
-1158416.8
 10
-595647.61
 20
-1158395.02
 10
-595645.47
 20
-1158378.73
 10
-595638.25
 20
-1158352.34
 10
-595625.34
 20
-1158320.14
 10
-595633.5
 20
-1158310.34
 10
-595646.16
 20
-1158289.45
 10
-595674.545
 20
-1158246.48
 10
-595702.93
 20
-1158203.51
 10
-595709.46
 20
-1158193.62
 10
-595712.72
 20
-1158181.96
 10
-595714.405
 20
-1158165.865
 10
-595716.09
 20
-1158149.77
 10
-595720.925
 20
-1158126.665
 10
-595725.76
 20
-1158103.56
 10
-595731.905
 20
-1158084.58
 10
-595738.05
 20
-1158065.6
 10
-595741.35
 20
-1158046.14
 10
-595738.22
 20
-1158026.12
 10
-595734.96
 20
-1158012.855
 10
-595731.6634
 20
-1157999.4081
 10
-595730.65
 20
-1157990.52
 10
-595730.5674
 20
-1157987.8386
 10
-595735.9567
 20
-1157989.0518
 10
-595737.34
 20
-1157994.095
 10
-595738.71
 20
-1157999.21
 10
-595739.08
 20
-1158009.54
 10
-595739.89
 20
-1158017.53
 10
-595741.395
 20
-1158026.63
 10
-595742.9
 20
-1158035.73
 10
-595743.65
 20
-1158042.84
 10
-595743.46
 20
-1158048.36
 10
-595743.27
 20
-1158053.88
 10
-595742.575
 20
-1158058.61
 10
-595741.88
 20
-1158063.34
 10
-595740.43
 20
-1158069.665
 10
-595738.98
 20
-1158075.99
 10
-595736.75
 20
-1158082.985
 10
-595730.6541
 20
-1158101.4144
 10
-595730.34
 20
-1158102.36
 10
-595726.13
 20
-1158117.63
 10
-595721.9
 20
-1158136.52
 10
-595719.43
 20
-1158150.95
 10
-595717.57
 20
-1158163.84
 10
-595715.71
 20
-1158176.73
 10
-595714.565
 20
-1158182.55
 10
-595712.095
 20
-1158192.26
 10
-595710.77
 20
-1158196.15
 10
-595707.29
 20
-1158202.75
 10
-595701.39
 20
-1158211.97
 10
-595685.875
 20
-1158236.24
 10
-595670.36
 20
-1158260.51
 10
-595658.405
 20
-1158279.2
 10
-595650.15
 20
-1158292.11
 10
-595637.32
 20
-1158314.36
 10
-595634.97
 20
-1158318.43
 10
-595634.84
 20
-1158318.9
 10
-595634.71
 20
-1158319.37
 10
-595634.58
 20
-1158319.845
 10
-595635.01
 20
-1158321.74
 10
-595636.88
 20
-1158323.98
 10
-595638.32
 20
-1158326.36
 10
-595649.44
 20
-1158354.48
 10
-595652.7
 20
-1158378.415
 10
-595655.96
 20
-1158402.35
 10
-595657.28
 20
-1158406.55
 10
-595657.78
 20
-1158408.76
 10
-595657.53
 20
-1158410.8
 10
-595654.73
 20
-1158423.51
 10
-595650.72
 20
-1158438.56
 10
-595642.425
 20
-1158455.36
 10
-595634.13
 20
-1158472.16
 10
-595632.115
 20
-1158475.675
 10
-595621.81
 20
-1158490.85
 10
-595617.42
 20
-1158496.79
 10
-595611.72
 20
-1158506.7
 10
-595608.76
 20
-1158512.23
 10
-595604.51
 20
-1158517.71
 10
-595584.8
 20
-1158539.52
 10
-595563.87
 20
-1158557.34
 10
-595532.47
 20
-1158583.81
 10
-595507.22
 20
-1158614.26
 10
-595494.91
 20
-1158604.13
 97
0
 75
0
 76
1
 98
0
  0
HATCH
  5
20078
100
AcDbEntity
  8
vodní toky
100
AcDbHatch
 10
0
 20
0
 30
0
210
0
220
0
230
1
  2
SOLID
 70
1
 71
0
 91
1
 92
2
 72
0
 73
1
 93
39
 10
-601168.19
 20
-1152574.5
 10
-601167.19
 20
-1152577.22
 10
-601165.8
 20
-1152579.36
 10
-601159.89
 20
-1152580.17
 10
-601131.36
 20
-1152583.31
 10
-601116.81
 20
-1152585.2
 10
-601106.38
 20
-1152589.18
 10
-601095.55
 20
-1152595.32
 10
-601090.44
 20
-1152599.27
 10
-601070.6
 20
-1152610.62
 10
-601060.37
 20
-1152616.7
 10
-601050.38
 20
-1152622.84
 10
-601035.16
 20
-1152633.66
 10
-601033.94
 20
-1152634.29
 10
-601013.87
 20
-1152644.73
 10
-600974.53
 20
-1152646.14
 10
-600932.77
 20
-1152647.63
 10
-600928.45
 20
-1152647.78
 10
-600906.19
 20
-1152648.58
 10
-600892.48
 20
-1152650.63
 10
-600854.71
 20
-1152659.36
 10
-600854.02
 20
-1152656.94
 10
-600869.65
 20
-1152653.25
 10
-600891.84
 20
-1152648.02
 10
-600902.66
 20
-1152645.62
 10
-600930.28
 20
-1152644.73
 10
-600973.14
 20
-1152643.34
 10
-601013.36
 20
-1152642.04
 10
-601033.75
 20
-1152629.44
 10
-601048.22
 20
-1152619.67
 10
-601049.71
 20
-1152618.66
 10
-601060.9
 20
-1152611.26
 10
-601087.43
 20
-1152595.27
 10
-601092.89
 20
-1152591.9
 10
-601100.44
 20
-1152587.25
 10
-601117.16
 20
-1152581.48
 10
-601149.51
 20
-1152577.13
 10
-601167.45
 20
-1152572.39
 10
-601168.19
 20
-1152574.5
 97
0
 75
0
 76
1
 98
0
  0
HATCH
  5
20079
100
AcDbEntity
  8
vodní toky
100
AcDbHatch
 10
0
 20
0
 30
0
210
0
220
0
230
1
  2
SOLID
 70
1
 71
0
 91
1
 92
2
 72
0
 73
1
 93
13
 10
-600208.37
 20
-1152992.74
 10
-600177.18
 20
-1153024.65
 10
-600134.43
 20
-1153068.37
 10
-600073.49
 20
-1153133.73
 10
-600069.9
 20
-1153136.56
 10
-600066.78
 20
-1153135.18
 10
-600131.62
 20
-1153065.46
 10
-600174.13
 20
-1153021.79
 10
-600205.27
 20
-1152989.81
 10
-600206.44
 20
-1152990.92
 10
-600206.57
 20
-1152991.39
 10
-600207.02
 20
-1152991.47
 10
-600208.37
 20
-1152992.74
 97
0
 75
0
 76
1
 98
0
  0
HATCH
  5
2007A
100
AcDbEntity
  8
vodní toky
100
AcDbHatch
 10
0
 20
0
 30
0
210
0
220
0
230
1
  2
SOLID
 70
1
 71
0
 91
1
 92
2
 72
0
 73
1
 93
23
 10
-599503.63
 20
-1153432.76
 10
-599493.87
 20
-1153436.87
 10
-599450.32
 20
-1153455.18
 10
-599437.42
 20
-1153460.6
 10
-599395
 20
-1153480.29
 10
-599370.54
 20
-1153492.52
 10
-599354.26
 20
-1153500.94
 10
-599326.06
 20
-1153518.13
 10
-599325.29
 20
-1153518.63
 10
-599324.03
 20
-1153515.14
 10
-599323.69
 20
-1153513.78
 10
-599323.67
 20
-1153511.9
 10
-599323.99
 20
-1153510.83
 10
-599342.47
 20
-1153500
 10
-599350.67
 20
-1153495.2
 10
-599363.18
 20
-1153488.53
 10
-599384.61
 20
-1153477.47
 10
-599434.62
 20
-1153453.71
 10
-599500.36
 20
-1153426.57
 10
-599503.2
 20
-1153425.32
 10
-599504.36
 20
-1153427.7
 10
-599505.8
 20
-1153430.64
 10
-599503.63
 20
-1153432.76
 97
0
 75
0
 76
1
 98
0
  0
HATCH
  5
2007B
100
AcDbEntity
  8
vodní toky
100
AcDbHatch
 10
0
 20
0
 30
0
210
0
220
0
230
1
  2
SOLID
 70
1
 71
0
 91
1
 92
2
 72
0
 73
1
 93
23
 10
-599317.62
 20
-1153523.59
 10
-599315.47
 20
-1153524.98
 10
-599309.05
 20
-1153529.13
 10
-599288.42
 20
-1153542.49
 10
-599250.83
 20
-1153569.08
 10
-599226.6
 20
-1153590.38
 10
-599222.65
 20
-1153593.85
 10
-599215.92
 20
-1153599.61
 10
-599213.07
 20
-1153599.26
 10
-599212.31
 20
-1153598.33
 10
-599211.65
 20
-1153597.21
 10
-599211.14
 20
-1153596.24
 10
-599208.41
 20
-1153597.35
 10
-599205.48
 20
-1153597.78
 10
-599203.58
 20
-1153597.49
 10
-599204.01
 20
-1153597.09
 10
-599206.47
 20
-1153596.88
 10
-599246.79
 20
-1153563.66
 10
-599284.54
 20
-1153537.3
 10
-599312.78
 20
-1153518.21
 10
-599315.15
 20
-1153519.58
 10
-599315.9
 20
-1153520.63
 10
-599317.62
 20
-1153523.59
 97
0
 75
0
 76
1
 98
0
  0
HATCH
  5
2007C
100
AcDbEntity
  8
vodní toky
100
AcDbHatch
 10
0
 20
0
 30
0
210
0
220
0
230
1
  2
SOLID
 70
1
 71
0
 91
1
 92
2
 72
0
 73
1
 93
57
 10
-600008.93
 20
-1153213.58
 10
-599989.83
 20
-1153233.74
 10
-599987.38
 20
-1153235.62
 10
-599975.32
 20
-1153244.87
 10
-599972.1
 20
-1153247.34
 10
-599963.22
 20
-1153254.15
 10
-599954.67
 20
-1153270.01
 10
-599952.82
 20
-1153273.44
 10
-599937.56
 20
-1153301.75
 10
-599930.33
 20
-1153307.89
 10
-599922.23
 20
-1153319.53
 10
-599922.38
 20
-1153320.28
 10
-599891.29
 20
-1153308.68
 10
-599876.61
 20
-1153301.06
 10
-599854.53
 20
-1153293.86
 10
-599840.76
 20
-1153291.57
 10
-599828.06
 20
-1153297.24
 10
-599815.9
 20
-1153301.5
 10
-599811.7
 20
-1153309.01
 10
-599800.03
 20
-1153311.45
 10
-599785.76
 20
-1153314.4
 10
-599775.21
 20
-1153314.12
 10
-599743
 20
-1153322.93
 10
-599722.1
 20
-1153327.59
 10
-599721.97
 20
-1153327.2
 10
-599739.09
 20
-1153322.63
 10
-599747.06
 20
-1153318.32
 10
-599766.04
 20
-1153313.42
 10
-599774.14
 20
-1153309.14
 10
-599797.29
 20
-1153309.24
 10
-599805.33
 20
-1153309.27
 10
-599812.21
 20
-1153298.68
 10
-599840.25
 20
-1153287.05
 10
-599842.09
 20
-1153287.61
 10
-599852.68
 20
-1153289.59
 10
-599857.52
 20
-1153290.49
 10
-599870.21
 20
-1153293.98
 10
-599896.53
 20
-1153308.1
 10
-599905.99
 20
-1153311.97
 10
-599918.34
 20
-1153317.02
 10
-599920.92
 20
-1153311.89
 10
-599925.6823
 20
-1153306.0786
 10
-599931.5067
 20
-1153299.5949
 10
-599941.07
 20
-1153282.65
 10
-599943.03
 20
-1153279.12
 10
-599960.36
 20
-1153248.02
 10
-599987.49
 20
-1153227.26
 10
-600004.32
 20
-1153214.37
 10
-600004.79
 20
-1153212.2
 10
-600007.64
 20
-1153210.27
 10
-600011.16
 20
-1153204.5
 10
-600014.13
 20
-1153203.92
 10
-600016.48
 20
-1153206.05
 10
-600014.19
 20
-1153212.42
 10
-600015.09
 20
-1153212.73
 10
-600015.73
 20
-1153213.46
 10
-600008.93
 20
-1153213.58
 97
0
 75
0
 76
1
 98
0
  0
HATCH
  5
2007D
100
AcDbEntity
  8
vodní toky
100
AcDbHatch
 10
0
 20
0
 30
0
210
0
220
0
230
1
  2
SOLID
 70
1
 71
0
 91
1
 92
2
 72
0
 73
1
 93
70
 10
-599585.73
 20
-1151543.5
 10
-599587.58
 20
-1151547.82
 10
-599561
 20
-1151564.09
 10
-599553.79
 20
-1151559.88
 10
-599534.1
 20
-1151563.81
 10
-599517.5
 20
-1151569.43
 10
-599485.14
 20
-1151590.08
 10
-599457.2
 20
-1151612.25
 10
-599446.6
 20
-1151618.91
 10
-599440.97
 20
-1151620.97
 10
-599437.01
 20
-1151621.21
 10
-599421.01
 20
-1151631.34
 10
-599401.89
 20
-1151635.52
 10
-599371.18
 20
-1151669.16
 10
-599334.69
 20
-1151700.34
 10
-599319.52
 20
-1151713.64
 10
-599298.61
 20
-1151733.55
 10
-599267.96
 20
-1151760.03
 10
-599208.02
 20
-1151797.5
 10
-599189.95
 20
-1151803.92
 10
-599189.84
 20
-1151806.85
 10
-599180.84
 20
-1151796.21
 10
-599177.67
 20
-1151793.87
 10
-599172.07
 20
-1151793.17
 10
-599132.76
 20
-1151858.54
 10
-599133.56
 20
-1151876.32
 10
-599128.95
 20
-1151915.14
 10
-599127.19
 20
-1151933.14
 10
-599114.39
 20
-1151984.73
 10
-599109.29
 20
-1152001.84
 10
-599099.84
 20
-1152014.93
 10
-599094.03
 20
-1152022.98
 10
-599085.88
 20
-1152041.75
 10
-599084.38
 20
-1152041.64
 10
-599081.79
 20
-1152041.11
 10
-599081.76
 20
-1152038.35
 10
-599083.43
 20
-1152033.07
 10
-599090.23
 20
-1152017.68
 10
-599103.62
 20
-1151998.77
 10
-599110.15
 20
-1151983.48
 10
-599120.08
 20
-1151931.97
 10
-599123.17
 20
-1151914.39
 10
-599123.2
 20
-1151905.42
 10
-599129.31
 20
-1151875.66
 10
-599128.06
 20
-1151854.69
 10
-599172.9
 20
-1151787.98
 10
-599182.22
 20
-1151794.28
 10
-599189.97
 20
-1151800.25
 10
-599206.4
 20
-1151792.49
 10
-599266.3
 20
-1151756.03
 10
-599291.52
 20
-1151734.05
 10
-599295.63
 20
-1151730.47
 10
-599331.79
 20
-1151696.95
 10
-599367.04
 20
-1151666.23
 10
-599400.5
 20
-1151632.44
 10
-599419.6
 20
-1151626.8
 10
-599440.19
 20
-1151616.37
 10
-599445.49
 20
-1151616.05
 10
-599455.59
 20
-1151609.9
 10
-599479.5
 20
-1151588.61
 10
-599515.88
 20
-1151566.28
 10
-599522.38
 20
-1151561.64
 10
-599532.39
 20
-1151558.75
 10
-599535.78
 20
-1151557.85
 10
-599538.47
 20
-1151557.14
 10
-599542.57
 20
-1151557.58
 10
-599555.14
 20
-1151558.55
 10
-599557.8
 20
-1151559.88
 10
-599585.22
 20
-1151543.79
 10
-599585.73
 20
-1151543.5
 97
0
 75
0
 76
1
 98
0
  0
HATCH
  5
2007E
100
AcDbEntity
  8
vodní toky
100
AcDbHatch
 10
0
 20
0
 30
0
210
0
220
0
230
1
  2
SOLID
 70
1
 71
0
 91
1
 92
2
 72
0
 73
1
 93
34
 10
-599085.84
 20
-1152047.88
 10
-599086.04
 20
-1152056.04
 10
-599070.94
 20
-1152148.85
 10
-599068.07
 20
-1152175.98
 10
-599063.89
 20
-1152249.42
 10
-599061.69
 20
-1152331.28
 10
-599062.14
 20
-1152374.36
 10
-599054.61
 20
-1152399.27
 10
-599052.16
 20
-1152404.29
 10
-599037.47
 20
-1152434.43
 10
-599004.23
 20
-1152505.98
 10
-599003.62
 20
-1152511.62
 10
-599001.01
 20
-1152535.58
 10
-598993.45
 20
-1152565.17
 10
-598992.49
 20
-1152572.39
 10
-598990.48
 20
-1152572.63
 10
-598983.79
 20
-1152573.41
 10
-598992.62
 20
-1152533.75
 10
-598997.99
 20
-1152505.07
 10
-599006.46
 20
-1152486.19
 10
-599037.39
 20
-1152418.76
 10
-599040.93
 20
-1152411.69
 10
-599056.82
 20
-1152373.98
 10
-599056.93
 20
-1152356.23
 10
-599057.81
 20
-1152331.31
 10
-599059.92
 20
-1152250.3
 10
-599063.85
 20
-1152175.83
 10
-599065.37
 20
-1152147.86
 10
-599068.58
 20
-1152124.66
 10
-599069.3
 20
-1152122.53
 10
-599070.32
 20
-1152118.85
 10
-599080.56
 20
-1152045.02
 10
-599083
 20
-1152046.64
 10
-599085.84
 20
-1152047.88
 97
0
 75
0
 76
1
 98
0
  0
HATCH
  5
2007F
100
AcDbEntity
  8
vodní toky
100
AcDbHatch
 10
0
 20
0
 30
0
210
0
220
0
230
1
  2
SOLID
 70
1
 71
0
 91
1
 92
2
 72
0
 73
1
 93
58
 10
-599068.58
 20
-1152124.66
 10
-599026.23
 20
-1152094.45
 10
-599022.05
 20
-1152090.89
 10
-599003.93
 20
-1152075.45
 10
-598991.26
 20
-1152071.71
 10
-598983.65
 20
-1152064.34
 10
-598970.41
 20
-1152041.36
 10
-598945.63
 20
-1152018.15
 10
-598922.5476
 20
-1152007.9173
 10
-598851.21
 20
-1151999.93
 10
-598815.32
 20
-1151988.71
 10
-598796.78
 20
-1151988.21
 10
-598795.29
 20
-1151983.79
 10
-598785.47
 20
-1151976.83
 10
-598720.57
 20
-1151941.56
 10
-598708.73
 20
-1151938.89
 10
-598687.09
 20
-1151937.55
 10
-598661.84
 20
-1151932.32
 10
-598636.06
 20
-1151939.93
 10
-598602.68
 20
-1151950.21
 10
-598589.47
 20
-1151952.9
 10
-598564.41
 20
-1151946.04
 10
-598552.08
 20
-1151945.38
 10
-598543.5
 20
-1151951.83
 10
-598539.31
 20
-1151975.08
 10
-598494.26
 20
-1152014.18
 10
-598485.62
 20
-1152015.23
 10
-598479.56
 20
-1152009.78
 10
-598482.05
 20
-1152008.16
 10
-598490.12
 20
-1152008.01
 10
-598535.07
 20
-1151972.95
 10
-598539.81
 20
-1151949.08
 10
-598550.53
 20
-1151940.54
 10
-598564.56
 20
-1151941.14
 10
-598589.61
 20
-1151947.88
 10
-598600.45
 20
-1151945.9
 10
-598635.87
 20
-1151934.26
 10
-598662.31
 20
-1151927.52
 10
-598687.84
 20
-1151933.29
 10
-598709.61
 20
-1151934.35
 10
-598722.11
 20
-1151937.12
 10
-598788.16
 20
-1151971.76
 10
-598799.36
 20
-1151981.09
 10
-598800.91
 20
-1151986.37
 10
-598814.93
 20
-1151985.28
 10
-598852.06
 20
-1151996
 10
-598853.46
 20
-1151996.17
 10
-598893.14
 20
-1152000.84
 10
-598921.01
 20
-1152003.58
 10
-598949.13
 20
-1152015.47
 10
-598972.84
 20
-1152038.52
 10
-598985.46
 20
-1152060.63
 10
-598993.18
 20
-1152069.52
 10
-599006.03
 20
-1152072.64
 10
-599027.09
 20
-1152090.92
 10
-599070.32
 20
-1152118.85
 10
-599069.3
 20
-1152122.53
 10
-599068.58
 20
-1152124.66
 97
0
 75
0
 76
1
 98
0
  0
HATCH
  5
20080
100
AcDbEntity
  8
vodní toky
100
AcDbHatch
 10
0
 20
0
 30
0
210
0
220
0
230
1
  2
SOLID
 70
1
 71
0
 91
1
 92
2
 72
0
 73
1
 93
28
 10
-598478.99
 20
-1152005.89
 10
-598476.93
 20
-1152007.6
 10
-598475.15
 20
-1152007.25
 10
-598462.76
 20
-1152004.8
 10
-598456.39
 20
-1152003.54
 10
-598450.7
 20
-1152012.36
 10
-598454.87
 20
-1152017.84
 10
-598426.54
 20
-1152044.5
 10
-598412
 20
-1152057.47
 10
-598397.71
 20
-1152069.72
 10
-598390.66
 20
-1152068.5
 10
-598382.24
 20
-1152074.02
 10
-598382.96
 20
-1152088.75
 10
-598358.12
 20
-1152117.34
 10
-598354.97
 20
-1152116.73
 10
-598351.63
 20
-1152117.55
 10
-598377.91
 20
-1152087.36
 10
-598379.37
 20
-1152072.53
 10
-598389.84
 20
-1152064.44
 10
-598398.02
 20
-1152065.26
 10
-598412.63
 20
-1152052.87
 10
-598417.84
 20
-1152048.46
 10
-598423.87
 20
-1152042.64
 10
-598446.03
 20
-1152021.25
 10
-598445.64
 20
-1152011.33
 10
-598449.77
 20
-1152003.66
 10
-598456.68
 20
-1151998.69
 10
-598478.99
 20
-1152005.89
 97
0
 75
0
 76
1
 98
0
  0
HATCH
  5
20081
100
AcDbEntity
  8
vodní toky
100
AcDbHatch
 10
0
 20
0
 30
0
210
0
220
0
230
1
  2
SOLID
 70
1
 71
0
 91
1
 92
2
 72
0
 73
1
 93
10
 10
-598081.95
 20
-1152252.97
 10
-598052.92
 20
-1152241.63
 10
-598052.51
 20
-1152239.45
 10
-598051.89
 20
-1152237.32
 10
-598078
 20
-1152245.87
 10
-598082.73
 20
-1152244.63
 10
-598083.54
 20
-1152247.03
 10
-598083.28
 20
-1152249.31
 10
-598083.02
 20
-1152251.59
 10
-598081.95
 20
-1152252.97
 97
0
 75
0
 76
1
 98
0
  0
HATCH
  5
20082
100
AcDbEntity
  8
vodní toky
100
AcDbHatch
 10
0
 20
0
 30
0
210
0
220
0
230
1
  2
SOLID
 70
1
 71
0
 91
1
 92
2
 72
0
 73
1
 93
12
 10
-599052.59
 20
-1152360.83
 10
-599050.34
 20
-1152379.31
 10
-599041.92
 20
-1152394.98
 10
-599023.17
 20
-1152428.03
 10
-599007.84
 20
-1152464.46
 10
-598989.52
 20
-1152487.01
 10
-598984.72
 20
-1152460.08
 10
-598993.7
 20
-1152389.09
 10
-599005.32
 20
-1152354.75
 10
-599023.98
 20
-1152357.22
 10
-599049.15
 20
-1152357.52
 10
-599052.59
 20
-1152360.83
 97
0
 75
0
 76
1
 98
0
  0
HATCH
  5
20083
100
AcDbEntity
  8
vodní toky
100
AcDbHatch
 10
0
 20
0
 30
0
210
0
220
0
230
1
  2
SOLID
 70
1
 71
0
 91
1
 92
2
 72
0
 73
1
 93
22
 10
-599053.81
 20
-1152421.04
 10
-599055.31
 20
-1152423.39
 10
-599057.72
 20
-1152439.49
 10
-599055.71
 20
-1152467.41
 10
-599055.44
 20
-1152499.17
 10
-599069.31
 20
-1152548.12
 10
-599069.22
 20
-1152551.46
 10
-599065.46
 20
-1152552.9
 10
-599046.1
 20
-1152557.28
 10
-599026.03
 20
-1152562.26
 10
-599005.94
 20
-1152566.55
 10
-599001.75
 20
-1152567.54
 10
-598999.31
 20
-1152565.82
 10
-598999.71
 20
-1152559.57
 10
-599002.41
 20
-1152549.12
 10
-599009.8
 20
-1152527.96
 10
-599013.14
 20
-1152508.41
 10
-599027.1
 20
-1152474.81
 10
-599041.76
 20
-1152436.97
 10
-599048.48
 20
-1152421.71
 10
-599051.48
 20
-1152420.71
 10
-599053.81
 20
-1152421.04
 97
0
 75
0
 76
1
 98
0
  0
HATCH
  5
20084
100
AcDbEntity
  8
vodní toky
100
AcDbHatch
 10
0
 20
0
 30
0
210
0
220
0
230
1
  2
SOLID
 70
1
 71
0
 91
1
 92
2
 72
0
 73
1
 93
69
 10
-597325.36
 20
-1152205.65
 10
-597375.7
 20
-1152200.76
 10
-597389.52
 20
-1152202.22
 10
-597411.39
 20
-1152223.88
 10
-597437.25
 20
-1152217.06
 10
-597450.38
 20
-1152225.06
 10
-597456.65
 20
-1152228.88
 10
-597459
 20
-1152229.15
 10
-597471.33
 20
-1152229.86
 10
-597481.54
 20
-1152234.84
 10
-597488.35
 20
-1152240.96
 10
-597504.83
 20
-1152256.76
 10
-597528.93
 20
-1152285.79
 10
-597536.99
 20
-1152292.52
 10
-597539.28
 20
-1152314.47
 10
-597549.67
 20
-1152317.31
 10
-597558.73
 20
-1152352.45
 10
-597578.27
 20
-1152370.36
 10
-597583.32
 20
-1152388.15
 10
-597582.27
 20
-1152399.92
 10
-597569.09
 20
-1152418.07
 10
-597540.06
 20
-1152458.05
 10
-597537.56
 20
-1152475.27
 10
-597521.33
 20
-1152497.36
 10
-597517.24
 20
-1152506.12
 10
-597514.95
 20
-1152523.46
 10
-597500.32
 20
-1152540.77
 10
-597500.39
 20
-1152559.8
 10
-597502.2
 20
-1152576.18
 10
-597500.23
 20
-1152577.64
 10
-597498.87
 20
-1152578.28
 10
-597495.64
 20
-1152563.52
 10
-597495.75
 20
-1152559.72
 10
-597496.08
 20
-1152548.98
 10
-597498.54
 20
-1152542.68
 10
-597499.65
 20
-1152539.87
 10
-597502.25
 20
-1152533.21
 10
-597510.41
 20
-1152522.78
 10
-597510.53
 20
-1152512.06
 10
-597515.92
 20
-1152498.31
 10
-597533.52
 20
-1152473.31
 10
-597535.67
 20
-1152456.67
 10
-597572.06
 20
-1152404.27
 10
-597577.02
 20
-1152397.27
 10
-597576.13
 20
-1152392.21
 10
-597575.05
 20
-1152372.85
 10
-597564.82
 20
-1152363.84
 10
-597555.54
 20
-1152355.91
 10
-597552.36
 20
-1152343.69
 10
-597546
 20
-1152320.56
 10
-597537.07
 20
-1152318.98
 10
-597534.97
 20
-1152315.6
 10
-597532.06
 20
-1152296.85
 10
-597525.05
 20
-1152291.02
 10
-597496.85
 20
-1152259.35
 10
-597489.22
 20
-1152249.5
 10
-597479.35
 20
-1152236.76
 10
-597469.44
 20
-1152231.54
 10
-597460.86
 20
-1152232.93
 10
-597456.45
 20
-1152233.65
 10
-597454.41
 20
-1152233.69
 10
-597439.05
 20
-1152224.13
 10
-597420.81
 20
-1152226.79
 10
-597407.47
 20
-1152225.54
 10
-597386.34
 20
-1152210.02
 10
-597374.8
 20
-1152206.1
 10
-597331.61
 20
-1152212.09
 10
-597324.43
 20
-1152213.09
 10
-597325.36
 20
-1152205.65
 97
0
 75
0
 76
1
 98
0
  0
HATCH
  5
20085
100
AcDbEntity
  8
vodní toky
100
AcDbHatch
 10
0
 20
0
 30
0
210
0
220
0
230
1
  2
SOLID
 70
1
 71
0
 91
1
 92
2
 72
0
 73
1
 93
72
 10
-597677.47
 20
-1153287.77
 10
-597664.98
 20
-1153284.15
 10
-597658.11
 20
-1153270.46
 10
-597648.36
 20
-1153260.45
 10
-597642.12
 20
-1153245.22
 10
-597622.2
 20
-1153207.93
 10
-597617.9
 20
-1153211.11
 10
-597610.3
 20
-1153208.06
 10
-597606.29
 20
-1153206.45
 10
-597586.09
 20
-1153191.5
 10
-597583.37
 20
-1153189.49
 10
-597567.85
 20
-1153188.63
 10
-597565.41
 20
-1153184.34
 10
-597559.68
 20
-1153174.28
 10
-597564.88
 20
-1153148.39
 10
-597571.2
 20
-1153140.83
 10
-597584.62
 20
-1153094.78
 10
-597583.34
 20
-1153077.07
 10
-597597.7
 20
-1153058.74
 10
-597616.01
 20
-1153011.86
 10
-597613.82
 20
-1153005.03
 10
-597607.81
 20
-1152986.56
 10
-597593.53
 20
-1152959.11
 10
-597580.62
 20
-1152946.74
 10
-597557.05
 20
-1152912.73
 10
-597505.89
 20
-1152852.62
 10
-597498.35
 20
-1152837.18
 10
-597467.68
 20
-1152801.34
 10
-597445.7
 20
-1152780.13
 10
-597463.76
 20
-1152687.43
 10
-597461.28
 20
-1152667.4
 10
-597470.66
 20
-1152633.83
 10
-597494.62
 20
-1152607.12
 10
-597501.49
 20
-1152590.66
 10
-597499.89
 20
-1152583.03
 10
-597501.75
 20
-1152582.38
 10
-597502.98
 20
-1152581.94
 10
-597505.23
 20
-1152590.8
 10
-597497.36
 20
-1152608.69
 10
-597475.63
 20
-1152633.32
 10
-597464.44
 20
-1152668.01
 10
-597466.94
 20
-1152687.17
 10
-597450.08
 20
-1152778.16
 10
-597470.89
 20
-1152798.59
 10
-597500.6
 20
-1152834.14
 10
-597508.36
 20
-1152849.58
 10
-597559.93
 20
-1152910.48
 10
-597584.32
 20
-1152944.22
 10
-597589.89
 20
-1152949.82
 10
-597596.45
 20
-1152956.42
 10
-597614.62
 20
-1152986.79
 10
-597620.49
 20
-1153012.39
 10
-597601.93
 20
-1153060.25
 10
-597593.35
 20
-1153077.12
 10
-597585.87
 20
-1153082.05
 10
-597590.07
 20
-1153096.6
 10
-597575
 20
-1153142.47
 10
-597568.05
 20
-1153148.67
 10
-597566.84
 20
-1153152.75
 10
-597562.97
 20
-1153175.05
 10
-597568.34
 20
-1153183.81
 10
-597569.31
 20
-1153185.39
 10
-597585.82
 20
-1153186.85
 10
-597587.93
 20
-1153188.68
 10
-597606.9
 20
-1153205.09
 10
-597617.22
 20
-1153208.22
 10
-597623.7
 20
-1153204.1
 10
-597643.51
 20
-1153244.64
 10
-597652.79
 20
-1153259.24
 10
-597662
 20
-1153267.63
 10
-597671.73
 20
-1153284.93
 10
-597677.47
 20
-1153287.77
 97
0
 75
0
 76
1
 98
0
  0
HATCH
  5
20086
100
AcDbEntity
  8
vodní toky
100
AcDbHatch
 10
0
 20
0
 30
0
210
0
220
0
230
1
  2
SOLID
 70
1
 71
0
 91
1
 92
2
 72
0
 73
1
 93
21
 10
-597678.97
 20
-1153293.7
 10
-597689.38
 20
-1153293.99
 10
-597693.07
 20
-1153302.78
 10
-597683.23
 20
-1153305.7
 10
-597686.13
 20
-1153312.49
 10
-597685.56
 20
-1153322.48
 10
-597684.23
 20
-1153323.22
 10
-597683.69
 20
-1153322.23
 10
-597683.21
 20
-1153321.34
 10
-597683.54
 20
-1153321.24
 10
-597683.21
 20
-1153313.23
 10
-597680.01
 20
-1153309.36
 10
-597678.9
 20
-1153307.42
 10
-597678.51
 20
-1153306.28
 10
-597678.31
 20
-1153305.36
 10
-597678.34
 20
-1153304.32
 10
-597679.19
 20
-1153302.27
 10
-597678.64
 20
-1153297.43
 10
-597678.41
 20
-1153295.55
 10
-597677.47
 20
-1153287.77
 10
-597678.97
 20
-1153293.7
 97
0
 75
0
 76
1
 98
0
  0
HATCH
  5
20087
100
AcDbEntity
  8
vodní toky
100
AcDbHatch
 10
0
 20
0
 30
0
210
0
220
0
230
1
  2
SOLID
 70
1
 71
0
 91
1
 92
2
 72
0
 73
1
 93
83
 10
-601676.03
 20
-1158738.78
 10
-601644.55
 20
-1158768.79
 10
-601622.84
 20
-1158782.89
 10
-601595.43
 20
-1158801.905
 10
-601568.02
 20
-1158820.92
 10
-601552.8
 20
-1158837.58
 10
-601541.61
 20
-1158867.32
 10
-601539.51
 20
-1158933.73
 10
-601531.87
 20
-1158958.6
 10
-601526.555
 20
-1158978.065
 10
-601502.93
 20
-1159016.05
 10
-601491.47
 20
-1159027.13
 10
-601480.04
 20
-1159039.96
 10
-601435.29
 20
-1159075.78
 10
-601416.24
 20
-1159096.18
 10
-601406.67
 20
-1159121.46
 10
-601400.96
 20
-1159141.06
 10
-601401.095
 20
-1159157.395
 10
-601402.7
 20
-1159184.85
 10
-601418.27
 20
-1159228.375
 10
-601429.98
 20
-1159255.485
 10
-601426.925
 20
-1159294.65
 10
-601419.67
 20
-1159334.39
 10
-601402.29
 20
-1159376.6
 10
-601383.8
 20
-1159400.62
 10
-601362.5
 20
-1159421.83
 10
-601344.81
 20
-1159434.78
 10
-601324.96
 20
-1159447.42
 10
-601311.35
 20
-1159458.43
 10
-601295.96
 20
-1159467.82
 10
-601275.245
 20
-1159478.81
 10
-601237.59
 20
-1159501.54
 10
-601199.49
 20
-1159529.83
 10
-601165.86
 20
-1159564.305
 10
-601142.87
 20
-1159586.39
 10
-601119.02
 20
-1159608.84
 10
-601093.07
 20
-1159634.655
 10
-601059.745
 20
-1159668.465
 10
-601038.09
 20
-1159704.05
 10
-601029.57
 20
-1159728.61
 10
-601030.06
 20
-1159759.14
 10
-601031.84
 20
-1159798.08
 10
-601017.46
 20
-1159805
 10
-601012.67
 20
-1159747.71
 10
-601013.66
 20
-1159728.81
 10
-601025.465
 20
-1159690.78
 10
-601034.655
 20
-1159670.41
 10
-601047.92
 20
-1159652.46
 10
-601110.69
 20
-1159590.615
 10
-601152.27
 20
-1159555.2
 10
-601166.64
 20
-1159537.625
 10
-601186.78
 20
-1159514.33
 10
-601227.71
 20
-1159485.21
 10
-601256.96
 20
-1159467.4
 10
-601289.02
 20
-1159450.65
 10
-601314.1
 20
-1159436.08
 10
-601352.54
 20
-1159407.75
 10
-601377.79
 20
-1159380.04
 10
-601400.495
 20
-1159320.015
 10
-601408.18
 20
-1159285.46
 10
-601408.78
 20
-1159260.76
 10
-601403.625
 20
-1159240.835
 10
-601396.74
 20
-1159221.11
 10
-601385.61
 20
-1159189.66
 10
-601380.73
 20
-1159184.25
 10
-601376.61
 20
-1159148.3
 10
-601385.53
 20
-1159110.55
 10
-601394.2
 20
-1159089.045
 10
-601399.91
 20
-1159080.405
 10
-601417.42
 20
-1159061.855
 10
-601447.58
 20
-1159036.75
 10
-601473.26
 20
-1159012.06
 10
-601489.96
 20
-1158988.45
 10
-601506.085
 20
-1158954.38
 10
-601515.335
 20
-1158924.045
 10
-601516.14
 20
-1158884.545
 10
-601522.65
 20
-1158840.19
 10
-601550.26
 20
-1158796
 10
-601577.615
 20
-1158771.555
 10
-601613.345
 20
-1158749.55
 10
-601635.87
 20
-1158735.34
 10
-601655.34
 20
-1158717.23
 10
-601676.03
 20
-1158738.78
 97
0
 75
0
 76
1
 98
0
  0
HATCH
  5
20088
100
AcDbEntity
  8
vodní toky
100
AcDbHatch
 10
0
 20
0
 30
0
210
0
220
0
230
1
  2
SOLID
 70
1
 71
0
 91
1
 92
2
 72
0
 73
1
 93
80
 10
-608499.17
 20
-1152450.5475
 10
-608441.335
 20
-1152439.775
 10
-608438.62
 20
-1152397.42
 10
-608429.63
 20
-1152363.495
 10
-608417.555
 20
-1152339.36
 10
-608403.78
 20
-1152323.4
 10
-608372.26
 20
-1152302.92
 10
-608350.62
 20
-1152292.82
 10
-608336.31
 20
-1152278.4
 10
-608325.06
 20
-1152255.49
 10
-608319.21
 20
-1152229.86
 10
-608317.09
 20
-1152202.56
 10
-608314.97
 20
-1152175.26
 10
-608288.22
 20
-1152129.35
 10
-608277.7
 20
-1152074.81
 10
-608257.085
 20
-1152028.29
 10
-608265.055
 20
-1151969.785
 10
-608271.06
 20
-1151911.06
 10
-608245.4
 20
-1151888.29
 10
-608245.86
 20
-1151867.24
 10
-608234.65
 20
-1151856.04
 10
-608238.85
 20
-1151811
 10
-608253.23
 20
-1151773.48
 10
-608294.76
 20
-1151712.025
 10
-608352.6525
 20
-1151607.5156
 10
-608423.38
 20
-1151447.36
 10
-608424.29
 20
-1151417.29
 10
-608433.5559
 20
-1151417.5704
 10
-608418.13
 20
-1151406.0478
 10
-608401.04
 20
-1151382.055
 10
-608387.37
 20
-1151356.24
 10
-608371.695
 20
-1151321.7
 10
-608331.965
 20
-1151239.23
 10
-608289.1
 20
-1151136.49
 10
-608251.175
 20
-1151078.15
 10
-608211.28
 20
-1151016.77
 10
-608171.9
 20
-1150947.83
 10
-608146.84
 20
-1150923.5
 10
-608133.08
 20
-1150805.86
 10
-608128.19
 20
-1150799.64
 10
-608114.9
 20
-1150721.705
 10
-608106.97
 20
-1150669.22
 10
-608092.06
 20
-1150631.95
 10
-608095.96
 20
-1150616.92
 10
-608079.28
 20
-1150603.69
 10
-608077.75
 20
-1150563.15
 10
-608090.305
 20
-1150607.545
 10
-608098.68
 20
-1150609.42
 10
-608100.46
 20
-1150618.46
 10
-608095.33
 20
-1150632.38
 10
-608110.11
 20
-1150658.155
 10
-608140.835
 20
-1150673.36
 10
-608137.03
 20
-1150715.97
 10
-608149.67
 20
-1150810.775
 10
-608171.96
 20
-1150913.71
 10
-608241.245
 20
-1151031.355
 10
-608255.62
 20
-1151051.28
 10
-608280.37
 20
-1151077.27
 10
-608326.1
 20
-1151152.275
 10
-608361.125
 20
-1151224.19
 10
-608408.885
 20
-1151344
 10
-608443.005
 20
-1151420.415
 10
-608457.54
 20
-1151447.57
 10
-608468.73
 20
-1151500.16
 10
-608435.605
 20
-1151551.92
 10
-608411.84
 20
-1151608.3
 10
-608363.2625
 20
-1151691.1925
 10
-608294.195
 20
-1151815.745
 10
-608286.29
 20
-1151890.49
 10
-608299.69
 20
-1151901.97
 10
-608304.15
 20
-1152038.15
 10
-608324.99
 20
-1152094.33
 10
-608343.425
 20
-1152140.86
 10
-608359.39
 20
-1152178.7
 10
-608377.7995
 20
-1152224.9582
 10
-608388.53
 20
-1152249.55
 10
-608437.88
 20
-1152290.09
 10
-608465.02
 20
-1152324.39
 10
-608493.54
 20
-1152377.73
 10
-608499.17
 20
-1152450.5475
 97
0
 75
0
 76
1
 98
0
  0
HATCH
  5
20089
100
AcDbEntity
  8
vodní toky
100
AcDbHatch
 10
0
 20
0
 30
0
210
0
220
0
230
1
  2
SOLID
 70
1
 71
0
 91
1
 92
2
 72
0
 73
1
 93
214
 10
-605724.64
 20
-1153916.18
 10
-605686.815
 20
-1153896.38
 10
-605648.99
 20
-1153876.58
 10
-605664.62
 20
-1153870.82
 10
-605701.95
 20
-1153823.09
 10
-605711.56
 20
-1153804.73
 10
-605722.98
 20
-1153804.5
 10
-605749.31
 20
-1153807.87
 10
-605764.47
 20
-1153792.98
 10
-605763.83
 20
-1153764.18
 10
-605780.9
 20
-1153750.9
 10
-605776.27
 20
-1153728.64
 10
-605808.9
 20
-1153737.91
 10
-605828.71
 20
-1153737.07
 10
-605844.92
 20
-1153727.58
 10
-605873.15
 20
-1153728.01
 10
-605917.39
 20
-1153735.81
 10
-605991.51
 20
-1153754.57
 10
-606024.6
 20
-1153770.6
 10
-606084.19
 20
-1153782.53
 10
-606124.43
 20
-1153775.36
 10
-606158.77
 20
-1153741.92
 10
-606167.2
 20
-1153720.63
 10
-606157.4866
 20
-1153680.6459
 10
-606161.9566
 20
-1153659.2284
 10
-606166.4266
 20
-1153637.8109
 10
-606178.1466
 20
-1153615.2009
 10
-606179.2966
 20
-1153578.4409
 10
-606200.43
 20
-1153542.92
 10
-606199.54
 20
-1153525.8
 10
-606226.94
 20
-1153515.98
 10
-606259.61
 20
-1153509.51
 10
-606310.19
 20
-1153507.49
 10
-606348.3
 20
-1153503.29
 10
-606375.7
 20
-1153498.24
 10
-606383.42
 20
-1153457.59
 10
-606410.47
 20
-1153434.12
 10
-606407.27
 20
-1153415.28
 10
-606407.1
 20
-1153411.75
 10
-606424.57
 20
-1153393.66
 10
-606448.76
 20
-1153376.58
 10
-606481.02
 20
-1153366.49
 10
-606493.62
 20
-1153364.975
 10
-606506.22
 20
-1153363.46
 10
-606521.5
 20
-1153351.76
 10
-606530.56
 20
-1153325.67
 10
-606533.93
 20
-1153273.61
 10
-606537.29
 20
-1153252.66
 10
-606540.65
 20
-1153231.71
 10
-606523.34
 20
-1153186.28
 10
-606523
 20
-1153127.3
 10
-606522.16
 20
-1153074.97
 10
-606517.12
 20
-1153044.34
 10
-606525.86
 20
-1153019.76
 10
-606532.4
 20
-1152987.9
 10
-606516.97
 20
-1152969.54
 10
-606519.65
 20
-1152906.48
 10
-606531.825
 20
-1152877.18
 10
-606542.6
 20
-1152844.74
 10
-606534.32
 20
-1152836.55
 10
-606547.05
 20
-1152820.94
 10
-606555.96
 20
-1152831.4
 10
-606574.44
 20
-1152823.75
 10
-606593.3
 20
-1152807.81
 10
-606639.43
 20
-1152762.48
 10
-606674.99
 20
-1152718.7
 10
-606679.19
 20
-1152703.06
 10
-606695.53
 20
-1152690.94
 10
-606696.12
 20
-1152694.08
 10
-606706.41
 20
-1152701.54
 10
-606722.05
 20
-1152694.71
 10
-606732.95
 20
-1152675.61
 10
-606766.23
 20
-1152650.21
 10
-606822.79
 20
-1152626.94
 10
-606846.22
 20
-1152616.66
 10
-606910.805
 20
-1152574.065
 10
-606970.75
 20
-1152540.75
 10
-607024.35
 20
-1152514.27
 10
-607052.4
 20
-1152494.94
 10
-607104.02
 20
-1152473
 10
-607172.895
 20
-1152443.98
 10
-607214.29
 20
-1152421.69
 10
-607242.78
 20
-1152404.96
 10
-607276.52
 20
-1152389.58
 10
-607301.84
 20
-1152377.66
 10
-607369.23
 20
-1152353.78
 10
-607414.39
 20
-1152326.21
 10
-607440.83
 20
-1152295.73
 10
-607453.73
 20
-1152303.3
 10
-607461.67
 20
-1152293.7
 10
-607466.13
 20
-1152281.49
 10
-607542.38
 20
-1152250.42
 10
-607560.08
 20
-1152239.6
 10
-607587.075
 20
-1152229.99
 10
-607614.59
 20
-1152213.38
 10
-607646.3
 20
-1152202.7
 10
-607660.33
 20
-1152183.74
 10
-607687.66
 20
-1152179.65
 10
-607715.365
 20
-1152186.745
 10
-607740.72
 20
-1152197.88
 10
-607781.425
 20
-1152247.21
 10
-607800.285
 20
-1152288.275
 10
-607807.38
 20
-1152304.44
 10
-607848.295
 20
-1152366.565
 10
-607880.88
 20
-1152424.28
 10
-607893.235
 20
-1152465.465
 10
-607927.51
 20
-1152537.46
 10
-607939.21
 20
-1152555.83
 10
-607966.685
 20
-1152569.375
 10
-608001.32
 20
-1152576.4
 10
-608060.52
 20
-1152581.08
 10
-608123.64
 20
-1152562.75
 10
-608158.88
 20
-1152548.81
 10
-608211.13
 20
-1152519.71
 10
-608253.74
 20
-1152498.66
 10
-608277.84
 20
-1152495.59
 10
-608329.81
 20
-1152474.795
 10
-608349.03
 20
-1152469.6
 10
-608359.11
 20
-1152477.4
 10
-608369.19
 20
-1152485.2
 10
-608387.33
 20
-1152479.2
 10
-608419.92
 20
-1152475.16
 10
-608431.31
 20
-1152465.86
 10
-608441.335
 20
-1152439.775
 10
-608499.17
 20
-1152450.5475
 10
-608500.71
 20
-1152468.73
 10
-608494.86
 20
-1152481.48
 10
-608489.01
 20
-1152494.23
 10
-608445.5632
 20
-1152518.7609
 10
-608429.96
 20
-1152531.34
 10
-608426.14
 20
-1152532.99
 10
-608362.5285
 20
-1152558.5544
 10
-608283.615
 20
-1152586.705
 10
-608219.43
 20
-1152609.54
 10
-608181.22
 20
-1152612.54
 10
-608089.57
 20
-1152633.51
 10
-608065.7
 20
-1152636.53
 10
-607999.7
 20
-1152635.96
 10
-607979.9
 20
-1152631.875
 10
-607960.1
 20
-1152627.79
 10
-607932.05
 20
-1152631.57
 10
-607901.72
 20
-1152615.16
 10
-607896.67
 20
-1152578.1
 10
-607850.145
 20
-1152482.795
 10
-607831.38
 20
-1152450.22
 10
-607799.68
 20
-1152396.62
 10
-607751.11
 20
-1152327.84
 10
-607718.52
 20
-1152285.73
 10
-607689.335
 20
-1152268.69
 10
-607579.5807
 20
-1152291.7998
 10
-607482.7
 20
-1152331.04
 10
-607365.19
 20
-1152399.45
 10
-607276.43
 20
-1152437.49
 10
-607253.74
 20
-1152457.19
 10
-607211.3382
 20
-1152476.2501
 10
-607109.83
 20
-1152513.31
 10
-607096.26
 20
-1152521.7
 10
-607049.1
 20
-1152548.15
 10
-607040.23
 20
-1152552.09
 10
-606958.395
 20
-1152589.645
 10
-606871.65
 20
-1152646.51
 10
-606803.46
 20
-1152680.42
 10
-606752.7788
 20
-1152724.4047
 10
-606739.6
 20
-1152736.12
 10
-606727.945
 20
-1152745.405
 10
-606716.29
 20
-1152754.69
 10
-606683.7
 20
-1152794.87
 10
-606645.89
 20
-1152844.18
 10
-606635.795
 20
-1152850.79
 10
-606625.7
 20
-1152857.4
 10
-606595.08
 20
-1152924.15
 10
-606574.31
 20
-1153000
 10
-606563.47
 20
-1153051.04
 10
-606566.17
 20
-1153064.49
 10
-606570.585
 20
-1153122.005
 10
-606579.26
 20
-1153183.77
 10
-606596.01
 20
-1153239.47
 10
-606599.09
 20
-1153279.49
 10
-606591.4
 20
-1153339.66
 10
-606573.73
 20
-1153356.07
 10
-606569.21
 20
-1153383.87
 10
-606555.14
 20
-1153392.08
 10
-606530.4
 20
-1153400.51
 10
-606498.41
 20
-1153399.82
 10
-606461.5
 20
-1153410.94
 10
-606450.28
 20
-1153419.33
 10
-606432.45
 20
-1153453.25
 10
-606414.4
 20
-1153474.42
 10
-606412.045
 20
-1153486.32
 10
-606409.69
 20
-1153498.22
 10
-606403.24
 20
-1153511.75
 10
-606395.46
 20
-1153521.48
 10
-606386.71
 20
-1153529.49
 10
-606354.18
 20
-1153544.03
 10
-606322.2
 20
-1153547.33
 10
-606264.5
 20
-1153544.03
 10
-606238.79
 20
-1153553.15
 10
-606210.1191
 20
-1153587.5015
 10
-606193.77
 20
-1153674.72
 10
-606200.58
 20
-1153711.79
 10
-606200.55
 20
-1153736.16
 10
-606188.73
 20
-1153765.72
 10
-606145.57
 20
-1153800.47
 10
-606110.65
 20
-1153844.1
 10
-606034.42
 20
-1153851.91
 10
-605935.41
 20
-1153815.03
 10
-605889.88
 20
-1153811.06
 10
-605848.4
 20
-1153820.55
 10
-605830.25
 20
-1153827.9
 10
-605822.49
 20
-1153849.73
 10
-605796.47
 20
-1153872.05
 10
-605782.9
 20
-1153870.65
 10
-605736.83
 20
-1153908.44
 10
-605724.64
 20
-1153916.18
 97
0
 75
0
 76
1
 98
0
  0
HATCH
  5
2008A
100
AcDbEntity
  8
vodní toky
100
AcDbHatch
 10
0
 20
0
 30
0
210
0
220
0
230
1
  2
SOLID
 70
1
 71
0
 91
1
 92
2
 72
0
 73
1
 93
82
 10
-603422.61
 20
-1156139.75
 10
-603417.84
 20
-1156122.17
 10
-603418.3375
 20
-1156121.9209
 10
-603419.8
 20
-1156125.44
 10
-603431.32
 20
-1156124.14
 10
-603438.5085
 20
-1156125.5704
 10
-603441.8845
 20
-1156125.3402
 10
-603442.285
 20
-1156125.73
 10
-603471.59
 20
-1156128.4
 10
-603534.26
 20
-1156138.49
 10
-603535.26
 20
-1156136.11
 10
-603556.48
 20
-1156141
 10
-603572.39
 20
-1156141.59
 10
-603602.84
 20
-1156135.49
 10
-603620.64
 20
-1156127.88
 10
-603624.9356
 20
-1156125.4771
 10
-603638.77
 20
-1156116.18
 10
-603640.29
 20
-1156114.595
 10
-603656.85
 20
-1156098.59
 10
-603666.83
 20
-1156086.965
 10
-603668.5093
 20
-1156084.918
 10
-603688.27
 20
-1156052.01
 10
-603699.89
 20
-1156033.11
 10
-603702.51
 20
-1156028.71
 10
-603723.56
 20
-1156000.22
 10
-603732.43
 20
-1155990.94
 10
-603746.135
 20
-1155978.745
 10
-603761.086
 20
-1155967.5416
 10
-603778.28
 20
-1155957.27
 10
-603792.2568
 20
-1155949.7979
 10
-603813.89
 20
-1155942.08
 10
-603828.32
 20
-1155938.59
 10
-603851.82
 20
-1155933.74
 10
-603883.02
 20
-1155931.88
 10
-603901.79
 20
-1155932.37
 10
-603979.8
 20
-1155936.36
 10
-604022.08
 20
-1155938.84
 10
-604047.19
 20
-1155937.35
 10
-604060.87
 20
-1155935.73
 10
-604071.855
 20
-1155933.425
 10
-604082.84
 20
-1155931.12
 10
-604083.06
 20
-1155932.24
 10
-604111.26
 20
-1155925.64
 10
-604113.11
 20
-1155934.02
 10
-604141.3
 20
-1155927.54
 10
-604148.9
 20
-1155925.8
 10
-604156.5
 20
-1155924.06
 10
-604159.74
 20
-1155936.96
 10
-604144.88
 20
-1155940.22
 10
-604127.2627
 20
-1155944.0849
 10
-604113.52
 20
-1155947.51
 10
-604088.12
 20
-1155952.43
 10
-604073.46
 20
-1155953.81
 10
-604049.78
 20
-1155953.875
 10
-604011.755
 20
-1155952.565
 10
-603973.195
 20
-1155950.5675
 10
-603919.21
 20
-1155947.85
 10
-603900.645
 20
-1155947.415
 10
-603869.67
 20
-1155947.54
 10
-603857.26
 20
-1155948.1
 10
-603850.08
 20
-1155948.85
 10
-603816.11
 20
-1155957.32
 10
-603793.505
 20
-1155967.1
 10
-603775.46
 20
-1155977.45
 10
-603745.67
 20
-1156000
 10
-603728.655
 20
-1156021.125
 10
-603720.32
 20
-1156032.01
 10
-603704.967
 20
-1156056.26
 10
-603694.32
 20
-1156074.63
 10
-603678.78
 20
-1156098.6225
 10
-603671.5039
 20
-1156109.8563
 10
-603650.5807
 20
-1156131.3472
 10
-603629.94
 20
-1156151.06
 10
-603597.3035
 20
-1156164.8939
 10
-603586.42
 20
-1156167.41
 10
-603570.54
 20
-1156168.72
 10
-603556.225
 20
-1156168.1746
 10
-603530.7416
 20
-1156161.2897
 10
-603497.8418
 20
-1156148.5364
 10
-603463.0938
 20
-1156140.7735
 10
-603442.01
 20
-1156138.73
 10
-603422.61
 20
-1156139.75
 97
0
 75
0
 76
1
 98
0
  0
HATCH
  5
2008B
100
AcDbEntity
  8
vodní toky
100
AcDbHatch
 10
0
 20
0
 30
0
210
0
220
0
230
1
  2
SOLID
 70
1
 71
0
 91
1
 92
2
 72
0
 73
1
 93
48
 10
-597279.62
 20
-1162240.54
 10
-597281.61
 20
-1162252.7
 10
-597283.65
 20
-1162269.62
 10
-597282.19
 20
-1162281.66
 10
-597281.27
 20
-1162288.87
 10
-597264.41
 20
-1162294.21
 10
-597218.82
 20
-1162297.49
 10
-597208.03
 20
-1162304.13
 10
-597201.61
 20
-1162318.62
 10
-597202.02
 20
-1162321.45
 10
-597200.75
 20
-1162335.94
 10
-597201.68
 20
-1162351.54
 10
-597202.79
 20
-1162357.02
 10
-597216.37
 20
-1162392.67
 10
-597221.2
 20
-1162403.82
 10
-597224.67
 20
-1162417.91
 10
-597225.12
 20
-1162421.42
 10
-597223.78
 20
-1162431.98
 10
-597222.79
 20
-1162438.79
 10
-597220.41
 20
-1162439.99
 10
-597208.7
 20
-1162439.15
 10
-597207.01
 20
-1162436.47
 10
-597208.88
 20
-1162418.78
 10
-597207.85
 20
-1162407.41
 10
-597198.79
 20
-1162379.31
 10
-597193.59
 20
-1162363.19
 10
-597191.93
 20
-1162358.56
 10
-597191.1
 20
-1162356.25
 10
-597189.6
 20
-1162346.54
 10
-597188.98
 20
-1162331.38
 10
-597189.27
 20
-1162329.6
 10
-597190.06
 20
-1162322.04
 10
-597191.2
 20
-1162314.82
 10
-597191.36
 20
-1162314.29
 10
-597196.34
 20
-1162316.31
 10
-597196.92
 20
-1162312.74
 10
-597202.91
 20
-1162298.2
 10
-597205.47
 20
-1162294.78
 10
-597225.63
 20
-1162287.98
 10
-597230.92
 20
-1162287.35
 10
-597236.21
 20
-1162286.72
 10
-597241.18
 20
-1162287.05
 10
-597265.22
 20
-1162287.37
 10
-597269.01
 20
-1162286.58
 10
-597272.8
 20
-1162285.07
 10
-597277.1
 20
-1162270.09
 10
-597275.27
 20
-1162240.6
 10
-597279.62
 20
-1162240.54
 97
0
 75
0
 76
1
 98
0
  0
HATCH
  5
2008C
100
AcDbEntity
  8
vodní toky
100
AcDbHatch
 10
0
 20
0
 30
0
210
0
220
0
230
1
  2
SOLID
 70
1
 71
0
 91
1
 92
2
 72
0
 73
1
 93
16
 10
-590161.7247
 20
-1158728.0311
 10
-590176.74
 20
-1158738.16
 10
-590183.78
 20
-1158741.55
 10
-590187.43
 20
-1158742.62
 10
-590194.06
 20
-1158751.06
 10
-590212.51
 20
-1158770.655
 10
-590230.96
 20
-1158790.25
 10
-590236.31
 20
-1158799.97
 10
-590229.07
 20
-1158803.07
 10
-590210.195
 20
-1158780.265
 10
-590191.32
 20
-1158757.46
 10
-590185.08
 20
-1158751.585
 10
-590178.84
 20
-1158745.71
 10
-590166.18
 20
-1158736.11
 10
-590159.68
 20
-1158732.825
 10
-590161.7247
 20
-1158728.0311
 97
0
 75
0
 76
1
 98
0
  0
HATCH
  5
2008D
100
AcDbEntity
  8
vodní toky
100
AcDbHatch
 10
0
 20
0
 30
0
210
0
220
0
230
1
  2
SOLID
 70
1
 71
0
 91
1
 92
2
 72
0
 73
1
 93
32
 10
-597222.23
 20
-1162445.66
 10
-597222.23
 20
-1162446.72
 10
-597222.04
 20
-1162467.12
 10
-597228.86
 20
-1162482.97
 10
-597233.77
 20
-1162488.35
 10
-597238.11
 20
-1162490.89
 10
-597257.63
 20
-1162502.16
 10
-597257.21
 20
-1162502.84
 10
-597273.2
 20
-1162510.57
 10
-597293.67
 20
-1162521.34
 10
-597303.17
 20
-1162530.87
 10
-597326.7
 20
-1162551.52
 10
-597329.34
 20
-1162554.28
 10
-597314.6
 20
-1162552.38
 10
-597311.39
 20
-1162549.77
 10
-597307.33
 20
-1162549.31
 10
-597295.83
 20
-1162540.57
 10
-597267.53
 20
-1162523.25
 10
-597234.24
 20
-1162503.65
 10
-597226.06
 20
-1162497.52
 10
-597221.19
 20
-1162493.99
 10
-597214.67
 20
-1162486.38
 10
-597211.85
 20
-1162480.97
 10
-597208.62
 20
-1162475.56
 10
-597206.99
 20
-1162462.08
 10
-597205.86
 20
-1162461.85
 10
-597205.32
 20
-1162454.22
 10
-597206.2
 20
-1162444.38
 10
-597207.72
 20
-1162444.53
 10
-597208.43
 20
-1162443.42
 10
-597220.25
 20
-1162444.33
 10
-597222.23
 20
-1162445.66
 97
0
 75
0
 76
1
 98
0
  0
HATCH
  5
2008E
100
AcDbEntity
  8
vodní toky
100
AcDbHatch
 10
0
 20
0
 30
0
210
0
220
0
230
1
  2
SOLID
 70
1
 71
0
 91
1
 92
2
 72
0
 73
1
 93
27
 10
-597336.84
 20
-1162568.2
 10
-597338.95
 20
-1162575.17
 10
-597339.73
 20
-1162593.5
 10
-597338.36
 20
-1162593.85
 10
-597336.82
 20
-1162607.15
 10
-597332.94
 20
-1162619.3
 10
-597330.59
 20
-1162625.3
 10
-597328.47
 20
-1162646.05
 10
-597329.78
 20
-1162646.68
 10
-597327.3623
 20
-1162658.4698
 10
-597325.96
 20
-1162661.81
 10
-597321.65
 20
-1162667.78
 10
-597320
 20
-1162666.95
 10
-597319.1617
 20
-1162665.8734
 10
-597316.5
 20
-1162662.42
 10
-597314.44
 20
-1162658.28
 10
-597315.61
 20
-1162649.85
 10
-597316.98
 20
-1162646.73
 10
-597320.05
 20
-1162646.29
 10
-597320.31
 20
-1162643.9
 10
-597321.23
 20
-1162631.25
 10
-597324.74
 20
-1162614.36
 10
-597328.56
 20
-1162601.6
 10
-597331.11
 20
-1162586.62
 10
-597329.68
 20
-1162576.27
 10
-597327.56
 20
-1162567.15
 10
-597336.84
 20
-1162568.2
 97
0
 75
0
 76
1
 98
0
  0
HATCH
  5
2008F
100
AcDbEntity
  8
vodní toky
100
AcDbHatch
 10
0
 20
0
 30
0
210
0
220
0
230
1
  2
SOLID
 70
1
 71
0
 91
1
 92
2
 72
0
 73
1
 93
10
 10
-597375.939
 20
-1162673.5333
 10
-597359.94
 20
-1162678.34
 10
-597356.41
 20
-1162679.26
 10
-597350.61
 20
-1162680.33
 10
-597344.95
 20
-1162679.2
 10
-597353.03
 20
-1162673.87
 10
-597352.94
 20
-1162672.72
 10
-597358.73
 20
-1162671.72
 10
-597375.11
 20
-1162664.16
 10
-597375.939
 20
-1162673.5333
 97
0
 75
0
 76
1
 98
0
  0
HATCH
  5
20090
100
AcDbEntity
  8
vodní toky
100
AcDbHatch
 10
0
 20
0
 30
0
210
0
220
0
230
1
  2
SOLID
 70
1
 71
0
 91
1
 92
2
 72
0
 73
1
 93
4
 10
-597375.95
 20
-1162673.53
 10
-597375.99
 20
-1162674.11
 10
-597375.939
 20
-1162673.5333
 10
-597375.95
 20
-1162673.53
 97
0
 75
0
 76
1
 98
0
  0
HATCH
  5
20091
100
AcDbEntity
  8
vodní toky
100
AcDbHatch
 10
0
 20
0
 30
0
210
0
220
0
230
1
  2
SOLID
 70
1
 71
0
 91
1
 92
2
 72
0
 73
1
 93
8
 10
-597396.85
 20
-1162666.13
 10
-597395.46
 20
-1162656.83
 10
-597447.18
 20
-1162651.57
 10
-597483.32
 20
-1162650.64
 10
-597502.25
 20
-1162655.02
 10
-597501.84
 20
-1162660.29
 10
-597447.36
 20
-1162655.25
 10
-597396.85
 20
-1162666.13
 97
0
 75
0
 76
1
 98
0
  0
HATCH
  5
20092
100
AcDbEntity
  8
vodní toky
100
AcDbHatch
 10
0
 20
0
 30
0
210
0
220
0
230
1
  2
SOLID
 70
1
 71
0
 91
1
 92
2
 72
0
 73
1
 93
34
 10
-597510.42
 20
-1162656.89
 10
-597511.99
 20
-1162657.28
 10
-597538.81
 20
-1162666.73
 10
-597554.44
 20
-1162674.07
 10
-597577.78
 20
-1162687.76
 10
-597583.02
 20
-1162689.83
 10
-597598.9
 20
-1162699.58
 10
-597627.32
 20
-1162729.99
 10
-597643.43
 20
-1162749.99
 10
-597647.83
 20
-1162756.15
 10
-597657.78
 20
-1162775.77
 10
-597673.19
 20
-1162822.78
 10
-597676.53
 20
-1162841.27
 10
-597679.28
 20
-1162855.81
 10
-597670.61
 20
-1162873.35
 10
-597674.94
 20
-1162856.04
 10
-597671.02
 20
-1162842.58
 10
-597670.59
 20
-1162841.11
 10
-597667.67
 20
-1162823.08
 10
-597662.74
 20
-1162805.86
 10
-597657.54
 20
-1162787.56
 10
-597645.3
 20
-1162759.58
 10
-597639.24
 20
-1162752.35
 10
-597629.25
 20
-1162742.1
 10
-597615.7
 20
-1162731.37
 10
-597608.97
 20
-1162719.74
 10
-597599.01
 20
-1162709
 10
-597592.02
 20
-1162703.48
 10
-597581.61
 20
-1162697.1
 10
-597577.75
 20
-1162693.83
 10
-597549.53
 20
-1162679.08
 10
-597511.55
 20
-1162663.24
 10
-597510.03
 20
-1162662.59
 10
-597510.42
 20
-1162656.89
 97
0
 75
0
 76
1
 98
0
  0
HATCH
  5
20093
100
AcDbEntity
  8
vodní toky
100
AcDbHatch
 10
0
 20
0
 30
0
210
0
220
0
230
1
  2
SOLID
 70
1
 71
0
 91
1
 92
2
 72
0
 73
1
 93
293
 10
-603055.35
 20
-1157443.44
 10
-603044.91
 20
-1157451.16
 10
-603038.19
 20
-1157470.39
 10
-603040.73
 20
-1157484.29
 10
-603009.12
 20
-1157515.75
 10
-602972.62
 20
-1157551.75
 10
-602953.81
 20
-1157565.5
 10
-602946.56
 20
-1157574.75
 10
-602940.5
 20
-1157581.25
 10
-602931.56
 20
-1157589.5
 10
-602918.68
 20
-1157603
 10
-602903.12
 20
-1157617.75
 10
-602887.38
 20
-1157632.62
 10
-602872.88
 20
-1157647.62
 10
-602856.81
 20
-1157659.75
 10
-602839.25
 20
-1157671.5
 10
-602837.73
 20
-1157670.12
 10
-602831.02
 20
-1157672.42
 10
-602819.4
 20
-1157679.85
 10
-602809.59
 20
-1157685.91
 10
-602798.14
 20
-1157692.97
 10
-602787.55
 20
-1157699.49
 10
-602764.36
 20
-1157703.5
 10
-602732.01
 20
-1157714.12
 10
-602686.89
 20
-1157723.08
 10
-602648.65
 20
-1157719.2
 10
-602602.44
 20
-1157731.88
 10
-602575.09
 20
-1157741.46
 10
-602547.03
 20
-1157743.15
 10
-602535.95
 20
-1157748.32
 10
-602512.17
 20
-1157753.82
 10
-602456.36
 20
-1157757.93
 10
-602427.04
 20
-1157752.14
 10
-602398.91
 20
-1157747.22
 10
-602384.49
 20
-1157741.19
 10
-602363.27
 20
-1157738.11
 10
-602347.44
 20
-1157740.54
 10
-602337.73
 20
-1157738.43
 10
-602310.53
 20
-1157734.47
 10
-602291.71
 20
-1157731.73
 10
-602276.74
 20
-1157729.45
 10
-602255.53
 20
-1157726.22
 10
-602249.34
 20
-1157725.27
 10
-602243.36
 20
-1157724.37
 10
-602235.58
 20
-1157723.18
 10
-602228.08
 20
-1157722.03
 10
-602202.67
 20
-1157718.16
 10
-602182.6
 20
-1157716.57
 10
-602168.96
 20
-1157715.49
 10
-602152.5
 20
-1157714.25
 10
-602151.05
 20
-1157714.14
 10
-602138.66
 20
-1157714.24
 10
-602126.68
 20
-1157714.34
 10
-602116.2
 20
-1157715.18
 10
-602091.02
 20
-1157717.21
 10
-602066.28
 20
-1157722.39
 10
-602044.16
 20
-1157730.05
 10
-602013.76
 20
-1157743.23
 10
-601970.47
 20
-1157766.8
 10
-601967.12
 20
-1157768.62
 10
-601957.98
 20
-1157784.48
 10
-601957.63
 20
-1157788.05
 10
-601957.23
 20
-1157789.6
 10
-601953.65
 20
-1157803.22
 10
-601947.13
 20
-1157814.68
 10
-601932.17
 20
-1157853.21
 10
-601930.71
 20
-1157856.68
 10
-601929.99
 20
-1157858.74
 10
-601929.5
 20
-1157860.07
 10
-601925.53
 20
-1157869.96
 10
-601922.48
 20
-1157903.68
 10
-601921.22
 20
-1157917.89
 10
-601920.75
 20
-1157924.87
 10
-601920.28
 20
-1157931.99
 10
-601919.92
 20
-1157944.69
 10
-601918.05
 20
-1157956.51
 10
-601917.55
 20
-1157967.5
 10
-601917.69
 20
-1157978.93
 10
-601917.93
 20
-1157989.72
 10
-601920.13
 20
-1158000.1
 10
-601923.02
 20
-1158022.44
 10
-601924.01
 20
-1158030.93
 10
-601925.13
 20
-1158041.26
 10
-601927.36
 20
-1158050.84
 10
-601927.84
 20
-1158058.99
 10
-601927.85
 20
-1158067.25
 10
-601927.1
 20
-1158075.33
 10
-601925.42
 20
-1158093.35
 10
-601916.59
 20
-1158137.77
 10
-601911.67
 20
-1158164.66
 10
-601903.45
 20
-1158212.24
 10
-601899.78
 20
-1158231.84
 10
-601896.7
 20
-1158249.78
 10
-601896.1
 20
-1158251.65
 10
-601893.21
 20
-1158260.86
 10
-601889.66
 20
-1158269.84
 10
-601884.46
 20
-1158280.53
 10
-601881.68
 20
-1158288.24
 10
-601877.85
 20
-1158298.23
 10
-601873.87
 20
-1158306.89
 10
-601872.04
 20
-1158315.55
 10
-601868.19
 20
-1158324.26
 10
-601860.41
 20
-1158333.99
 10
-601859.31
 20
-1158341.44
 10
-601848.47
 20
-1158361.66
 10
-601846.89
 20
-1158367.94
 10
-601844.3
 20
-1158375.23
 10
-601842.73
 20
-1158380.24
 10
-601841.47
 20
-1158384.77
 10
-601840.81
 20
-1158389.9
 10
-601840.19
 20
-1158395.01
 10
-601839.24
 20
-1158399.33
 10
-601837.26
 20
-1158403.12
 10
-601833.97
 20
-1158406.55
 10
-601829.62
 20
-1158411.13
 10
-601826.54
 20
-1158414.7
 10
-601824.75
 20
-1158417.37
 10
-601824.06
 20
-1158420.31
 10
-601825.01
 20
-1158420.54
 10
-601824.26
 20
-1158432.81
 10
-601823.37
 20
-1158438.91
 10
-601826.04
 20
-1158440.18
 10
-601829.25
 20
-1158492.02
 10
-601828.87
 20
-1158492.4
 10
-601828.84
 20
-1158507.72
 10
-601829.82
 20
-1158509.53
 10
-601828.98
 20
-1158520.76
 10
-601830.22
 20
-1158541.69
 10
-601828.34
 20
-1158557.98
 10
-601823.39
 20
-1158591.9
 10
-601821.1
 20
-1158606.32
 10
-601814.71
 20
-1158625.09
 10
-601801.26
 20
-1158654.97
 10
-601791.57
 20
-1158669.41
 10
-601781.69
 20
-1158686.93
 10
-601772.29
 20
-1158690.56
 10
-601761.32
 20
-1158694.68
 10
-601750.71
 20
-1158701.63
 10
-601737.04
 20
-1158708.23
 10
-601720.08
 20
-1158714.44
 10
-601708.22
 20
-1158720.92
 10
-601687.81
 20
-1158731.53
 10
-601683.08
 20
-1158725.53
 10
-601674.66
 20
-1158715.06
 10
-601661.59
 20
-1158699.02
 10
-601651.8
 20
-1158686.8
 10
-601648.34
 20
-1158682.38
 10
-601686.59
 20
-1158673.04
 10
-601724.88
 20
-1158658.32
 10
-601731.21
 20
-1158655.16
 10
-601750.66
 20
-1158638.12
 10
-601754.18
 20
-1158635
 10
-601768.11
 20
-1158610.06
 10
-601777.29
 20
-1158585.23
 10
-601781.74
 20
-1158557.35
 10
-601784.21
 20
-1158544.06
 10
-601786.58
 20
-1158518.07
 10
-601786.67
 20
-1158472.41
 10
-601784.76
 20
-1158472.4
 10
-601785.07
 20
-1158468.99
 10
-601785.68
 20
-1158466.2
 10
-601785.28
 20
-1158427.43
 10
-601785.43
 20
-1158422.26
 10
-601786.15
 20
-1158412.01
 10
-601786.34
 20
-1158407.05
 10
-601786.31
 20
-1158402.46
 10
-601787.28
 20
-1158398.28
 10
-601789.21
 20
-1158389.24
 10
-601790.88
 20
-1158384.84
 10
-601792.18
 20
-1158380.91
 10
-601793.78
 20
-1158376.09
 10
-601797.45
 20
-1158367.52
 10
-601802.83
 20
-1158355.19
 10
-601805.43
 20
-1158347.16
 10
-601810.98
 20
-1158337.74
 10
-601822.2
 20
-1158298.51
 10
-601826.69
 20
-1158286.46
 10
-601829.54
 20
-1158287.89
 10
-601840.77
 20
-1158267.63
 10
-601847.24
 20
-1158268.22
 10
-601850.54
 20
-1158259.95
 10
-601849.92
 20
-1158247.5
 10
-601851.82
 20
-1158231.14
 10
-601859.26
 20
-1158200.4
 10
-601864.1
 20
-1158194.91
 10
-601867.39
 20
-1158185.83
 10
-601873.73
 20
-1158168.75
 10
-601876.3
 20
-1158161.87
 10
-601878.09
 20
-1158153.99
 10
-601881.32
 20
-1158140.9
 10
-601883.75
 20
-1158131.36
 10
-601888.61
 20
-1158115.43
 10
-601890.09
 20
-1158095.39
 10
-601890.95
 20
-1158086.34
 10
-601888.94
 20
-1158075.83
 10
-601888.42
 20
-1158067.6
 10
-601887.51
 20
-1158061.18
 10
-601886.3
 20
-1158052.1
 10
-601886.37
 20
-1158043.31
 10
-601886.6
 20
-1158033.23
 10
-601886.36
 20
-1158025.38
 10
-601882.74
 20
-1158016.3
 10
-601876.98
 20
-1158004.63
 10
-601869.09
 20
-1157992
 10
-601864.61
 20
-1157966.13
 10
-601857.71
 20
-1157959.17
 10
-601851.52
 20
-1157952.94
 10
-601851.21
 20
-1157935.32
 10
-601852.75
 20
-1157917.91
 10
-601858.75
 20
-1157914.01
 10
-601864.2
 20
-1157871.2
 10
-601868.25
 20
-1157860.23
 10
-601878.39
 20
-1157833.92
 10
-601878.44
 20
-1157832.69
 10
-601893.44
 20
-1157815.86
 10
-601897
 20
-1157811.45
 10
-601908.24
 20
-1157791.41
 10
-601912.19
 20
-1157776.93
 10
-601912.59
 20
-1157775.34
 10
-601913.77
 20
-1157770.83
 10
-601913.71
 20
-1157770.2
 10
-601913.24
 20
-1157769.95
 10
-601912.14
 20
-1157769.79
 10
-601914.4
 20
-1157761.35
 10
-601917.46
 20
-1157762.03
 10
-601919.36
 20
-1157757.8
 10
-601938.62
 20
-1157742.74
 10
-601941.84
 20
-1157740.05
 10
-601952.08
 20
-1157731.52
 10
-601966.7012
 20
-1157721.0946
 10
-601981.6
 20
-1157711.07
 10
-601986.38
 20
-1157708.1
 10
-602006.51
 20
-1157699.83
 10
-602027.04
 20
-1157691.43
 10
-602041.63
 20
-1157685.45
 10
-602054.15
 20
-1157681.12
 10
-602075.5
 20
-1157676.42
 10
-602087.92
 20
-1157674.19
 10
-602117.79
 20
-1157672.92
 10
-602126.24
 20
-1157672.73
 10
-602133.02
 20
-1157673.4
 10
-602142.47
 20
-1157674.7
 10
-602153.5
 20
-1157674.96
 10
-602165.95
 20
-1157675.42
 10
-602178.22
 20
-1157677.14
 10
-602201.21
 20
-1157680.61
 10
-602217.54
 20
-1157683.08
 10
-602271.39
 20
-1157691.51
 10
-602342.95
 20
-1157700.9
 10
-602430.21
 20
-1157714.33
 10
-602468.33
 20
-1157711.77
 10
-602501.13
 20
-1157707.45
 10
-602511.06
 20
-1157704.76
 10
-602540.72
 20
-1157697.01
 10
-602560.92
 20
-1157691.66
 10
-602578.41
 20
-1157687.62
 10
-602607.75
 20
-1157680.84
 10
-602624.89
 20
-1157677.42
 10
-602642.28
 20
-1157673.14
 10
-602644.3
 20
-1157671.38
 10
-602650.95
 20
-1157670.31
 10
-602651.48
 20
-1157672.96
 10
-602662.54
 20
-1157674.5
 10
-602679.29
 20
-1157668.27
 10
-602681.11
 20
-1157668.07
 10
-602703.71
 20
-1157658.18
 10
-602719.32
 20
-1157651.33
 10
-602739.27
 20
-1157641.49
 10
-602739.11
 20
-1157640.83
 10
-602748.71
 20
-1157636.67
 10
-602748.94
 20
-1157637.23
 10
-602759.95
 20
-1157632.23
 10
-602775.28
 20
-1157624.58
 10
-602800.1
 20
-1157614.02
 10
-602798.52
 20
-1157611.17
 10
-602807.67
 20
-1157604.46
 10
-602810.68
 20
-1157600.58
 10
-602818.43
 20
-1157595.37
 10
-602851.81
 20
-1157572.46
 10
-602887.7
 20
-1157542.17
 10
-602903.38
 20
-1157528.93
 10
-602919.63
 20
-1157515.65
 10
-602929.36
 20
-1157507.69
 10
-602945.98
 20
-1157487.38
 10
-602951.72
 20
-1157482.13
 10
-602969.04
 20
-1157462.1
 10
-602984.41
 20
-1157444.33
 10
-602999
 20
-1157423.97
 10
-603001.85
 20
-1157418.6
 10
-603005.25
 20
-1157420.13
 10
-603020.7
 20
-1157427.07
 10
-603050.76
 20
-1157441.27
 10
-603055.35
 20
-1157443.44
 97
0
 75
0
 76
1
 98
0
  0
HATCH
  5
20094
100
AcDbEntity
  8
vodní toky
100
AcDbHatch
 10
0
 20
0
 30
0
210
0
220
0
230
1
  2
SOLID
 70
1
 71
0
 91
1
 92
2
 72
0
 73
1
 93
14
 10
-600968.85
 20
-1156572.56
 10
-600963.83
 20
-1156589.1
 10
-600958.4
 20
-1156601.87
 10
-600949.88
 20
-1156618.45
 10
-600947.79
 20
-1156628.3
 10
-600946.5
 20
-1156634.38
 10
-600946.79
 20
-1156636.94
 10
-600944.33
 20
-1156637.04
 10
-600943.98
 20
-1156635.2
 10
-600947.58
 20
-1156618.22
 10
-600955.4
 20
-1156603.39
 10
-600961.82
 20
-1156588.26
 10
-600966.65
 20
-1156572.29
 10
-600968.85
 20
-1156572.56
 97
0
 75
0
 76
1
 98
0
  0
HATCH
  5
20095
100
AcDbEntity
  8
vodní toky
100
AcDbHatch
 10
0
 20
0
 30
0
210
0
220
0
230
1
  2
SOLID
 70
1
 71
0
 91
1
 92
2
 72
0
 73
1
 93
29
 10
-600953.25
 20
-1156653.61
 10
-600960.41
 20
-1156658.47
 10
-600973.93
 20
-1156664.9
 10
-600991.31
 20
-1156675.81
 10
-600996.57
 20
-1156679.75
 10
-601007.46
 20
-1156683.74
 10
-601038.2
 20
-1156696.64
 10
-601041.12
 20
-1156699.34
 10
-601056.01
 20
-1156713.08
 10
-601062.22
 20
-1156718.81
 10
-601064.87
 20
-1156721.2
 10
-601075.75
 20
-1156747.35
 10
-601076.59
 20
-1156775.82
 10
-601071.37
 20
-1156787.4
 10
-601064.27
 20
-1156804.21
 10
-601061.24
 20
-1156814.4
 10
-601062.24
 20
-1156840.74
 10
-601059.02
 20
-1156840.84
 10
-601056.62
 20
-1156813.58
 10
-601074.3
 20
-1156777.21
 10
-601074.45
 20
-1156747.85
 10
-601063.57
 20
-1156722.38
 10
-601052.07
 20
-1156712.35
 10
-601043.8116
 20
-1156706.9373
 10
-601029.76
 20
-1156698.74
 10
-601013.08
 20
-1156689.64
 10
-600988.22
 20
-1156676.15
 10
-600958.07
 20
-1156660.01
 10
-600953.25
 20
-1156653.61
 97
0
 75
0
 76
1
 98
0
  0
HATCH
  5
20096
100
AcDbEntity
  8
vodní toky
100
AcDbHatch
 10
0
 20
0
 30
0
210
0
220
0
230
1
  2
SOLID
 70
1
 71
0
 91
1
 92
2
 72
0
 73
1
 93
12
 10
-601062.08
 20
-1156843.64
 10
-601062.73
 20
-1156853.25
 10
-601067.54
 20
-1156922.96
 10
-601069.54
 20
-1156933
 10
-601066.02
 20
-1156933.5
 10
-601065.82
 20
-1156929.02
 10
-601065.1
 20
-1156912.32
 10
-601064.19
 20
-1156892.83
 10
-601062.55
 20
-1156878.17
 10
-601061.92
 20
-1156870.33
 10
-601059.28
 20
-1156843.72
 10
-601062.08
 20
-1156843.64
 97
0
 75
0
 76
1
 98
0
  0
HATCH
  5
20097
100
AcDbEntity
  8
vodní toky
100
AcDbHatch
 10
0
 20
0
 30
0
210
0
220
0
230
1
  2
SOLID
 70
1
 71
0
 91
1
 92
2
 72
0
 73
1
 93
35
 10
-598801.15
 20
-1155423.52
 10
-598801.1512
 20
-1155423.521
 10
-598801.8
 20
-1155421.42
 10
-598840.32
 20
-1155416.26
 10
-598849.34
 20
-1155432.53
 10
-598849.85
 20
-1155433.7
 10
-598852.6
 20
-1155439.5
 10
-598865.62
 20
-1155461.94
 10
-598868.84
 20
-1155469.07
 10
-598871.1
 20
-1155474.08
 10
-598878.58
 20
-1155481.68
 10
-598883.42
 20
-1155497.91
 10
-598880.11
 20
-1155514.83
 10
-598857.73
 20
-1155551.97
 10
-598849.7
 20
-1155564.85
 10
-598848.16
 20
-1155581.55
 10
-598846.61
 20
-1155581.6
 10
-598831.36
 20
-1155582.1
 10
-598820.84
 20
-1155582.47
 10
-598846.53
 20
-1155538.7
 10
-598865.68
 20
-1155505.4
 10
-598865.75
 20
-1155503.46
 10
-598865.9
 20
-1155499.58
 10
-598863.11
 20
-1155494.18
 10
-598847.6
 20
-1155475.43
 10
-598841.13
 20
-1155469.12
 10
-598836.26
 20
-1155465.41
 10
-598794.86
 20
-1155444.35
 10
-598790.86
 20
-1155442.29
 10
-598791.67
 20
-1155440.25
 10
-598797.1
 20
-1155432.64
 10
-598796.8
 20
-1155432.6
 10
-598799.21
 20
-1155428.29
 10
-598800.69
 20
-1155425.04
 10
-598801.15
 20
-1155423.52
 97
0
 75
0
 76
1
 98
0
  0
HATCH
  5
20098
100
AcDbEntity
  8
vodní toky
100
AcDbHatch
 10
0
 20
0
 30
0
210
0
220
0
230
1
  2
SOLID
 70
1
 71
0
 91
1
 92
2
 72
0
 73
1
 93
34
 10
-598846.53
 20
-1155538.7
 10
-598865.68
 20
-1155505.4
 10
-598865.75
 20
-1155503.46
 10
-598865.9
 20
-1155499.58
 10
-598863.11
 20
-1155494.18
 10
-598847.6
 20
-1155475.43
 10
-598841.13
 20
-1155469.12
 10
-598836.26
 20
-1155465.41
 10
-598794.86
 20
-1155444.35
 10
-598790.86
 20
-1155442.29
 10
-598791.67
 20
-1155440.25
 10
-598797.1
 20
-1155432.64
 10
-598796.8
 20
-1155432.6
 10
-598799.21
 20
-1155428.29
 10
-598800.69
 20
-1155425.04
 10
-598801.1506
 20
-1155423.5205
 10
-598801.8
 20
-1155421.42
 10
-598840.32
 20
-1155416.26
 10
-598849.34
 20
-1155432.53
 10
-598849.85
 20
-1155433.7
 10
-598852.6
 20
-1155439.5
 10
-598865.62
 20
-1155461.94
 10
-598868.84
 20
-1155469.07
 10
-598871.1
 20
-1155474.08
 10
-598878.58
 20
-1155481.68
 10
-598883.42
 20
-1155497.91
 10
-598880.11
 20
-1155514.83
 10
-598857.73
 20
-1155551.97
 10
-598849.7
 20
-1155564.85
 10
-598848.16
 20
-1155581.55
 10
-598846.61
 20
-1155581.6
 10
-598831.36
 20
-1155582.1
 10
-598820.84
 20
-1155582.47
 10
-598846.53
 20
-1155538.7
 97
0
 75
0
 76
1
 98
0
  0
HATCH
  5
20099
100
AcDbEntity
  8
vodní toky
100
AcDbHatch
 10
0
 20
0
 30
0
210
0
220
0
230
1
  2
SOLID
 70
1
 71
0
 91
1
 92
2
 72
0
 73
1
 93
34
 10
-598846.53
 20
-1155538.7
 10
-598865.68
 20
-1155505.4
 10
-598865.75
 20
-1155503.46
 10
-598865.9
 20
-1155499.58
 10
-598863.11
 20
-1155494.18
 10
-598847.6
 20
-1155475.43
 10
-598841.13
 20
-1155469.12
 10
-598836.26
 20
-1155465.41
 10
-598794.86
 20
-1155444.35
 10
-598790.86
 20
-1155442.29
 10
-598791.67
 20
-1155440.25
 10
-598797.1
 20
-1155432.64
 10
-598796.8
 20
-1155432.6
 10
-598799.21
 20
-1155428.29
 10
-598800.69
 20
-1155425.04
 10
-598801.1506
 20
-1155423.5205
 10
-598801.8
 20
-1155421.42
 10
-598840.32
 20
-1155416.26
 10
-598849.34
 20
-1155432.53
 10
-598849.85
 20
-1155433.7
 10
-598852.6
 20
-1155439.5
 10
-598865.62
 20
-1155461.94
 10
-598868.84
 20
-1155469.07
 10
-598871.1
 20
-1155474.08
 10
-598878.58
 20
-1155481.68
 10
-598883.42
 20
-1155497.91
 10
-598880.11
 20
-1155514.83
 10
-598857.73
 20
-1155551.97
 10
-598849.7
 20
-1155564.85
 10
-598848.16
 20
-1155581.55
 10
-598846.61
 20
-1155581.6
 10
-598831.36
 20
-1155582.1
 10
-598820.84
 20
-1155582.47
 10
-598846.53
 20
-1155538.7
 97
0
 75
0
 76
1
 98
0
  0
HATCH
  5
2009A
100
AcDbEntity
  8
vodní toky
100
AcDbHatch
 10
0
 20
0
 30
0
210
0
220
0
230
1
  2
SOLID
 70
1
 71
0
 91
1
 92
2
 72
0
 73
1
 93
34
 10
-598846.53
 20
-1155538.7
 10
-598865.68
 20
-1155505.4
 10
-598865.75
 20
-1155503.46
 10
-598865.9
 20
-1155499.58
 10
-598863.11
 20
-1155494.18
 10
-598847.6
 20
-1155475.43
 10
-598841.13
 20
-1155469.12
 10
-598836.26
 20
-1155465.41
 10
-598794.86
 20
-1155444.35
 10
-598790.86
 20
-1155442.29
 10
-598791.67
 20
-1155440.25
 10
-598797.1
 20
-1155432.64
 10
-598796.8
 20
-1155432.6
 10
-598799.21
 20
-1155428.29
 10
-598800.69
 20
-1155425.04
 10
-598801.1506
 20
-1155423.5205
 10
-598801.8
 20
-1155421.42
 10
-598840.32
 20
-1155416.26
 10
-598849.34
 20
-1155432.53
 10
-598849.85
 20
-1155433.7
 10
-598852.6
 20
-1155439.5
 10
-598865.62
 20
-1155461.94
 10
-598868.84
 20
-1155469.07
 10
-598871.1
 20
-1155474.08
 10
-598878.58
 20
-1155481.68
 10
-598883.42
 20
-1155497.91
 10
-598880.11
 20
-1155514.83
 10
-598857.73
 20
-1155551.97
 10
-598849.7
 20
-1155564.85
 10
-598848.16
 20
-1155581.55
 10
-598846.61
 20
-1155581.6
 10
-598831.36
 20
-1155582.1
 10
-598820.84
 20
-1155582.47
 10
-598846.53
 20
-1155538.7
 97
0
 75
0
 76
1
 98
0
  0
HATCH
  5
2009B
100
AcDbEntity
  8
vodní toky
100
AcDbHatch
 10
0
 20
0
 30
0
210
0
220
0
230
1
  2
SOLID
 70
1
 71
0
 91
1
 92
2
 72
0
 73
1
 93
34
 10
-598846.53
 20
-1155538.7
 10
-598865.68
 20
-1155505.4
 10
-598865.75
 20
-1155503.46
 10
-598865.9
 20
-1155499.58
 10
-598863.11
 20
-1155494.18
 10
-598847.6
 20
-1155475.43
 10
-598841.13
 20
-1155469.12
 10
-598836.26
 20
-1155465.41
 10
-598794.86
 20
-1155444.35
 10
-598790.86
 20
-1155442.29
 10
-598791.67
 20
-1155440.25
 10
-598797.1
 20
-1155432.64
 10
-598796.8
 20
-1155432.6
 10
-598799.21
 20
-1155428.29
 10
-598800.69
 20
-1155425.04
 10
-598801.1506
 20
-1155423.5205
 10
-598801.8
 20
-1155421.42
 10
-598840.32
 20
-1155416.26
 10
-598849.34
 20
-1155432.53
 10
-598849.85
 20
-1155433.7
 10
-598852.6
 20
-1155439.5
 10
-598865.62
 20
-1155461.94
 10
-598868.84
 20
-1155469.07
 10
-598871.1
 20
-1155474.08
 10
-598878.58
 20
-1155481.68
 10
-598883.42
 20
-1155497.91
 10
-598880.11
 20
-1155514.83
 10
-598857.73
 20
-1155551.97
 10
-598849.7
 20
-1155564.85
 10
-598848.16
 20
-1155581.55
 10
-598846.61
 20
-1155581.6
 10
-598831.36
 20
-1155582.1
 10
-598820.84
 20
-1155582.47
 10
-598846.53
 20
-1155538.7
 97
0
 75
0
 76
1
 98
0
  0
HATCH
  5
2009C
100
AcDbEntity
  8
vodní toky
100
AcDbHatch
 10
0
 20
0
 30
0
210
0
220
0
230
1
  2
SOLID
 70
1
 71
0
 91
1
 92
2
 72
0
 73
1
 93
34
 10
-598846.53
 20
-1155538.7
 10
-598865.68
 20
-1155505.4
 10
-598865.75
 20
-1155503.46
 10
-598865.9
 20
-1155499.58
 10
-598863.11
 20
-1155494.18
 10
-598847.6
 20
-1155475.43
 10
-598841.13
 20
-1155469.12
 10
-598836.26
 20
-1155465.41
 10
-598794.86
 20
-1155444.35
 10
-598790.86
 20
-1155442.29
 10
-598791.67
 20
-1155440.25
 10
-598797.1
 20
-1155432.64
 10
-598796.8
 20
-1155432.6
 10
-598799.21
 20
-1155428.29
 10
-598800.69
 20
-1155425.04
 10
-598801.1506
 20
-1155423.5205
 10
-598801.8
 20
-1155421.42
 10
-598840.32
 20
-1155416.26
 10
-598849.34
 20
-1155432.53
 10
-598849.85
 20
-1155433.7
 10
-598852.6
 20
-1155439.5
 10
-598865.62
 20
-1155461.94
 10
-598868.84
 20
-1155469.07
 10
-598871.1
 20
-1155474.08
 10
-598878.58
 20
-1155481.68
 10
-598883.42
 20
-1155497.91
 10
-598880.11
 20
-1155514.83
 10
-598857.73
 20
-1155551.97
 10
-598849.7
 20
-1155564.85
 10
-598848.16
 20
-1155581.55
 10
-598846.61
 20
-1155581.6
 10
-598831.36
 20
-1155582.1
 10
-598820.84
 20
-1155582.47
 10
-598846.53
 20
-1155538.7
 97
0
 75
0
 76
1
 98
0
  0
HATCH
  5
2009D
100
AcDbEntity
  8
vodní toky
100
AcDbHatch
 10
0
 20
0
 30
0
210
0
220
0
230
1
  2
SOLID
 70
1
 71
0
 91
1
 92
2
 72
0
 73
1
 93
35
 10
-598801.15
 20
-1155423.52
 10
-598801.1512
 20
-1155423.521
 10
-598801.8
 20
-1155421.42
 10
-598840.32
 20
-1155416.26
 10
-598849.34
 20
-1155432.53
 10
-598849.85
 20
-1155433.7
 10
-598852.6
 20
-1155439.5
 10
-598865.62
 20
-1155461.94
 10
-598868.84
 20
-1155469.07
 10
-598871.1
 20
-1155474.08
 10
-598878.58
 20
-1155481.68
 10
-598883.42
 20
-1155497.91
 10
-598880.11
 20
-1155514.83
 10
-598857.73
 20
-1155551.97
 10
-598849.7
 20
-1155564.85
 10
-598848.16
 20
-1155581.55
 10
-598846.61
 20
-1155581.6
 10
-598831.36
 20
-1155582.1
 10
-598820.84
 20
-1155582.47
 10
-598846.53
 20
-1155538.7
 10
-598865.68
 20
-1155505.4
 10
-598865.75
 20
-1155503.46
 10
-598865.9
 20
-1155499.58
 10
-598863.11
 20
-1155494.18
 10
-598847.6
 20
-1155475.43
 10
-598841.13
 20
-1155469.12
 10
-598836.26
 20
-1155465.41
 10
-598794.86
 20
-1155444.35
 10
-598790.86
 20
-1155442.29
 10
-598791.67
 20
-1155440.25
 10
-598797.1
 20
-1155432.64
 10
-598796.8
 20
-1155432.6
 10
-598799.21
 20
-1155428.29
 10
-598800.69
 20
-1155425.04
 10
-598801.15
 20
-1155423.52
 97
0
 75
0
 76
1
 98
0
  0
HATCH
  5
2009E
100
AcDbEntity
  8
vodní toky
100
AcDbHatch
 10
0
 20
0
 30
0
210
0
220
0
230
1
  2
SOLID
 70
1
 71
0
 91
1
 92
2
 72
0
 73
1
 93
16
 10
-598786.26
 20
-1155589.12
 10
-598789.65
 20
-1155586.43
 10
-598791.91
 20
-1155584.91
 10
-598794
 20
-1155583.63
 10
-598801.12
 20
-1155603.65
 10
-598806.05
 20
-1155612.14
 10
-598815.01
 20
-1155620.74
 10
-598824.52
 20
-1155628.2
 10
-598827.96
 20
-1155626.87
 10
-598826.34
 20
-1155634.39
 10
-598825.83
 20
-1155636.73
 10
-598824.91
 20
-1155640.06
 10
-598803.17
 20
-1155619.01
 10
-598796.02
 20
-1155611.48
 10
-598790.63
 20
-1155600.28
 10
-598786.26
 20
-1155589.12
 97
0
 75
0
 76
1
 98
0
  0
HATCH
  5
2009F
100
AcDbEntity
  8
vodní toky
100
AcDbHatch
 10
0
 20
0
 30
0
210
0
220
0
230
1
  2
SOLID
 70
1
 71
0
 91
1
 92
2
 72
0
 73
1
 93
28
 10
-598836.35
 20
-1155581.94
 10
-598836.3468
 20
-1155581.9483
 10
-598836.6
 20
-1155581.94
 10
-598836.2362
 20
-1155582.2353
 10
-598832.5
 20
-1155591.93
 10
-598832.7
 20
-1155633.15
 10
-598834.12
 20
-1155655.61
 10
-598829.21
 20
-1155665.65
 10
-598823.03
 20
-1155679.41
 10
-598820.29
 20
-1155690.44
 10
-598815.75
 20
-1155709.28
 10
-598815.85
 20
-1155716.8
 10
-598814.66
 20
-1155726.41
 10
-598815.41
 20
-1155749.16
 10
-598811.65
 20
-1155754.4
 10
-598805.59
 20
-1155754.79
 10
-598799.57
 20
-1155749.56
 10
-598796.93
 20
-1155732.16
 10
-598798.77
 20
-1155708.68
 10
-598800.93
 20
-1155700.95
 10
-598812.09
 20
-1155668.4
 10
-598824.91
 20
-1155640.06
 10
-598827.96
 20
-1155626.87
 10
-598824.86
 20
-1155591.47
 10
-598828.31
 20
-1155582.22
 10
-598831.36
 20
-1155582.1
 10
-598833.24
 20
-1155582.05
 10
-598836.35
 20
-1155581.94
 97
0
 75
0
 76
1
 98
0
  0
HATCH
  5
200A0
100
AcDbEntity
  8
vodní toky
100
AcDbHatch
 10
0
 20
0
 30
0
210
0
220
0
230
1
  2
SOLID
 70
1
 71
0
 91
1
 92
2
 72
0
 73
1
 93
12
 10
-598817.9
 20
-1155770.65
 10
-598820.355
 20
-1155795.04
 10
-598822.81
 20
-1155819.43
 10
-598818.43
 20
-1155819.7
 10
-598816.74
 20
-1155819.85
 10
-598814.25
 20
-1155820.02
 10
-598812.33
 20
-1155820.12
 10
-598806.87
 20
-1155820.5
 10
-598803.11
 20
-1155771.24
 10
-598806.67
 20
-1155766.75
 10
-598812.82
 20
-1155766.37
 10
-598817.9
 20
-1155770.65
 97
0
 75
0
 76
1
 98
0
  0
HATCH
  5
200A1
100
AcDbEntity
  8
vodní toky
100
AcDbHatch
 10
0
 20
0
 30
0
210
0
220
0
230
1
  2
SOLID
 70
1
 71
0
 91
1
 92
2
 72
0
 73
1
 93
40
 10
-598822.94
 20
-1155820.6
 10
-598824.36
 20
-1155834.72
 10
-598827.2
 20
-1155873.77
 10
-598827.26
 20
-1155895.93
 10
-598824.13
 20
-1155918.82
 10
-598817.41
 20
-1155945.39
 10
-598809.28
 20
-1155967.85
 10
-598798.93
 20
-1155988.86
 10
-598782.9
 20
-1156019.3
 10
-598780.23
 20
-1156023.63
 10
-598776.58
 20
-1156027.01
 10
-598773.95
 20
-1156029.54
 10
-598768.96
 20
-1156034.37
 10
-598765.16
 20
-1156038.1
 10
-598761.18
 20
-1156023.22
 10
-598761.51
 20
-1156020.47
 10
-598762.91
 20
-1156010.52
 10
-598767.69
 20
-1156004.02
 10
-598774.65
 20
-1155995.26
 10
-598776.4
 20
-1155993.07
 10
-598781.78
 20
-1155982.19
 10
-598785.44
 20
-1155970.62
 10
-598787.59
 20
-1155962.71
 10
-598795.13
 20
-1155947.18
 10
-598798.33
 20
-1155940.55
 10
-598803.32
 20
-1155933.21
 10
-598805.55
 20
-1155930.09
 10
-598803.98
 20
-1155929.41
 10
-598806.01
 20
-1155924.32
 10
-598810.98
 20
-1155900.33
 10
-598811.75
 20
-1155887.82
 10
-598811.85
 20
-1155871.62
 10
-598813.32
 20
-1155871.56
 10
-598813.14
 20
-1155865.18
 10
-598812.94
 20
-1155851.94
 10
-598807.9
 20
-1155838.6
 10
-598806.93
 20
-1155821.71
 10
-598812.38
 20
-1155821.35
 10
-598816.87
 20
-1155821.07
 10
-598822.94
 20
-1155820.6
 97
0
 75
0
 76
1
 98
0
  0
HATCH
  5
200A2
100
AcDbEntity
  8
vodní toky
100
AcDbHatch
 10
0
 20
0
 30
0
210
0
220
0
230
1
  2
SOLID
 70
1
 71
0
 91
1
 92
2
 72
0
 73
1
 93
26
 10
-598780.46
 20
-1156034.19
 10
-598780.37
 20
-1156035.17
 10
-598780.44
 20
-1156040.17
 10
-598780.54
 20
-1156044.95
 10
-598778.24
 20
-1156058.4
 10
-598775.21
 20
-1156078.73
 10
-598772.13
 20
-1156095.63
 10
-598764.56
 20
-1156134.92
 10
-598762.37
 20
-1156144.33
 10
-598758.64
 20
-1156146.93
 10
-598752.05
 20
-1156152.91
 10
-598742.74
 20
-1156166.5
 10
-598741.44
 20
-1156171.02
 10
-598738.76
 20
-1156171.71
 10
-598730.85
 20
-1156173.82
 10
-598737.74
 20
-1156147.66
 10
-598744.68
 20
-1156140.46
 10
-598749.6
 20
-1156135.3
 10
-598753.69
 20
-1156113.04
 10
-598756.76
 20
-1156093.82
 10
-598760.37
 20
-1156069.2
 10
-598762.13
 20
-1156052.83
 10
-598762.45
 20
-1156050.56
 10
-598765.25
 20
-1156047.76
 10
-598765.99
 20
-1156048.51
 10
-598780.46
 20
-1156034.19
 97
0
 75
0
 76
1
 98
0
  0
HATCH
  5
200A3
100
AcDbEntity
  8
vodní toky
100
AcDbHatch
 10
0
 20
0
 30
0
210
0
220
0
230
1
  2
SOLID
 70
1
 71
0
 91
1
 92
2
 72
0
 73
1
 93
34
 10
-598733.86
 20
-1156208.08
 10
-598736.77
 20
-1156211.78
 10
-598734.49
 20
-1156221.08
 10
-598716.48
 20
-1156266.93
 10
-598697.86
 20
-1156304.08
 10
-598654.61
 20
-1156392.615
 10
-598611.36
 20
-1156481.15
 10
-598571.96
 20
-1156561.785
 10
-598535.92
 20
-1156635.56
 10
-598525.005
 20
-1156657.92
 10
-598493.74
 20
-1156722.16
 10
-598480.85
 20
-1156748.74
 10
-598467.25
 20
-1156776.63
 10
-598454.72
 20
-1156802.91
 10
-598444.41
 20
-1156797.71
 10
-598448.78
 20
-1156788.98
 10
-598476.4
 20
-1156732.3
 10
-598484.22
 20
-1156716.17
 10
-598511.7
 20
-1156659.32
 10
-598526.13
 20
-1156628.77
 10
-598558.42
 20
-1156561.12
 10
-598581.81
 20
-1156514.46
 10
-598582.8
 20
-1156512.41
 10
-598587.11
 20
-1156503.48
 10
-598595.88
 20
-1156485.31
 10
-598602.01
 20
-1156472.44
 10
-598605.11
 20
-1156465.92
 10
-598640.02
 20
-1156392.68
 10
-598657.66
 20
-1156355.97
 10
-598666.6
 20
-1156337.36
 10
-598707.14
 20
-1156248.74
 10
-598716.05
 20
-1156215.39
 10
-598727.91
 20
-1156209.78
 10
-598733.86
 20
-1156208.08
 97
0
 75
0
 76
1
 98
0
  0
HATCH
  5
200A4
100
AcDbEntity
  8
vodní toky
100
AcDbHatch
 10
0
 20
0
 30
0
210
0
220
0
230
1
  2
SOLID
 70
1
 71
0
 91
1
 92
2
 72
0
 73
1
 93
12
 10
-598454.77
 20
-1156803.41
 10
-598446.51
 20
-1156819.84
 10
-598441.23
 20
-1156817.31
 10
-598437.8
 20
-1156815.75
 10
-598436.57
 20
-1156820.69
 10
-598432.37
 20
-1156829.5
 10
-598430.86
 20
-1156828.74
 10
-598430.06
 20
-1156826.74
 10
-598433.14
 20
-1156820.41
 10
-598444.19
 20
-1156798.14
 10
-598450.99
 20
-1156801.51
 10
-598454.77
 20
-1156803.41
 97
0
 75
0
 76
1
 98
0
  0
HATCH
  5
200A5
100
AcDbEntity
  8
vodní toky
100
AcDbHatch
 10
0
 20
0
 30
0
210
0
220
0
230
1
  2
SOLID
 70
1
 71
0
 91
1
 92
2
 72
0
 73
1
 93
5
 10
-598446.51
 20
-1156819.84
 10
-598439.47
 20
-1156833.07
 10
-598437.78
 20
-1156832.22
 10
-598442.4
 20
-1156823.39
 10
-598446.51
 20
-1156819.84
 97
0
 75
0
 76
1
 98
0
  0
HATCH
  5
200A6
100
AcDbEntity
  8
vodní toky
100
AcDbHatch
 10
0
 20
0
 30
0
210
0
220
0
230
1
  2
SOLID
 70
1
 71
0
 91
1
 92
2
 72
0
 73
1
 93
23
 10
-598436.37
 20
-1156839.65
 10
-598432.98
 20
-1156846.99
 10
-598375.13
 20
-1156965.65
 10
-598372.21
 20
-1156972.55
 10
-598368.84
 20
-1156979.5
 10
-598368.33
 20
-1156987.73
 10
-598368.57
 20
-1156990.13
 10
-598366.22
 20
-1156987.28
 10
-598367.26
 20
-1156981.73
 10
-598369.72
 20
-1156975.47
 10
-598370.17
 20
-1156974.32
 10
-598366.58
 20
-1156972.54
 10
-598365.99
 20
-1156973.65
 10
-598362.83
 20
-1156972.1
 10
-598356.64
 20
-1156984.02
 10
-598356.44
 20
-1156982.57
 10
-598360.95
 20
-1156970.24
 10
-598361.56
 20
-1156967.89
 10
-598363.12
 20
-1156964.56
 10
-598422.68
 20
-1156841.66
 10
-598425.85
 20
-1156835.28
 10
-598427.71
 20
-1156835.32
 10
-598436.37
 20
-1156839.65
 97
0
 75
0
 76
1
 98
0
  0
HATCH
  5
200A7
100
AcDbEntity
  8
vodní toky
100
AcDbHatch
 10
0
 20
0
 30
0
210
0
220
0
230
1
  2
SOLID
 70
1
 71
0
 91
1
 92
2
 72
0
 73
1
 93
15
 10
-598368.8
 20
-1156992.42
 10
-598369.19
 20
-1156996.33
 10
-598376.67
 20
-1157009.5
 10
-598377.25
 20
-1157010.36
 10
-598377.01
 20
-1157010.61
 10
-598383.94
 20
-1157015.17
 10
-598381.54
 20
-1157018.54
 10
-598379.15
 20
-1157022.03
 10
-598376.29
 20
-1157019.23
 10
-598376.02
 20
-1157019.51
 10
-598369.2
 20
-1157012.25
 10
-598363.95
 20
-1157004.81
 10
-598360.94
 20
-1156993.91
 10
-598363.67
 20
-1156993.38
 10
-598368.8
 20
-1156992.42
 97
0
 75
0
 76
1
 98
0
  0
HATCH
  5
200A8
100
AcDbEntity
  8
vodní toky
100
AcDbHatch
 10
0
 20
0
 30
0
210
0
220
0
230
1
  2
SOLID
 70
1
 71
0
 91
1
 92
2
 72
0
 73
1
 93
14
 10
-598399.58
 20
-1157027.57
 10
-598407.45
 20
-1157031
 10
-598413.24
 20
-1157035.59
 10
-598415.88
 20
-1157043.72
 10
-598414.69
 20
-1157050.4
 10
-598411.85
 20
-1157054.5
 10
-598399.43
 20
-1157045.09
 10
-598396.69
 20
-1157036.95
 10
-598400.27
 20
-1157039.84
 10
-598400.7
 20
-1157039.28
 10
-598401.96
 20
-1157040.59
 10
-598409.55
 20
-1157036.77
 10
-598404.58
 20
-1157032
 10
-598399.58
 20
-1157027.57
 97
0
 75
0
 76
1
 98
0
  0
HATCH
  5
200A9
100
AcDbEntity
  8
vodní toky
100
AcDbHatch
 10
0
 20
0
 30
0
210
0
220
0
230
1
  2
SOLID
 70
1
 71
0
 91
1
 92
2
 72
0
 73
1
 93
24
 10
-589895.56
 20
-1158876.91
 10
-589892.08
 20
-1158841.77
 10
-589901.62
 20
-1158830.68
 10
-589944.52
 20
-1158794.085
 10
-589994.13
 20
-1158750.96
 10
-589991.65
 20
-1158739.34
 10
-590017.4
 20
-1158719.8
 10
-590030.2
 20
-1158705.4
 10
-590069.5
 20
-1158684
 10
-590112.595
 20
-1158661.585
 10
-590138.285
 20
-1158661.055
 10
-590159.22
 20
-1158666.83
 10
-590187.81
 20
-1158682.47
 10
-590163.7694
 20
-1158723.2372
 10
-590159.68
 20
-1158732.825
 10
-590120.122
 20
-1158725.9965
 10
-590098.505
 20
-1158724.555
 10
-590071.79
 20
-1158738.115
 10
-590045.605
 20
-1158765.135
 10
-590007.69
 20
-1158804.75
 10
-589975.99
 20
-1158828.76
 10
-589958.19
 20
-1158843.95
 10
-589924.23
 20
-1158865.175
 10
-589895.56
 20
-1158876.91
 97
0
 75
0
 76
1
 98
0
  0
HATCH
  5
200AA
100
AcDbEntity
  8
vodní toky
100
AcDbHatch
 10
0
 20
0
 30
0
210
0
220
0
230
1
  2
SOLID
 70
1
 71
0
 91
1
 92
2
 72
0
 73
1
 93
30
 10
-589880.4509
 20
-1159251.1873
 10
-589876.88
 20
-1159272.28
 10
-589876.3918
 20
-1159274.6394
 10
-589875.19
 20
-1159278.44
 10
-589874.2245
 20
-1159281.9307
 10
-589873.5
 20
-1159284.6
 10
-589873.15
 20
-1159289.55
 10
-589872.8
 20
-1159294.5
 10
-589870.65
 20
-1159300.68
 10
-589869.655
 20
-1159303.65
 10
-589866.965
 20
-1159318.11
 10
-589864.64
 20
-1159330.1069
 10
-589863.28
 20
-1159335.54
 10
-589862.03
 20
-1159341.68
 10
-589863.47
 20
-1159349.54
 10
-589864.91
 20
-1159357.4
 10
-589875.35
 20
-1159376.62
 10
-589886.31
 20
-1159381.81
 10
-589885.41
 20
-1159390.4
 10
-589893.11
 20
-1159407.14
 10
-589885.83
 20
-1159413.34
 10
-589878.02
 20
-1159386.37
 10
-589865.58
 20
-1159378.03
 10
-589862.4
 20
-1159373.2
 10
-589859
 20
-1159366.8
 10
-589854.69
 20
-1159337.87
 10
-589864.32
 20
-1159297.77
 10
-589867.8102
 20
-1159291.8778
 10
-589877.9
 20
-1159250.86
 10
-589880.4509
 20
-1159251.1873
 97
0
 75
0
 76
1
 98
0
  0
HATCH
  5
200AB
100
AcDbEntity
  8
vodní toky
100
AcDbHatch
 10
0
 20
0
 30
0
210
0
220
0
230
1
  2
SOLID
 70
1
 71
0
 91
1
 92
2
 72
0
 73
1
 93
119
 10
-589885.83
 20
-1159413.34
 10
-589893.11
 20
-1159407.14
 10
-589918.76
 20
-1159406.88
 10
-589938.01
 20
-1159418.55
 10
-589952.175
 20
-1159443.04
 10
-589959.6771
 20
-1159455.89
 10
-589963.8364
 20
-1159463.2842
 10
-589966.34
 20
-1159467.53
 10
-589972.5323
 20
-1159478.6688
 10
-589978.5646
 20
-1159488.6403
 10
-589982.34
 20
-1159495.935
 10
-589992.2246
 20
-1159513.7966
 10
-589998.34
 20
-1159524.34
 10
-590009.25
 20
-1159533.465
 10
-590020.1011
 20
-1159542.669
 10
-590029.3431
 20
-1159540.8495
 10
-590041.62
 20
-1159538.4
 10
-590063.08
 20
-1159534.21
 10
-590071.78
 20
-1159530.84
 10
-590100.12
 20
-1159513.6
 10
-590109.43
 20
-1159506.87
 10
-590118.74
 20
-1159500.14
 10
-590159.4967
 20
-1159491.6473
 10
-590171.33
 20
-1159489.27
 10
-590183.0903
 20
-1159489.767
 10
-590201.43
 20
-1159490.62
 10
-590231.53
 20
-1159491.97
 10
-590243.72
 20
-1159485.95
 10
-590261.57
 20
-1159477.26
 10
-590279.42
 20
-1159468.57
 10
-590285.11
 20
-1159468.125
 10
-590290.8
 20
-1159467.68
 10
-590301.58
 20
-1159466.85
 10
-590312.63
 20
-1159465.99
 10
-590328.16
 20
-1159475.24
 10
-590343.69
 20
-1159484.49
 10
-590364.37
 20
-1159512.37
 10
-590369.955
 20
-1159532.03
 10
-590372.9877
 20
-1159542.6792
 10
-590375.54
 20
-1159551.69
 10
-590382.88
 20
-1159553.28
 10
-590390.22
 20
-1159554.87
 10
-590394.1814
 20
-1159558.0701
 10
-590410.965
 20
-1159573.21
 10
-590431.71
 20
-1159591.55
 10
-590456.095
 20
-1159602.425
 10
-590464.047
 20
-1159604.8324
 10
-590480.48
 20
-1159613.3
 10
-590493.14
 20
-1159631.48
 10
-590507.53
 20
-1159654.52
 10
-590507.61
 20
-1159656.37
 10
-590507.07
 20
-1159657.66
 10
-590505.89
 20
-1159658.75
 10
-590457.3089
 20
-1159690.2227
 10
-590446.245
 20
-1159667.645
 10
-590441.35
 20
-1159670.36
 10
-590436.8
 20
-1159667.31
 10
-590426.44
 20
-1159661.82
 10
-590414.57
 20
-1159661.7
 10
-590407.34
 20
-1159667.49
 10
-590405.475
 20
-1159668.91
 10
-590403.61
 20
-1159670.33
 10
-590399.09
 20
-1159672.05
 10
-590393.76
 20
-1159672.16
 10
-590390.81
 20
-1159671.655
 10
-590387.86
 20
-1159671.15
 10
-590381.21
 20
-1159668.87
 10
-590374.67
 20
-1159666.08
 10
-590370.84
 20
-1159664.275
 10
-590365.605
 20
-1159662.25
 10
-590361.09
 20
-1159662.62
 10
-590359.6797
 20
-1159663.0412
 10
-590359.2443
 20
-1159663.1602
 10
-590358.535
 20
-1159663.375
 10
-590355.98
 20
-1159664.13
 10
-590351.46
 20
-1159664.68
 10
-590349.225
 20
-1159664.1
 10
-590346.99
 20
-1159663.52
 10
-590343.0238
 20
-1159661.1244
 10
-590337.16
 20
-1159655.41
 10
-590330.8
 20
-1159649.33
 10
-590320.7156
 20
-1159638.4375
 10
-590319.03
 20
-1159636.075
 10
-590315.22
 20
-1159631.42
 10
-590309.72
 20
-1159623.67
 10
-590305.7356
 20
-1159616.9025
 10
-590302.34
 20
-1159609.98
 10
-590300.84
 20
-1159606.26
 10
-590297.9899
 20
-1159598.8778
 10
-590292.36
 20
-1159573.835
 10
-590287.35
 20
-1159568.09
 10
-590285.72
 20
-1159567.11
 10
-590281.13
 20
-1159562.28
 10
-590279.185
 20
-1159559.035
 10
-590277.24
 20
-1159555.79
 10
-590270.705
 20
-1159541.82
 10
-590256.84
 20
-1159531.915
 10
-590237.63
 20
-1159530.91
 10
-590223.16
 20
-1159539.36
 10
-590212.9
 20
-1159545.24
 10
-590178.905
 20
-1159562.42
 10
-590155.77
 20
-1159589.31
 10
-590143.72
 20
-1159604.17
 10
-590124.475
 20
-1159617.535
 10
-590094.02
 20
-1159626.73
 10
-590066.485
 20
-1159627.885
 10
-590046.955
 20
-1159625.665
 10
-590020.34
 20
-1159623.04
 10
-590008.105
 20
-1159619.66
 10
-589991.625
 20
-1159607.51
 10
-589973.05
 20
-1159584.45
 10
-589961.31
 20
-1159565.71
 10
-589951.63
 20
-1159540.76
 10
-589941.785
 20
-1159515.87
 10
-589933.53
 20
-1159499.16
 10
-589920.2154
 20
-1159472.2082
 10
-589903.9
 20
-1159449
 10
-589896.57
 20
-1159433.995
 10
-589885.83
 20
-1159413.34
 97
0
 75
0
 76
1
 98
0
  0
HATCH
  5
200AC
100
AcDbEntity
  8
vodní toky
100
AcDbHatch
 10
0
 20
0
 30
0
210
0
220
0
230
1
  2
SOLID
 70
1
 71
0
 91
1
 92
2
 72
0
 73
1
 93
46
 10
-590459.2812
 20
-1159688.8296
 10
-590465.06
 20
-1159699.28
 10
-590477.84
 20
-1159714.52
 10
-590481.33
 20
-1159725.12
 10
-590479.9
 20
-1159742.39
 10
-590478.47
 20
-1159759.66
 10
-590477.6
 20
-1159770.13
 10
-590471.29
 20
-1159798.82
 10
-590458.89
 20
-1159806.07
 10
-590451.67
 20
-1159820.49
 10
-590443.12
 20
-1159852.3
 10
-590436.14
 20
-1159866.34
 10
-590431.72
 20
-1159883.23
 10
-590433.805
 20
-1159898.99
 10
-590435.89
 20
-1159914.75
 10
-590424.942
 20
-1159939.163
 10
-590414.784
 20
-1159963.611
 10
-590393.2715
 20
-1159981.428
 10
-590378.02
 20
-1159992.54
 10
-590373.07
 20
-1160005.73
 10
-590362.52
 20
-1159998.9
 10
-590370.36
 20
-1159993.09
 10
-590387.66
 20
-1159979.13
 10
-590404.96
 20
-1159965.17
 10
-590411.36
 20
-1159960
 10
-590420.275
 20
-1159938.785
 10
-590429.19
 20
-1159917.57
 10
-590427.885
 20
-1159904.98
 10
-590426.58
 20
-1159892.39
 10
-590426.51
 20
-1159880.35
 10
-590427.29
 20
-1159871.38
 10
-590432.405
 20
-1159863.495
 10
-590437.25
 20
-1159857.35
 10
-590440.13
 20
-1159839.85
 10
-590443.48
 20
-1159827.135
 10
-590446.83
 20
-1159814.42
 10
-590452.605
 20
-1159807.27
 10
-590456.97
 20
-1159800.23
 10
-590466.21
 20
-1159795.08
 10
-590472.46
 20
-1159770.13
 10
-590467.99
 20
-1159755.47
 10
-590469.805
 20
-1159738.485
 10
-590471.31
 20
-1159724.42
 10
-590462.39
 20
-1159701.1
 10
-590457.535
 20
-1159690.125
 10
-590459.2812
 20
-1159688.8296
 97
0
 75
0
 76
1
 98
0
  0
HATCH
  5
200AD
100
AcDbEntity
  8
vodní toky
100
AcDbHatch
 10
0
 20
0
 30
0
210
0
220
0
230
1
  2
SOLID
 70
1
 71
0
 91
1
 92
2
 72
0
 73
1
 93
16
 10
-590373.0599
 20
-1160005.7934
 10
-590369.68
 20
-1160011.22
 10
-590336.24
 20
-1160033.85
 10
-590302.8
 20
-1160056.48
 10
-590252.635
 20
-1160082.845
 10
-590202.47
 20
-1160109.21
 10
-590199
 20
-1160098.9
 10
-590224.2
 20
-1160087.875
 10
-590249.4
 20
-1160076.85
 10
-590270.975
 20
-1160064.65
 10
-590292.55
 20
-1160052.45
 10
-590302.55
 20
-1160045.75
 10
-590312.55
 20
-1160039.05
 10
-590328.495
 20
-1160025.73
 10
-590362.52
 20
-1159998.9
 10
-590373.0599
 20
-1160005.7934
 97
0
 75
0
 76
1
 98
0
  0
HATCH
  5
200AE
100
AcDbEntity
  8
vodní toky
100
AcDbHatch
 10
0
 20
0
 30
0
210
0
220
0
230
1
  2
SOLID
 70
1
 71
0
 91
1
 92
2
 72
0
 73
1
 93
26
 10
-590196.4
 20
-1160109.73
 10
-590161.93
 20
-1160125.025
 10
-590127.6
 20
-1160140.7
 10
-590102.41
 20
-1160153.37
 10
-590083.95
 20
-1160170.055
 10
-590065.15
 20
-1160186.47
 10
-590056.5939
 20
-1160198.0623
 10
-590042.3361
 20
-1160216.1594
 10
-590038.49
 20
-1160220.95
 10
-590032.32
 20
-1160235.61
 10
-590025.88
 20
-1160231.31
 10
-590032.02
 20
-1160218.01
 10
-590037.98
 20
-1160209.585
 10
-590042.16
 20
-1160204.23
 10
-590050.78
 20
-1160193.19
 10
-590059.4
 20
-1160182.15
 10
-590070.475
 20
-1160172.225
 10
-590081.55
 20
-1160162.3
 10
-590099.3
 20
-1160146.7
 10
-590123.415
 20
-1160134.46
 10
-590147.53
 20
-1160122.22
 10
-590156.69
 20
-1160117.57
 10
-590171.1
 20
-1160111
 10
-590182.245
 20
-1160106.2
 10
-590193.39
 20
-1160101.4
 10
-590196.4
 20
-1160109.73
 97
0
 75
0
 76
1
 98
0
  0
HATCH
  5
200AF
100
AcDbEntity
  8
vodní toky
100
AcDbHatch
 10
0
 20
0
 30
0
210
0
220
0
230
1
  2
SOLID
 70
1
 71
0
 91
1
 92
2
 72
0
 73
1
 93
47
 10
-590029.06
 20
-1160241.15
 10
-590026.2
 20
-1160247.38
 10
-590023.655
 20
-1160261.985
 10
-590021.11
 20
-1160276.59
 10
-590023.085
 20
-1160304.505
 10
-590025.06
 20
-1160332.42
 10
-590029.13
 20
-1160353.23
 10
-590038.475
 20
-1160383.7
 10
-590046.44
 20
-1160409.3
 10
-590052.465
 20
-1160422.4
 10
-590062.3
 20
-1160443.775
 10
-590067.08
 20
-1160450.01
 10
-590088.87
 20
-1160477.61
 10
-590105.2
 20
-1160498.3
 10
-590121.56
 20
-1160519.02
 10
-590142.685
 20
-1160545.93
 10
-590152.62
 20
-1160558.84
 10
-590170.56
 20
-1160591.69
 10
-590195.8451
 20
-1160639.3066
 10
-590204.34
 20
-1160661.46
 10
-590196.78
 20
-1160660.23
 10
-590192.21
 20
-1160645.3
 10
-590168
 20
-1160601.195
 10
-590154.28
 20
-1160575.6
 10
-590146.5
 20
-1160560.63
 10
-590120.5
 20
-1160528.69
 10
-590110.76
 20
-1160515.935
 10
-590101.02
 20
-1160503.18
 10
-590089.41
 20
-1160488.18
 10
-590083.87
 20
-1160482.01
 10
-590071.26
 20
-1160467.26
 10
-590058.37
 20
-1160451.03
 10
-590056.82
 20
-1160447.11
 10
-590052.97
 20
-1160440.08
 10
-590039.69
 20
-1160412.08
 10
-590035.55
 20
-1160398.4
 10
-590028.975
 20
-1160375.35
 10
-590022.4
 20
-1160352.3
 10
-590019.94
 20
-1160341.04
 10
-590017.48
 20
-1160329.78
 10
-590015.8438
 20
-1160299.842
 10
-590015.777
 20
-1160298.5928
 10
-590014.49
 20
-1160274.53
 10
-590017.11
 20
-1160259.585
 10
-590019.73
 20
-1160244.64
 10
-590023.38
 20
-1160236.74
 10
-590029.06
 20
-1160241.15
 97
0
 75
0
 76
1
 98
0
  0
HATCH
  5
200B0
100
AcDbEntity
  8
vodní toky
100
AcDbHatch
 10
0
 20
0
 30
0
210
0
220
0
230
1
  2
SOLID
 70
1
 71
0
 91
1
 92
2
 72
0
 73
1
 93
16
 10
-590163.7543
 20
-1160577.917
 10
-590219.87
 20
-1160524.81
 10
-590231.1812
 20
-1160537.205
 10
-590237.3
 20
-1160549.6
 10
-590248.08
 20
-1160567.66
 10
-590258.32
 20
-1160584.83
 10
-590268.56
 20
-1160602
 10
-590283.0132
 20
-1160631.4587
 10
-590277.8988
 20
-1160633.7779
 10
-590263.89
 20
-1160638.87
 10
-590242.955
 20
-1160649.63
 10
-590217.353
 20
-1160663.122
 10
-590204.34
 20
-1160661.46
 10
-590194.62
 20
-1160636.87
 10
-590175.4828
 20
-1160601.5329
 10
-590163.7543
 20
-1160577.917
 97
0
 75
0
 76
1
 98
0
  0
HATCH
  5
200B1
100
AcDbEntity
  8
vodní toky
100
AcDbHatch
 10
0
 20
0
 30
0
210
0
220
0
230
1
  2
SOLID
 70
1
 71
0
 91
1
 92
2
 72
0
 73
1
 93
23
 10
-590270.18
 20
-1160699.47
 10
-590266.31
 20
-1160713.425
 10
-590262.44
 20
-1160727.38
 10
-590259.51
 20
-1160735.79
 10
-590256.58
 20
-1160744.2
 10
-590254.87
 20
-1160749.14
 10
-590247.54
 20
-1160757.44
 10
-590227.63
 20
-1160762.02
 10
-590213.645
 20
-1160768.48
 10
-590199.66
 20
-1160774.94
 10
-590199.93
 20
-1160769.04
 10
-590216.31
 20
-1160764.64
 10
-590220.955
 20
-1160761.185
 10
-590225.6
 20
-1160757.73
 10
-590233.025
 20
-1160756.22
 10
-590240.45
 20
-1160754.71
 10
-590249.7
 20
-1160747.88
 10
-590252.16
 20
-1160742.93
 10
-590254.9
 20
-1160734.465
 10
-590257.64
 20
-1160726
 10
-590262.8997
 20
-1160706.9328
 10
-590265.14
 20
-1160698.18
 10
-590270.18
 20
-1160699.47
 97
0
 75
0
 76
1
 98
0
  0
HATCH
  5
200B2
100
AcDbEntity
  8
vodní toky
100
AcDbHatch
 10
0
 20
0
 30
0
210
0
220
0
230
1
  2
SOLID
 70
1
 71
0
 91
1
 92
2
 72
0
 73
1
 93
6
 10
-590283.0132
 20
-1160631.4587
 10
-590284.96
 20
-1160635.41
 10
-590284.8
 20
-1160635.87
 10
-590278.06
 20
-1160635.6
 10
-590277.94
 20
-1160633.76
 10
-590283.0132
 20
-1160631.4587
 97
0
 75
0
 76
1
 98
0
  0
HATCH
  5
200B3
100
AcDbEntity
  8
vodní toky
100
AcDbHatch
 10
0
 20
0
 30
0
210
0
220
0
230
1
  2
SOLID
 70
1
 71
0
 91
1
 92
2
 72
0
 73
1
 93
16
 10
-590284.395
 20
-1160638
 10
-590284.19
 20
-1160643.175
 10
-590284.18
 20
-1160648.78
 10
-590282.23
 20
-1160659.53
 10
-590281.31
 20
-1160663.43
 10
-590280.4507
 20
-1160666.0524
 10
-590278.98
 20
-1160674.77
 10
-590272.14
 20
-1160692.4
 10
-590267.3
 20
-1160691.14
 10
-590274.86
 20
-1160673.58
 10
-590276.66
 20
-1160666.14
 10
-590277.7975
 20
-1160660.8488
 10
-590277.82
 20
-1160658.62
 10
-590277.93
 20
-1160648.2
 10
-590278.17
 20
-1160637.33
 10
-590284.395
 20
-1160638
 97
0
 75
0
 76
1
 98
0
  0
HATCH
  5
200B4
100
AcDbEntity
  8
vodní toky
100
AcDbHatch
 10
0
 20
0
 30
0
210
0
220
0
230
1
  2
SOLID
 70
1
 71
0
 91
1
 92
2
 72
0
 73
1
 93
41
 10
-590202.2168
 20
-1160661.0994
 10
-590199.86
 20
-1160669.68
 10
-590197.33
 20
-1160678.92
 10
-590193.14
 20
-1160694.24
 10
-590196.045
 20
-1160699.95
 10
-590198.95
 20
-1160705.66
 10
-590200.56
 20
-1160711.08
 10
-590204.02
 20
-1160723.835
 10
-590205.87
 20
-1160731.17
 10
-590200.03
 20
-1160767.56
 10
-590199.93
 20
-1160769.04
 10
-590199.66
 20
-1160774.94
 10
-590197.11
 20
-1160801.07
 10
-590193.46
 20
-1160814.68
 10
-590189.19
 20
-1160838.63
 10
-590185.202
 20
-1160866.6862
 10
-590183.52
 20
-1160869.91
 10
-590182.6
 20
-1160869.43
 10
-590181.86
 20
-1160875.26
 10
-590180.04
 20
-1160877.57
 10
-590176.89
 20
-1160897.33
 10
-590174.65
 20
-1160900.86
 10
-590172.06
 20
-1160901.04
 10
-590181.835
 20
-1160839.365
 10
-590186.586
 20
-1160813.385
 10
-590189.54
 20
-1160800.62
 10
-590191.0355
 20
-1160783.715
 10
-590191.96
 20
-1160773.99
 10
-590192.59
 20
-1160767.04
 10
-590195.309
 20
-1160749.725
 10
-590198.32
 20
-1160732.37
 10
-590196.055
 20
-1160720.6
 10
-590193.649
 20
-1160708.787
 10
-590190.165
 20
-1160702.36
 10
-590186.379
 20
-1160695.976
 10
-590188.445
 20
-1160685.865
 10
-590190.35
 20
-1160675.84
 10
-590193.59
 20
-1160669.485
 10
-590194.91
 20
-1160666.69
 10
-590196.6043
 20
-1160660.0971
 10
-590202.2168
 20
-1160661.0994
 97
0
 75
0
 76
1
 98
0
  0
HATCH
  5
200B5
100
AcDbEntity
  8
vodní toky
100
AcDbHatch
 10
0
 20
0
 30
0
210
0
220
0
230
1
  2
SOLID
 70
1
 71
0
 91
1
 92
2
 72
0
 73
1
 93
14
 10
-590174.65
 20
-1160900.86
 10
-590175.87
 20
-1160909
 10
-590177.29
 20
-1160916.59
 10
-590178.03
 20
-1160922.78
 10
-590182.33
 20
-1160958.83
 10
-590179.98
 20
-1160959.23
 10
-590177.745
 20
-1160941.11
 10
-590175.51
 20
-1160922.99
 10
-590174.78
 20
-1160917.08
 10
-590174.31
 20
-1160913.31
 10
-590173.7
 20
-1160909.29
 10
-590172.88
 20
-1160905.165
 10
-590172.06
 20
-1160901.04
 10
-590174.65
 20
-1160900.86
 97
0
 75
0
 76
1
 98
0
  0
HATCH
  5
200B6
100
AcDbEntity
  8
vodní toky
100
AcDbHatch
 10
0
 20
0
 30
0
210
0
220
0
230
1
  2
SOLID
 70
1
 71
0
 91
1
 92
2
 72
0
 73
1
 93
42
 10
-590182.33
 20
-1160958.83
 10
-590177.925
 20
-1160973.655
 10
-590173.52
 20
-1160988.48
 10
-590160.285
 20
-1161032.02
 10
-590147.05
 20
-1161075.56
 10
-590129.24
 20
-1161115.77
 10
-590125.1
 20
-1161144.18
 10
-590124.18
 20
-1161185.1
 10
-590125.2706
 20
-1161219.9929
 10
-590127.93
 20
-1161257.4
 10
-590130.46
 20
-1161276.465
 10
-590133.3
 20
-1161296.93
 10
-590138.3828
 20
-1161332.214
 10
-590144.45
 20
-1161355.65
 10
-590147
 20
-1161365.5
 10
-590153.2
 20
-1161384.3
 10
-590155.25
 20
-1161393.9
 10
-590159.57
 20
-1161415.93
 10
-590157.51
 20
-1161436.5
 10
-590152.093
 20
-1161431.608
 10
-590153.81
 20
-1161417.4
 10
-590147.53
 20
-1161385.24
 10
-590142.28
 20
-1161366.028
 10
-590127.73
 20
-1161325.64
 10
-590123.54
 20
-1161301.9
 10
-590121.5122
 20
-1161280.227
 10
-590119.72
 20
-1161261.65
 10
-590118.65
 20
-1161227.33
 10
-590117.32
 20
-1161215.16
 10
-590115.99
 20
-1161202.99
 10
-590113.93
 20
-1161192.755
 10
-590111.61
 20
-1161181.25
 10
-590115.645
 20
-1161164.81
 10
-590119.68
 20
-1161148.37
 10
-590121.95
 20
-1161131.205
 10
-590124.22
 20
-1161114.04
 10
-590140.23
 20
-1161077.21
 10
-590155.255
 20
-1161032.615
 10
-590170.28
 20
-1160988.02
 10
-590175.13
 20
-1160973.625
 10
-590179.98
 20
-1160959.23
 10
-590182.33
 20
-1160958.83
 97
0
 75
0
 76
1
 98
0
  0
HATCH
  5
200B7
100
AcDbEntity
  8
vodní toky
100
AcDbHatch
 10
0
 20
0
 30
0
210
0
220
0
230
1
  2
SOLID
 70
1
 71
0
 91
1
 92
2
 72
0
 73
1
 93
8
 10
-590185.7051
 20
-1160863.9006
 10
-590201.65
 20
-1160888.11
 10
-590197.17
 20
-1160897.21
 10
-590191.28
 20
-1160885.4486
 10
-590189.42
 20
-1160881.7
 10
-590183.52
 20
-1160869.91
 10
-590185.202
 20
-1160866.6862
 10
-590185.7051
 20
-1160863.9006
 97
0
 75
0
 76
1
 98
0
  0
HATCH
  5
200B8
100
AcDbEntity
  8
vodní toky
100
AcDbHatch
 10
0
 20
0
 30
0
210
0
220
0
230
1
  2
SOLID
 70
1
 71
0
 91
1
 92
2
 72
0
 73
1
 93
16
 10
-591495.24
 20
-1159571.28
 10
-591499.37
 20
-1159590.76
 10
-591503.5
 20
-1159610.24
 10
-591507.595
 20
-1159630.085
 10
-591511.69
 20
-1159649.93
 10
-591518.81
 20
-1159677.99
 10
-591519.51
 20
-1159703.69
 10
-591517.62
 20
-1159703.56
 10
-591517.5
 20
-1159678.18
 10
-591509.81
 20
-1159650.37
 10
-591507.5936
 20
-1159638.2011
 10
-591506.17
 20
-1159630.385
 10
-591502.53
 20
-1159610.4
 10
-591498.4
 20
-1159590.93
 10
-591494.27
 20
-1159571.46
 10
-591495.24
 20
-1159571.28
 97
0
 75
0
 76
1
 98
0
  0
HATCH
  5
200B9
100
AcDbEntity
  8
vodní toky
100
AcDbHatch
 10
0
 20
0
 30
0
210
0
220
0
230
1
  2
SOLID
 70
1
 71
0
 91
1
 92
2
 72
0
 73
1
 93
24
 10
-591516.9
 20
-1159764.13
 10
-591522.09
 20
-1159773.93
 10
-591524.33
 20
-1159779.4
 10
-591526.74
 20
-1159787.18
 10
-591526.68
 20
-1159795.37
 10
-591526.6
 20
-1159807.19
 10
-591523.7573
 20
-1159823.8364
 10
-591522.47
 20
-1159831.21
 10
-591516.45
 20
-1159844.37
 10
-591510.54
 20
-1159855.74
 10
-591504.63
 20
-1159867.11
 10
-591503.29
 20
-1159866.39
 10
-591509.44
 20
-1159855.215
 10
-591515.59
 20
-1159844.04
 10
-591518.465
 20
-1159837.42
 10
-591521.34
 20
-1159830.8
 10
-591523.15
 20
-1159817.93
 10
-591524.96
 20
-1159805.06
 10
-591524.44
 20
-1159788.08
 10
-591523.21
 20
-1159785.94
 10
-591521.77
 20
-1159780.81
 10
-591520.03
 20
-1159774.71
 10
-591515.45
 20
-1159765.02
 10
-591516.9
 20
-1159764.13
 97
0
 75
0
 76
1
 98
0
  0
HATCH
  5
200BA
100
AcDbEntity
  8
vodní toky
100
AcDbHatch
 10
0
 20
0
 30
0
210
0
220
0
230
1
  2
SOLID
 70
1
 71
0
 91
1
 92
2
 72
0
 73
1
 93
51
 10
-591503.98
 20
-1159868.35
 10
-591501.85
 20
-1159872.45
 10
-591497.865
 20
-1159882.36
 10
-591488.84
 20
-1159904.1
 10
-591469.13
 20
-1159949.28
 10
-591466.095
 20
-1159957.085
 10
-591457.15
 20
-1159978.285
 10
-591451.24
 20
-1159991.68
 10
-591442.41
 20
-1160005.8
 10
-591422.31
 20
-1160027.88
 10
-591403.83
 20
-1160046.1
 10
-591386.6
 20
-1160052.74
 10
-591369.85
 20
-1160061.79
 10
-591354.78
 20
-1160077.32
 10
-591342.02
 20
-1160095.08
 10
-591340.955
 20
-1160111.45
 10
-591339.89
 20
-1160127.82
 10
-591334.83
 20
-1160136.04
 10
-591327.42
 20
-1160143.54
 10
-591315.29
 20
-1160151.37
 10
-591303.16
 20
-1160159.2
 10
-591293.86
 20
-1160165.04
 10
-591280.37
 20
-1160175.34
 10
-591275.49
 20
-1160181.335
 10
-591266.42
 20
-1160191.33
 10
-591259.68
 20
-1160194.99
 10
-591253.67
 20
-1160196.29
 10
-591251.08
 20
-1160194.15
 10
-591257.06
 20
-1160193.08
 10
-591270.3
 20
-1160183.04
 10
-591278.75
 20
-1160174.77
 10
-591292.44
 20
-1160163.81
 10
-591309.3
 20
-1160152.825
 10
-591326.16
 20
-1160141.84
 10
-591331.71
 20
-1160135.6
 10
-591338.43
 20
-1160126.33
 10
-591340.66
 20
-1160093.67
 10
-591353.61
 20
-1160076.35
 10
-591370.71
 20
-1160057.86
 10
-591385.25
 20
-1160050.32
 10
-591402.95
 20
-1160045.23
 10
-591421.24
 20
-1160027.17
 10
-591441.07
 20
-1160004.77
 10
-591449.96
 20
-1159990.66
 10
-591461.54
 20
-1159964.31
 10
-591474.78
 20
-1159932.61
 10
-591486.88
 20
-1159904.03
 10
-591491.77
 20
-1159891.99
 10
-591499.7
 20
-1159872.89
 10
-591502.61
 20
-1159867.61
 10
-591503.98
 20
-1159868.35
 97
0
 75
0
 76
1
 98
0
  0
HATCH
  5
200BB
100
AcDbEntity
  8
vodní toky
100
AcDbHatch
 10
0
 20
0
 30
0
210
0
220
0
230
1
  2
SOLID
 70
1
 71
0
 91
1
 92
2
 72
0
 73
1
 93
34
 10
-591250.22
 20
-1160197.05
 10
-591246.85
 20
-1160197.3
 10
-591244.19
 20
-1160198.21
 10
-591239.59
 20
-1160200.06
 10
-591231.626
 20
-1160206.563
 10
-591222.435
 20
-1160214.24
 10
-591219.28
 20
-1160215.62
 10
-591216.68
 20
-1160215.79
 10
-591204.08
 20
-1160213.29
 10
-591201.75
 20
-1160213.2
 10
-591199.79
 20
-1160214.05
 10
-591196.99
 20
-1160216.48
 10
-591185.27
 20
-1160229.54
 10
-591175.62
 20
-1160240.63
 10
-591162.915
 20
-1160250.94
 10
-591151.1239
 20
-1160260.5088
 10
-591150.21
 20
-1160261.25
 10
-591148.585
 20
-1160260.29
 10
-591148.73
 20
-1160259.64
 10
-591159.83
 20
-1160250.79
 10
-591172.99
 20
-1160239.37
 10
-591181.355
 20
-1160230.045
 10
-591191.25
 20
-1160219.215
 10
-591199.53
 20
-1160211.1
 10
-591209.135
 20
-1160211.8
 10
-591218.74
 20
-1160212.5
 10
-591228.81
 20
-1160206.69
 10
-591231.85
 20
-1160204.32
 10
-591234.2145
 20
-1160203.2695
 10
-591238.14
 20
-1160199.72
 10
-591241.69
 20
-1160196.51
 10
-591245.59
 20
-1160194.7
 10
-591247.26
 20
-1160194.53
 10
-591250.22
 20
-1160197.05
 97
0
 75
0
 76
1
 98
0
  0
HATCH
  5
200BC
100
AcDbEntity
  8
vodní toky
100
AcDbHatch
 10
0
 20
0
 30
0
210
0
220
0
230
1
  2
SOLID
 70
1
 71
0
 91
1
 92
2
 72
0
 73
1
 93
23
 10
-591146.11
 20
-1160264.56
 10
-591147
 20
-1160267.56
 10
-591134.82
 20
-1160275.34
 10
-591124.22
 20
-1160277.28
 10
-591096.295
 20
-1160280.93
 10
-591068.37
 20
-1160284.58
 10
-591052.8
 20
-1160292.76
 10
-591040.4
 20
-1160301.945
 10
-591029.8317
 20
-1160309.1624
 10
-591010.67
 20
-1160321.18
 10
-591009.585
 20
-1160319.45
 10
-591008.66
 20
-1160316.04
 10
-591019.5
 20
-1160310.43
 10
-591024.4
 20
-1160306.78
 10
-591037.045
 20
-1160296.775
 10
-591049.69
 20
-1160286.77
 10
-591055.03
 20
-1160283.62
 10
-591065.495
 20
-1160278.255
 10
-591095.72
 20
-1160274.49
 10
-591124.79
 20
-1160271.19
 10
-591143.86
 20
-1160263.54
 10
-591144.565
 20
-1160263.51
 10
-591146.11
 20
-1160264.56
 97
0
 75
0
 76
1
 98
0
  0
HATCH
  5
200BD
100
AcDbEntity
  8
vodní toky
100
AcDbHatch
 10
0
 20
0
 30
0
210
0
220
0
230
1
  2
SOLID
 70
1
 71
0
 91
1
 92
2
 72
0
 73
1
 93
12
 10
-591006.54
 20
-1160326.02
 10
-590985.305
 20
-1160340.64
 10
-590960.27
 20
-1160358.53
 10
-590952.62
 20
-1160367.25
 10
-590924.37
 20
-1160396.14
 10
-590919.95
 20
-1160392.07
 10
-590938.84
 20
-1160371.525
 10
-590957.68
 20
-1160353.76
 10
-590980.665
 20
-1160337.695
 10
-591003.88
 20
-1160321.22
 10
-591005.12
 20
-1160321.67
 10
-591006.54
 20
-1160326.02
 97
0
 75
0
 76
1
 98
0
  0
HATCH
  5
200BE
100
AcDbEntity
  8
vodní toky
100
AcDbHatch
 10
0
 20
0
 30
0
210
0
220
0
230
1
  2
SOLID
 70
1
 71
0
 91
1
 92
2
 72
0
 73
1
 93
25
 10
-590923.55
 20
-1160397.01
 10
-590876.775
 20
-1160446.72
 10
-590862.66
 20
-1160461.71
 10
-590828.87
 20
-1160498.06
 10
-590818.17
 20
-1160509.4
 10
-590796.83
 20
-1160531.61
 10
-590773.51
 20
-1160549.94
 10
-590744.245
 20
-1160572.665
 10
-590714.98
 20
-1160595.39
 10
-590669.32
 20
-1160631.76
 10
-590666.95
 20
-1160627.59
 10
-590717.81
 20
-1160587.07
 10
-590724.13
 20
-1160582.3
 10
-590741.99
 20
-1160568.69
 10
-590770.52
 20
-1160546.52
 10
-590791.47
 20
-1160531.06
 10
-590799.65
 20
-1160522.66
 10
-590813.6
 20
-1160508.3
 10
-590825.29
 20
-1160495.96
 10
-590850.48
 20
-1160467.99
 10
-590875.44
 20
-1160442.08
 10
-590888.49
 20
-1160427.42
 10
-590903.84
 20
-1160410.17
 10
-590919.19
 20
-1160392.92
 10
-590923.55
 20
-1160397.01
 97
0
 75
0
 76
1
 98
0
  0
HATCH
  5
200BF
100
AcDbEntity
  8
vodní toky
100
AcDbHatch
 10
0
 20
0
 30
0
210
0
220
0
230
1
  2
SOLID
 70
1
 71
0
 91
1
 92
2
 72
0
 73
1
 93
17
 10
-590668.2
 20
-1160632.56
 10
-590658.04
 20
-1160639.7
 10
-590648.46
 20
-1160644.68
 10
-590639.25
 20
-1160647.74
 10
-590627.32
 20
-1160650.12
 10
-590573.99
 20
-1160660.84
 10
-590556.98
 20
-1160664.09
 10
-590555.81
 20
-1160658.72
 10
-590587.25
 20
-1160653.025
 10
-590618.69
 20
-1160647.33
 10
-590624.17
 20
-1160646.255
 10
-590641.9
 20
-1160642.43
 10
-590647.7
 20
-1160640.28
 10
-590653.7
 20
-1160637.41
 10
-590659.785
 20
-1160632.945
 10
-590665.87
 20
-1160628.48
 10
-590668.2
 20
-1160632.56
 97
0
 75
0
 76
1
 98
0
  0
HATCH
  5
200C0
100
AcDbEntity
  8
vodní toky
100
AcDbHatch
 10
0
 20
0
 30
0
210
0
220
0
230
1
  2
SOLID
 70
1
 71
0
 91
1
 92
2
 72
0
 73
1
 93
13
 10
-590552.24
 20
-1160664.15
 10
-590515.43
 20
-1160672.08
 10
-590487.49
 20
-1160677.495
 10
-590459.55
 20
-1160682.91
 10
-590437.06
 20
-1160686.1
 10
-590436.11
 20
-1160680.44
 10
-590460.29
 20
-1160676.74
 10
-590475.58
 20
-1160674.4
 10
-590491.25
 20
-1160671.64
 10
-590505.25
 20
-1160669.17
 10
-590523.455
 20
-1160665.64
 10
-590551.08
 20
-1160659.76
 10
-590552.24
 20
-1160664.15
 97
0
 75
0
 76
1
 98
0
  0
HATCH
  5
200C1
100
AcDbEntity
  8
vodní toky
100
AcDbHatch
 10
0
 20
0
 30
0
210
0
220
0
230
1
  2
SOLID
 70
1
 71
0
 91
1
 92
2
 72
0
 73
1
 93
8
 10
-590436.11
 20
-1160680.44
 10
-590437.06
 20
-1160686.1
 10
-590404.785
 20
-1160690.68
 10
-590375.6
 20
-1160694.82
 10
-590374.38
 20
-1160693.56
 10
-590373.97
 20
-1160689.71
 10
-590374.77
 20
-1160688.7
 10
-590436.11
 20
-1160680.44
 97
0
 75
0
 76
1
 98
0
  0
HATCH
  5
200C2
100
AcDbEntity
  8
vodní toky
100
AcDbHatch
 10
0
 20
0
 30
0
210
0
220
0
230
1
  2
SOLID
 70
1
 71
0
 91
1
 92
2
 72
0
 73
1
 93
47
 10
-590369.55
 20
-1160695.68
 10
-590351.365
 20
-1160698.435
 10
-590333.18
 20
-1160701.19
 10
-590323.95
 20
-1160703.67
 10
-590310.05
 20
-1160702.65
 10
-590308.23
 20
-1160709.66
 10
-590314.92
 20
-1160719.83
 10
-590307.21
 20
-1160740.56
 10
-590300.73
 20
-1160757.99
 10
-590294.81
 20
-1160761
 10
-590283.12
 20
-1160762.92
 10
-590271.43
 20
-1160764.84
 10
-590260.845
 20
-1160768
 10
-590250.26
 20
-1160771.16
 10
-590248.53
 20
-1160773.66
 10
-590245.08
 20
-1160789.485
 10
-590241.35
 20
-1160809.12
 10
-590237.05
 20
-1160824.49
 10
-590235.635
 20
-1160848.275
 10
-590234.45
 20
-1160856.66
 10
-590232.67
 20
-1160862.82
 10
-590226.84
 20
-1160871.74
 10
-590216.09
 20
-1160883.13
 10
-590218.561
 20
-1160875.626
 10
-590229.8
 20
-1160856.12
 10
-590230.79
 20
-1160833.39
 10
-590238.205
 20
-1160798.545
 10
-590243.05
 20
-1160776.97
 10
-590246.38
 20
-1160768.33
 10
-590269.46
 20
-1160759.64
 10
-590282.865
 20
-1160756.495
 10
-590296.27
 20
-1160753.35
 10
-590296.95
 20
-1160752.18
 10
-590298.9
 20
-1160748.86
 10
-590302.865
 20
-1160737.505
 10
-590306.83
 20
-1160726.15
 10
-590303.14
 20
-1160714.99
 10
-590301.7
 20
-1160707.7
 10
-590303.91
 20
-1160700.93
 10
-590308.36
 20
-1160696.7
 10
-590320.99
 20
-1160696.38
 10
-590342.92
 20
-1160690.45
 10
-590353.05
 20
-1160688.45
 10
-590369.13
 20
-1160689.02
 10
-590369.96
 20
-1160690.06
 10
-590370.29
 20
-1160694.31
 10
-590369.55
 20
-1160695.68
 97
0
 75
0
 76
1
 98
0
  0
HATCH
  5
200C3
100
AcDbEntity
  8
vodní toky
100
AcDbHatch
 10
0
 20
0
 30
0
210
0
220
0
230
1
  2
SOLID
 70
1
 71
0
 91
1
 92
2
 72
0
 73
1
 93
20
 10
-590197.11
 20
-1160801.07
 10
-590203.58
 20
-1160815.4
 10
-590209.74
 20
-1160829.04
 10
-590212.995
 20
-1160839.955
 10
-590216.25
 20
-1160850.87
 10
-590217.0035
 20
-1160858.288
 10
-590217.96
 20
-1160877.34
 10
-590216.09
 20
-1160883.13
 10
-590211.225
 20
-1160889.54
 10
-590204.68
 20
-1160897.23
 10
-590197.17
 20
-1160897.21
 10
-590201.65
 20
-1160888.11
 10
-590207.675
 20
-1160882.475
 10
-590213.7
 20
-1160876.84
 10
-590211.64
 20
-1160852.76
 10
-590208.14
 20
-1160841.305
 10
-590201.82
 20
-1160818.58
 10
-590193.3615
 20
-1160814.7303
 10
-590194.81
 20
-1160809.65
 10
-590197.11
 20
-1160801.07
 97
0
 75
0
 76
1
 98
0
  0
HATCH
  5
200C4
100
AcDbEntity
  8
vodní toky
100
AcDbHatch
 10
0
 20
0
 30
0
210
0
220
0
230
1
  2
SOLID
 70
1
 71
0
 91
1
 92
2
 72
0
 73
1
 93
58
 10
-590204.68
 20
-1160897.23
 10
-590205.05
 20
-1160904.84
 10
-590200.46
 20
-1160955.53
 10
-590194.48
 20
-1160991.34
 10
-590188.81
 20
-1161033.06
 10
-590166.65
 20
-1161085.505
 10
-590150.0987
 20
-1161124.6575
 10
-590144.165
 20
-1161138.715
 10
-590136.43
 20
-1161157.04
 10
-590135.835
 20
-1161180.335
 10
-590135.24
 20
-1161203.63
 10
-590139.558
 20
-1161212.776
 10
-590149.7655
 20
-1161212.4025
 10
-590159.52
 20
-1161212.15
 10
-590169.43
 20
-1161214.68
 10
-590179.73
 20
-1161229.29
 10
-590190.03
 20
-1161243.9
 10
-590206.62
 20
-1161265.2
 10
-590223.21
 20
-1161286.5
 10
-590219.805
 20
-1161308.585
 10
-590216.328
 20
-1161329.599
 10
-590215.023
 20
-1161347.706
 10
-590222.339
 20
-1161357.23
 10
-590229.59
 20
-1161376.685
 10
-590236.795
 20
-1161395.02
 10
-590237.58
 20
-1161403.14
 10
-590238.52
 20
-1161411
 10
-590235.6
 20
-1161428.79
 10
-590230.225
 20
-1161452.306
 10
-590224.5
 20
-1161474.95
 10
-590219.74
 20
-1161472.8
 10
-590222.795
 20
-1161461.56
 10
-590225.85
 20
-1161450.32
 10
-590228.8
 20
-1161429.32
 10
-590231.56
 20
-1161420.325
 10
-590234.32
 20
-1161411.33
 10
-590228.15
 20
-1161390.5
 10
-590222.4
 20
-1161371.5
 10
-590218.57
 20
-1161358.4
 10
-590210.24
 20
-1161348.52
 10
-590212.27
 20
-1161330.45
 10
-590214.615
 20
-1161316.095
 10
-590220.28
 20
-1161287.15
 10
-590207.96
 20
-1161274.48
 10
-590183.97
 20
-1161249.04
 10
-590174.35
 20
-1161232.16
 10
-590167.45
 20
-1161220.04
 10
-590158.36
 20
-1161216.9
 10
-590136.85
 20
-1161217.41
 10
-590131.94
 20
-1161203.75
 10
-590132.1
 20
-1161154.99
 10
-590135.54
 20
-1161145.69
 10
-590163.355
 20
-1161076.655
 10
-590185.1
 20
-1161021.49
 10
-590191.775
 20
-1160972.05
 10
-590194.279
 20
-1160956.738
 10
-590197.17
 20
-1160897.21
 10
-590204.68
 20
-1160897.23
 97
0
 75
0
 76
1
 98
0
  0
HATCH
  5
200C5
100
AcDbEntity
  8
vodní toky
100
AcDbHatch
 10
0
 20
0
 30
0
210
0
220
0
230
1
  2
SOLID
 70
1
 71
0
 91
1
 92
2
 72
0
 73
1
 93
84
 10
-591621.69
 20
-1160210.88
 10
-591618.1
 20
-1160212.44
 10
-591611.07
 20
-1160217.15
 10
-591604.04
 20
-1160221.86
 10
-591592.11
 20
-1160230.78
 10
-591589.7
 20
-1160230.87
 10
-591584.6
 20
-1160237.36
 10
-591576.79
 20
-1160242
 10
-591569.9
 20
-1160241.35
 10
-591563.49
 20
-1160240.74
 10
-591557.46
 20
-1160247.26
 10
-591552.84
 20
-1160250.02
 10
-591538.22
 20
-1160258.87
 10
-591527.75
 20
-1160259.63
 10
-591512.88
 20
-1160266.02
 10
-591493.02
 20
-1160276.42
 10
-591490.64
 20
-1160277.57
 10
-591484.84
 20
-1160277.04
 10
-591481.05
 20
-1160275.43
 10
-591476.02
 20
-1160270.44
 10
-591469.85
 20
-1160267.8
 10
-591458.13
 20
-1160266.38
 10
-591449.03
 20
-1160269.88
 10
-591446.06
 20
-1160269.74
 10
-591442.14
 20
-1160270.225
 10
-591438.22
 20
-1160270.71
 10
-591428.35
 20
-1160272.89
 10
-591420.66
 20
-1160270.92
 10
-591411.7
 20
-1160269.555
 10
-591402.74
 20
-1160268.19
 10
-591392.265
 20
-1160272.775
 10
-591381.79
 20
-1160277.36
 10
-591370.33
 20
-1160277.96
 10
-591364.99
 20
-1160280.48
 10
-591351.1
 20
-1160287.16
 10
-591347.76
 20
-1160297.08
 10
-591339.9
 20
-1160299.28
 10
-591330.92
 20
-1160296.34
 10
-591318.84
 20
-1160292.39
 10
-591306.79
 20
-1160286.67
 10
-591278.4
 20
-1160287.94
 10
-591269.96
 20
-1160277.19
 10
-591257.53
 20
-1160273.39
 10
-591245.5
 20
-1160260.24
 10
-591249.57
 20
-1160256.59
 10
-591260.75
 20
-1160272.13
 10
-591270.19
 20
-1160273.74
 10
-591273.96
 20
-1160276.27
 10
-591281.1
 20
-1160285.72
 10
-591290.58
 20
-1160284.84
 10
-591306.78
 20
-1160284.28
 10
-591319.72
 20
-1160290.04
 10
-591331.05
 20
-1160293.26
 10
-591339.88
 20
-1160295.77
 10
-591344.16
 20
-1160293.79
 10
-591348.4
 20
-1160284.09
 10
-591359.28
 20
-1160281.05
 10
-591369.72
 20
-1160275.86
 10
-591380.71
 20
-1160275.25
 10
-591386.25
 20
-1160273.43
 10
-591401.97
 20
-1160266.68
 10
-591420.8
 20
-1160269.33
 10
-591427.86
 20
-1160271.58
 10
-591437.56
 20
-1160269.04
 10
-591447.86
 20
-1160266.81
 10
-591457.01
 20
-1160263.6
 10
-591468.99
 20
-1160264.82
 10
-591477.505
 20
-1160269.225
 10
-591489.38
 20
-1160273.33
 10
-591501.56
 20
-1160267.63
 10
-591511.6
 20
-1160262.88
 10
-591527.26
 20
-1160256.44
 10
-591534.78
 20
-1160255.97
 10
-591538.16
 20
-1160255.76
 10
-591549.01
 20
-1160249.47
 10
-591553.875
 20
-1160245.31
 10
-591561.87
 20
-1160237.19
 10
-591575.62
 20
-1160239.45
 10
-591580.27
 20
-1160237.4
 10
-591587.29
 20
-1160228.96
 10
-591596.1
 20
-1160222.88
 10
-591604.91
 20
-1160216.8
 10
-591619.94
 20
-1160207.4
 10
-591621.69
 20
-1160210.88
 97
0
 75
0
 76
1
 98
0
  0
HATCH
  5
200C6
100
AcDbEntity
  8
vodní toky
100
AcDbHatch
 10
0
 20
0
 30
0
210
0
220
0
230
1
  2
SOLID
 70
1
 71
0
 91
1
 92
2
 72
0
 73
1
 93
63
 10
-590236.31
 20
-1158799.97
 10
-590249.3433
 20
-1158789.789
 10
-590253.9121
 20
-1158796.0746
 10
-590259.0519
 20
-1158801.5031
 10
-590264.71
 20
-1158812.39
 10
-590272.8802
 20
-1158827.5304
 10
-590276.9904
 20
-1158841.4308
 10
-590290.9619
 20
-1158905.858
 10
-590278.4692
 20
-1158920.8577
 10
-590237.7429
 20
-1158959.3569
 10
-590229.6476
 20
-1158967.3561
 10
-590222.59
 20
-1158973.6584
 10
-590215.6613
 20
-1158980.372
 10
-590207.3288
 20
-1158988.1733
 10
-590197.0167
 20
-1158997.8561
 10
-590176.147
 20
-1159009.4229
 10
-590156.6583
 20
-1159022.4227
 10
-590140.6852
 20
-1159032.7405
 10
-590112.7155
 20
-1159045.3898
 10
-590078.9214
 20
-1159066.3448
 10
-590039.9764
 20
-1159085.6714
 10
-590007.9951
 20
-1159110.4208
 10
-589986.5077
 20
-1159124.1706
 10
-589971.93
 20
-1159140.8
 10
-589954.62
 20
-1159158.3
 10
-589937.8
 20
-1159177.5
 10
-589923.12
 20
-1159189.455
 10
-589907.275
 20
-1159212.615
 10
-589882.885
 20
-1159251.585
 10
-589839.99
 20
-1159242.18
 10
-589826.62
 20
-1159234.645
 10
-589811.055
 20
-1159217.205
 10
-589806.555
 20
-1159197.27
 10
-589810.31
 20
-1159175.11
 10
-589823.06
 20
-1159145.835
 10
-589827.715
 20
-1159139.065
 10
-589846.08
 20
-1159127.86
 10
-589851.45
 20
-1159115.75
 10
-589857.82
 20
-1159093.81
 10
-589875.655
 20
-1159068.79
 10
-589905.98
 20
-1159044.53
 10
-589931.95
 20
-1159030.19
 10
-589959.95
 20
-1159020.25
 10
-589985.415
 20
-1159008.72
 10
-590021.63
 20
-1158991.88
 10
-590048.065
 20
-1158984.185
 10
-590079.985
 20
-1158979.215
 10
-590106.7
 20
-1158976.035
 10
-590121.03
 20
-1158971.27
 10
-590142.5
 20
-1158957.66
 10
-590152.94
 20
-1158952.03
 10
-590158.63
 20
-1158950.22
 10
-590164.32
 20
-1158948.41
 10
-590176.07
 20
-1158947.53
 10
-590185.5
 20
-1158947.53
 10
-590197.63
 20
-1158946.22
 10
-590232.88
 20
-1158919.34
 10
-590252.24
 20
-1158894.83
 10
-590260.085
 20
-1158862.52
 10
-590258.83
 20
-1158839.36
 10
-590241.42
 20
-1158816.62
 10
-590229.07
 20
-1158803.07
 10
-590236.31
 20
-1158799.97
 97
0
 75
0
 76
1
 98
0
  0
HATCH
  5
200C7
100
AcDbEntity
  8
vodní toky
100
AcDbHatch
 10
0
 20
0
 30
0
210
0
220
0
230
1
  2
SOLID
 70
1
 71
0
 91
1
 92
2
 72
0
 73
1
 93
55
 10
-594563.29
 20
-1157416.03
 10
-594546.1
 20
-1157419.18
 10
-594527.81
 20
-1157420.91
 10
-594485.03
 20
-1157428.255
 10
-594436.965
 20
-1157437.33
 10
-594411.01
 20
-1157442.1
 10
-594395.51
 20
-1157447.42
 10
-594372.76
 20
-1157456.62
 10
-594351.25
 20
-1157465.57
 10
-594328.13
 20
-1157475.45
 10
-594269.56
 20
-1157496.88
 10
-594248.085
 20
-1157510.635
 10
-594223.29
 20
-1157525.37
 10
-594199.3
 20
-1157544.5
 10
-594145.28
 20
-1157605.38
 10
-594128.8
 20
-1157618.09
 10
-594112.32
 20
-1157630.8
 10
-594088.165
 20
-1157646.93
 10
-594064.01
 20
-1157663.06
 10
-594045.18
 20
-1157678.92
 10
-594027.19
 20
-1157692.445
 10
-593996.74
 20
-1157715.05
 10
-593962.74
 20
-1157741.67
 10
-593947.46
 20
-1157762.06
 10
-593922.01
 20
-1157820.794
 10
-593900.74
 20
-1157825.38
 10
-593903.235
 20
-1157815.59
 10
-593907.32
 20
-1157801.34
 10
-593929.39
 20
-1157765.22
 10
-593950.895
 20
-1157736.875
 10
-593966.14
 20
-1157721.54
 10
-593978.19
 20
-1157712.07
 10
-594005.96
 20
-1157690.5
 10
-594024.77
 20
-1157675.54
 10
-594035.66
 20
-1157668.28
 10
-594072.16
 20
-1157640.36
 10
-594109.78
 20
-1157613.41
 10
-594138.72
 20
-1157594.24
 10
-594159.245
 20
-1157570.515
 10
-594171.17
 20
-1157557.42
 10
-594187.085
 20
-1157538.27
 10
-594202.13
 20
-1157522.08
 10
-594225.1
 20
-1157503.91
 10
-594255.015
 20
-1157487.22
 10
-594308.735
 20
-1157465.525
 10
-594370.65
 20
-1157442.14
 10
-594398.93
 20
-1157431.57
 10
-594403.015
 20
-1157430.235
 10
-594439.83
 20
-1157419.8
 10
-594473.99
 20
-1157410.78
 10
-594503.055
 20
-1157403.485
 10
-594534.695
 20
-1157395.9
 10
-594545.345
 20
-1157395.26
 10
-594563.53
 20
-1157395.675
 10
-594563.29
 20
-1157416.03
 97
0
 75
0
 76
1
 98
0
  0
HATCH
  5
200C8
100
AcDbEntity
  8
vodní toky
100
AcDbHatch
 10
0
 20
0
 30
0
210
0
220
0
230
1
  2
SOLID
 70
1
 71
0
 91
1
 92
2
 72
0
 73
1
 93
9
 10
-594573.8425
 20
-1157416.8003
 10
-594573.64
 20
-1157396.44
 10
-594576.31
 20
-1157396.62
 10
-594596.44
 20
-1157402.27
 10
-594612.5
 20
-1157411.29
 10
-594597.9112
 20
-1157426.8085
 10
-594592.02
 20
-1157424.42
 10
-594577.9438
 20
-1157418.955
 10
-594573.8425
 20
-1157416.8003
 97
0
 75
0
 76
1
 98
0
  0
HATCH
  5
200C9
100
AcDbEntity
  8
vodní toky
100
AcDbHatch
 10
0
 20
0
 30
0
210
0
220
0
230
1
  2
SOLID
 70
1
 71
0
 91
1
 92
2
 72
0
 73
1
 93
22
 10
-594615.31
 20
-1157412.87
 10
-594620.11
 20
-1157415.78
 10
-594632.095
 20
-1157424.46
 10
-594644.08
 20
-1157433.14
 10
-594660.38
 20
-1157439.94
 10
-594684.795
 20
-1157445.96
 10
-594709.21
 20
-1157451.98
 10
-594717.15
 20
-1157454.615
 10
-594743.67
 20
-1157463.2
 10
-594785.78
 20
-1157469.15
 10
-594781.93
 20
-1157486.61
 10
-594780.02
 20
-1157488.28
 10
-594752.315
 20
-1157480.955
 10
-594724.61
 20
-1157473.63
 10
-594708.82
 20
-1157469.73
 10
-594671.07
 20
-1157464.06
 10
-594654.65
 20
-1157461.32
 10
-594647.177
 20
-1157460.596
 10
-594637.25
 20
-1157458.83
 10
-594603.237
 20
-1157448.504
 10
-594600.5
 20
-1157427.66
 10
-594615.31
 20
-1157412.87
 97
0
 75
0
 76
1
 98
0
  0
HATCH
  5
200CA
100
AcDbEntity
  8
vodní toky
100
AcDbHatch
 10
0
 20
0
 30
0
210
0
220
0
230
1
  2
SOLID
 70
1
 71
0
 91
1
 92
2
 72
0
 73
1
 93
53
 10
-594798.54
 20
-1157490.59
 10
-594802.57
 20
-1157471.08
 10
-594815.45
 20
-1157473.06
 10
-594839.039
 20
-1157470.558
 10
-594850.745
 20
-1157467.435
 10
-594862.45
 20
-1157464.31
 10
-594906.31
 20
-1157435.53
 10
-594917.58
 20
-1157429.18
 10
-594937.22
 20
-1157424.32
 10
-594960.12
 20
-1157421.78
 10
-594985.04
 20
-1157425.81
 10
-595028.26
 20
-1157442.97
 10
-595075.74
 20
-1157462.81
 10
-595138.465
 20
-1157468.815
 10
-595207.1
 20
-1157471.14
 10
-595239.53
 20
-1157469.6
 10
-595241.39
 20
-1157469.88
 10
-595255.69
 20
-1157473.38
 10
-595258.29
 20
-1157474.365
 10
-595260.89
 20
-1157475.35
 10
-595264.22
 20
-1157476.92
 10
-595271.52
 20
-1157481.46
 10
-595293.56
 20
-1157495.63
 10
-595319.15
 20
-1157514.38
 10
-595341.44
 20
-1157531.8
 10
-595354.58
 20
-1157538.59
 10
-595337.25
 20
-1157547.02
 10
-595299.885
 20
-1157520.385
 10
-595263.43
 20
-1157493.31
 10
-595243.5366
 20
-1157485.4074
 10
-595230.35
 20
-1157484.86
 10
-595214.79
 20
-1157488.35
 10
-595184.52
 20
-1157484.85
 10
-595171.645
 20
-1157483.365
 10
-595138.66
 20
-1157479.64
 10
-595118.6
 20
-1157478.68
 10
-595099.55
 20
-1157477.87
 10
-595078.72
 20
-1157476.83
 10
-595057.4
 20
-1157469.12
 10
-595016.62
 20
-1157451.95
 10
-594977.92
 20
-1157436.53
 10
-594959.515
 20
-1157435.47
 10
-594940.915
 20
-1157435.015
 10
-594928.23
 20
-1157438.81
 10
-594915.12
 20
-1157443.31
 10
-594896.05
 20
-1157458.73
 10
-594884.06
 20
-1157468.43
 10
-594868.03
 20
-1157478.12
 10
-594844.03
 20
-1157483.26
 10
-594836.76
 20
-1157485.21
 10
-594819.1565
 20
-1157490.2705
 10
-594801.674
 20
-1157494.821
 10
-594798.54
 20
-1157490.59
 97
0
 75
0
 76
1
 98
0
  0
HATCH
  5
200CB
100
AcDbEntity
  8
vodní toky
100
AcDbHatch
 10
0
 20
0
 30
0
210
0
220
0
230
1
  2
SOLID
 70
1
 71
0
 91
1
 92
2
 72
0
 73
1
 93
34
 10
-595500.92
 20
-1157763.72
 10
-595503.29
 20
-1157757.08
 10
-595501.85
 20
-1157746.02
 10
-595497.92
 20
-1157720.47
 10
-595495.65
 20
-1157690.26
 10
-595494.5
 20
-1157683.23
 10
-595482.94
 20
-1157659.33
 10
-595466.96
 20
-1157645.895
 10
-595450.98
 20
-1157632.46
 10
-595425.03
 20
-1157617.61
 10
-595403.4
 20
-1157589.56
 10
-595381.02
 20
-1157585
 10
-595350.31
 20
-1157563.37
 10
-595342.94
 20
-1157550.9
 10
-595379.48
 20
-1157531.47
 10
-595385.33
 20
-1157538.25
 10
-595387.135
 20
-1157538.005
 10
-595398.9
 20
-1157555.905
 10
-595407.46
 20
-1157564.84
 10
-595416.29
 20
-1157572.415
 10
-595432.78
 20
-1157598
 10
-595446.74
 20
-1157606.635
 10
-595453.685
 20
-1157610.58
 10
-595466.76
 20
-1157623.48
 10
-595479.44
 20
-1157633.85
 10
-595492.12
 20
-1157644.22
 10
-595495.83
 20
-1157650.875
 10
-595501.23
 20
-1157657.5
 10
-595517.07
 20
-1157706.605
 10
-595527.145
 20
-1157740.85
 10
-595529.55
 20
-1157753.1
 10
-595529.4797
 20
-1157755.0145
 10
-595528.27
 20
-1157756.5
 10
-595500.92
 20
-1157763.72
 97
0
 75
0
 76
1
 98
0
  0
HATCH
  5
200CC
100
AcDbEntity
  8
vodní toky
100
AcDbHatch
 10
0
 20
0
 30
0
210
0
220
0
230
1
  2
SOLID
 70
1
 71
0
 91
1
 92
2
 72
0
 73
1
 93
24
 10
-595490.82
 20
-1158005.2
 10
-595491.49
 20
-1158002.45
 10
-595506.3328
 20
-1157950.766
 10
-595511.1978
 20
-1157932.346
 10
-595514.6328
 20
-1157913.456
 10
-595518.0678
 20
-1157894.566
 10
-595519.7212
 20
-1157865.3128
 10
-595520.3878
 20
-1157845.046
 10
-595518.1628
 20
-1157821.756
 10
-595515.9378
 20
-1157798.466
 10
-595513.7078
 20
-1157780.706
 10
-595510.7578
 20
-1157762.346
 10
-595517.1428
 20
-1157760.541
 10
-595524.1278
 20
-1157758.566
 10
-595525.9828
 20
-1157771.571
 10
-595527.8978
 20
-1157785.106
 10
-595529.6428
 20
-1157801.226
 10
-595531.3878
 20
-1157817.346
 10
-595531.3478
 20
-1157856.686
 10
-595531.1378
 20
-1157899.816
 10
-595521.8328
 20
-1157944.661
 10
-595512.5278
 20
-1157989.506
 10
-595508.1
 20
-1158010.29
 10
-595490.82
 20
-1158005.2
 97
0
 75
0
 76
1
 98
0
  0
HATCH
  5
200CD
100
AcDbEntity
  8
vodní toky
100
AcDbHatch
 10
0
 20
0
 30
0
210
0
220
0
230
1
  2
SOLID
 70
1
 71
0
 91
1
 92
2
 72
0
 73
1
 93
36
 10
-593922.01
 20
-1157820.794
 10
-593915.33
 20
-1157835.62
 10
-593897.81
 20
-1157881.36
 10
-593882.95
 20
-1157904.6
 10
-593858.35
 20
-1157941.72
 10
-593843.75
 20
-1157968.45
 10
-593829.12
 20
-1157979.24
 10
-593813.1589
 20
-1157982.9387
 10
-593794.8
 20
-1157983.225
 10
-593765.39
 20
-1157974.64
 10
-593748.06
 20
-1157966.44
 10
-593735.305
 20
-1157954.98
 10
-593715.625
 20
-1157936.11
 10
-593698.41
 20
-1157916.12
 10
-593688.12
 20
-1157903.54
 10
-593689.1095
 20
-1157902.529
 10
-593692.26
 20
-1157898.71
 10
-593701.01
 20
-1157893.15
 10
-593712.5
 20
-1157915.49
 10
-593720.85
 20
-1157925.34
 10
-593732.15
 20
-1157937.94
 10
-593744.41
 20
-1157949.12
 10
-593765.63
 20
-1157961.83
 10
-593795.33
 20
-1157968.43
 10
-593806.96
 20
-1157966.53
 10
-593818.995
 20
-1157962.495
 10
-593829.62
 20
-1157946.68
 10
-593836.19
 20
-1157937.04
 10
-593845.59
 20
-1157919.5
 10
-593854.15
 20
-1157907.88
 10
-593862.71
 20
-1157896.26
 10
-593880.11
 20
-1157875.63
 10
-593888.32
 20
-1157862.18
 10
-593891.09
 20
-1157853.98
 10
-593900.74
 20
-1157825.38
 10
-593922.01
 20
-1157820.794
 97
0
 75
0
 76
1
 98
0
  0
HATCH
  5
200CE
100
AcDbEntity
  8
vodní toky
100
AcDbHatch
 10
0
 20
0
 30
0
210
0
220
0
230
1
  2
SOLID
 70
1
 71
0
 91
1
 92
2
 72
0
 73
1
 93
34
 10
-595625.7
 20
-1158296.02
 10
-595631.53
 20
-1158302.83
 10
-595633.5
 20
-1158310.34
 10
-595638.25
 20
-1158352.34
 10
-595641.86
 20
-1158365.535
 10
-595645.47
 20
-1158378.73
 10
-595647.61
 20
-1158395.02
 10
-595647.56
 20
-1158416.8
 10
-595641.77
 20
-1158440.13
 10
-595629.65
 20
-1158459.35
 10
-595614.88
 20
-1158479.63
 10
-595605.73
 20
-1158494.71
 10
-595587.65
 20
-1158520.85
 10
-595566.73
 20
-1158543.9
 10
-595546.33
 20
-1158558.27
 10
-595537.685
 20
-1158565.5
 10
-595514.52
 20
-1158586.52
 10
-595482.31
 20
-1158615.47
 10
-595476.7
 20
-1158602.03
 10
-595483.02
 20
-1158595.02
 10
-595487.75
 20
-1158591.97
 10
-595528.105
 20
-1158558.99
 10
-595574.02
 20
-1158518.51
 10
-595593.91
 20
-1158485.36
 10
-595617.07
 20
-1158459.36
 10
-595631.955
 20
-1158440.105
 10
-595634.83
 20
-1158432.49
 10
-595636.9764
 20
-1158416.4371
 10
-595632.34
 20
-1158380.52
 10
-595625.48
 20
-1158354.405
 10
-595619.2979
 20
-1158329.6114
 10
-595618.86
 20
-1158327.48
 10
-595618.23
 20
-1158303.16
 10
-595625.7
 20
-1158296.02
 97
0
 75
0
 76
1
 98
0
  0
HATCH
  5
200CF
100
AcDbEntity
  8
vodní toky
100
AcDbHatch
 10
0
 20
0
 30
0
210
0
220
0
230
1
  2
SOLID
 70
1
 71
0
 91
1
 92
2
 72
0
 73
1
 93
26
 10
-595506.87
 20
-1158015.87
 10
-595503.82
 20
-1158033.05
 10
-595497.22
 20
-1158052.63
 10
-595494.03
 20
-1158075.22
 10
-595497.25
 20
-1158118.05
 10
-595500.98
 20
-1158133.96
 10
-595517.25
 20
-1158157.87
 10
-595540.415
 20
-1158180.69
 10
-595573.275
 20
-1158211.07
 10
-595583.52
 20
-1158219.97
 10
-595602.78
 20
-1158241.04
 10
-595633.8479
 20
-1158292.9488
 10
-595628.77
 20
-1158299.6
 10
-595618.23
 20
-1158303.16
 10
-595596.375
 20
-1158259.69
 10
-595588.34
 20
-1158245.03
 10
-595580.28
 20
-1158237.02
 10
-595542.27
 20
-1158200.185
 10
-595500.17
 20
-1158159.67
 10
-595492.36
 20
-1158141.685
 10
-595483.87
 20
-1158121.01
 10
-595481.435
 20
-1158095.38
 10
-595479
 20
-1158069.75
 10
-595483.61
 20
-1158043.45
 10
-595489.37
 20
-1158011.24
 10
-595506.87
 20
-1158015.87
 97
0
 75
0
 76
1
 98
0
  0
HATCH
  5
200D0
100
AcDbEntity
  8
vodní toky
100
AcDbHatch
 10
0
 20
0
 30
0
210
0
220
0
230
1
  2
SOLID
 70
1
 71
0
 91
1
 92
2
 72
0
 73
1
 93
8
 10
-594789.397
 20
-1157398.835
 10
-594797.44
 20
-1157409.4
 10
-594796.35
 20
-1157419.06
 10
-594794.91
 20
-1157418.13
 10
-594784.6
 20
-1157414.79
 10
-594768.74
 20
-1157405.85
 10
-594767.79
 20
-1157393.32
 10
-594789.397
 20
-1157398.835
 97
0
 75
0
 76
1
 98
0
  0
HATCH
  5
200D1
100
AcDbEntity
  8
vodní toky
100
AcDbHatch
 10
0
 20
0
 30
0
210
0
220
0
230
1
  2
SOLID
 70
1
 71
0
 91
1
 92
2
 72
0
 73
1
 93
37
 10
-595628.77
 20
-1158299.6
 10
-595645.27
 20
-1158275.97
 10
-595667.59
 20
-1158243.545
 10
-595698.81
 20
-1158198.54
 10
-595706.27
 20
-1158180.49
 10
-595711.43
 20
-1158147.96
 10
-595717.2
 20
-1158116.92
 10
-595721.96
 20
-1158099.665
 10
-595726.72
 20
-1158082.41
 10
-595732.19
 20
-1158063.4
 10
-595734.44
 20
-1158040.97
 10
-595730.72
 20
-1158022.39
 10
-595725.7919
 20
-1158000.3724
 10
-595725.23
 20
-1157997.05
 10
-595726.02
 20
-1157986.6
 10
-595730.74
 20
-1157987.85
 10
-595731.1154
 20
-1157993.6234
 10
-595731.6634
 20
-1157999.4081
 10
-595734.96
 20
-1158012.855
 10
-595738.22
 20
-1158026.12
 10
-595739.785
 20
-1158036.13
 10
-595741.35
 20
-1158046.14
 10
-595739.7
 20
-1158055.87
 10
-595738.05
 20
-1158065.6
 10
-595734.9775
 20
-1158075.09
 10
-595731.905
 20
-1158084.58
 10
-595725.76
 20
-1158103.56
 10
-595723.3425
 20
-1158115.1125
 10
-595716.09
 20
-1158149.77
 10
-595714.405
 20
-1158165.865
 10
-595712.72
 20
-1158181.96
 10
-595709.46
 20
-1158193.62
 10
-595702.93
 20
-1158203.51
 10
-595674.545
 20
-1158246.48
 10
-595633.5
 20
-1158310.34
 10
-595631.53
 20
-1158302.83
 10
-595628.77
 20
-1158299.6
 97
0
 75
0
 76
1
 98
0
  0
HATCH
  5
200D2
100
AcDbEntity
  8
vodní toky
100
AcDbHatch
 10
0
 20
0
 30
0
210
0
220
0
230
1
  2
SOLID
 70
1
 71
0
 91
1
 92
2
 72
0
 73
1
 93
16
 10
-595735.12
 20
-1157983.31
 10
-595726.77
 20
-1157981.16
 10
-595728.73
 20
-1157973.66
 10
-595730.54
 20
-1157966.89
 10
-595733.17
 20
-1157958.33
 10
-595736.32
 20
-1157946.1
 10
-595747.52
 20
-1157930.685
 10
-595752.83
 20
-1157923.38
 10
-595756.84
 20
-1157929.08
 10
-595751.53
 20
-1157935.79
 10
-595744.58
 20
-1157945.61
 10
-595742.7
 20
-1157949.94
 10
-595740.56
 20
-1157959.98
 10
-595738.61
 20
-1157968.46
 10
-595736.96
 20
-1157975.49
 10
-595735.12
 20
-1157983.31
 97
0
 75
0
 76
1
 98
0
  0
HATCH
  5
200D3
100
AcDbEntity
  8
vodní toky
100
AcDbHatch
 10
0
 20
0
 30
0
210
0
220
0
230
1
  2
SOLID
 70
1
 71
0
 91
1
 92
2
 72
0
 73
1
 93
5
 10
-595752.43
 20
-1157923.16
 10
-595756.0103
 20
-1157920.3869
 10
-595761.34
 20
-1157927.395
 10
-595756.84
 20
-1157929.08
 10
-595752.43
 20
-1157923.16
 97
0
 75
0
 76
1
 98
0
  0
HATCH
  5
200D4
100
AcDbEntity
  8
vodní toky
100
AcDbHatch
 10
0
 20
0
 30
0
210
0
220
0
230
1
  2
SOLID
 70
1
 71
0
 91
1
 92
2
 72
0
 73
1
 93
43
 10
-595376.62
 20
-1157524.36
 10
-595370.98
 20
-1157519.86
 10
-595395.34
 20
-1157512.46
 10
-595434.49
 20
-1157496.46
 10
-595470.3
 20
-1157489.265
 10
-595479.505
 20
-1157489.815
 10
-595504.91
 20
-1157495.3
 10
-595545.84
 20
-1157510.42
 10
-595569.39
 20
-1157523.94
 10
-595589.9
 20
-1157538.16
 10
-595600.21
 20
-1157547.19
 10
-595609.05
 20
-1157556.835
 10
-595618.3
 20
-1157569.1
 10
-595631.79
 20
-1157587.74
 10
-595638.28
 20
-1157598.54
 10
-595648.89
 20
-1157608.77
 10
-595657.96
 20
-1157619.42
 10
-595664.255
 20
-1157629.09
 10
-595670.55
 20
-1157638.76
 10
-595674.275
 20
-1157646.6
 10
-595678
 20
-1157654.44
 10
-595679.19
 20
-1157659.545
 10
-595674.75
 20
-1157662.29
 10
-595668.45
 20
-1157646.565
 10
-595665.82
 20
-1157641.01
 10
-595665.5
 20
-1157640.04
 10
-595650.58
 20
-1157618.57
 10
-595643.19
 20
-1157610.52
 10
-595634.575
 20
-1157601.265
 10
-595627.845
 20
-1157592.015
 10
-595613.205
 20
-1157571.655
 10
-595604.07
 20
-1157559.34
 10
-595595.81
 20
-1157551.385
 10
-595589.37
 20
-1157545.1
 10
-595576.215
 20
-1157536.24
 10
-595544.7
 20
-1157515.99
 10
-595516.72
 20
-1157505.29
 10
-595478.73
 20
-1157495.18
 10
-595461.84
 20
-1157494.4
 10
-595440.21
 20
-1157499.62
 10
-595411.255
 20
-1157512.23
 10
-595403.48
 20
-1157515.82
 10
-595376.62
 20
-1157524.36
 97
0
 75
0
 76
1
 98
0
  0
HATCH
  5
200D5
100
AcDbEntity
  8
vodní toky
100
AcDbHatch
 10
0
 20
0
 30
0
210
0
220
0
230
1
  2
SOLID
 70
1
 71
0
 91
1
 92
2
 72
0
 73
1
 93
10
 10
-595679.19
 20
-1157659.545
 10
-595680.51
 20
-1157665.23
 10
-595679.935
 20
-1157674.59
 10
-595679.4261
 20
-1157681.4507
 10
-595677.4211
 20
-1157691.3325
 10
-595671.45
 20
-1157695.05
 10
-595675.6
 20
-1157675.38
 10
-595676.36
 20
-1157667.53
 10
-595674.75
 20
-1157662.29
 10
-595679.19
 20
-1157659.545
 97
0
 75
0
 76
1
 98
0
  0
HATCH
  5
200D6
100
AcDbEntity
  8
vodní toky
100
AcDbHatch
 10
0
 20
0
 30
0
210
0
220
0
230
1
  2
SOLID
 70
1
 71
0
 91
1
 92
2
 72
0
 73
1
 93
15
 10
-595652.24
 20
-1157776.095
 10
-595647.35
 20
-1157774.64
 10
-595648.78
 20
-1157766.14
 10
-595655.01
 20
-1157746.8
 10
-595656.36
 20
-1157741.83
 10
-595659.9444
 20
-1157727.5866
 10
-595662.77
 20
-1157716.47
 10
-595663.6366
 20
-1157714.3543
 10
-595668.51
 20
-1157714.33
 10
-595666.145
 20
-1157721.01
 10
-595663.9589
 20
-1157727.1362
 10
-595662.6699
 20
-1157734.4402
 10
-595660.49
 20
-1157744.84
 10
-595655.7956
 20
-1157760.6485
 10
-595652.24
 20
-1157776.095
 97
0
 75
0
 76
1
 98
0
  0
HATCH
  5
200D7
100
AcDbEntity
  8
vodní toky
100
AcDbHatch
 10
0
 20
0
 30
0
210
0
220
0
230
1
  2
SOLID
 70
1
 71
0
 91
1
 92
2
 72
0
 73
1
 93
8
 10
-595676.55
 20
-1157694.39
 10
-595674.83
 20
-1157700.4
 10
-595672.015
 20
-1157706.53
 10
-595668.51
 20
-1157714.33
 10
-595663.8157
 20
-1157714.3185
 10
-595670.24
 20
-1157699.25
 10
-595670.66
 20
-1157697.8
 10
-595676.55
 20
-1157694.39
 97
0
 75
0
 76
1
 98
0
  0
HATCH
  5
200D8
100
AcDbEntity
  8
vodní toky
100
AcDbHatch
 10
0
 20
0
 30
0
210
0
220
0
230
1
  2
SOLID
 70
1
 71
0
 91
1
 92
2
 72
0
 73
1
 93
26
 10
-595761.578
 20
-1157927.287
 10
-595757.09
 20
-1157920.695
 10
-595773
 20
-1157909.18
 10
-595778.73
 20
-1157893.72
 10
-595778.51
 20
-1157879.96
 10
-595772.79
 20
-1157873.26
 10
-595754.72
 20
-1157860.68
 10
-595749.66
 20
-1157857.72
 10
-595729.82
 20
-1157852.73
 10
-595713.29
 20
-1157848.68
 10
-595708.11
 20
-1157845.45
 10
-595702.93
 20
-1157842.22
 10
-595702.1256
 20
-1157834.4758
 10
-595703.09
 20
-1157836.25
 10
-595708.63
 20
-1157839.88
 10
-595725.645
 20
-1157846.57
 10
-595744.93
 20
-1157851.7
 10
-595762.37
 20
-1157859.95
 10
-595775.67
 20
-1157870.03
 10
-595783.9596
 20
-1157880.2843
 10
-595784.6622
 20
-1157891.1191
 10
-595782.355
 20
-1157902.065
 10
-595780.8939
 20
-1157908.9476
 10
-595775.9091
 20
-1157914.282
 10
-595765.46
 20
-1157920.75
 10
-595761.578
 20
-1157927.287
 97
0
 75
0
 76
1
 98
0
  0
HATCH
  5
200D9
100
AcDbEntity
  8
vodní toky
100
AcDbHatch
 10
0
 20
0
 30
0
210
0
220
0
230
1
  2
SOLID
 70
1
 71
0
 91
1
 92
2
 72
0
 73
1
 93
17
 10
-595652.24
 20
-1157776.095
 10
-595654.005
 20
-1157783.925
 10
-595655.88
 20
-1157789.62
 10
-595662.83
 20
-1157798.94
 10
-595672.745
 20
-1157805.555
 10
-595682.66
 20
-1157812.17
 10
-595691.38
 20
-1157820.17
 10
-595701.5528
 20
-1157833.3301
 10
-595700.77
 20
-1157840.235
 10
-595696.15
 20
-1157834.855
 10
-595685.85
 20
-1157822.83
 10
-595672.545
 20
-1157812.25
 10
-595655.57
 20
-1157797.93
 10
-595651.98
 20
-1157791.43
 10
-595647.95
 20
-1157781.23
 10
-595647.35
 20
-1157774.64
 10
-595652.24
 20
-1157776.095
 97
0
 75
0
 76
1
 98
0
  0
HATCH
  5
200DA
100
AcDbEntity
  8
vodní toky
100
AcDbHatch
 10
0
 20
0
 30
0
210
0
220
0
230
1
  2
SOLID
 70
1
 71
0
 91
1
 92
2
 72
0
 73
1
 93
19
 10
-600385.81
 20
-1155109.57
 10
-600348.85
 20
-1155149.87
 10
-600334.73
 20
-1155165.45
 10
-600319.04
 20
-1155182.62
 10
-600316.31
 20
-1155185.66
 10
-600306.03
 20
-1155177.43
 10
-600283.82
 20
-1155202.95
 10
-600281.34
 20
-1155200.84
 10
-600254.55
 20
-1155178.16
 10
-600272.23
 20
-1155155.18
 10
-600274.64
 20
-1155152.04
 10
-600266.36
 20
-1155145.36
 10
-600256.92
 20
-1155137.74
 10
-600255.22
 20
-1155136.33
 10
-600316.6
 20
-1155053.55
 10
-600332.59
 20
-1155066.38
 10
-600373.34
 20
-1155099.81
 10
-600375.92
 20
-1155101.88
 10
-600385.81
 20
-1155109.57
 97
0
 75
0
 76
1
 98
0
  0
HATCH
  5
200DB
100
AcDbEntity
  8
vodní toky
100
AcDbHatch
 10
0
 20
0
 30
0
210
0
220
0
230
1
  2
SOLID
 70
1
 71
0
 91
1
 92
2
 72
0
 73
1
 93
24
 10
-600375.92
 20
-1155101.88
 10
-600373.34
 20
-1155099.81
 10
-600398.52
 20
-1155073.05
 10
-600436.02
 20
-1155033.35
 10
-600475.46
 20
-1154992.03
 10
-600532.51
 20
-1154931.23
 10
-600559.87
 20
-1154881.57
 10
-600573.73
 20
-1154828.28
 10
-600584.93
 20
-1154785.27
 10
-600599.12
 20
-1154730.78
 10
-600605.6
 20
-1154706.73
 10
-600626.4
 20
-1154629.96
 10
-600626.03
 20
-1154629.44
 10
-600631.22
 20
-1154630.84
 10
-600609.78
 20
-1154706.25
 10
-600602.92
 20
-1154731.42
 10
-600588.37
 20
-1154786.37
 10
-600574.67
 20
-1154838.16
 10
-600563.16
 20
-1154882.67
 10
-600534.63
 20
-1154934.27
 10
-600478.09
 20
-1154994.37
 10
-600438.53
 20
-1155035.8
 10
-600403.37
 20
-1155072.92
 10
-600375.92
 20
-1155101.88
 97
0
 75
0
 76
1
 98
0
  0
HATCH
  5
200DC
100
AcDbEntity
  8
vodní toky
100
AcDbHatch
 10
0
 20
0
 30
0
210
0
220
0
230
1
  2
SOLID
 70
1
 71
0
 91
1
 92
2
 72
0
 73
1
 93
59
 10
-598992.49
 20
-1152572.39
 10
-598998.54
 20
-1152585.99
 10
-599015.64
 20
-1152601.27
 10
-599020.48
 20
-1152613
 10
-599019.37
 20
-1152632.74
 10
-599030.02
 20
-1152653.79
 10
-599037.15
 20
-1152695.92
 10
-599060.85
 20
-1152714.33
 10
-599061.13
 20
-1152721.49
 10
-599064.85
 20
-1152741.26
 10
-599073.49
 20
-1152748.96
 10
-599085.19
 20
-1152745.49
 10
-599092.77
 20
-1152752.43
 10
-599107.47
 20
-1152759.19
 10
-599113.1
 20
-1152765.62
 10
-599113.16
 20
-1152781.59
 10
-599118.56
 20
-1152788.79
 10
-599134.1
 20
-1152809.5
 10
-599143.32
 20
-1152817.29
 10
-599155.17
 20
-1152829.83
 10
-599160
 20
-1152831.41
 10
-599175.98
 20
-1152858.64
 10
-599175.6
 20
-1152858.86
 10
-599181.66
 20
-1152870.08
 10
-599180.26
 20
-1152871.56
 10
-599180.38
 20
-1152873.26
 10
-599179.68
 20
-1152874.23
 10
-599179.1
 20
-1152875.04
 10
-599178.39
 20
-1152876.04
 10
-599177.39
 20
-1152874.36
 10
-599167.38
 20
-1152858.14
 10
-599158.77
 20
-1152838.8
 10
-599130.69
 20
-1152815.33
 10
-599112.62
 20
-1152793.94
 10
-599106.26
 20
-1152777.52
 10
-599099.41
 20
-1152768.01
 10
-599088.5
 20
-1152755.41
 10
-599070.75
 20
-1152755.75
 10
-599058.33
 20
-1152748.38
 10
-599057.24
 20
-1152736.51
 10
-599052.46
 20
-1152716.11
 10
-599041.9
 20
-1152706.56
 10
-599028.7
 20
-1152698.59
 10
-599026.32
 20
-1152689.13
 10
-599028.46
 20
-1152675.36
 10
-599024.7
 20
-1152662.11
 10
-599019.34
 20
-1152645.93
 10
-599014.67
 20
-1152639.22
 10
-599008.61
 20
-1152628.23
 10
-599008.89
 20
-1152621.255
 10
-599009.17
 20
-1152614.28
 10
-599007.19
 20
-1152610.8
 10
-599005.21
 20
-1152607.32
 10
-599002.475
 20
-1152604.07
 10
-598999.74
 20
-1152600.82
 10
-598996.25
 20
-1152596.155
 10
-598992.76
 20
-1152591.49
 10
-598983.79
 20
-1152573.41
 10
-598992.49
 20
-1152572.39
 97
0
 75
0
 76
1
 98
0
  0
HATCH
  5
200DD
100
AcDbEntity
  8
vodní toky
100
AcDbHatch
 10
0
 20
0
 30
0
210
0
220
0
230
1
  2
SOLID
 70
1
 71
0
 91
1
 92
2
 72
0
 73
1
 93
24
 10
-599184.02
 20
-1152876
 10
-599189.55
 20
-1152888.89
 10
-599198.16
 20
-1152903.31
 10
-599201.24
 20
-1152908.47
 10
-599207.97
 20
-1152916.98
 10
-599211.45
 20
-1152926.3
 10
-599206.66
 20
-1152946.51
 10
-599206.5
 20
-1152949.73
 10
-599209.27
 20
-1152977.59
 10
-599206.79
 20
-1152987.39
 10
-599203.46
 20
-1152993.49
 10
-599200.8
 20
-1152992.33
 10
-599200.01
 20
-1152991.99
 10
-599197.69
 20
-1152990.98
 10
-599200.51
 20
-1152981.92
 10
-599201.52
 20
-1152974.52
 10
-599197.67
 20
-1152947.62
 10
-599203.31
 20
-1152927.78
 10
-599201.08
 20
-1152921.41
 10
-599193.18
 20
-1152910.39
 10
-599179.74
 20
-1152881.37
 10
-599179.85
 20
-1152879.54
 10
-599181.76
 20
-1152876.85
 10
-599184.02
 20
-1152876
 97
0
 75
0
 76
1
 98
0
  0
HATCH
  5
200DE
100
AcDbEntity
  8
vodní toky
100
AcDbHatch
 10
0
 20
0
 30
0
210
0
220
0
230
1
  2
SOLID
 70
1
 71
0
 91
1
 92
2
 72
0
 73
1
 93
6
 10
-599202.49
 20
-1152995.26
 10
-599197.94
 20
-1153003.45
 10
-599194.39
 20
-1153001.93
 10
-599191.5
 20
-1153000.69
 10
-599196.63
 20
-1152992.84
 10
-599202.49
 20
-1152995.26
 97
0
 75
0
 76
1
 98
0
  0
HATCH
  5
200DF
100
AcDbEntity
  8
vodní toky
100
AcDbHatch
 10
0
 20
0
 30
0
210
0
220
0
230
1
  2
SOLID
 70
1
 71
0
 91
1
 92
2
 72
0
 73
1
 93
12
 10
-594813.88
 20
-1157413.18
 10
-594818.44
 20
-1157415.93
 10
-594828.18
 20
-1157423.105
 10
-594840.03
 20
-1157431.835
 10
-594847.72
 20
-1157437.5
 10
-594851.785
 20
-1157439.415
 10
-594845.32
 20
-1157455.82
 10
-594837.81
 20
-1157452.96
 10
-594831.18
 20
-1157445.77
 10
-594821.125
 20
-1157437.875
 10
-594811.07
 20
-1157429.98
 10
-594813.88
 20
-1157413.18
 97
0
 75
0
 76
1
 98
0
  0
HATCH
  5
200E0
100
AcDbEntity
  8
vodní toky
100
AcDbHatch
 10
0
 20
0
 30
0
210
0
220
0
230
1
  2
SOLID
 70
1
 71
0
 91
1
 92
2
 72
0
 73
1
 93
118
 10
-599196.62
 20
-1153005.78
 10
-599194.71
 20
-1153009.17
 10
-599188.96
 20
-1153019.01
 10
-599186.52
 20
-1153023.49
 10
-599181.11
 20
-1153020.96
 10
-599180.59
 20
-1153021.82
 10
-599185.99
 20
-1153024.45
 10
-599183.71
 20
-1153028.63
 10
-599183.34
 20
-1153029.43
 10
-599180.65
 20
-1153028.73
 10
-599180.21
 20
-1153028.47
 10
-599179.35
 20
-1153027.96
 10
-599178.47
 20
-1153027.44
 10
-599177.59
 20
-1153026.59
 10
-599175.67
 20
-1153029.79
 10
-599177.2
 20
-1153029.93
 10
-599178.8
 20
-1153030.93
 10
-599177.73
 20
-1153035.77
 10
-599179.38
 20
-1153036.47
 10
-599159.24
 20
-1153071.77
 10
-599153.1
 20
-1153082.2
 10
-599141.74
 20
-1153101.51
 10
-599135.64
 20
-1153111.85
 10
-599128.94
 20
-1153123.58
 10
-599094.55
 20
-1153184.3
 10
-599080.26
 20
-1153209.69
 10
-599070.68
 20
-1153226.83
 10
-599061.47
 20
-1153243.31
 10
-599002.73
 20
-1153346.46
 10
-598986.55
 20
-1153367.4
 10
-598971.83
 20
-1153378.7
 10
-598907.72
 20
-1153411.42
 10
-598840.76
 20
-1153444.24
 10
-598773.31
 20
-1153481.29
 10
-598707.94
 20
-1153625.94
 10
-598705.52
 20
-1153631.3
 10
-598683.01
 20
-1153670.04
 10
-598682.29
 20
-1153677.94
 10
-598698.09
 20
-1153794.65
 10
-598697.55
 20
-1153808.18
 10
-598691.41
 20
-1153835.28
 10
-598688.42
 20
-1153836.5
 10
-598686.04
 20
-1153837.47
 10
-598687.1
 20
-1153831.21
 10
-598690.21
 20
-1153812.81
 10
-598690.91
 20
-1153808.69
 10
-598692.18
 20
-1153793.92
 10
-598691.98
 20
-1153789.89
 10
-598691.19
 20
-1153779.84
 10
-598688.73
 20
-1153764.04
 10
-598687.2
 20
-1153754.28
 10
-598685.17
 20
-1153741.19
 10
-598682.31
 20
-1153722.84
 10
-598681.19
 20
-1153715.24
 10
-598679.23
 20
-1153701.97
 10
-598677.13
 20
-1153687.75
 10
-598676.71
 20
-1153684.89
 10
-598676.24
 20
-1153679.36
 10
-598675.87
 20
-1153675.05
 10
-598681.98
 20
-1153658.74
 10
-598699.37
 20
-1153624.42
 10
-598712.93
 20
-1153594.56
 10
-598714.62
 20
-1153591.13
 10
-598720.33
 20
-1153579.49
 10
-598721.49
 20
-1153576.7
 10
-598724.74
 20
-1153568.92
 10
-598731.79
 20
-1153552.96
 10
-598733.49
 20
-1153549.11
 10
-598737.71
 20
-1153539.53
 10
-598738.7
 20
-1153537.29
 10
-598742.57
 20
-1153528.77
 10
-598746.44
 20
-1153519.82
 10
-598749.47
 20
-1153512.85
 10
-598752.49
 20
-1153505.87
 10
-598755.51
 20
-1153498.9
 10
-598758.53
 20
-1153491.93
 10
-598760.8
 20
-1153486.68
 10
-598764.31
 20
-1153481.28
 10
-598767.15
 20
-1153476.92
 10
-598772.6
 20
-1153472.47
 10
-598778.51
 20
-1153467.65
 10
-598782.13
 20
-1153464.69
 10
-598797.3
 20
-1153457.02
 10
-598815.5
 20
-1153447.81
 10
-598840.09
 20
-1153435.38
 10
-598851.64
 20
-1153430.03
 10
-598862.91
 20
-1153424.67
 10
-598895.57
 20
-1153407.23
 10
-598906.94
 20
-1153402.75
 10
-598917.19
 20
-1153397.93
 10
-598926.34
 20
-1153393.2
 10
-598935.22
 20
-1153389.17
 10
-598945.06
 20
-1153384.12
 10
-598952.4
 20
-1153380.38
 10
-598958.29
 20
-1153377.27
 10
-598965.22
 20
-1153373.32
 10
-598972.53
 20
-1153369.85
 10
-598980.51
 20
-1153364.04
 10
-598986.32
 20
-1153357.46
 10
-598991.01
 20
-1153350.06
 10
-598996.31
 20
-1153341.83
 10
-599019.72
 20
-1153299.8
 10
-599038.46
 20
-1153267.78
 10
-599058.34
 20
-1153232.17
 10
-599074.67
 20
-1153203.56
 10
-599085.5
 20
-1153184.21
 10
-599106.03
 20
-1153149.26
 10
-599108.46
 20
-1153145.11
 10
-599113.67
 20
-1153136.54
 10
-599124.83
 20
-1153117.1
 10
-599136.06
 20
-1153097.49
 10
-599147.2
 20
-1153078.05
 10
-599175.18
 20
-1153029.13
 10
-599170.6
 20
-1153027.46
 10
-599178.88
 20
-1153018.95
 10
-599190.18
 20
-1153003.21
 10
-599191.39
 20
-1153003.4
 10
-599196.62
 20
-1153005.78
 97
0
 75
0
 76
1
 98
0
  0
HATCH
  5
200E1
100
AcDbEntity
  8
vodní toky
100
AcDbHatch
 10
0
 20
0
 30
0
210
0
220
0
230
1
  2
SOLID
 70
1
 71
0
 91
1
 92
2
 72
0
 73
1
 93
16
 10
-598676.63
 20
-1153839.64
 10
-598658.01
 20
-1153829.96
 10
-598638.21
 20
-1153820.23
 10
-598624.82
 20
-1153814.68
 10
-598608.43
 20
-1153808.89
 10
-598598.97
 20
-1153806.09
 10
-598600.24
 20
-1153800.8
 10
-598600.52
 20
-1153799.73
 10
-598610.69
 20
-1153802.03
 10
-598641.68
 20
-1153814.24
 10
-598679.71
 20
-1153831.69
 10
-598678.82
 20
-1153833.59
 10
-598677.63
 20
-1153836.15
 10
-598676.98
 20
-1153837.54
 10
-598677.49
 20
-1153837.78
 10
-598676.63
 20
-1153839.64
 97
0
 75
0
 76
1
 98
0
  0
HATCH
  5
200E2
100
AcDbEntity
  8
vodní toky
100
AcDbHatch
 10
0
 20
0
 30
0
210
0
220
0
230
1
  2
SOLID
 70
1
 71
0
 91
1
 92
2
 72
0
 73
1
 93
9
 10
-598599.71
 20
-1153800.02
 10
-598599.46
 20
-1153801.39
 10
-598598.94
 20
-1153803.3
 10
-598598.27
 20
-1153805.94
 10
-598586.12
 20
-1153802.71
 10
-598586.51
 20
-1153800.63
 10
-598587.15
 20
-1153798.27
 10
-598587.3
 20
-1153797.33
 10
-598599.71
 20
-1153800.02
 97
0
 75
0
 76
1
 98
0
  0
HATCH
  5
200E3
100
AcDbEntity
  8
vodní toky
100
AcDbHatch
 10
0
 20
0
 30
0
210
0
220
0
230
1
  2
SOLID
 70
1
 71
0
 91
1
 92
2
 72
0
 73
1
 93
16
 10
-598585.48
 20
-1153802.53
 10
-598576.14
 20
-1153800.26
 10
-598560.51
 20
-1153795.86
 10
-598551.98
 20
-1153793.37
 10
-598549.01
 20
-1153792.72
 10
-598520.86
 20
-1153786.71
 10
-598521.08
 20
-1153785.42
 10
-598521.26
 20
-1153784.64
 10
-598521.59
 20
-1153783.22
 10
-598521.99
 20
-1153781.4
 10
-598547.99
 20
-1153787.42
 10
-598568.68
 20
-1153792.58
 10
-598586.7
 20
-1153797.12
 10
-598586.51
 20
-1153798.05
 10
-598585.87
 20
-1153800.43
 10
-598585.48
 20
-1153802.53
 97
0
 75
0
 76
1
 98
0
  0
HATCH
  5
200E4
100
AcDbEntity
  8
vodní toky
100
AcDbHatch
 10
0
 20
0
 30
0
210
0
220
0
230
1
  2
SOLID
 70
1
 71
0
 91
1
 92
2
 72
0
 73
1
 93
10
 10
-598521.41
 20
-1153781.27
 10
-598520.98
 20
-1153783.08
 10
-598520.46
 20
-1153785.26
 10
-598520.14
 20
-1153786.56
 10
-598478.29
 20
-1153777.62
 10
-598477.07
 20
-1153774.71
 10
-598476.37
 20
-1153773.02
 10
-598498.41
 20
-1153776.5
 10
-598507.69
 20
-1153778.18
 10
-598521.41
 20
-1153781.27
 97
0
 75
0
 76
1
 98
0
  0
HATCH
  5
200E5
100
AcDbEntity
  8
vodní toky
100
AcDbHatch
 10
0
 20
0
 30
0
210
0
220
0
230
1
  2
SOLID
 70
1
 71
0
 91
1
 92
2
 72
0
 73
1
 93
6
 10
-598475.91
 20
-1153777.27
 10
-598465.69
 20
-1153775.56
 10
-598465.19
 20
-1153772.91
 10
-598464.76
 20
-1153770.68
 10
-598473.97
 20
-1153772.54
 10
-598475.91
 20
-1153777.27
 97
0
 75
0
 76
1
 98
0
  0
HATCH
  5
200E6
100
AcDbEntity
  8
vodní toky
100
AcDbHatch
 10
0
 20
0
 30
0
210
0
220
0
230
1
  2
SOLID
 70
1
 71
0
 91
1
 92
2
 72
0
 73
1
 93
12
 10
-598464.76
 20
-1153770.68
 10
-598465.19
 20
-1153772.91
 10
-598465.69
 20
-1153775.56
 10
-598463.58
 20
-1153775.25
 10
-598442.46
 20
-1153770.18
 10
-598427.87
 20
-1153765.03
 10
-598421.08
 20
-1153758.95
 10
-598421.11
 20
-1153758.38
 10
-598421.21
 20
-1153756.68
 10
-598429.32
 20
-1153761.32
 10
-598443.63
 20
-1153765.66
 10
-598464.76
 20
-1153770.68
 97
0
 75
0
 76
1
 98
0
  0
HATCH
  5
200E7
100
AcDbEntity
  8
vodní toky
100
AcDbHatch
 10
0
 20
0
 30
0
210
0
220
0
230
1
  2
SOLID
 70
1
 71
0
 91
1
 92
2
 72
0
 73
1
 93
5
 10
-598419.23
 20
-1153755.7
 10
-598419.08
 20
-1153757.77
 10
-598410.17
 20
-1153752.55
 10
-598410.36
 20
-1153751.34
 10
-598419.23
 20
-1153755.7
 97
0
 75
0
 76
1
 98
0
  0
HATCH
  5
200E8
100
AcDbEntity
  8
vodní toky
100
AcDbHatch
 10
0
 20
0
 30
0
210
0
220
0
230
1
  2
SOLID
 70
1
 71
0
 91
1
 92
2
 72
0
 73
1
 93
6
 10
-598410.36
 20
-1153751.34
 10
-598410.17
 20
-1153752.55
 10
-598406.74
 20
-1153750.54
 10
-598404.94
 20
-1153750.27
 10
-598405.21
 20
-1153748.68
 10
-598410.36
 20
-1153751.34
 97
0
 75
0
 76
1
 98
0
  0
HATCH
  5
200E9
100
AcDbEntity
  8
vodní toky
100
AcDbHatch
 10
0
 20
0
 30
0
210
0
220
0
230
1
  2
SOLID
 70
1
 71
0
 91
1
 92
2
 72
0
 73
1
 93
15
 10
-598401
 20
-1153745.2
 10
-598401.5
 20
-1153746.11
 10
-598401.57
 20
-1153746.64
 10
-598401.91
 20
-1153749.25
 10
-598401.99
 20
-1153749.83
 10
-598399.81
 20
-1153759.48
 10
-598399.7448
 20
-1153759.774
 10
-598377.77
 20
-1153754.6
 10
-598357.7
 20
-1153753.05
 10
-598352.624
 20
-1153752.9539
 10
-598346.29
 20
-1153726.89
 10
-598349.13
 20
-1153723.62
 10
-598351.14
 20
-1153722.96
 10
-598389.98
 20
-1153740.28
 10
-598401
 20
-1153745.2
 97
0
 75
0
 76
1
 98
0
  0
HATCH
  5
200EA
100
AcDbEntity
  8
vodní toky
100
AcDbHatch
 10
0
 20
0
 30
0
210
0
220
0
230
1
  2
SOLID
 70
1
 71
0
 91
1
 92
2
 72
0
 73
1
 93
27
 10
-598347.68
 20
-1153725.28
 10
-598346.27
 20
-1153723.16
 10
-598345.71
 20
-1153719.03
 10
-598345.17
 20
-1153715.06
 10
-598346.66
 20
-1153711.27
 10
-598353.21
 20
-1153702.63
 10
-598355.22
 20
-1153694.6
 10
-598353.93
 20
-1153684.09
 10
-598354.16
 20
-1153681.74
 10
-598356.5
 20
-1153675.18
 10
-598360.43
 20
-1153667.87
 10
-598362.53
 20
-1153667.79
 10
-598359.56
 20
-1153672.29
 10
-598357.3
 20
-1153677.56
 10
-598355.96
 20
-1153681.6
 10
-598355.21
 20
-1153685
 10
-598356.13
 20
-1153694.3
 10
-598357.15
 20
-1153693.97
 10
-598356.2
 20
-1153700.36
 10
-598354.82
 20
-1153703.67
 10
-598352.5
 20
-1153706.94
 10
-598348.58
 20
-1153712.45
 10
-598347.37
 20
-1153715.58
 10
-598347.25
 20
-1153718.55
 10
-598349.13
 20
-1153723.62
 10
-598348.3651
 20
-1153724.4541
 10
-598347.68
 20
-1153725.28
 97
0
 75
0
 76
1
 98
0
  0
HATCH
  5
200EB
100
AcDbEntity
  8
vodní toky
100
AcDbHatch
 10
0
 20
0
 30
0
210
0
220
0
230
1
  2
SOLID
 70
1
 71
0
 91
1
 92
2
 72
0
 73
1
 93
8
 10
-598362.57
 20
-1153664.09
 10
-598367.25
 20
-1153656.67
 10
-598369.22
 20
-1153650.8
 10
-598372.54
 20
-1153640.92
 10
-598376.99
 20
-1153640.83
 10
-598373.94
 20
-1153650.39
 10
-598366.48
 20
-1153664.12
 10
-598362.57
 20
-1153664.09
 97
0
 75
0
 76
1
 98
0
  0
HATCH
  5
200EC
100
AcDbEntity
  8
vodní toky
100
AcDbHatch
 10
0
 20
0
 30
0
210
0
220
0
230
1
  2
SOLID
 70
1
 71
0
 91
1
 92
2
 72
0
 73
1
 93
11
 10
-598372.89
 20
-1153639.88
 10
-598374.62
 20
-1153628.84
 10
-598377.02
 20
-1153609.68
 10
-598377.03
 20
-1153604.64
 10
-598377.68
 20
-1153604.52
 10
-598378.34
 20
-1153604.39
 10
-598378.15
 20
-1153609.49
 10
-598378.88
 20
-1153628.36
 10
-598377.32
 20
-1153639.78
 10
-598375.17
 20
-1153639.83
 10
-598372.89
 20
-1153639.88
 97
0
 75
0
 76
1
 98
0
  0
HATCH
  5
200ED
100
AcDbEntity
  8
vodní toky
100
AcDbHatch
 10
0
 20
0
 30
0
210
0
220
0
230
1
  2
SOLID
 70
1
 71
0
 91
1
 92
2
 72
0
 73
1
 93
46
 10
-598377.03
 20
-1153602
 10
-598376.53
 20
-1153597.06
 10
-598373.48
 20
-1153590.01
 10
-598370.4
 20
-1153582.92
 10
-598364.82
 20
-1153572.64
 10
-598363.89
 20
-1153569.09
 10
-598361.9
 20
-1153560.05
 10
-598360.44
 20
-1153542.1
 10
-598354.31
 20
-1153521.32
 10
-598359.02
 20
-1153514.03
 10
-598358.9
 20
-1153505.32
 10
-598354.29
 20
-1153501.91
 10
-598348.53
 20
-1153500.06
 10
-598345.24
 20
-1153499.61
 10
-598341.13
 20
-1153498.5
 10
-598337.68
 20
-1153496.85
 10
-598333.52
 20
-1153493.47
 10
-598328.46
 20
-1153484.31
 10
-598327.12
 20
-1153484.71
 10
-598326.45
 20
-1153483.19
 10
-598325.67
 20
-1153481.43
 10
-598315.83
 20
-1153482.59
 10
-598313.69
 20
-1153480.59
 10
-598314.43
 20
-1153480.26
 10
-598315.91
 20
-1153479.61
 10
-598326.71
 20
-1153479.1
 10
-598329.16
 20
-1153480.01
 10
-598330.92
 20
-1153482.82
 10
-598333.65
 20
-1153489.02
 10
-598337.6
 20
-1153493.63
 10
-598341.42
 20
-1153495.74
 10
-598345.61
 20
-1153495.83
 10
-598352.62
 20
-1153496.66
 10
-598367.06
 20
-1153508.65
 10
-598362.99
 20
-1153512.42
 10
-598357.69
 20
-1153521.46
 10
-598363.31
 20
-1153541.05
 10
-598365.09
 20
-1153562.99
 10
-598366.57
 20
-1153568.8
 10
-598368.47
 20
-1153572.2
 10
-598373.13
 20
-1153582.39
 10
-598375.59
 20
-1153589.77
 10
-598379.04
 20
-1153596.38
 10
-598378.44
 20
-1153601.85
 10
-598377.87
 20
-1153601.91
 10
-598377.03
 20
-1153602
 97
0
 75
0
 76
1
 98
0
  0
HATCH
  5
200EE
100
AcDbEntity
  8
vodní toky
100
AcDbHatch
 10
0
 20
0
 30
0
210
0
220
0
230
1
  2
SOLID
 70
1
 71
0
 91
1
 92
2
 72
0
 73
1
 93
15
 10
-601031.6455
 20
-1159797.9415
 10
-601039.225
 20
-1159828.095
 10
-601046.61
 20
-1159858.11
 10
-601047.73
 20
-1159867.32
 10
-601055.23
 20
-1159889.485
 10
-601064.47
 20
-1159912.88
 10
-601071.56
 20
-1159931.6
 10
-601092.04
 20
-1159954.22
 10
-601075.625
 20
-1159962.255
 10
-601059.2842
 20
-1159970.277
 10
-601036.1165
 20
-1159917.4383
 10
-601028.5489
 20
-1159876.7037
 10
-601019.8584
 20
-1159847.5286
 10
-601011.2003
 20
-1159808.5112
 10
-601031.6455
 20
-1159797.9415
 97
0
 75
0
 76
1
 98
0
  0
HATCH
  5
200EF
100
AcDbEntity
  8
vodní toky
100
AcDbHatch
 10
0
 20
0
 30
0
210
0
220
0
230
1
  2
SOLID
 70
1
 71
0
 91
1
 92
2
 72
0
 73
1
 93
13
 10
-601093.51
 20
-1159955.49
 10
-601101.965
 20
-1159962.59
 10
-601109.74
 20
-1159969.7
 10
-601113.79
 20
-1159975.85
 10
-601115.98
 20
-1159980.63
 10
-601099.585
 20
-1159987.935
 10
-601070.18
 20
-1160000.02
 10
-601059.21
 20
-1159980.93
 10
-601061.0834
 20
-1159978.2763
 10
-601060.97
 20
-1159975.03
 10
-601060
 20
-1159971.91
 10
-601076.755
 20
-1159963.7
 10
-601093.51
 20
-1159955.49
 97
0
 75
0
 76
1
 98
0
  0
HATCH
  5
200F0
100
AcDbEntity
  8
vodní toky
100
AcDbHatch
 10
0
 20
0
 30
0
210
0
220
0
230
1
  2
SOLID
 70
1
 71
0
 91
1
 92
2
 72
0
 73
1
 93
92
 10
-598312.66
 20
-1153478.69
 10
-598295.87
 20
-1153455.08
 10
-598284.09
 20
-1153452.92
 10
-598281.78
 20
-1153454.91
 10
-598260.06
 20
-1153448.16
 10
-598245.07
 20
-1153443.49
 10
-598222.84
 20
-1153441.14
 10
-598211.7
 20
-1153437.12
 10
-598202.78
 20
-1153429.25
 10
-598195.43
 20
-1153418.01
 10
-598193.27
 20
-1153407.64
 10
-598191.41
 20
-1153379.44
 10
-598186.36
 20
-1153370.45
 10
-598174.63
 20
-1153363.77
 10
-598160.27
 20
-1153362.42
 10
-598143.0172
 20
-1153364.6227
 10
-598116.69
 20
-1153380.62
 10
-598097.24
 20
-1153392.34
 10
-598077.93
 20
-1153399.17
 10
-598049.68
 20
-1153401.31
 10
-598021.65
 20
-1153409.35
 10
-598002.32
 20
-1153411.31
 10
-597972.61
 20
-1153408.03
 10
-597953.19
 20
-1153411.6
 10
-597929.7392
 20
-1153418.605
 10
-597908.02
 20
-1153421.87
 10
-597895.06
 20
-1153420.21
 10
-597883.24
 20
-1153413.4
 10
-597873.48
 20
-1153404.15
 10
-597856.24
 20
-1153376.29
 10
-597847.63
 20
-1153370.28
 10
-597829.7
 20
-1153366.55
 10
-597790.94
 20
-1153363.13
 10
-597750.15
 20
-1153357.57
 10
-597751.22
 20
-1153349.79
 10
-597761.85
 20
-1153348.61
 10
-597782.18
 20
-1153356.24
 10
-597833.87
 20
-1153361.51
 10
-597851.32
 20
-1153365.31
 10
-597863.5
 20
-1153372.4
 10
-597869.65
 20
-1153380.65
 10
-597876.42
 20
-1153394.04
 10
-597887.24
 20
-1153403.53
 10
-597897.03
 20
-1153407.3
 10
-597902.56
 20
-1153410.58
 10
-597909.47
 20
-1153413.3
 10
-597915.99
 20
-1153403.28
 10
-597924.92
 20
-1153400.8
 10
-597930.06
 20
-1153404.64
 10
-597937.66
 20
-1153402.77
 10
-597942.49
 20
-1153405.09
 10
-597954
 20
-1153391.59
 10
-597962.92
 20
-1153391.44
 10
-597981.82
 20
-1153396.96
 10
-597988.27
 20
-1153397.28
 10
-597995.78
 20
-1153393.71
 10
-598002.66
 20
-1153402.24
 10
-598014.57
 20
-1153403.5
 10
-598035.77
 20
-1153393.37
 10
-598052.91
 20
-1153391.32
 10
-598066.98
 20
-1153395.67
 10
-598072.26
 20
-1153390.59
 10
-598082.96
 20
-1153391.41
 10
-598099.36
 20
-1153381.64
 10
-598104.31
 20
-1153378.69
 10
-598117.52
 20
-1153362.74
 10
-598124.58
 20
-1153353.04
 10
-598135.84
 20
-1153353.42
 10
-598137.44
 20
-1153352.95
 10
-598162.57
 20
-1153349.59
 10
-598185.98
 20
-1153354.06
 10
-598193.18
 20
-1153359.7
 10
-598197.24
 20
-1153358.68
 10
-598202.08
 20
-1153365.56
 10
-598203.96
 20
-1153371.35
 10
-598206.1
 20
-1153392.13
 10
-598210.1
 20
-1153412.89
 10
-598212.42
 20
-1153419.76
 10
-598213.43
 20
-1153422.32
 10
-598215.08
 20
-1153424.49
 10
-598217.47
 20
-1153426.42
 10
-598222.99
 20
-1153429.21
 10
-598234.73
 20
-1153429.48
 10
-598244.67
 20
-1153433.12
 10
-598257.38
 20
-1153436.7
 10
-598273.74
 20
-1153443.91
 10
-598283.07
 20
-1153446.4
 10
-598298.7
 20
-1153450.05
 10
-598313.68
 20
-1153470.64
 10
-598315.01
 20
-1153477.64
 10
-598313.94
 20
-1153478.12
 10
-598312.66
 20
-1153478.69
 97
0
 75
0
 76
1
 98
0
  0
HATCH
  5
200F1
100
AcDbEntity
  8
vodní toky
100
AcDbHatch
 10
0
 20
0
 30
0
210
0
220
0
230
1
  2
SOLID
 70
1
 71
0
 91
1
 92
2
 72
0
 73
1
 93
19
 10
-597750.15
 20
-1153357.57
 10
-597720.93
 20
-1153355.88
 10
-597709.81
 20
-1153352.71
 10
-597701.29
 20
-1153347.32
 10
-597689.49
 20
-1153338.68
 10
-597677.67
 20
-1153327.82
 10
-597668.93
 20
-1153312.96
 10
-597662.89
 20
-1153292.97
 10
-597654.85
 20
-1153285.22
 10
-597625.34
 20
-1153272.57
 10
-597664.98
 20
-1153284.15
 10
-597677.47
 20
-1153287.77
 10
-597679.19
 20
-1153302.27
 10
-597680.01
 20
-1153309.36
 10
-597680.87
 20
-1153316.94
 10
-597683.69
 20
-1153322.23
 10
-597687.6
 20
-1153329.58
 10
-597732.49
 20
-1153351.48
 10
-597750.15
 20
-1153357.57
 97
0
 75
0
 76
1
 98
0
  0
HATCH
  5
200F2
100
AcDbEntity
  8
vodní toky
100
AcDbHatch
 10
0
 20
0
 30
0
210
0
220
0
230
1
  2
SOLID
 70
1
 71
0
 91
1
 92
2
 72
0
 73
1
 93
66
 10
-595354.8756
 20
-1157538.5554
 10
-595341.44
 20
-1157531.8
 10
-595319.15
 20
-1157514.38
 10
-595293.56
 20
-1157495.63
 10
-595271.52
 20
-1157481.46
 10
-595259.59
 20
-1157474.8575
 10
-595239.53
 20
-1157469.6
 10
-595223.315
 20
-1157470.37
 10
-595207.1
 20
-1157471.14
 10
-595172.7825
 20
-1157469.9775
 10
-595117.77
 20
-1157467.54
 10
-595075.74
 20
-1157462.81
 10
-595044.14
 20
-1157450.06
 10
-595012.38
 20
-1157435.88
 10
-594985.04
 20
-1157425.81
 10
-594972.58
 20
-1157423.795
 10
-594960.12
 20
-1157421.78
 10
-594937.22
 20
-1157424.32
 10
-594928.9
 20
-1157426.59
 10
-594917.58
 20
-1157429.18
 10
-594906.31
 20
-1157435.53
 10
-594879.91
 20
-1157453.52
 10
-594862.45
 20
-1157464.31
 10
-594839.039
 20
-1157470.558
 10
-594815.45
 20
-1157473.06
 10
-594802.41
 20
-1157470.22
 10
-594804.19
 20
-1157462.55
 10
-594807.715
 20
-1157462.67
 10
-594819.415
 20
-1157463.965
 10
-594828.74
 20
-1157463.04
 10
-594833.6426
 20
-1157461.5343
 10
-594845.32
 20
-1157455.82
 10
-594850.64
 20
-1157439.04
 10
-594855.54
 20
-1157439.72
 10
-594871.3
 20
-1157438.4
 10
-594871.28
 20
-1157439.86
 10
-594895.1
 20
-1157424.27
 10
-594906.725
 20
-1157416.33
 10
-594931.5
 20
-1157412.225
 10
-594946.14
 20
-1157409.75
 10
-594957.955
 20
-1157409.815
 10
-594973.62
 20
-1157410.22
 10
-594993.405
 20
-1157414.47
 10
-595013.19
 20
-1157418.72
 10
-595052.52
 20
-1157439.13
 10
-595060.7907
 20
-1157443.896
 10
-595082.8403
 20
-1157451.4302
 10
-595095.415
 20
-1157454.095
 10
-595106.7562
 20
-1157456.6143
 10
-595159.2537
 20
-1157459.9321
 10
-595175.7112
 20
-1157459.0604
 10
-595200.8647
 20
-1157458.135
 10
-595221.208
 20
-1157455.1254
 10
-595240.74
 20
-1157455.69
 10
-595248.9038
 20
-1157458.6879
 10
-595264.8708
 20
-1157464.4596
 10
-595272.8579
 20
-1157467.2721
 10
-595284.6
 20
-1157474.66
 10
-595321.78
 20
-1157499.97
 10
-595333.56
 20
-1157507.94
 10
-595341.695
 20
-1157511.05
 10
-595349.83
 20
-1157514.16
 10
-595365.17
 20
-1157515.2
 10
-595376.62
 20
-1157524.36
 10
-595376.709
 20
-1157528.0356
 10
-595354.8756
 20
-1157538.5554
 97
0
 75
0
 76
1
 98
0
  0
HATCH
  5
200F3
100
AcDbEntity
  8
vodní toky
100
AcDbHatch
 10
0
 20
0
 30
0
210
0
220
0
230
1
  2
SOLID
 70
1
 71
0
 91
1
 92
2
 72
0
 73
1
 93
18
 10
-594785.56
 20
-1157469.12
 10
-594768.27
 20
-1157467.14
 10
-594743.67
 20
-1157463.2
 10
-594725.09
 20
-1157457.25
 10
-594709.21
 20
-1157451.98
 10
-594684.795
 20
-1157445.96
 10
-594660.38
 20
-1157439.94
 10
-594644.08
 20
-1157433.14
 10
-594626.1025
 20
-1157420.12
 10
-594615.31
 20
-1157412.87
 10
-594621.72
 20
-1157406.79
 10
-594628.13
 20
-1157400.71
 10
-594650.71
 20
-1157411.435
 10
-594673.32
 20
-1157424.28
 10
-594698.19
 20
-1157440.76
 10
-594743.62
 20
-1157450.53
 10
-594788.1
 20
-1157460.43
 10
-594785.56
 20
-1157469.12
 97
0
 75
0
 76
1
 98
0
  0
HATCH
  5
200F4
100
AcDbEntity
  8
vodní toky
100
AcDbHatch
 10
0
 20
0
 30
0
210
0
220
0
230
1
  2
SOLID
 70
1
 71
0
 91
1
 92
2
 72
0
 73
1
 93
9
 10
-594612.5
 20
-1157411.29
 10
-594596.44
 20
-1157402.27
 10
-594574.16
 20
-1157396.46
 10
-594573.76
 20
-1157380.01
 10
-594583.53
 20
-1157379.78
 10
-594604.82
 20
-1157383.17
 10
-594617.56
 20
-1157389.89
 10
-594625.74
 20
-1157398.26
 10
-594612.5
 20
-1157411.29
 97
0
 75
0
 76
1
 98
0
  0
HATCH
  5
200F5
100
AcDbEntity
  8
vodní toky
100
AcDbHatch
 10
0
 20
0
 30
0
210
0
220
0
230
1
  2
SOLID
 70
1
 71
0
 91
1
 92
2
 72
0
 73
1
 93
69
 10
-594563.53
 20
-1157395.675
 10
-594545.345
 20
-1157395.26
 10
-594532.12
 20
-1157396.19
 10
-594503.055
 20
-1157403.485
 10
-594456.91
 20
-1157415.29
 10
-594398.93
 20
-1157431.57
 10
-594342.37
 20
-1157452.71
 10
-594308.735
 20
-1157465.525
 10
-594267.53
 20
-1157481.49
 10
-594237.585
 20
-1157496.855
 10
-594213.615
 20
-1157512.995
 10
-594202.13
 20
-1157522.08
 10
-594179.63
 20
-1157547.46
 10
-594159.245
 20
-1157570.515
 10
-594138.72
 20
-1157594.24
 10
-594109.78
 20
-1157613.41
 10
-594090.97
 20
-1157626.885
 10
-594065.355
 20
-1157645.515
 10
-594051.895
 20
-1157655.59
 10
-594035.66
 20
-1157668.28
 10
-594018.335
 20
-1157680.545
 10
-594005.96
 20
-1157690.5
 10
-593989.105
 20
-1157703.76
 10
-593972.165
 20
-1157716.805
 10
-593961.105
 20
-1157726.225
 10
-593950.895
 20
-1157736.875
 10
-593937.555
 20
-1157754.03
 10
-593929.13
 20
-1157765.62
 10
-593918.355
 20
-1157783.28
 10
-593907.32
 20
-1157801.34
 10
-593902.255
 20
-1157819.43
 10
-593891.765
 20
-1157818.89
 10
-593901.05
 20
-1157789.05
 10
-593913.6696
 20
-1157768.9975
 10
-593926.96
 20
-1157750.32
 10
-593933.17
 20
-1157736.9
 10
-593948.845
 20
-1157721.415
 10
-593964.52
 20
-1157705.93
 10
-593979.96
 20
-1157689.26
 10
-594004.7
 20
-1157673.13
 10
-594036.61
 20
-1157649.905
 10
-594054.09
 20
-1157637
 10
-594086.265
 20
-1157617.04
 10
-594108.75
 20
-1157602.5
 10
-594128.95
 20
-1157584.74
 10
-594151.385
 20
-1157557.24
 10
-594170.45
 20
-1157536.15
 10
-594172.645
 20
-1157533.2
 10
-594183.779
 20
-1157516.021
 10
-594197.835
 20
-1157502.53
 10
-594212.49
 20
-1157489.35
 10
-594249.64
 20
-1157471.17
 10
-594287.54
 20
-1157458.5
 10
-594286.06
 20
-1157454.89
 10
-594299.074
 20
-1157454.937
 10
-594322.021
 20
-1157446.7015
 10
-594339.3765
 20
-1157439.3295
 10
-594377.805
 20
-1157425.4625
 10
-594410.397
 20
-1157415.024
 10
-594417.31
 20
-1157413.793
 10
-594430.622
 20
-1157409.948
 10
-594459.11
 20
-1157399.64
 10
-594461.52
 20
-1157398.39
 10
-594483.72
 20
-1157393.16
 10
-594503.44
 20
-1157388.53
 10
-594526.94
 20
-1157384.32
 10
-594556.35
 20
-1157380.41
 10
-594562.23
 20
-1157380.27
 10
-594563.53
 20
-1157395.675
 97
0
 75
0
 76
1
 98
0
  0
HATCH
  5
200F6
100
AcDbEntity
  8
vodní toky
100
AcDbHatch
 10
0
 20
0
 30
0
210
0
220
0
230
1
  2
SOLID
 70
1
 71
0
 91
1
 92
2
 72
0
 73
1
 93
31
 10
-593902.255
 20
-1157819.43
 10
-593900.74
 20
-1157825.38
 10
-593895.915
 20
-1157839.68
 10
-593891.09
 20
-1157853.98
 10
-593888.32
 20
-1157862.18
 10
-593880.11
 20
-1157875.63
 10
-593862.71
 20
-1157896.26
 10
-593845.59
 20
-1157919.5
 10
-593836.19
 20
-1157937.04
 10
-593818.995
 20
-1157962.495
 10
-593795.33
 20
-1157968.43
 10
-593763.28
 20
-1157960.55
 10
-593738.28
 20
-1157943.53
 10
-593712.5
 20
-1157915.49
 10
-593701.009
 20
-1157893.15
 10
-593712.75
 20
-1157885.45
 10
-593717.27
 20
-1157895.99
 10
-593720.315
 20
-1157905.11
 10
-593736.18
 20
-1157926.66
 10
-593769.18
 20
-1157948.06
 10
-593776.21
 20
-1157950.275
 10
-593801.19
 20
-1157958.72
 10
-593814.03
 20
-1157953.28
 10
-593821.6
 20
-1157943.64
 10
-593835.93
 20
-1157912.76
 10
-593847.7723
 20
-1157899.6012
 10
-593873.285
 20
-1157866.825
 10
-593879.07
 20
-1157855.25
 10
-593885.59
 20
-1157831.81
 10
-593891.765
 20
-1157818.89
 10
-593902.255
 20
-1157819.43
 97
0
 75
0
 76
1
 98
0
  0
HATCH
  5
200F7
100
AcDbEntity
  8
vodní toky
100
AcDbHatch
 10
0
 20
0
 30
0
210
0
220
0
230
1
  2
SOLID
 70
1
 71
0
 91
1
 92
2
 72
0
 73
1
 93
104
 10
-593712.746
 20
-1157885.451
 10
-593701.009
 20
-1157893.15
 10
-593680.79
 20
-1157852.12
 10
-593671.14
 20
-1157839.67
 10
-593628.176
 20
-1157788.005
 10
-593603.4415
 20
-1157755.849
 10
-593592.899
 20
-1157742.428
 10
-593568.4195
 20
-1157716.2185
 10
-593550.38
 20
-1157679.12
 10
-593535.541
 20
-1157640.118
 10
-593520.501
 20
-1157596.819
 10
-593513.475
 20
-1157561.29
 10
-593510.063
 20
-1157544.436
 10
-593497.4
 20
-1157508.92
 10
-593483.1
 20
-1157483.24
 10
-593467.16
 20
-1157459.95
 10
-593458.234
 20
-1157439.862
 10
-593430.081
 20
-1157398.5525
 10
-593392.163
 20
-1157352.853
 10
-593338.792
 20
-1157318.687
 10
-593277.57
 20
-1157289.02
 10
-593268.817
 20
-1157287.147
 10
-593199.026
 20
-1157261.314
 10
-593153.955
 20
-1157239.592
 10
-593125.7
 20
-1157225.03
 10
-593117.444
 20
-1157219.214
 10
-593097.44
 20
-1157199.16
 10
-593081.795
 20
-1157180.64
 10
-593067.743
 20
-1157160.484
 10
-593058.819
 20
-1157146.278
 10
-593035.93
 20
-1157122.97
 10
-593013.1
 20
-1157095.82
 10
-592990.8315
 20
-1157072.8375
 10
-592980.755
 20
-1157060.165
 10
-592972.78
 20
-1157035.67
 10
-592977.4
 20
-1157014.395
 10
-592998.2365
 20
-1156985.223
 10
-593013.44
 20
-1156964.31
 10
-593048.18
 20
-1156942.57
 10
-593070.095
 20
-1156938.268
 10
-593098.43
 20
-1156938.97
 10
-593118.483
 20
-1156937.2155
 10
-593159.39
 20
-1156928.25
 10
-593198.08
 20
-1156923
 10
-593205.61
 20
-1156927.12
 10
-593208.21
 20
-1156928.61
 10
-593204.64
 20
-1156937.09
 10
-593192.27
 20
-1156931.92
 10
-593177.36
 20
-1156934.38
 10
-593163.05
 20
-1156935.97
 10
-593154.69
 20
-1156936.74
 10
-593141.795
 20
-1156940.22
 10
-593128.9
 20
-1156943.7
 10
-593118.24
 20
-1156947.05
 10
-593104.36
 20
-1156948.19
 10
-593097.26
 20
-1156950.06
 10
-593067.93
 20
-1156947.58
 10
-593053.29
 20
-1156951.48
 10
-593042.84
 20
-1156956.51
 10
-593022.7
 20
-1156973.64
 10
-593002.64
 20
-1157000.62
 10
-592988.89
 20
-1157020.2
 10
-592986.27
 20
-1157039.08
 10
-592988.88
 20
-1157051.09
 10
-592998.86
 20
-1157060.79
 10
-593017.55
 20
-1157080.98
 10
-593025.6
 20
-1157090.37
 10
-593040.555
 20
-1157108.4
 10
-593052.48
 20
-1157122.29
 10
-593069.34
 20
-1157139.58
 10
-593086.08
 20
-1157163.285
 10
-593102.82
 20
-1157186.99
 10
-593122.84
 20
-1157207.77
 10
-593135.6
 20
-1157219.78
 10
-593170.155
 20
-1157234.715
 10
-593204.71
 20
-1157249.65
 10
-593244.42
 20
-1157264.065
 10
-593284.13
 20
-1157278.48
 10
-593316.16
 20
-1157294.805
 10
-593388.18
 20
-1157337.19
 10
-593398.48
 20
-1157341.56
 10
-593419.77
 20
-1157367.68
 10
-593454.97
 20
-1157411.96
 10
-593472.125
 20
-1157443.28
 10
-593479.17
 20
-1157456.78
 10
-593490.3
 20
-1157472.24
 10
-593501.5
 20
-1157490.9
 10
-593509.14
 20
-1157507.57
 10
-593518.24
 20
-1157537.01
 10
-593523.735
 20
-1157556.92
 10
-593528.61
 20
-1157573.88
 10
-593538.65
 20
-1157602.985
 10
-593549.14
 20
-1157630.96
 10
-593558.41
 20
-1157654.45
 10
-593577.93
 20
-1157699.86
 10
-593583.99
 20
-1157711.56
 10
-593604.335
 20
-1157735.285
 10
-593624.68
 20
-1157759.01
 10
-593637.72
 20
-1157777.29
 10
-593662.28
 20
-1157805.93
 10
-593679.94
 20
-1157830.12
 10
-593695.34
 20
-1157852.095
 10
-593704.41
 20
-1157873.76
 10
-593712.746
 20
-1157885.451
 97
0
 75
0
 76
1
 98
0
  0
HATCH
  5
200F8
100
AcDbEntity
  8
vodní toky
100
AcDbHatch
 10
0
 20
0
 30
0
210
0
220
0
230
1
  2
SOLID
 70
1
 71
0
 91
1
 92
2
 72
0
 73
1
 93
78
 10
-593208.07
 20
-1156938.53
 10
-593211.37
 20
-1156930.43
 10
-593214.883
 20
-1156932.451
 10
-593218.56
 20
-1156933.69
 10
-593224.544
 20
-1156934.559
 10
-593230.3
 20
-1156934.389
 10
-593238.863
 20
-1156932.966
 10
-593246.9435
 20
-1156927.943
 10
-593255.02
 20
-1156922.92
 10
-593275.567
 20
-1156912.706
 10
-593307.336
 20
-1156896.412
 10
-593343.51
 20
-1156875.89
 10
-593349.9025
 20
-1156838.4105
 10
-593352.81
 20
-1156820.08
 10
-593366.686
 20
-1156793.647
 10
-593382.985
 20
-1156783.53
 10
-593399.28
 20
-1156773.41
 10
-593417.94
 20
-1156765.02
 10
-593444.56
 20
-1156739.315
 10
-593460.75
 20
-1156711.815
 10
-593475.856
 20
-1156685.727
 10
-593483.25
 20
-1156657.26
 10
-593486.547
 20
-1156640.247
 10
-593485.63
 20
-1156614.98
 10
-593480.19
 20
-1156593.1
 10
-593474.75
 20
-1156571.22
 10
-593469.09
 20
-1156538.865
 10
-593463.43
 20
-1156506.51
 10
-593455.69
 20
-1156452.71
 10
-593462.02
 20
-1156445.06
 10
-593472.552
 20
-1156417.181
 10
-593468.862
 20
-1156389.282
 10
-593476.08
 20
-1156383.18
 10
-593476.564
 20
-1156397.312
 10
-593481.65
 20
-1156407.7
 10
-593481.31
 20
-1156423.14
 10
-593480.825
 20
-1156432.275
 10
-593475.39
 20
-1156447.86
 10
-593467.475
 20
-1156454.24
 10
-593464.59
 20
-1156457.35
 10
-593468.01
 20
-1156487.33
 10
-593471.43
 20
-1156511.76
 10
-593472.44
 20
-1156517.68
 10
-593477.05
 20
-1156537.91
 10
-593482.4
 20
-1156565.39
 10
-593489.81
 20
-1156592.05
 10
-593495.99
 20
-1156616.325
 10
-593496.12
 20
-1156630.465
 10
-593495.93
 20
-1156642.89
 10
-593489.715
 20
-1156667.73
 10
-593483.5
 20
-1156692.57
 10
-593468.51
 20
-1156723.28
 10
-593459.11
 20
-1156736.338
 10
-593449.54
 20
-1156748.12
 10
-593438.44
 20
-1156759.59
 10
-593432.025
 20
-1156764.955
 10
-593425.25
 20
-1156770.58
 10
-593404.2752
 20
-1156779.929
 10
-593387.03
 20
-1156786.91
 10
-593372.8
 20
-1156795.43
 10
-593360.23
 20
-1156817.65
 10
-593358.69
 20
-1156828.13
 10
-593354.44
 20
-1156851.57
 10
-593350.19
 20
-1156875.01
 10
-593348.19
 20
-1156879.225
 10
-593346.19
 20
-1156883.44
 10
-593330.41
 20
-1156892.73
 10
-593312.73
 20
-1156901.015
 10
-593295.05
 20
-1156909.3
 10
-593285.245
 20
-1156914.985
 10
-593268.34
 20
-1156924.585
 10
-593254.32
 20
-1156932.64
 10
-593239.58
 20
-1156940.9
 10
-593229.5
 20
-1156943.71
 10
-593225.155
 20
-1156943.445
 10
-593220.81
 20
-1156943.18
 10
-593215.265
 20
-1156941.315
 10
-593208.07
 20
-1156938.53
 97
0
 75
0
 76
1
 98
0
  0
HATCH
  5
200F9
100
AcDbEntity
  8
vodní toky
100
AcDbHatch
 10
0
 20
0
 30
0
210
0
220
0
230
1
  2
SOLID
 70
1
 71
0
 91
1
 92
2
 72
0
 73
1
 93
10
 10
-594605.1
 20
-1157384.18
 10
-594613.225
 20
-1157381.365
 10
-594614.58
 20
-1157381.96
 10
-594618.09
 20
-1157382.26
 10
-594618.28
 20
-1157383.96
 10
-594619.41
 20
-1157386.45
 10
-594620.54
 20
-1157388.94
 10
-594617.56
 20
-1157389.89
 10
-594611.19
 20
-1157386.53
 10
-594605.1
 20
-1157384.18
 97
0
 75
0
 76
1
 98
0
  0
HATCH
  5
200FA
100
AcDbEntity
  8
vodní toky
100
AcDbHatch
 10
0
 20
0
 30
0
210
0
220
0
230
1
  2
SOLID
 70
1
 71
0
 91
1
 92
2
 72
0
 73
1
 93
25
 10
-594622.2
 20
-1157378.33
 10
-594636.968
 20
-1157375.007
 10
-594645.423
 20
-1157375.649
 10
-594645.72
 20
-1157376.4
 10
-594658.48
 20
-1157376.635
 10
-594675.7665
 20
-1157377.0715
 10
-594690.795
 20
-1157377.33
 10
-594707.83
 20
-1157376.96
 10
-594715.4954
 20
-1157373.2253
 10
-594714.98
 20
-1157374.83
 10
-594713.215
 20
-1157380.325
 10
-594710.59
 20
-1157385.765
 10
-594699.64
 20
-1157387.16
 10
-594686.235
 20
-1157386.175
 10
-594672.83
 20
-1157385.19
 10
-594672.51
 20
-1157385.69
 10
-594668.79
 20
-1157385.64
 10
-594668.77
 20
-1157382.95
 10
-594651.205
 20
-1157383.865
 10
-594633.64
 20
-1157384.78
 10
-594621.65
 20
-1157388.59
 10
-594620.0458
 20
-1157384.8818
 10
-594619.54
 20
-1157382.01
 10
-594621.3
 20
-1157381.7
 10
-594622.2
 20
-1157378.33
 97
0
 75
0
 76
1
 98
0
  0
HATCH
  5
200FB
100
AcDbEntity
  8
vodní toky
100
AcDbHatch
 10
0
 20
0
 30
0
210
0
220
0
230
1
  2
SOLID
 70
1
 71
0
 91
1
 92
2
 72
0
 73
1
 93
8
 10
-594716.05
 20
-1157375.21
 10
-594720.65
 20
-1157376.87
 10
-594722.108
 20
-1157372.561
 10
-594725.863
 20
-1157374.387
 10
-594724.83
 20
-1157376.91
 10
-594721.54
 20
-1157384.37
 10
-594711.76
 20
-1157385.62
 10
-594716.05
 20
-1157375.21
 97
0
 75
0
 76
1
 98
0
  0
HATCH
  5
200FC
100
AcDbEntity
  8
vodní toky
100
AcDbHatch
 10
0
 20
0
 30
0
210
0
220
0
230
1
  2
SOLID
 70
1
 71
0
 91
1
 92
2
 72
0
 73
1
 93
10
 10
-594724.83
 20
-1157376.91
 10
-594759.64
 20
-1157389.28
 10
-594760.95
 20
-1157390.99
 10
-594761.67
 20
-1157403.16
 10
-594740.1
 20
-1157393.99
 10
-594740.47
 20
-1157393.16
 10
-594736.87
 20
-1157391.7
 10
-594737.25
 20
-1157390.17
 10
-594721.55
 20
-1157384.37
 10
-594724.83
 20
-1157376.91
 97
0
 75
0
 76
1
 98
0
  0
HATCH
  5
200FD
100
AcDbEntity
  8
vodní toky
100
AcDbHatch
 10
0
 20
0
 30
0
210
0
220
0
230
1
  2
SOLID
 70
1
 71
0
 91
1
 92
2
 72
0
 73
1
 93
49
 10
-601117.7
 20
-1159984.46
 10
-601122.6
 20
-1159995.43
 10
-601122.7687
 20
-1160016.7509
 10
-601123.54
 20
-1160043.745
 10
-601129.495
 20
-1160063.805
 10
-601135.98
 20
-1160085.31
 10
-601142.63
 20
-1160126.31
 10
-601145.165
 20
-1160170.565
 10
-601147.7
 20
-1160214.82
 10
-601150.58
 20
-1160240.87
 10
-601147.84
 20
-1160270.51
 10
-601141.04
 20
-1160290.14
 10
-601142.48
 20
-1160309.62
 10
-601141.84
 20
-1160330.58
 10
-601149
 20
-1160353.95
 10
-601156.525
 20
-1160386.91
 10
-601164.05
 20
-1160419.87
 10
-601170.09
 20
-1160441.005
 10
-601175.6
 20
-1160459.91
 10
-601177.13
 20
-1160492.07
 10
-601177.19
 20
-1160518.18
 10
-601173.195
 20
-1160537.475
 10
-601165.63
 20
-1160568.48
 10
-601147.86
 20
-1160598.49
 10
-601143.91
 20
-1160597.31
 10
-601112.85
 20
-1160587.15
 10
-601116.62
 20
-1160580.875
 10
-601126.76
 20
-1160562.7
 10
-601134.79
 20
-1160547.93
 10
-601140.16
 20
-1160527.68
 10
-601143.23
 20
-1160515.07
 10
-601143.495
 20
-1160502.17
 10
-601143.935
 20
-1160485.325
 10
-601141.125
 20
-1160464.87
 10
-601135.89
 20
-1160433.78
 10
-601130.545
 20
-1160412.43
 10
-601124.07
 20
-1160381.685
 10
-601119.03
 20
-1160343.83
 10
-601117.25
 20
-1160317.66
 10
-601119.705
 20
-1160264.62
 10
-601121.54
 20
-1160194.07
 10
-601118.855
 20
-1160157.425
 10
-601114.26
 20
-1160113
 10
-601110.66
 20
-1160097.92
 10
-601103.225
 20
-1160076.865
 10
-601086.04
 20
-1160037.51
 10
-601072.31
 20
-1160004.83
 10
-601101.275
 20
-1159991.82
 10
-601117.7
 20
-1159984.46
 97
0
 75
0
 76
1
 98
0
  0
HATCH
  5
200FE
100
AcDbEntity
  8
vodní toky
100
AcDbHatch
 10
0
 20
0
 30
0
210
0
220
0
230
1
  2
SOLID
 70
1
 71
0
 91
1
 92
2
 72
0
 73
1
 93
20
 10
-601133.38
 20
-1160611.11
 10
-601139.2027
 20
-1160613.1818
 10
-601129.75
 20
-1160630.985
 10
-601118.17
 20
-1160653.24
 10
-601107.55
 20
-1160682.84
 10
-601102.55
 20
-1160711.32
 10
-601102.775
 20
-1160723.8
 10
-601104.83
 20
-1160758.11
 10
-601109.93
 20
-1160783.02
 10
-601115.19
 20
-1160800.51
 10
-601082.38
 20
-1160801.16
 10
-601076.51
 20
-1160778.13
 10
-601072.16
 20
-1160749.71
 10
-601071.95
 20
-1160733.75
 10
-601074.25
 20
-1160696.49
 10
-601078.35
 20
-1160673.48
 10
-601083.48
 20
-1160652.92
 10
-601090.83
 20
-1160634.75
 10
-601104.19
 20
-1160601.75
 10
-601133.38
 20
-1160611.11
 97
0
 75
0
 76
1
 98
0
  0
HATCH
  5
200FF
100
AcDbEntity
  8
vodní toky
100
AcDbHatch
 10
0
 20
0
 30
0
210
0
220
0
230
1
  2
SOLID
 70
1
 71
0
 91
1
 92
2
 72
0
 73
1
 93
11
 10
-596566.09
 20
-1160466.56
 10
-596615.57
 20
-1160483.96
 10
-596642.88
 20
-1160493.22
 10
-596665.7544
 20
-1160500.976
 10
-596676.27
 20
-1160505.95
 10
-596669.04
 20
-1160512.5
 10
-596662.22
 20
-1160506.47
 10
-596624.84
 20
-1160493.67
 10
-596593.84
 20
-1160483.6
 10
-596563.83
 20
-1160472.62
 10
-596566.09
 20
-1160466.56
 97
0
 75
0
 76
1
 98
0
  0
HATCH
  5
20100
100
AcDbEntity
  8
vodní toky
100
AcDbHatch
 10
0
 20
0
 30
0
210
0
220
0
230
1
  2
SOLID
 70
1
 71
0
 91
1
 92
2
 72
0
 73
1
 93
24
 10
-601127.52
 20
-1161274.99
 10
-601109.65
 20
-1161289.75
 10
-601091.94
 20
-1161315.77
 10
-601086.92
 20
-1161325.55
 10
-601076.76
 20
-1161345.96
 10
-601060.91
 20
-1161376.88
 10
-601038.475
 20
-1161423.795
 10
-601001.66
 20
-1161501.335
 10
-600968.69
 20
-1161561.905
 10
-600948.31
 20
-1161590.32
 10
-600919.185
 20
-1161626.595
 10
-600887.76
 20
-1161665.78
 10
-600868.09
 20
-1161694.83
 10
-600841.81
 20
-1161681.74
 10
-600848.87
 20
-1161666.88
 10
-600866.79
 20
-1161642.23
 10
-600922.79
 20
-1161573.98
 10
-600952.38
 20
-1161531.51
 10
-600969.28
 20
-1161501.27
 10
-601017.017
 20
-1161404.808
 10
-601047.91
 20
-1161342.165
 10
-601082.715
 20
-1161279.32
 10
-601101.64
 20
-1161253.54
 10
-601127.52
 20
-1161274.99
 97
0
 75
0
 76
1
 98
0
  0
HATCH
  5
20101
100
AcDbEntity
  8
vodní toky
100
AcDbHatch
 10
0
 20
0
 30
0
210
0
220
0
230
1
  2
SOLID
 70
1
 71
0
 91
1
 92
2
 72
0
 73
1
 93
12
 10
-600854.09
 20
-1161719.11
 10
-600830.31
 20
-1161766.06
 10
-600809.845
 20
-1161801.36
 10
-600779.53
 20
-1161822.93
 10
-600775.825
 20
-1161826.595
 10
-600763.53
 20
-1161836.3
 10
-600759.32
 20
-1161805.3
 10
-600787.02
 20
-1161774.02
 10
-600806.765
 20
-1161745.245
 10
-600828.24
 20
-1161709.07
 10
-600830.51
 20
-1161705.555
 10
-600854.09
 20
-1161719.11
 97
0
 75
0
 76
1
 98
0
  0
HATCH
  5
20102
100
AcDbEntity
  8
vodní toky
100
AcDbHatch
 10
0
 20
0
 30
0
210
0
220
0
230
1
  2
SOLID
 70
1
 71
0
 91
1
 92
2
 72
0
 73
1
 93
33
 10
-600759.32
 20
-1161805.3
 10
-600763.53
 20
-1161836.3
 10
-600685.145
 20
-1161883.225
 10
-600608.44
 20
-1161936.34
 10
-600515.11
 20
-1161962.4
 10
-600472.49
 20
-1161966.54
 10
-600329.86
 20
-1161960.42
 10
-600266.06
 20
-1161946.07
 10
-600072.99
 20
-1161896.91
 10
-599979.51
 20
-1161857.91
 10
-599941.7318
 20
-1161837.5282
 10
-599840.29
 20
-1161783.295
 10
-599769.24
 20
-1161745.31
 10
-599776.19
 20
-1161709.38
 10
-599865.79
 20
-1161754.98
 10
-599903.105
 20
-1161775.76
 10
-599960.32
 20
-1161811.09
 10
-600029
 20
-1161847.64
 10
-600100.13
 20
-1161871.6
 10
-600184.91
 20
-1161894.11
 10
-600252.69
 20
-1161911.86
 10
-600299.986
 20
-1161916.236
 10
-600393.57
 20
-1161931.8
 10
-600489.895
 20
-1161940.395
 10
-600594.25
 20
-1161905.3
 10
-600633.3
 20
-1161877.23
 10
-600637.91
 20
-1161874.54
 10
-600665.98
 20
-1161857.7
 10
-600688.69
 20
-1161843.22
 10
-600702.815
 20
-1161836.89
 10
-600724.06
 20
-1161828.14
 10
-600746.44
 20
-1161812.43
 10
-600759.32
 20
-1161805.3
 97
0
 75
0
 76
1
 98
0
  0
HATCH
  5
20103
100
AcDbEntity
  8
vodní toky
100
AcDbHatch
 10
0
 20
0
 30
0
210
0
220
0
230
1
  2
SOLID
 70
1
 71
0
 91
1
 92
2
 72
0
 73
1
 93
37
 10
-601115.19
 20
-1160800.51
 10
-601135.2906
 20
-1160843.9447
 10
-601154.6157
 20
-1160888.2476
 10
-601160.16
 20
-1160898.23
 10
-601157.589
 20
-1160901.014
 10
-601170.55
 20
-1160943.51
 10
-601179.98
 20
-1160971.47
 10
-601195.27
 20
-1161001.01
 10
-601206.88
 20
-1161029.56
 10
-601213.32
 20
-1161040.84
 10
-601219.02
 20
-1161055.66
 10
-601227.335
 20
-1161066.695
 10
-601235.65
 20
-1161077.73
 10
-601240.21
 20
-1161089.58
 10
-601241.0905
 20
-1161091.637
 10
-601241.9222
 20
-1161094.8806
 10
-601242.3561
 20
-1161097.7789
 10
-601243.3331
 20
-1161106.7356
 10
-601241.6446
 20
-1161112.0612
 10
-601237.975
 20
-1161123.635
 10
-601225.69
 20
-1161139.795
 10
-601212.09
 20
-1161159.04
 10
-601209.63
 20
-1161164.64
 10
-601180.17
 20
-1161225.54
 10
-601158.785
 20
-1161257.525
 10
-601128.95
 20
-1161273.84
 10
-601102.68
 20
-1161252.22
 10
-601174.26
 20
-1161167.25
 10
-601201.97
 20
-1161125.45
 10
-601206.43
 20
-1161110.12
 10
-601191.08
 20
-1161059.31
 10
-601176.02
 20
-1161027.385
 10
-601176.74
 20
-1161024.43
 10
-601157.03
 20
-1160976.43
 10
-601120.145
 20
-1160888.695
 10
-601083.26
 20
-1160800.96
 10
-601115.19
 20
-1160800.51
 97
0
 75
0
 76
1
 98
0
  0
HATCH
  5
20104
100
AcDbEntity
  8
vodní toky
100
AcDbHatch
 10
0
 20
0
 30
0
210
0
220
0
230
1
  2
SOLID
 70
1
 71
0
 91
1
 92
2
 72
0
 73
1
 93
64
 10
-601075.57
 20
-1161089.79
 10
-601074.39
 20
-1161096.98
 10
-601075.4
 20
-1161097.16
 10
-601073.26
 20
-1161109.06
 10
-601069.03
 20
-1161125.76
 10
-601059.19
 20
-1161155.12
 10
-601051.81
 20
-1161177.6
 10
-601045.53
 20
-1161190.395
 10
-601027.545
 20
-1161224.04
 10
-601022.43
 20
-1161232.54
 10
-600998.72
 20
-1161264.3
 10
-600983.74
 20
-1161282.6
 10
-600937.04
 20
-1161331.07
 10
-600909.3
 20
-1161352.83
 10
-600881.56
 20
-1161374.59
 10
-600853.16
 20
-1161396.84
 10
-600830.87
 20
-1161417.66
 10
-600799.5
 20
-1161446.98
 10
-600776.39
 20
-1161471.68
 10
-600745.085
 20
-1161506.375
 10
-600723.43
 20
-1161533.4
 10
-600723.2
 20
-1161538.06
 10
-600679.47
 20
-1161596.12
 10
-600638.78
 20
-1161648.16
 10
-600600.6
 20
-1161691.5
 10
-600563.78
 20
-1161734.36
 10
-600559.51
 20
-1161736.495
 10
-600549.1572
 20
-1161733.0833
 10
-600559.1251
 20
-1161721.3643
 10
-600587.47
 20
-1161688.04
 10
-600616.15
 20
-1161654.645
 10
-600626.76
 20
-1161641.44
 10
-600648.13
 20
-1161613.605
 10
-600667.91
 20
-1161587.91
 10
-600714.54
 20
-1161527.37
 10
-600717.68
 20
-1161523.09
 10
-600762.09
 20
-1161470.1
 10
-600779.18
 20
-1161449.72
 10
-600793.975
 20
-1161433.89
 10
-600808.77
 20
-1161418.06
 10
-600826.9
 20
-1161401.62
 10
-600845.03
 20
-1161385.18
 10
-600856.87
 20
-1161376.19
 10
-600868.71
 20
-1161367.2
 10
-600873.77
 20
-1161363.41
 10
-600893.56
 20
-1161348.31
 10
-600914.3
 20
-1161332.79
 10
-600935.5
 20
-1161313.75
 10
-600945.73
 20
-1161304.335
 10
-600955.96
 20
-1161294.92
 10
-600963.6872
 20
-1161285.7245
 10
-600974.8
 20
-1161272.5
 10
-600993.64
 20
-1161250.08
 10
-601002.275
 20
-1161237.105
 10
-601010.91
 20
-1161224.13
 10
-601024.79
 20
-1161198.285
 10
-601033.51
 20
-1161177.805
 10
-601041.05
 20
-1161157.65
 10
-601050.14
 20
-1161132.58
 10
-601054.545
 20
-1161117.405
 10
-601058.95
 20
-1161102.23
 10
-601061.63
 20
-1161086.92
 10
-601073.413
 20
-1161089.4756
 10
-601075.57
 20
-1161089.79
 97
0
 75
0
 76
1
 98
0
  0
HATCH
  5
20105
100
AcDbEntity
  8
vodní toky
100
AcDbHatch
 10
0
 20
0
 30
0
210
0
220
0
230
1
  2
SOLID
 70
1
 71
0
 91
1
 92
2
 72
0
 73
1
 93
40
 10
-600986.98
 20
-1161395.22
 10
-600974.95
 20
-1161425.23
 10
-600968.49
 20
-1161424.62
 10
-600967.11
 20
-1161428.97
 10
-600955.15
 20
-1161432.62
 10
-600926.41
 20
-1161443.46
 10
-600921.9
 20
-1161448.35
 10
-600917.23
 20
-1161458.9
 10
-600879.04
 20
-1161472.81
 10
-600852.59
 20
-1161492.4
 10
-600847.14
 20
-1161500.41
 10
-600831.45
 20
-1161512.32
 10
-600814.13
 20
-1161549.94
 10
-600809.48
 20
-1161562.03
 10
-600804.14
 20
-1161579.62
 10
-600802.395
 20
-1161584.405
 10
-600800.834
 20
-1161611.116
 10
-600801.05
 20
-1161634
 10
-600812.01
 20
-1161658.22
 10
-600807.1
 20
-1161669.74
 10
-600810.04
 20
-1161697.99
 10
-600814.13
 20
-1161708.8
 10
-600789.89
 20
-1161763.53
 10
-600786.94
 20
-1161754.27
 10
-600774.03
 20
-1161675.47
 10
-600769.75
 20
-1161644.52
 10
-600771.91
 20
-1161608.28
 10
-600774.07
 20
-1161572.04
 10
-600777.08
 20
-1161564.16
 10
-600789.52
 20
-1161531.46
 10
-600796.74
 20
-1161518.93
 10
-600818.3
 20
-1161482.78
 10
-600858.67
 20
-1161449.71
 10
-600879.35
 20
-1161435.3
 10
-600884.78
 20
-1161434.06
 10
-600890.06
 20
-1161435.4
 10
-600936.01
 20
-1161417.42
 10
-600937.48
 20
-1161413.63
 10
-600984.49
 20
-1161394.1
 10
-600986.98
 20
-1161395.22
 97
0
 75
0
 76
1
 98
0
  0
HATCH
  5
20106
100
AcDbEntity
  8
vodní toky
100
AcDbHatch
 10
0
 20
0
 30
0
210
0
220
0
230
1
  2
SOLID
 70
1
 71
0
 91
1
 92
2
 72
0
 73
1
 93
37
 10
-598156.66
 20
-1158311.45
 10
-598119.49
 20
-1158302.32
 10
-598071.75
 20
-1158209.82
 10
-598084.38
 20
-1158164.63
 10
-598094.02
 20
-1158089.55
 10
-598091.49
 20
-1158083.8
 10
-598090.85
 20
-1158082.11
 10
-598090.55
 20
-1158080.31
 10
-598089.69
 20
-1158077.06
 10
-598091.23
 20
-1158025.01
 10
-598093.51
 20
-1157976.58
 10
-598093.99
 20
-1157970.91
 10
-598094.47
 20
-1157965.25
 10
-598096.26
 20
-1157954.58
 10
-598098.33
 20
-1157945.98
 10
-598101.17
 20
-1157936.25
 10
-598119.08
 20
-1157925.04
 10
-598106.79
 20
-1158036.98
 10
-598156.79
 20
-1158043.49
 10
-598155.98
 20
-1158052.78
 10
-598177.55
 20
-1158051.55
 10
-598186.46
 20
-1158020.33
 10
-598189.12
 20
-1158010.55
 10
-598196.07
 20
-1157979.27
 10
-598200.29
 20
-1157949.48
 10
-598203.46
 20
-1157934.89
 10
-598206.18
 20
-1157931.65
 10
-598215.74
 20
-1157927.98
 10
-598201.27
 20
-1158005.64
 10
-598187.6
 20
-1158129.19
 10
-598181.56
 20
-1158193.26
 10
-598168.38
 20
-1158298.8
 10
-598164.68
 20
-1158304.76
 10
-598164.19
 20
-1158305.07
 10
-598158.88
 20
-1158308.68
 10
-598158.23
 20
-1158311.63
 10
-598156.66
 20
-1158311.45
 97
0
 75
0
 76
1
 98
0
  0
HATCH
  5
20107
100
AcDbEntity
  8
vodní toky
100
AcDbHatch
 10
0
 20
0
 30
0
210
0
220
0
230
1
  2
SOLID
 70
1
 71
0
 91
1
 92
2
 72
0
 73
1
 93
55
 10
-598295.73
 20
-1167306.98
 10
-598294.62
 20
-1167303.76
 10
-598308.37
 20
-1167299.54
 10
-598323.93
 20
-1167295.02
 10
-598327.38
 20
-1167293.94
 10
-598335.87
 20
-1167289.535
 10
-598347.17
 20
-1167283.84
 10
-598440.23
 20
-1167253.54
 10
-598499.61
 20
-1167233.72
 10
-598516.12
 20
-1167227.66
 10
-598548.09
 20
-1167214.99
 10
-598563.945
 20
-1167210.1
 10
-598579.8
 20
-1167205.21
 10
-598597.41
 20
-1167198.33
 10
-598606.79
 20
-1167194.66
 10
-598627.76
 20
-1167184.77
 10
-598639.1
 20
-1167179.42
 10
-598653.425
 20
-1167172.365
 10
-598667.75
 20
-1167165.31
 10
-598697.295
 20
-1167148.27
 10
-598726.84
 20
-1167131.23
 10
-598738.94
 20
-1167126.09
 10
-598751.04
 20
-1167120.95
 10
-598798.49
 20
-1167094.01
 10
-598821.86
 20
-1167080.74
 10
-598864.29
 20
-1167056.13
 10
-598888.97
 20
-1167037.67
 10
-598918.74
 20
-1167012.295
 10
-598948.51
 20
-1166986.92
 10
-598948.84
 20
-1166989.66
 10
-598908.14
 20
-1167025.09
 10
-598891.78
 20
-1167038.85
 10
-598868.88
 20
-1167056.35
 10
-598860.15
 20
-1167062.08
 10
-598821.34
 20
-1167084.69
 10
-598780.7
 20
-1167107.86
 10
-598752.22
 20
-1167123.79
 10
-598728.51
 20
-1167133.49
 10
-598694.65
 20
-1167152.925
 10
-598666.68
 20
-1167168.4
 10
-598639.68
 20
-1167181.9
 10
-598609.16
 20
-1167196.145
 10
-598592.38
 20
-1167203.035
 10
-598580.81
 20
-1167207.63
 10
-598548.63
 20
-1167217.52
 10
-598535.125
 20
-1167222.92
 10
-598521.62
 20
-1167228.32
 10
-598507.88
 20
-1167233.8
 10
-598484.07
 20
-1167245.34
 10
-598437.135
 20
-1167260.88
 10
-598394.755
 20
-1167274.925
 10
-598357.96
 20
-1167286.99
 10
-598333.03
 20
-1167295.195
 10
-598308.795
 20
-1167303.01
 10
-598295.73
 20
-1167306.98
 97
0
 75
0
 76
1
 98
0
  0
HATCH
  5
20108
100
AcDbEntity
  8
vodní toky
100
AcDbHatch
 10
0
 20
0
 30
0
210
0
220
0
230
1
  2
SOLID
 70
1
 71
0
 91
1
 92
2
 72
0
 73
1
 93
21
 10
-599022.14
 20
-1166951.4
 10
-599018.25
 20
-1166949.4
 10
-599049.335
 20
-1166910.01
 10
-599064.52
 20
-1166891.72
 10
-599072.13
 20
-1166882.78
 10
-599101.805
 20
-1166864.325
 10
-599124.76
 20
-1166850.26
 10
-599148.07
 20
-1166835.5
 10
-599160.84
 20
-1166827.5
 10
-599166.14
 20
-1166824.54
 10
-599167.07
 20
-1166824.31
 10
-599167.01
 20
-1166830.73
 10
-599159.99
 20
-1166834.68
 10
-599148.1
 20
-1166842
 10
-599130.02
 20
-1166853.11
 10
-599110.095
 20
-1166865.845
 10
-599090.17
 20
-1166878.58
 10
-599074.91
 20
-1166888.24
 10
-599062.94
 20
-1166900.87
 10
-599042.16
 20
-1166926.39
 10
-599022.14
 20
-1166951.4
 97
0
 75
0
 76
1
 98
0
  0
HATCH
  5
20109
100
AcDbEntity
  8
vodní toky
100
AcDbHatch
 10
0
 20
0
 30
0
210
0
220
0
230
1
  2
SOLID
 70
1
 71
0
 91
1
 92
2
 72
0
 73
1
 93
13
 10
-599211.62
 20
-1166802.45
 10
-599197.1
 20
-1166813.165
 10
-599177.55
 20
-1166827.61
 10
-599176.53
 20
-1166826.87
 10
-599176.61
 20
-1166823.87
 10
-599176.63
 20
-1166823.1
 10
-599176.7
 20
-1166820.11
 10
-599183.54
 20
-1166815.305
 10
-599189.72
 20
-1166810.84
 10
-599203.67
 20
-1166800.61
 10
-599213.8642
 20
-1166793.2579
 10
-599214.54
 20
-1166800.29
 10
-599211.62
 20
-1166802.45
 97
0
 75
0
 76
1
 98
0
  0
HATCH
  5
2010A
100
AcDbEntity
  8
vodní toky
100
AcDbHatch
 10
0
 20
0
 30
0
210
0
220
0
230
1
  2
SOLID
 70
1
 71
0
 91
1
 92
2
 72
0
 73
1
 93
33
 10
-599853.81
 20
-1166451.8
 10
-599830.345
 20
-1166457.42
 10
-599801.955
 20
-1166463.965
 10
-599746.34
 20
-1166475.475
 10
-599695.65
 20
-1166486.06
 10
-599630.17
 20
-1166502.51
 10
-599621.6133
 20
-1166505.2606
 10
-599611.92
 20
-1166508.48
 10
-599609.535
 20
-1166509.625
 10
-599607.15
 20
-1166510.77
 10
-599603.065
 20
-1166512.935
 10
-599593.515
 20
-1166518.26
 10
-599581.715
 20
-1166525.53
 10
-599575.38
 20
-1166529.64
 10
-599541.3
 20
-1166555.4
 10
-599507.22
 20
-1166581.16
 10
-599498.03
 20
-1166588.35
 10
-599496.79
 20
-1166579.34
 10
-599506.37
 20
-1166571.87
 10
-599533.13
 20
-1166551.24
 10
-599559.89
 20
-1166530.61
 10
-599566.77
 20
-1166525.735
 10
-599573.65
 20
-1166520.86
 10
-599587.705
 20
-1166512.06
 10
-599595.03
 20
-1166507.88
 10
-599606.54
 20
-1166502.13
 10
-599620.3
 20
-1166496.4
 10
-599631.3
 20
-1166493.5
 10
-599704.785
 20
-1166477.05
 10
-599778.27
 20
-1166460.6
 10
-599815.095
 20
-1166452.475
 10
-599851.92
 20
-1166444.35
 10
-599853.81
 20
-1166451.8
 97
0
 75
0
 76
1
 98
0
  0
HATCH
  5
2010B
100
AcDbEntity
  8
vodní toky
100
AcDbHatch
 10
0
 20
0
 30
0
210
0
220
0
230
1
  2
SOLID
 70
1
 71
0
 91
1
 92
2
 72
0
 73
1
 93
28
 10
-597320.09
 20
-1166501.59
 10
-597333.57
 20
-1166544.23
 10
-597338.9027
 20
-1166575.3511
 10
-597341.445
 20
-1166611.595
 10
-597347.16
 20
-1166693.07
 10
-597365.73
 20
-1166821.28
 10
-597373.1
 20
-1166864.64
 10
-597384.0219
 20
-1166923.5234
 10
-597387.71
 20
-1166968.78
 10
-597389.96
 20
-1166996.39
 10
-597404.2865
 20
-1167101.6533
 10
-597410.7
 20
-1167134.75
 10
-597431.6202
 20
-1167242.7083
 10
-597440.01
 20
-1167301.15
 10
-597413.54
 20
-1167304.95
 10
-597395.332
 20
-1167199.677
 10
-597383.77
 20
-1167124.015
 10
-597367.42
 20
-1167017.02
 10
-597353.22
 20
-1166904.99
 10
-597344.03
 20
-1166846.34
 10
-597330.91
 20
-1166772.93
 10
-597325.44
 20
-1166675.02
 10
-597313.68
 20
-1166642.77
 10
-597293.59
 20
-1166575.98
 10
-597282.77
 20
-1166525.48
 10
-597287.29
 20
-1166514.77
 10
-597286.78
 20
-1166511.71
 10
-597320.09
 20
-1166501.59
 97
0
 75
0
 76
1
 98
0
  0
HATCH
  5
2010C
100
AcDbEntity
  8
vodní toky
100
AcDbHatch
 10
0
 20
0
 30
0
210
0
220
0
230
1
  2
SOLID
 70
1
 71
0
 91
1
 92
2
 72
0
 73
1
 93
17
 10
-597290.82
 20
-1166284.61
 10
-597294.1586
 20
-1166303.5476
 10
-597298.8203
 20
-1166349.698
 10
-597304.8804
 20
-1166375.8032
 10
-597305.3178
 20
-1166406.7247
 10
-597310.675
 20
-1166439.16
 10
-597314.89
 20
-1166464.68
 10
-597318.055
 20
-1166477.55
 10
-597319.14
 20
-1166498.04
 10
-597287.21
 20
-1166509.99
 10
-597284.51
 20
-1166491.335
 10
-597280.53
 20
-1166456.2
 10
-597276.24
 20
-1166413.12
 10
-597272.3
 20
-1166352.88
 10
-597266.58
 20
-1166325.75
 10
-597262.52
 20
-1166306.99
 10
-597290.82
 20
-1166284.61
 97
0
 75
0
 76
1
 98
0
  0
HATCH
  5
2010D
100
AcDbEntity
  8
vodní toky
100
AcDbHatch
 10
0
 20
0
 30
0
210
0
220
0
230
1
  2
SOLID
 70
1
 71
0
 91
1
 92
2
 72
0
 73
1
 93
26
 10
-597623.56
 20
-1166547.14
 10
-597625.61
 20
-1166558.21
 10
-597629.28
 20
-1166572.99
 10
-597635.42
 20
-1166593.59
 10
-597638.42
 20
-1166603.21
 10
-597642.38
 20
-1166613.86
 10
-597642.8
 20
-1166629.78
 10
-597640.78
 20
-1166657.74
 10
-597640.45
 20
-1166666.505
 10
-597640.12
 20
-1166675.27
 10
-597637.59
 20
-1166683.82
 10
-597634.4302
 20
-1166684.0551
 10
-597633.0124
 20
-1166684.127
 10
-597628.4575
 20
-1166684.361
 10
-597632.75
 20
-1166672.55
 10
-597632.7986
 20
-1166663.3981
 10
-597633.24
 20
-1166631.6
 10
-597631.545
 20
-1166619.47
 10
-597629.85
 20
-1166607.34
 10
-597626.22
 20
-1166594.03
 10
-597623.91
 20
-1166577.77
 10
-597618.82
 20
-1166559.51
 10
-597617.97
 20
-1166559.66
 10
-597614.995
 20
-1166549.15
 10
-597615.48
 20
-1166548.59
 10
-597623.56
 20
-1166547.14
 97
0
 75
0
 76
1
 98
0
  0
HATCH
  5
2010E
100
AcDbEntity
  8
vodní toky
100
AcDbHatch
 10
0
 20
0
 30
0
210
0
220
0
230
1
  2
SOLID
 70
1
 71
0
 91
1
 92
2
 72
0
 73
1
 93
53
 10
-597679.18
 20
-1167019.19
 10
-597681.43
 20
-1167023.9
 10
-597683.68
 20
-1167028.61
 10
-597693.825
 20
-1167054.06
 10
-597703.97
 20
-1167079.51
 10
-597709.735
 20
-1167090.285
 10
-597721.54
 20
-1167111.935
 10
-597727.58
 20
-1167122.81
 10
-597729.975
 20
-1167126.135
 10
-597734.71
 20
-1167132.21
 10
-597739.85
 20
-1167136.705
 10
-597744.99
 20
-1167141.2
 10
-597758.735
 20
-1167157.78
 10
-597772.48
 20
-1167174.36
 10
-597773.88
 20
-1167179.31
 10
-597775.51
 20
-1167192.21
 10
-597774.525
 20
-1167206.89
 10
-597773.25
 20
-1167221.35
 10
-597766.215
 20
-1167245.475
 10
-597763.5289
 20
-1167254.2628
 10
-597759.2168
 20
-1167269.7628
 10
-597748.75
 20
-1167268.69
 10
-597758.92
 20
-1167240.65
 10
-597764.46
 20
-1167211.59
 10
-597764.82
 20
-1167204.225
 10
-597765.37
 20
-1167189.78
 10
-597764.89
 20
-1167186.04
 10
-597763.41
 20
-1167181.57
 10
-597758.89
 20
-1167171.24
 10
-597751.96
 20
-1167163.62
 10
-597735.43
 20
-1167147.68
 10
-597728.93
 20
-1167140.3
 10
-597724.6
 20
-1167136.72
 10
-597721.31
 20
-1167133.62
 10
-597719.01
 20
-1167130.49
 10
-597715.75
 20
-1167122.93
 10
-597713.54
 20
-1167120.11
 10
-597710.685
 20
-1167112.385
 10
-597707.83
 20
-1167104.66
 10
-597706
 20
-1167101.86
 10
-597703.8183
 20
-1167098.4901
 10
-597701.125
 20
-1167094.33
 10
-597696.25
 20
-1167086.8
 10
-597694.32
 20
-1167083.07
 10
-597690.86
 20
-1167076.145
 10
-597689.33
 20
-1167072.95
 10
-597687.405
 20
-1167067.585
 10
-597685.48
 20
-1167062.22
 10
-597680.52
 20
-1167046.3
 10
-597677.61
 20
-1167038.32
 10
-597674.98
 20
-1167032.02
 10
-597670.57
 20
-1167022.66
 10
-597679.18
 20
-1167019.19
 97
0
 75
0
 76
1
 98
0
  0
HATCH
  5
2010F
100
AcDbEntity
  8
vodní toky
100
AcDbHatch
 10
0
 20
0
 30
0
210
0
220
0
230
1
  2
SOLID
 70
1
 71
0
 91
1
 92
2
 72
0
 73
1
 93
86
 10
-597632.4636
 20
-1166691.1568
 10
-597625.9518
 20
-1166719.44
 10
-597618.93
 20
-1166749.09
 10
-597611.13
 20
-1166770.12
 10
-597602.86
 20
-1166778.17
 10
-597576.7714
 20
-1166811.7116
 10
-597557.18
 20
-1166836.65
 10
-597544.935
 20
-1166846.58
 10
-597532.69
 20
-1166856.51
 10
-597524.91
 20
-1166863.69
 10
-597518.72
 20
-1166869.65
 10
-597516.55
 20
-1166872.84
 10
-597514.76
 20
-1166876.4
 10
-597514.12
 20
-1166878.99
 10
-597513.7
 20
-1166882.05
 10
-597514.07
 20
-1166885.37
 10
-597514.82
 20
-1166887.56
 10
-597516.72
 20
-1166890.29
 10
-597519.3
 20
-1166892.36
 10
-597522.68
 20
-1166893.92
 10
-597526.52
 20
-1166894.5
 10
-597532.9532
 20
-1166894.7915
 10
-597536.72
 20
-1166894.67
 10
-597538.27
 20
-1166894.62
 10
-597540.98
 20
-1166894.83
 10
-597543.42
 20
-1166895.21
 10
-597547.09
 20
-1166896.4
 10
-597550.31
 20
-1166898.14
 10
-597554.49
 20
-1166900.94
 10
-597558.97
 20
-1166905.32
 10
-597563.45
 20
-1166909.7
 10
-597570.84
 20
-1166916.56
 10
-597574.51
 20
-1166919.985
 10
-597585.23
 20
-1166930.12
 10
-597601.16
 20
-1166944.98
 10
-597615.09
 20
-1166957.57
 10
-597631.84
 20
-1166972.22
 10
-597653.7885
 20
-1166989.2066
 10
-597661.6
 20
-1166995.28
 10
-597667.77
 20
-1167001.57
 10
-597671.35
 20
-1167006.56
 10
-597673.475
 20
-1167010.0213
 10
-597679.18
 20
-1167019.19
 10
-597670.57
 20
-1167022.66
 10
-597667.88
 20
-1167018.115
 10
-597661.16
 20
-1167008.32
 10
-597652.52
 20
-1166999.44
 10
-597642.72
 20
-1166992.81
 10
-597632.92
 20
-1166986.18
 10
-597613.3436
 20
-1166969.3691
 10
-597612.6443
 20
-1166968.7183
 10
-597610.588
 20
-1166966.8045
 10
-597606.0695
 20
-1166962.9668
 10
-597601.551
 20
-1166959.1291
 10
-597597.49
 20
-1166955.68
 10
-597584.4588
 20
-1166943.3252
 10
-597573.3
 20
-1166932.885
 10
-597561.2568
 20
-1166921.6174
 10
-597549.11
 20
-1166910.09
 10
-597545.11
 20
-1166907.34
 10
-597541.65
 20
-1166905.7
 10
-597536.83
 20
-1166904.72
 10
-597533.32
 20
-1166904.95
 10
-597526.2
 20
-1166904.81
 10
-597519.07
 20
-1166903.5
 10
-597515.55
 20
-1166902.04
 10
-597509.73
 20
-1166897.75
 10
-597507
 20
-1166894.35
 10
-597504.52
 20
-1166889.44
 10
-597503.71
 20
-1166885.24
 10
-597503.5
 20
-1166881.06
 10
-597504.17
 20
-1166877.98
 10
-597506.65
 20
-1166871.56
 10
-597510.04
 20
-1166865.71
 10
-597517.68
 20
-1166856.56
 10
-597531.4514
 20
-1166844.7419
 10
-597551.76
 20
-1166827.25
 10
-597576.6403
 20
-1166797.0638
 10
-597605.94
 20
-1166756.71
 10
-597612.01
 20
-1166742.43
 10
-597612.6657
 20
-1166739.4343
 10
-597614.6541
 20
-1166732.3871
 10
-597618.1688
 20
-1166719.9298
 10
-597621.6835
 20
-1166707.4726
 10
-597626.2869
 20
-1166691.1568
 10
-597632.4636
 20
-1166691.1568
 97
0
 75
0
 76
1
 98
0
  0
HATCH
  5
20110
100
AcDbEntity
  8
vodní toky
100
AcDbHatch
 10
0
 20
0
 30
0
210
0
220
0
230
1
  2
SOLID
 70
1
 71
0
 91
1
 92
2
 72
0
 73
1
 93
26
 10
-597216.9
 20
-1166524.36
 10
-597218.62
 20
-1166528.19
 10
-597229.955
 20
-1166554.67
 10
-597239.57
 20
-1166577.32
 10
-597254.755
 20
-1166612.36
 10
-597269.94
 20
-1166647.4
 10
-597286.08
 20
-1166682.24
 10
-597302.22
 20
-1166717.08
 10
-597308.87
 20
-1166731.28
 10
-597320.81
 20
-1166755.09
 10
-597330.91
 20
-1166772.93
 10
-597333.69
 20
-1166788.88
 10
-597338.32
 20
-1166814.36
 10
-597344.03
 20
-1166846.34
 10
-597338.26
 20
-1166828.26
 10
-597331.165
 20
-1166808.675
 10
-597324.07
 20
-1166789.09
 10
-597319.59
 20
-1166779.105
 10
-597311.64
 20
-1166761.11
 10
-597294.785
 20
-1166723.3
 10
-597281.4
 20
-1166693.5
 10
-597271.18
 20
-1166670.95
 10
-597247.9
 20
-1166620.72
 10
-597225.93
 20
-1166574.095
 10
-597203.96
 20
-1166527.47
 10
-597216.9
 20
-1166524.36
 97
0
 75
0
 76
1
 98
0
  0
HATCH
  5
20111
100
AcDbEntity
  8
vodní toky
100
AcDbHatch
 10
0
 20
0
 30
0
210
0
220
0
230
1
  2
SOLID
 70
1
 71
0
 91
1
 92
2
 72
0
 73
1
 93
19
 10
-597975.55
 20
-1167319.26
 10
-598099.125
 20
-1167329.415
 10
-598133.78
 20
-1167331.09
 10
-598180.77
 20
-1167338.58
 10
-598219.38
 20
-1167327.43
 10
-598268.51
 20
-1167310.54
 10
-598276.785
 20
-1167309.165
 10
-598284.615
 20
-1167306.47
 10
-598286.66
 20
-1167312.55
 10
-598254.3749
 20
-1167323.2747
 10
-598221.27
 20
-1167334.35
 10
-598198.2
 20
-1167342.04
 10
-598189.19
 20
-1167343.255
 10
-598175.5113
 20
-1167342.3904
 10
-598114.0238
 20
-1167336.5854
 10
-598100.53
 20
-1167335.31
 10
-598052.58
 20
-1167330.795
 10
-598004.5863
 20
-1167326.2654
 10
-597975.55
 20
-1167319.26
 97
0
 75
0
 76
1
 98
0
  0
HATCH
  5
20112
100
AcDbEntity
  8
vodní toky
100
AcDbHatch
 10
0
 20
0
 30
0
210
0
220
0
230
1
  2
SOLID
 70
1
 71
0
 91
1
 92
2
 72
0
 73
1
 93
48
 10
-597314.89
 20
-1166464.68
 10
-597320.82
 20
-1166467.62
 10
-597325.72
 20
-1166468.38
 10
-597342.63
 20
-1166465.85
 10
-597359.34
 20
-1166460.74
 10
-597361.28
 20
-1166460.35
 10
-597363.66
 20
-1166460.41
 10
-597367.45
 20
-1166461.07
 10
-597370.84
 20
-1166462.04
 10
-597380.7343
 20
-1166466.1592
 10
-597394.42
 20
-1166471.85
 10
-597399.99
 20
-1166473.49
 10
-597410.98
 20
-1166476.14
 10
-597414.88
 20
-1166476.78
 10
-597426.74
 20
-1166477.6
 10
-597432.01
 20
-1166478.47
 10
-597478.6144
 20
-1166488.7901
 10
-597507.305
 20
-1166494.015
 10
-597550.58
 20
-1166502.09
 10
-597584.5818
 20
-1166508.4346
 10
-597607.69
 20
-1166514.08
 10
-597607.55
 20
-1166516.34
 10
-597618.055
 20
-1166532.45
 10
-597619.76
 20
-1166532.5
 10
-597622.14
 20
-1166542.22
 10
-597614.87
 20
-1166544.79
 10
-597614.14
 20
-1166540.65
 10
-597612.71
 20
-1166536.44
 10
-597610.58
 20
-1166532.32
 10
-597606.3
 20
-1166526.55
 10
-597599.08
 20
-1166521.23
 10
-597586.7648
 20
-1166518.6247
 10
-597547.21
 20
-1166510.65
 10
-597534.5407
 20
-1166508.0957
 10
-597517.75
 20
-1166504.66
 10
-597484.7911
 20
-1166499.2788
 10
-597434.9114
 20
-1166488.557
 10
-597429.476
 20
-1166487.3886
 10
-597409.63
 20
-1166485.53
 10
-597401.21
 20
-1166483.5
 10
-597386.98
 20
-1166478.52
 10
-597374.34
 20
-1166472.23
 10
-597343.25
 20
-1166472.25
 10
-597341.41
 20
-1166472.87
 10
-597332.15
 20
-1166477.32
 10
-597322.94
 20
-1166476.96
 10
-597318.055
 20
-1166477.55
 10
-597314.89
 20
-1166464.68
 97
0
 75
0
 76
1
 98
0
  0
HATCH
  5
20113
100
AcDbEntity
  8
vodní toky
100
AcDbHatch
 10
0
 20
0
 30
0
210
0
220
0
230
1
  2
SOLID
 70
1
 71
0
 91
1
 92
2
 72
0
 73
1
 93
27
 10
-598631.14
 20
-1154038.2
 10
-598629.49
 20
-1154043.49
 10
-598611.67
 20
-1154092.97
 10
-598600.25
 20
-1154126.66
 10
-598600.24
 20
-1154129.13
 10
-598587.82
 20
-1154165.7
 10
-598573.43
 20
-1154211.28
 10
-598559.44
 20
-1154255.61
 10
-598542.92
 20
-1154303.74
 10
-598543.8
 20
-1154307.94
 10
-598526.46
 20
-1154365.97
 10
-598524.97
 20
-1154365.45
 10
-598523.48
 20
-1154364.93
 10
-598518.63
 20
-1154363.29
 10
-598519.8
 20
-1154359.7
 10
-598528.98
 20
-1154330.215
 10
-598541.59
 20
-1154289.7
 10
-598551.61
 20
-1154256.42
 10
-598561.555
 20
-1154225.16
 10
-598571.5
 20
-1154193.9
 10
-598603.31
 20
-1154093.91
 10
-598615.88
 20
-1154057
 10
-598625.37
 20
-1154027.08
 10
-598627.6
 20
-1154022.07
 10
-598628.88
 20
-1154027.59
 10
-598630.63
 20
-1154035.09
 10
-598631.14
 20
-1154038.2
 97
0
 75
0
 76
1
 98
0
  0
HATCH
  5
20114
100
AcDbEntity
  8
vodní toky
100
AcDbHatch
 10
0
 20
0
 30
0
210
0
220
0
230
1
  2
SOLID
 70
1
 71
0
 91
1
 92
2
 72
0
 73
1
 93
7
 10
-598525.96
 20
-1154367.65
 10
-598518.43
 20
-1154391.54
 10
-598513.41
 20
-1154386.57
 10
-598512.59
 20
-1154383.32
 10
-598516.94
 20
-1154368.75
 10
-598518.07
 20
-1154365.02
 10
-598525.96
 20
-1154367.65
 97
0
 75
0
 76
1
 98
0
  0
HATCH
  5
20115
100
AcDbEntity
  8
vodní toky
100
AcDbHatch
 10
0
 20
0
 30
0
210
0
220
0
230
1
  2
SOLID
 70
1
 71
0
 91
1
 92
2
 72
0
 73
1
 93
5
 10
-598586.21
 20
-1154616.35
 10
-598590.77
 20
-1154622.27
 10
-598586.27
 20
-1154626
 10
-598580.45
 20
-1154617.85
 10
-598586.21
 20
-1154616.35
 97
0
 75
0
 76
1
 98
0
  0
HATCH
  5
20116
100
AcDbEntity
  8
vodní toky
100
AcDbHatch
 10
0
 20
0
 30
0
210
0
220
0
230
1
  2
SOLID
 70
1
 71
0
 91
1
 92
2
 72
0
 73
1
 93
19
 10
-598592.65
 20
-1154624.72
 10
-598596.86
 20
-1154629.99
 10
-598614.17
 20
-1154653.66
 10
-598625.86
 20
-1154683.19
 10
-598628.16
 20
-1154689
 10
-598642.0742
 20
-1154724.3145
 10
-598660.14
 20
-1154730.26
 10
-598699.9181
 20
-1154735.7823
 10
-598701.5852
 20
-1154743.0065
 10
-598658.45
 20
-1154737.87
 10
-598639.78
 20
-1154728.34
 10
-598635.32
 20
-1154722.69
 10
-598630.71
 20
-1154712.93
 10
-598628.55
 20
-1154707.47
 10
-598608.38
 20
-1154656.36
 10
-598604.4
 20
-1154650.86
 10
-598589.83
 20
-1154630.79
 10
-598588.17
 20
-1154628.51
 10
-598592.65
 20
-1154624.72
 97
0
 75
0
 76
1
 98
0
  0
HATCH
  5
20117
100
AcDbEntity
  8
vodní toky
100
AcDbHatch
 10
0
 20
0
 30
0
210
0
220
0
230
1
  2
SOLID
 70
1
 71
0
 91
1
 92
2
 72
0
 73
1
 93
22
 10
-598700.03
 20
-1154736.08
 10
-598731.67
 20
-1154739.22
 10
-598733.85
 20
-1154739.59
 10
-598763.99
 20
-1154746.92
 10
-598764.42
 20
-1154748.5101
 10
-598767.35
 20
-1154747.74
 10
-598782.94
 20
-1154752.08
 10
-598787.49
 20
-1154753.19
 10
-598798.14
 20
-1154757.01
 10
-598811.85
 20
-1154761.88
 10
-598817.76
 20
-1154773.76
 10
-598814.12
 20
-1154771.84
 10
-598810.94
 20
-1154770.26
 10
-598807.88
 20
-1154769.01
 10
-598804.11
 20
-1154767.6
 10
-598788.76
 20
-1154761.44
 10
-598783.61
 20
-1154759.77
 10
-598767.29
 20
-1154754.42
 10
-598754.88
 20
-1154751.44
 10
-598731.34
 20
-1154745.59
 10
-598701.74
 20
-1154742.91
 10
-598700.03
 20
-1154736.08
 97
0
 75
0
 76
1
 98
0
  0
HATCH
  5
20118
100
AcDbEntity
  8
vodní toky
100
AcDbHatch
 10
0
 20
0
 30
0
210
0
220
0
230
1
  2
SOLID
 70
1
 71
0
 91
1
 92
2
 72
0
 73
1
 93
24
 10
-598834.95
 20
-1154776.88
 10
-598835.84
 20
-1154778.29
 10
-598837.05
 20
-1154781.31
 10
-598843.64
 20
-1154801.88
 10
-598846.71
 20
-1154828.49
 10
-598850.65
 20
-1154845.36
 10
-598854.72
 20
-1154857
 10
-598855.88
 20
-1154863.81
 10
-598855.16
 20
-1154872.34
 10
-598853.63
 20
-1154876.62
 10
-598849.8
 20
-1154880.78
 10
-598846.31
 20
-1154881.67
 10
-598845.96
 20
-1154880.72
 10
-598844.56
 20
-1154877.05
 10
-598846.27
 20
-1154876.78
 10
-598847.4
 20
-1154870.12
 10
-598848.44
 20
-1154865.64
 10
-598840.97
 20
-1154837.39
 10
-598836.36
 20
-1154823.59
 10
-598832.07
 20
-1154802.29
 10
-598832.79
 20
-1154791.13
 10
-598824.44
 20
-1154781.42
 10
-598831.62
 20
-1154778.29
 10
-598834.95
 20
-1154776.88
 97
0
 75
0
 76
1
 98
0
  0
HATCH
  5
20119
100
AcDbEntity
  8
vodní toky
100
AcDbHatch
 10
0
 20
0
 30
0
210
0
220
0
230
1
  2
SOLID
 70
1
 71
0
 91
1
 92
2
 72
0
 73
1
 93
45
 10
-598793.84
 20
-1155066.81
 10
-598789.38
 20
-1155084.86
 10
-598735.96
 20
-1155148.44
 10
-598688.66
 20
-1155200.96
 10
-598633.89
 20
-1155267.56
 10
-598597.9
 20
-1155387.14
 10
-598594.71
 20
-1155397.66
 10
-598584.36
 20
-1155434.23
 10
-598574.05
 20
-1155470.48
 10
-598565.15
 20
-1155500.8
 10
-598563.96
 20
-1155504.73
 10
-598563.61
 20
-1155507.18
 10
-598563.8
 20
-1155509.9
 10
-598564.46
 20
-1155513.67
 10
-598565.92
 20
-1155516.91
 10
-598568.01
 20
-1155519.81
 10
-598569.98
 20
-1155521.78
 10
-598573.86
 20
-1155524.61
 10
-598564.67
 20
-1155522.57
 10
-598563.67
 20
-1155521.24
 10
-598562.64
 20
-1155519.91
 10
-598561.88
 20
-1155518.64
 10
-598561.18
 20
-1155517.28
 10
-598560.47
 20
-1155515.82
 10
-598560.02
 20
-1155514.34
 10
-598559.63
 20
-1155512.68
 10
-598559.44
 20
-1155511.24
 10
-598559.4
 20
-1155509.61
 10
-598559.41
 20
-1155507.73
 10
-598560.1
 20
-1155503.95
 10
-598562.37
 20
-1155496.54
 10
-598570.98
 20
-1155467.28
 10
-598580.51
 20
-1155434.66
 10
-598592.82
 20
-1155392.57
 10
-598600.41
 20
-1155367.3
 10
-598614.78
 20
-1155319.48
 10
-598623.68
 20
-1155290.12
 10
-598630.89
 20
-1155266.03
 10
-598683.6
 20
-1155203
 10
-598732.99
 20
-1155144.17
 10
-598782.46
 20
-1155083.27
 10
-598787.49
 20
-1155073.03
 10
-598789.2
 20
-1155068.01
 10
-598791.26
 20
-1155067.48
 10
-598793.84
 20
-1155066.81
 97
0
 75
0
 76
1
 98
0
  0
HATCH
  5
2011A
100
AcDbEntity
  8
vodní toky
100
AcDbHatch
 10
0
 20
0
 30
0
210
0
220
0
230
1
  2
SOLID
 70
1
 71
0
 91
1
 92
2
 72
0
 73
1
 93
31
 10
-598800.3
 20
-1155064.91
 10
-598803.75
 20
-1155064.1
 10
-598803.91
 20
-1155064.76
 10
-598804.44
 20
-1155064.78
 10
-598802.36
 20
-1155099.64
 10
-598800.58
 20
-1155111.31
 10
-598798.1
 20
-1155122.88
 10
-598759.46
 20
-1155298.78
 10
-598756.59
 20
-1155378.84
 10
-598755.28
 20
-1155415.22
 10
-598753.66
 20
-1155458.58
 10
-598738.77
 20
-1155465.19
 10
-598747.49
 20
-1155458.2
 10
-598749.61
 20
-1155452.43
 10
-598749.84
 20
-1155446.03
 10
-598750.65
 20
-1155415.73
 10
-598749.99
 20
-1155439.94
 10
-598749.84
 20
-1155446.03
 10
-598719.66
 20
-1155462.17
 10
-598681.49
 20
-1155483.11
 10
-598672.09
 20
-1155543.9
 10
-598667.21
 20
-1155544.02
 10
-598677.47
 20
-1155481.14
 10
-598679.72
 20
-1155478.78
 10
-598712.35
 20
-1155461.35
 10
-598741.86
 20
-1155445.6
 10
-598743.42
 20
-1155416.54
 10
-598749.97
 20
-1155294.91
 10
-598794.18
 20
-1155109.05
 10
-598799.27
 20
-1155065.15
 10
-598800.3
 20
-1155064.91
 97
0
 75
0
 76
1
 98
0
  0
HATCH
  5
2011B
100
AcDbEntity
  8
vodní toky
100
AcDbHatch
 10
0
 20
0
 30
0
210
0
220
0
230
1
  2
SOLID
 70
1
 71
0
 91
1
 92
2
 72
0
 73
1
 93
24
 10
-598809.71
 20
-1155064.86
 10
-598809.27
 20
-1155120.05
 10
-598800.28
 20
-1155235.37
 10
-598796.73
 20
-1155255.28
 10
-598779.82
 20
-1155328.5
 10
-598778.57
 20
-1155354.91
 10
-598779.66
 20
-1155374.38
 10
-598784.92
 20
-1155395.19
 10
-598790.62
 20
-1155411.29
 10
-598795.61
 20
-1155425.38
 10
-598793.4
 20
-1155430.12
 10
-598790.58
 20
-1155426.15
 10
-598785.83
 20
-1155411.82
 10
-598781.1
 20
-1155397.51
 10
-598780.97
 20
-1155394.19
 10
-598776.43
 20
-1155375.19
 10
-598775.7
 20
-1155352.24
 10
-598775.93
 20
-1155330.23
 10
-598794
 20
-1155254.49
 10
-598797.35
 20
-1155235.11
 10
-598802.63
 20
-1155162.63
 10
-598805.66
 20
-1155120.47
 10
-598805.8
 20
-1155064.8
 10
-598809.71
 20
-1155064.86
 97
0
 75
0
 76
1
 98
0
  0
HATCH
  5
2011C
100
AcDbEntity
  8
vodní toky
100
AcDbHatch
 10
0
 20
0
 30
0
210
0
220
0
230
1
  2
SOLID
 70
1
 71
0
 91
1
 92
2
 72
0
 73
1
 93
15
 10
-598378.98
 20
-1155484.59
 10
-598379.29
 20
-1155481.8
 10
-598471.35
 20
-1155502.11
 10
-598545.07
 20
-1155518.2
 10
-598564.67
 20
-1155522.57
 10
-598573.86
 20
-1155524.61
 10
-598576.14
 20
-1155525.12
 10
-598667.21
 20
-1155544.02
 10
-598685.26
 20
-1155543.59
 10
-598684.56
 20
-1155548.55
 10
-598672.31
 20
-1155549.42
 10
-598669.14
 20
-1155548.71
 10
-598554.1
 20
-1155524.48
 10
-598498.56
 20
-1155511.5
 10
-598378.98
 20
-1155484.59
 97
0
 75
0
 76
1
 98
0
  0
HATCH
  5
2011D
100
AcDbEntity
  8
vodní toky
100
AcDbHatch
 10
0
 20
0
 30
0
210
0
220
0
230
1
  2
SOLID
 70
1
 71
0
 91
1
 92
2
 72
0
 73
1
 93
17
 10
-598731.27
 20
-1155551.24
 10
-598707.09
 20
-1155551.7
 10
-598701.6
 20
-1155551.31
 10
-598685.34
 20
-1155556.25
 10
-598686.44
 20
-1155548.42
 10
-598687.13
 20
-1155543.55
 10
-598688.52
 20
-1155533.75
 10
-598686.69
 20
-1155533.47
 10
-598685.26
 20
-1155543.59
 10
-598672.09
 20
-1155543.9
 10
-598677.96
 20
-1155526.87
 10
-598693.5
 20
-1155531.99
 10
-598717.7
 20
-1155543.2
 10
-598725.07
 20
-1155544.99
 10
-598726.97
 20
-1155546.9
 10
-598729.24
 20
-1155549.26
 10
-598731.27
 20
-1155551.24
 97
0
 75
0
 76
1
 98
0
  0
HATCH
  5
2011E
100
AcDbEntity
  8
vodní toky
100
AcDbHatch
 10
0
 20
0
 30
0
210
0
220
0
230
1
  2
SOLID
 70
1
 71
0
 91
1
 92
2
 72
0
 73
1
 93
8
 10
-598685.34
 20
-1155556.25
 10
-598684.9
 20
-1155563.65
 10
-598678.16
 20
-1155564.56
 10
-598680.2
 20
-1155552.87
 10
-598672.31
 20
-1155549.42
 10
-598684.56
 20
-1155548.55
 10
-598683.51
 20
-1155555.96
 10
-598685.34
 20
-1155556.25
 97
0
 75
0
 76
1
 98
0
  0
HATCH
  5
2011F
100
AcDbEntity
  8
vodní toky
100
AcDbHatch
 10
0
 20
0
 30
0
210
0
220
0
230
1
  2
SOLID
 70
1
 71
0
 91
1
 92
2
 72
0
 73
1
 93
20
 10
-598786.26
 20
-1155589.12
 10
-598780.07
 20
-1155576.19
 10
-598777.54
 20
-1155570.64
 10
-598773.04
 20
-1155566.06
 10
-598763.59
 20
-1155561.04
 10
-598746.67
 20
-1155552.31
 10
-598736.94
 20
-1155551.36
 10
-598734.65
 20
-1155548.95
 10
-598732.16
 20
-1155546.35
 10
-598730.94
 20
-1155544.69
 10
-598737.04
 20
-1155543.76
 10
-598755.96
 20
-1155549.81
 10
-598776.56
 20
-1155560.61
 10
-598780.51
 20
-1155563.24
 10
-598788.57
 20
-1155568.61
 10
-598792.63
 20
-1155575.28
 10
-598794
 20
-1155583.63
 10
-598791.91
 20
-1155584.91
 10
-598789.65
 20
-1155586.43
 10
-598786.26
 20
-1155589.12
 97
0
 75
0
 76
1
 98
0
  0
HATCH
  5
20120
100
AcDbEntity
  8
vodní toky
100
AcDbHatch
 10
0
 20
0
 30
0
210
0
220
0
230
1
  2
SOLID
 70
1
 71
0
 91
1
 92
2
 72
0
 73
1
 93
9
 10
-597600
 20
-1154379.66
 10
-597589.58
 20
-1154383.05
 10
-597578.51
 20
-1154383.88
 10
-597561.63
 20
-1154374.82
 10
-597548.66
 20
-1154367.84
 10
-597552.67
 20
-1154349.74
 10
-597571.49
 20
-1154349.51
 10
-597593.04
 20
-1154351.96
 10
-597600
 20
-1154379.66
 97
0
 75
0
 76
1
 98
0
  0
HATCH
  5
20121
100
AcDbEntity
  8
vodní toky
100
AcDbHatch
 10
0
 20
0
 30
0
210
0
220
0
230
1
  2
SOLID
 70
1
 71
0
 91
1
 92
2
 72
0
 73
1
 93
9
 10
-597515.78
 20
-1154329.33
 10
-597532.2
 20
-1154336.47
 10
-597530.51
 20
-1154349.8
 10
-597522.3
 20
-1154366.45
 10
-597516.02
 20
-1154369.51
 10
-597494.82
 20
-1154357.18
 10
-597506.06
 20
-1154342.99
 10
-597508.87
 20
-1154338.88
 10
-597515.78
 20
-1154329.33
 97
0
 75
0
 76
1
 98
0
  0
HATCH
  5
20122
100
AcDbEntity
  8
vodní toky
100
AcDbHatch
 10
0
 20
0
 30
0
210
0
220
0
230
1
  2
SOLID
 70
1
 71
0
 91
1
 92
2
 72
0
 73
1
 93
47
 10
-598842.11
 20
-1154882.05
 10
-598842.35
 20
-1154882.7
 10
-598842.84
 20
-1154883.97
 10
-598843.2
 20
-1154885.78
 10
-598828.87
 20
-1154891.46
 10
-598825.22
 20
-1154896.24
 10
-598824.28
 20
-1154904.52
 10
-598821.6
 20
-1154928.29
 10
-598820.41
 20
-1154938.09
 10
-598814.44
 20
-1154952.35
 10
-598814.79
 20
-1154961.2
 10
-598819.87
 20
-1155027.08
 10
-598819.12
 20
-1155029.76
 10
-598814.29
 20
-1155056.63
 10
-598809.86
 20
-1155059.46
 10
-598806.26
 20
-1155059.4
 10
-598803.91
 20
-1155058.91
 10
-598800.96
 20
-1155047.1
 10
-598797.09
 20
-1155050.24
 10
-598794.04
 20
-1155055.48
 10
-598791.72
 20
-1155064.13
 10
-598784.49
 20
-1155063.46
 10
-598782.53
 20
-1155063.48
 10
-598785.02
 20
-1155060.71
 10
-598794.01
 20
-1155047.18
 10
-598801.52
 20
-1155032.71
 10
-598803.6
 20
-1155022.12
 10
-598803.1
 20
-1155012.93
 10
-598802.4
 20
-1155001.95
 10
-598801.46
 20
-1154987
 10
-598800.45
 20
-1154971.04
 10
-598800.25
 20
-1154963.72
 10
-598800.06
 20
-1154957
 10
-598801.6
 20
-1154945.36
 10
-598803.42
 20
-1154941.19
 10
-598804.12
 20
-1154939.94
 10
-598803.49
 20
-1154937.45
 10
-598806.72
 20
-1154937.41
 10
-598808.3
 20
-1154934.61
 10
-598814.49
 20
-1154923.69
 10
-598814.24
 20
-1154905.17
 10
-598815.49
 20
-1154899.35
 10
-598819.0612
 20
-1154891.6332
 10
-598819.82
 20
-1154880.46
 10
-598834.58
 20
-1154877.17
 10
-598840.47
 20
-1154877.78
 10
-598842.11
 20
-1154882.05
 97
0
 75
0
 76
1
 98
0
  0
HATCH
  5
20123
100
AcDbEntity
  8
vodní toky
100
AcDbHatch
 10
0
 20
0
 30
0
210
0
220
0
230
1
  2
SOLID
 70
1
 71
0
 91
1
 92
2
 72
0
 73
1
 93
21
 10
-597816.16
 20
-1156245.46
 10
-597774.23
 20
-1156230.59
 10
-597784.58
 20
-1156222.15
 10
-597790.92
 20
-1156209.58
 10
-597791.72
 20
-1156206.37
 10
-597795.84
 20
-1156187.235
 10
-597799.16
 20
-1156171.31
 10
-597804.02
 20
-1156159.41
 10
-597808.88
 20
-1156147.51
 10
-597809.23
 20
-1156144.725
 10
-597815.66
 20
-1156145.17
 10
-597815.96
 20
-1156160.9
 10
-597816.3
 20
-1156178.8
 10
-597814.455
 20
-1156189.715
 10
-597812.61
 20
-1156200.63
 10
-597811.905
 20
-1156205.615
 10
-597811.2
 20
-1156210.6
 10
-597811.275
 20
-1156214.9
 10
-597811.35
 20
-1156219.2
 10
-597813.755
 20
-1156232.33
 10
-597816.16
 20
-1156245.46
 97
0
 75
0
 76
1
 98
0
  0
HATCH
  5
20124
100
AcDbEntity
  8
vodní toky
100
AcDbHatch
 10
0
 20
0
 30
0
210
0
220
0
230
1
  2
SOLID
 70
1
 71
0
 91
1
 92
2
 72
0
 73
1
 93
14
 10
-597693.2682
 20
-1156397.8981
 10
-597705.755
 20
-1156387.12
 10
-597724.28
 20
-1156371.13
 10
-597736.6
 20
-1156344.23
 10
-597750.93
 20
-1156343.2
 10
-597755.66
 20
-1156346.69
 10
-597742.2
 20
-1156385.53
 10
-597736.67
 20
-1156397.12
 10
-597731.14
 20
-1156408.71
 10
-597728.655
 20
-1156414.29
 10
-597726.17
 20
-1156419.87
 10
-597723.67
 20
-1156420.91
 10
-597707.07
 20
-1156413.7
 10
-597693.2682
 20
-1156397.8981
 97
0
 75
0
 76
1
 98
0
  0
HATCH
  5
20125
100
AcDbEntity
  8
vodní toky
100
AcDbHatch
 10
0
 20
0
 30
0
210
0
220
0
230
1
  2
SOLID
 70
1
 71
0
 91
1
 92
2
 72
0
 73
1
 93
13
 10
-597786.79
 20
-1156035.34
 10
-597764.13
 20
-1156049.64
 10
-597752.32
 20
-1156040.06
 10
-597742.9
 20
-1156021.995
 10
-597738.92
 20
-1156013.84
 10
-597731.625
 20
-1156008.185
 10
-597724.33
 20
-1156002.53
 10
-597705.53
 20
-1155977.26
 10
-597722.42
 20
-1155966.19
 10
-597727.04
 20
-1155975.08
 10
-597755.36
 20
-1155998.06
 10
-597779.34
 20
-1156026.43
 10
-597786.79
 20
-1156035.34
 97
0
 75
0
 76
1
 98
0
  0
HATCH
  5
20126
100
AcDbEntity
  8
vodní toky
100
AcDbHatch
 10
0
 20
0
 30
0
210
0
220
0
230
1
  2
SOLID
 70
1
 71
0
 91
1
 92
2
 72
0
 73
1
 93
13
 10
-602499.35
 20
-1163723.58
 10
-602500.93
 20
-1163725.71
 10
-602498.67
 20
-1163726.21
 10
-602495.7265
 20
-1163726.3843
 10
-602491.125
 20
-1163726.435
 10
-602480.8123
 20
-1163726.7394
 10
-602471.7572
 20
-1163726.917
 10
-602462.94
 20
-1163726.11
 10
-602465.14
 20
-1163724.34
 10
-602478.7038
 20
-1163724.3425
 10
-602482.835
 20
-1163724.26
 10
-602497.9
 20
-1163724.01
 10
-602499.35
 20
-1163723.58
 97
0
 75
0
 76
1
 98
0
  0
HATCH
  5
20127
100
AcDbEntity
  8
vodní toky
100
AcDbHatch
 10
0
 20
0
 30
0
210
0
220
0
230
1
  2
SOLID
 70
1
 71
0
 91
1
 92
2
 72
0
 73
1
 93
31
 10
-602349.49
 20
-1163717.42
 10
-602347.37
 20
-1163718.68
 10
-602324.05
 20
-1163716.795
 10
-602300.73
 20
-1163714.91
 10
-602268.705
 20
-1163712.53
 10
-602220.79
 20
-1163708.985
 10
-602188.41
 20
-1163706.82
 10
-602180.895
 20
-1163706.53
 10
-602173.38
 20
-1163706.24
 10
-602166.89
 20
-1163706.315
 10
-602160.4
 20
-1163706.39
 10
-602147.31
 20
-1163707.53
 10
-602140.105
 20
-1163709
 10
-602132.9
 20
-1163710.47
 10
-602122.62
 20
-1163713.13
 10
-602112.34
 20
-1163715.79
 10
-602108.79
 20
-1163714.95
 10
-602121.13
 20
-1163711.91
 10
-602133.47
 20
-1163708.87
 10
-602148.6
 20
-1163705.99
 10
-602155.145
 20
-1163705.475
 10
-602161.69
 20
-1163704.96
 10
-602168.445
 20
-1163704.935
 10
-602175.2
 20
-1163704.91
 10
-602192.02
 20
-1163705.79
 10
-602221.06
 20
-1163707.83
 10
-602237.38
 20
-1163708.98
 10
-602269.44
 20
-1163711.285
 10
-602301.5
 20
-1163713.59
 10
-602325.495
 20
-1163715.505
 10
-602349.49
 20
-1163717.42
 97
0
 75
0
 76
1
 98
0
  0
HATCH
  5
20128
100
AcDbEntity
  8
vodní toky
100
AcDbHatch
 10
0
 20
0
 30
0
210
0
220
0
230
1
  2
SOLID
 70
1
 71
0
 91
1
 92
2
 72
0
 73
1
 93
15
 10
-597370.84
 20
-1161058.1901
 10
-597370.8403
 20
-1161058.1899
 10
-597375.1
 20
-1161063.69
 10
-597387.7573
 20
-1161077.3215
 10
-597391.4573
 20
-1161081.4215
 10
-597419.2273
 20
-1161102.0715
 10
-597429.0573
 20
-1161109.5315
 10
-597433.2473
 20
-1161112.8415
 10
-597434.23
 20
-1161120.44
 10
-597418.74
 20
-1161109.58
 10
-597408.64
 20
-1161102.61
 10
-597400.99
 20
-1161097.55
 10
-597387.0573
 20
-1161088.3815
 10
-597365.43
 20
-1161062.29
 10
-597370.84
 20
-1161058.1901
 97
0
 75
0
 76
1
 98
0
  0
HATCH
  5
20129
100
AcDbEntity
  8
vodní toky
100
AcDbHatch
 10
0
 20
0
 30
0
210
0
220
0
230
1
  2
SOLID
 70
1
 71
0
 91
1
 92
2
 72
0
 73
1
 93
21
 10
-602075.81
 20
-1163723.71
 10
-602060.21
 20
-1163727.815
 10
-602044.61
 20
-1163731.92
 10
-602014.195
 20
-1163740.145
 10
-601983.78
 20
-1163748.37
 10
-601948.44
 20
-1163758.125
 10
-601913.1
 20
-1163767.88
 10
-601894.32
 20
-1163776.7
 10
-601889.51
 20
-1163781.02
 10
-601880.9
 20
-1163788.76
 10
-601879.36
 20
-1163784.73
 10
-601886.12
 20
-1163778.63
 10
-601892.88
 20
-1163772.53
 10
-601900.63
 20
-1163769.155
 10
-601908.38
 20
-1163765.78
 10
-601917.26
 20
-1163763.35
 10
-601980.28
 20
-1163746.68
 10
-602045.14
 20
-1163729.52
 10
-602060.025
 20
-1163725.94
 10
-602074.91
 20
-1163722.36
 10
-602075.81
 20
-1163723.71
 97
0
 75
0
 76
1
 98
0
  0
HATCH
  5
2012A
100
AcDbEntity
  8
vodní toky
100
AcDbHatch
 10
0
 20
0
 30
0
210
0
220
0
230
1
  2
SOLID
 70
1
 71
0
 91
1
 92
2
 72
0
 73
1
 93
10
 10
-601867.07
 20
-1163800.76
 10
-601844.39
 20
-1163814.285
 10
-601821.55
 20
-1163827.22
 10
-601778.96
 20
-1163851.44
 10
-601743.02
 20
-1163871.98
 10
-601742.38
 20
-1163870.31
 10
-601771.36
 20
-1163852.72
 10
-601818.775
 20
-1163825.13
 10
-601866.19
 20
-1163797.54
 10
-601867.07
 20
-1163800.76
 97
0
 75
0
 76
1
 98
0
  0
HATCH
  5
2012B
100
AcDbEntity
  8
vodní toky
100
AcDbHatch
 10
0
 20
0
 30
0
210
0
220
0
230
1
  2
SOLID
 70
1
 71
0
 91
1
 92
2
 72
0
 73
1
 93
12
 10
-601740.27
 20
-1163871.51
 10
-601740.9
 20
-1163873.21
 10
-601733.9
 20
-1163877.12
 10
-601719.48
 20
-1163885.33
 10
-601705.06
 20
-1163893.54
 10
-601689.59
 20
-1163902.22
 10
-601672.29
 20
-1163912
 10
-601671.87
 20
-1163910.05
 10
-601685.755
 20
-1163902.205
 10
-601698.67
 20
-1163894.98
 10
-601716.13
 20
-1163885.135
 10
-601740.27
 20
-1163871.51
 97
0
 75
0
 76
1
 98
0
  0
HATCH
  5
2012C
100
AcDbEntity
  8
vodní toky
100
AcDbHatch
 10
0
 20
0
 30
0
210
0
220
0
230
1
  2
SOLID
 70
1
 71
0
 91
1
 92
2
 72
0
 73
1
 93
47
 10
-601661.58
 20
-1163918.46
 10
-601658.33
 20
-1163920.41
 10
-601643.34
 20
-1163929.775
 10
-601628.35
 20
-1163939.14
 10
-601592.885
 20
-1163961.395
 10
-601551
 20
-1163987.265
 10
-601533.905
 20
-1163997.45
 10
-601519.78
 20
-1164005.32
 10
-601513.88
 20
-1164008.17
 10
-601481.57
 20
-1164023.7
 10
-601458.24
 20
-1164032.43
 10
-601448.9
 20
-1164035.81
 10
-601432.8402
 20
-1164041.1821
 10
-601421.88
 20
-1164045.58
 10
-601405.22
 20
-1164051.06
 10
-601388.56
 20
-1164056.54
 10
-601371.32
 20
-1164060.14
 10
-601352.45
 20
-1164063.64
 10
-601320.47
 20
-1164069.38
 10
-601272.05
 20
-1164073.845
 10
-601226.13
 20
-1164078.35
 10
-601226.02
 20
-1164076.73
 10
-601245.47
 20
-1164074.885
 10
-601284.27
 20
-1164071.185
 10
-601303.62
 20
-1164069.33
 10
-601321.71
 20
-1164067.61
 10
-601334.92
 20
-1164064.79
 10
-601352.95
 20
-1164061.635
 10
-601370.98
 20
-1164058.48
 10
-601377.255
 20
-1164056.37
 10
-601389.03
 20
-1164054.57
 10
-601407.205
 20
-1164048.85
 10
-601425.38
 20
-1164043.13
 10
-601443.37
 20
-1164036.45
 10
-601462.155
 20
-1164029.47
 10
-601480.94
 20
-1164022.49
 10
-601503.145
 20
-1164011.835
 10
-601518.32
 20
-1164004.55
 10
-601532.035
 20
-1163996.93
 10
-601550.71
 20
-1163985.45
 10
-601573.22
 20
-1163972.18
 10
-601590.295
 20
-1163961.31
 10
-601607.37
 20
-1163950.44
 10
-601622.73
 20
-1163940.765
 10
-601638.09
 20
-1163931.09
 10
-601660.99
 20
-1163916.83
 10
-601661.58
 20
-1163918.46
 97
0
 75
0
 76
1
 98
0
  0
HATCH
  5
2012D
100
AcDbEntity
  8
vodní toky
100
AcDbHatch
 10
0
 20
0
 30
0
210
0
220
0
230
1
  2
SOLID
 70
1
 71
0
 91
1
 92
2
 72
0
 73
1
 93
13
 10
-601226.02
 20
-1164076.73
 10
-601226.13
 20
-1164078.35
 10
-601198.44
 20
-1164080.62
 10
-601152.22
 20
-1164084.705
 10
-601120.57
 20
-1164087.695
 10
-601100.79
 20
-1164089.6
 10
-601100.66
 20
-1164088.27
 10
-601133.25
 20
-1164085.165
 10
-601151.4
 20
-1164083.57
 10
-601180.47
 20
-1164080.935
 10
-601209.54
 20
-1164078.3
 10
-601216.59
 20
-1164077.63
 10
-601226.02
 20
-1164076.73
 97
0
 75
0
 76
1
 98
0
  0
HATCH
  5
2012E
100
AcDbEntity
  8
vodní toky
100
AcDbHatch
 10
0
 20
0
 30
0
210
0
220
0
230
1
  2
SOLID
 70
1
 71
0
 91
1
 92
2
 72
0
 73
1
 93
19
 10
-602502.76
 20
-1163728.18
 10
-602510.97
 20
-1163735.68
 10
-602485.945
 20
-1163757.245
 10
-602443.68
 20
-1163791.59
 10
-602407.07
 20
-1163806.5
 10
-602373.53
 20
-1163812.5
 10
-602363.955
 20
-1163811.765
 10
-602354.38
 20
-1163811.03
 10
-602340.47
 20
-1163811.58
 10
-602302.42
 20
-1163801.33
 10
-602311.91
 20
-1163795.04
 10
-602345.43
 20
-1163800.86
 10
-602360.38
 20
-1163797.66
 10
-602372.37
 20
-1163798.78
 10
-602392.11
 20
-1163796.288
 10
-602417.78
 20
-1163789.94
 10
-602446.55
 20
-1163773.57
 10
-602462.46
 20
-1163761.44
 10
-602502.76
 20
-1163728.18
 97
0
 75
0
 76
1
 98
0
  0
HATCH
  5
2012F
100
AcDbEntity
  8
vodní toky
100
AcDbHatch
 10
0
 20
0
 30
0
210
0
220
0
230
1
  2
SOLID
 70
1
 71
0
 91
1
 92
2
 72
0
 73
1
 93
18
 10
-602273.37
 20
-1163786.33
 10
-602264.04
 20
-1163792.56
 10
-602237.96
 20
-1163785.61
 10
-602194.75
 20
-1163773.47
 10
-602175.42
 20
-1163762.29
 10
-602138.59
 20
-1163730.9
 10
-602123.49
 20
-1163726.995
 10
-602108.39
 20
-1163723.09
 10
-602094.23
 20
-1163724.02
 10
-602085.51
 20
-1163717.96
 10
-602108.79
 20
-1163714.95
 10
-602140.26
 20
-1163722.48
 10
-602156.25
 20
-1163732.84
 10
-602171.915
 20
-1163746.08
 10
-602187.58
 20
-1163759.32
 10
-602214.15
 20
-1163772.42
 10
-602238.81
 20
-1163777.88
 10
-602273.37
 20
-1163786.33
 97
0
 75
0
 76
1
 98
0
  0
HATCH
  5
20130
100
AcDbEntity
  8
vodní toky
100
AcDbHatch
 10
0
 20
0
 30
0
210
0
220
0
230
1
  2
SOLID
 70
1
 71
0
 91
1
 92
2
 72
0
 73
1
 93
35
 10
-599776.57
 20
-1161707.29
 10
-599770.57
 20
-1161735.625
 10
-599751.33
 20
-1161728.08
 10
-599745.19
 20
-1161722.09
 10
-599740.87
 20
-1161719.95
 10
-599732.41
 20
-1161721.28
 10
-599695
 20
-1161704.57
 10
-599649.165
 20
-1161685.885
 10
-599591.135
 20
-1161663.17
 10
-599570.865
 20
-1161655.43
 10
-599515.63
 20
-1161640.62
 10
-599440.97
 20
-1161627.12
 10
-599390.17
 20
-1161621.16
 10
-599328.93
 20
-1161615.8
 10
-599286.64
 20
-1161615.34
 10
-599259.875
 20
-1161616.775
 10
-599214.68
 20
-1161618.64
 10
-599216.16
 20
-1161603.18
 10
-599217.64
 20
-1161587.72
 10
-599236.51
 20
-1161587.77
 10
-599262.67
 20
-1161588.14
 10
-599288.83
 20
-1161588.51
 10
-599340.39
 20
-1161590.61
 10
-599395.93
 20
-1161596.11
 10
-599454.1
 20
-1161603.67
 10
-599529.53
 20
-1161617.88
 10
-599580.08
 20
-1161631.62
 10
-599600.75
 20
-1161638.14
 10
-599614.69
 20
-1161643.85
 10
-599672.68
 20
-1161668.01
 10
-599731.26
 20
-1161691.35
 10
-599740.62
 20
-1161695.645
 10
-599763.04
 20
-1161704.08
 10
-599771.1
 20
-1161704.87
 10
-599776.57
 20
-1161707.29
 97
0
 75
0
 76
1
 98
0
  0
HATCH
  5
20131
100
AcDbEntity
  8
vodní toky
100
AcDbHatch
 10
0
 20
0
 30
0
210
0
220
0
230
1
  2
SOLID
 70
1
 71
0
 91
1
 92
2
 72
0
 73
1
 93
28
 10
-599196.09
 20
-1161619.51
 10
-599183.16
 20
-1161621.245
 10
-599172.42
 20
-1161622.935
 10
-599156.945
 20
-1161625.725
 10
-599130.78
 20
-1161634.21
 10
-599073.855
 20
-1161658.43
 10
-598979.39
 20
-1161703.37
 10
-598942.42
 20
-1161725.76
 10
-598911.715
 20
-1161746.68
 10
-598865.25
 20
-1161783.8
 10
-598773.345
 20
-1161882.83
 10
-598735.14
 20
-1161924.17
 10
-598720.06
 20
-1161904.3
 10
-598749.96
 20
-1161869.54
 10
-598790.885
 20
-1161825.1
 10
-598851.665
 20
-1161761.81
 10
-598913.99
 20
-1161713.97
 10
-598942.45
 20
-1161695.38
 10
-598956.01
 20
-1161687.76
 10
-598998.64
 20
-1161664.3
 10
-599068.84
 20
-1161631.3
 10
-599127.915
 20
-1161604.335
 10
-599138.26
 20
-1161600.48
 10
-599146.185
 20
-1161597.835
 10
-599153.63
 20
-1161595.54
 10
-599182.45
 20
-1161590.11
 10
-599199.76
 20
-1161588.46
 10
-599196.09
 20
-1161619.51
 97
0
 75
0
 76
1
 98
0
  0
HATCH
  5
20132
100
AcDbEntity
  8
vodní toky
100
AcDbHatch
 10
0
 20
0
 30
0
210
0
220
0
230
1
  2
SOLID
 70
1
 71
0
 91
1
 92
2
 72
0
 73
1
 93
20
 10
-598719.75
 20
-1161943.9
 10
-598705.04
 20
-1161955.815
 10
-598686.11
 20
-1161974.065
 10
-598668.82
 20
-1161988.66
 10
-598649.16
 20
-1162003.37
 10
-598632.33
 20
-1162014.28
 10
-598608.9
 20
-1162027.825
 10
-598579.83
 20
-1162041.98
 10
-598575.315
 20
-1162028.725
 10
-598570.8
 20
-1162015.47
 10
-598588.97
 20
-1162007.645
 10
-598597.99
 20
-1162003.47
 10
-598615.185
 20
-1161993.4
 10
-598632.38
 20
-1161983.33
 10
-598646.41
 20
-1161972.31
 10
-598660.44
 20
-1161961.29
 10
-598671.38
 20
-1161951.505
 10
-598682.32
 20
-1161941.72
 10
-598702.48
 20
-1161922.11
 10
-598719.75
 20
-1161943.9
 97
0
 75
0
 76
1
 98
0
  0
HATCH
  5
20133
100
AcDbEntity
  8
vodní toky
100
AcDbHatch
 10
0
 20
0
 30
0
210
0
220
0
230
1
  2
SOLID
 70
1
 71
0
 91
1
 92
2
 72
0
 73
1
 93
19
 10
-598553.49
 20
-1162052.03
 10
-598546.82
 20
-1162054.36
 10
-598529.23
 20
-1162059.79
 10
-598509.25
 20
-1162064.78
 10
-598493.165
 20
-1162067.43
 10
-598448.95
 20
-1162074.81
 10
-598421.03
 20
-1162082.21
 10
-598387.73
 20
-1162089.04
 10
-598367.82
 20
-1162091.575
 10
-598362.27
 20
-1162053.87
 10
-598369.89
 20
-1162052.52
 10
-598402.51
 20
-1162047.38
 10
-598435.13
 20
-1162042.24
 10
-598476.5
 20
-1162037.12
 10
-598498.22
 20
-1162034.6
 10
-598511.85
 20
-1162032.24
 10
-598543.96
 20
-1162024.47
 10
-598548.4896
 20
-1162038.3297
 10
-598553.49
 20
-1162052.03
 97
0
 75
0
 76
1
 98
0
  0
HATCH
  5
20134
100
AcDbEntity
  8
vodní toky
100
AcDbHatch
 10
0
 20
0
 30
0
210
0
220
0
230
1
  2
SOLID
 70
1
 71
0
 91
1
 92
2
 72
0
 73
1
 93
30
 10
-598348.24
 20
-1162093.91
 10
-598335.4
 20
-1162097.56
 10
-598295.5
 20
-1162112.94
 10
-598252.35
 20
-1162139.06
 10
-598217.48
 20
-1162165.03
 10
-598191.11
 20
-1162194.43
 10
-598149.655
 20
-1162272.81
 10
-598093.99
 20
-1162377.095
 10
-598061.13
 20
-1162435.92
 10
-598038.94
 20
-1162469.14
 10
-598008.24
 20
-1162509.89
 10
-597976.68
 20
-1162551.48
 10
-597965.3
 20
-1162531.92
 10
-597972.27
 20
-1162523.37
 10
-597992.25
 20
-1162494.465
 10
-598012.23
 20
-1162465.56
 10
-598029.46
 20
-1162437.845
 10
-598046.69
 20
-1162410.13
 10
-598069.44
 20
-1162372.18
 10
-598104.04
 20
-1162312.95
 10
-598136.0736
 20
-1162255.2074
 10
-598174.11
 20
-1162184.83
 10
-598186.17
 20
-1162165.03
 10
-598213.86
 20
-1162130.94
 10
-598238.325
 20
-1162112.99
 10
-598262.79
 20
-1162095.04
 10
-598286.88
 20
-1162082.73
 10
-598314.71
 20
-1162069.25
 10
-598343.29
 20
-1162061.66
 10
-598348.24
 20
-1162093.91
 97
0
 75
0
 76
1
 98
0
  0
HATCH
  5
20135
100
AcDbEntity
  8
vodní toky
100
AcDbHatch
 10
0
 20
0
 30
0
210
0
220
0
230
1
  2
SOLID
 70
1
 71
0
 91
1
 92
2
 72
0
 73
1
 93
7
 10
-597969.83
 20
-1162560.44
 10
-597956.12
 20
-1162578.005
 10
-597942.41
 20
-1162595.57
 10
-597931.46
 20
-1162576.8
 10
-597945.64
 20
-1162558.52
 10
-597958.9
 20
-1162540.2
 10
-597969.83
 20
-1162560.44
 97
0
 75
0
 76
1
 98
0
  0
HATCH
  5
20136
100
AcDbEntity
  8
vodní toky
100
AcDbHatch
 10
0
 20
0
 30
0
210
0
220
0
230
1
  2
SOLID
 70
1
 71
0
 91
1
 92
2
 72
0
 73
1
 93
8
 10
-597929.01
 20
-1162612.98
 10
-597923.2
 20
-1162620.74
 10
-597895.115
 20
-1162651.965
 10
-597867.03
 20
-1162683.19
 10
-597848.21
 20
-1162665.42
 10
-597882.73
 20
-1162629.285
 10
-597917.25
 20
-1162593.15
 10
-597929.01
 20
-1162612.98
 97
0
 75
0
 76
1
 98
0
  0
HATCH
  5
20137
100
AcDbEntity
  8
vodní toky
100
AcDbHatch
 10
0
 20
0
 30
0
210
0
220
0
230
1
  2
SOLID
 70
1
 71
0
 91
1
 92
2
 72
0
 73
1
 93
9
 10
-597264.3604
 20
-1160975.9
 10
-597277.8573
 20
-1160996.5215
 10
-597301.5473
 20
-1161025.8215
 10
-597295.9
 20
-1161030.54
 10
-597290.1973
 20
-1161025.9915
 10
-597278.2973
 20
-1161010.2015
 10
-597268.0673
 20
-1160997.2915
 10
-597257.7792
 20
-1160979.2296
 10
-597264.3604
 20
-1160975.9
 97
0
 75
0
 76
1
 98
0
  0
HATCH
  5
20138
100
AcDbEntity
  8
vodní toky
100
AcDbHatch
 10
0
 20
0
 30
0
210
0
220
0
230
1
  2
SOLID
 70
1
 71
0
 91
1
 92
2
 72
0
 73
1
 93
16
 10
-597305.74
 20
-1161028.04
 10
-597307.76
 20
-1161028.93
 10
-597315.8373
 20
-1161033.2615
 10
-597323.2673
 20
-1161035.1115
 10
-597334.6473
 20
-1161036.5615
 10
-597348.1573
 20
-1161040.2315
 10
-597364.5273
 20
-1161049.7915
 10
-597368.2973
 20
-1161054.9615
 10
-597362.65
 20
-1161059.55
 10
-597354.37
 20
-1161051.48
 10
-597344.87
 20
-1161045.59
 10
-597317.47
 20
-1161039.95
 10
-597309.91
 20
-1161037.64
 10
-597305.67
 20
-1161035.01
 10
-597300.04
 20
-1161032.82
 10
-597305.74
 20
-1161028.04
 97
0
 75
0
 76
1
 98
0
  0
HATCH
  5
20139
100
AcDbEntity
  8
vodní toky
100
AcDbHatch
 10
0
 20
0
 30
0
210
0
220
0
230
1
  2
SOLID
 70
1
 71
0
 91
1
 92
2
 72
0
 73
1
 93
40
 10
-597471.1
 20
-1161191.45
 10
-597473.2
 20
-1161201.51
 10
-597474
 20
-1161209.05
 10
-597474
 20
-1161214.33
 10
-597473.44
 20
-1161219.84
 10
-597472.19
 20
-1161226.31
 10
-597471.18
 20
-1161230.2
 10
-597469.88
 20
-1161235.26
 10
-597465.66
 20
-1161251.35
 10
-597459.26
 20
-1161275.77
 10
-597456.17
 20
-1161287.56
 10
-597454.12
 20
-1161295.37
 10
-597450.79
 20
-1161310.6
 10
-597450.83
 20
-1161315.91
 10
-597451.56
 20
-1161321.42
 10
-597452.52
 20
-1161325.72
 10
-597456.34
 20
-1161338.93
 10
-597459.89
 20
-1161350.93
 10
-597463.78
 20
-1161363.14
 10
-597465.22
 20
-1161367.76
 10
-597457.26
 20
-1161371.54
 10
-597454.8178
 20
-1161364.4288
 10
-597452.44
 20
-1161356.49
 10
-597448.12
 20
-1161342.85
 10
-597443.67
 20
-1161326.41
 10
-597442.75
 20
-1161321.39
 10
-597442.4
 20
-1161317
 10
-597442.39
 20
-1161313.63
 10
-597442.92
 20
-1161305.69
 10
-597448.26
 20
-1161284.13
 10
-597450.4591
 20
-1161275.804
 10
-597450.88
 20
-1161274.21
 10
-597454.2221
 20
-1161261.5535
 10
-597456.49
 20
-1161252.97
 10
-597462.81
 20
-1161229.05
 10
-597465.37
 20
-1161219.02
 10
-597466.19
 20
-1161209.14
 10
-597465.46
 20
-1161204.21
 10
-597462.86
 20
-1161193.21
 10
-597471.1
 20
-1161191.45
 97
0
 75
0
 76
1
 98
0
  0
HATCH
  5
2013A
100
AcDbEntity
  8
vodní toky
100
AcDbHatch
 10
0
 20
0
 30
0
210
0
220
0
230
1
  2
SOLID
 70
1
 71
0
 91
1
 92
2
 72
0
 73
1
 93
30
 10
-597470.13
 20
-1161379.19
 10
-597472.3238
 20
-1161383.6735
 10
-597474.08
 20
-1161388.35
 10
-597475.82
 20
-1161393.29
 10
-597477.41
 20
-1161399.38
 10
-597478.04
 20
-1161404.95
 10
-597478.31
 20
-1161410.68
 10
-597477.72
 20
-1161415.45
 10
-597476.77
 20
-1161419.82
 10
-597475.34
 20
-1161424.77
 10
-597472.89
 20
-1161430.53
 10
-597469.96
 20
-1161435.26
 10
-597466.82
 20
-1161439.28
 10
-597463.09
 20
-1161442.42
 10
-597444.95
 20
-1161463.97
 10
-597439.01
 20
-1161457.62
 10
-597459.47
 20
-1161438.97
 10
-597464.87
 20
-1161433.08
 10
-597465.69
 20
-1161431.79
 10
-597467.68
 20
-1161428.67
 10
-597469.95
 20
-1161423.56
 10
-597471.83
 20
-1161417.27
 10
-597473
 20
-1161409.57
 10
-597472.48
 20
-1161404.76
 10
-597471.36
 20
-1161398.89
 10
-597470.87
 20
-1161396.31
 10
-597468.99
 20
-1161390.89
 10
-597467.11
 20
-1161386.19
 10
-597465.23
 20
-1161381.49
 10
-597470.13
 20
-1161379.19
 97
0
 75
0
 76
1
 98
0
  0
HATCH
  5
2013B
100
AcDbEntity
  8
vodní toky
100
AcDbHatch
 10
0
 20
0
 30
0
210
0
220
0
230
1
  2
SOLID
 70
1
 71
0
 91
1
 92
2
 72
0
 73
1
 93
47
 10
-597436.29
 20
-1161460.36
 10
-597441.66
 20
-1161467.08
 10
-597435.85
 20
-1161472.79
 10
-597429.41
 20
-1161480.47
 10
-597421.02
 20
-1161492.43
 10
-597417.95
 20
-1161502.06
 10
-597417.29
 20
-1161507.84
 10
-597417.66
 20
-1161515.55
 10
-597419.48
 20
-1161532.11
 10
-597420.54
 20
-1161539.03
 10
-597420.42
 20
-1161540.1
 10
-597420.03
 20
-1161543.62
 10
-597420.48
 20
-1161550.34
 10
-597421.14
 20
-1161553.97
 10
-597421.22
 20
-1161564.57
 10
-597423.27
 20
-1161572.72
 10
-597432.04
 20
-1161597.42
 10
-597443.54
 20
-1161625.21
 10
-597443.61
 20
-1161637.37
 10
-597442.54
 20
-1161643.54
 10
-597427.04
 20
-1161653.7
 10
-597435.19
 20
-1161638.17
 10
-597435.16
 20
-1161635.43
 10
-597435.1
 20
-1161627.66
 10
-597431.2
 20
-1161616.86
 10
-597424.57
 20
-1161598.56
 10
-597415.16
 20
-1161571.04
 10
-597414.2
 20
-1161565.45
 10
-597413.41
 20
-1161558.71
 10
-597413.27
 20
-1161555.5
 10
-597413.09
 20
-1161550.8
 10
-597411.57
 20
-1161547.8
 10
-597411.43
 20
-1161545.25
 10
-597410.29
 20
-1161545.36
 10
-597410.25
 20
-1161545.04
 10
-597411.4
 20
-1161544.92
 10
-597411.14
 20
-1161537.97
 10
-597410.59
 20
-1161537.52
 10
-597408.28
 20
-1161525.5
 10
-597406.18
 20
-1161515.29
 10
-597405.93
 20
-1161506.88
 10
-597405.83
 20
-1161503.26
 10
-597407.94
 20
-1161496.05
 10
-597416
 20
-1161482.92
 10
-597420.76
 20
-1161476.42
 10
-597428.22
 20
-1161468.49
 10
-597436.29
 20
-1161460.36
 97
0
 75
0
 76
1
 98
0
  0
HATCH
  5
2013C
100
AcDbEntity
  8
vodní toky
100
AcDbHatch
 10
0
 20
0
 30
0
210
0
220
0
230
1
  2
SOLID
 70
1
 71
0
 91
1
 92
2
 72
0
 73
1
 93
11
 10
-597442.54
 20
-1161643.54
 10
-597439.28
 20
-1161657.25
 10
-597438.88
 20
-1161657.55
 10
-597423.56
 20
-1161669.67
 10
-597407.01
 20
-1161684.12
 10
-597406.25
 20
-1161683.8
 10
-597401.85
 20
-1161673.91
 10
-597408.99
 20
-1161668.13
 10
-597411.73
 20
-1161665.9
 10
-597427.04
 20
-1161653.7
 10
-597442.54
 20
-1161643.54
 97
0
 75
0
 76
1
 98
0
  0
HATCH
  5
2013D
100
AcDbEntity
  8
vodní toky
100
AcDbHatch
 10
0
 20
0
 30
0
210
0
220
0
230
1
  2
SOLID
 70
1
 71
0
 91
1
 92
2
 72
0
 73
1
 93
56
 10
-597366.43
 20
-1161714.25
 10
-597362.1
 20
-1161716.88
 10
-597350.58
 20
-1161723.89
 10
-597351.02
 20
-1161724.54
 10
-597324.11
 20
-1161739.72
 10
-597309.2
 20
-1161745.52
 10
-597290.6
 20
-1161754.88
 10
-597280.21
 20
-1161776.9
 10
-597270.24
 20
-1161804
 10
-597269.95
 20
-1161809.65
 10
-597264.23
 20
-1161828.49
 10
-597258.98
 20
-1161839.02
 10
-597256.36
 20
-1161842.6
 10
-597250.38
 20
-1161850.78
 10
-597248.18
 20
-1161853.78
 10
-597244.02
 20
-1161859.65
 10
-597238.96
 20
-1161862.9
 10
-597237.55
 20
-1161861.18
 10
-597232.25
 20
-1161864.98
 10
-597232.6
 20
-1161865.49
 10
-597203.38
 20
-1161889.37
 10
-597197.46
 20
-1161900.1
 10
-597196.31
 20
-1161902.94
 10
-597177.73
 20
-1161948.89
 10
-597177.24
 20
-1161950.22
 10
-597171.17
 20
-1161944.6
 10
-597182.69
 20
-1161914.14
 10
-597186.92
 20
-1161902.95
 10
-597187.81
 20
-1161900.61
 10
-597189.68
 20
-1161895.74
 10
-597194
 20
-1161886.8
 10
-597232.09
 20
-1161855.06
 10
-597232.98
 20
-1161856.21
 10
-597238.17
 20
-1161849.59
 10
-597245.01
 20
-1161838.14
 10
-597247.21
 20
-1161835.64
 10
-597250.45
 20
-1161827.59
 10
-597261.06
 20
-1161793.76
 10
-597262.39
 20
-1161794.09
 10
-597263.67
 20
-1161793.38
 10
-597264.13
 20
-1161791.75
 10
-597268.95
 20
-1161776.57
 10
-597273.59
 20
-1161763.87
 10
-597276.28
 20
-1161758.2
 10
-597279.01
 20
-1161754.42
 10
-597283.85
 20
-1161748.36
 10
-597285.3
 20
-1161745.98
 10
-597285.97
 20
-1161743.74
 10
-597284.64
 20
-1161743.32
 10
-597288.26
 20
-1161741.41
 10
-597294.64
 20
-1161738.04
 10
-597308.48
 20
-1161731.7
 10
-597319.4
 20
-1161727.08
 10
-597335.54
 20
-1161720.24
 10
-597360.57
 20
-1161705.88
 10
-597366.43
 20
-1161714.25
 97
0
 75
0
 76
1
 98
0
  0
HATCH
  5
2013E
100
AcDbEntity
  8
vodní toky
100
AcDbHatch
 10
0
 20
0
 30
0
210
0
220
0
230
1
  2
SOLID
 70
1
 71
0
 91
1
 92
2
 72
0
 73
1
 93
77
 10
-597175.61
 20
-1161956.32
 10
-597171.25
 20
-1161971.62
 10
-597170.09
 20
-1161975.87
 10
-597169.23
 20
-1161978.83
 10
-597166.62
 20
-1161987.65
 10
-597163.881
 20
-1161996.9271
 10
-597161.3765
 20
-1162005.2719
 10
-597153.73
 20
-1162030.75
 10
-597150.38
 20
-1162042.54
 10
-597149.93
 20
-1162044.83
 10
-597149.69
 20
-1162047.15
 10
-597149.89
 20
-1162052.12
 10
-597150.18
 20
-1162054.3
 10
-597150.6
 20
-1162056.46
 10
-597151.16
 20
-1162058.54
 10
-597151.86
 20
-1162060.57
 10
-597154.47
 20
-1162065.16
 10
-597156.05
 20
-1162066.62
 10
-597157.2
 20
-1162067.26
 10
-597162.22
 20
-1162073.48
 10
-597162.7
 20
-1162075.38
 10
-597183.27
 20
-1162101.27
 10
-597183.54
 20
-1162102.67
 10
-597191.68
 20
-1162111.83
 10
-597192.64
 20
-1162112.1
 10
-597204.03
 20
-1162126.53
 10
-597209.13
 20
-1162132.99
 10
-597214.57
 20
-1162139.76
 10
-597217.77
 20
-1162141.09
 10
-597226.63
 20
-1162144.78
 10
-597237.14
 20
-1162151.58
 10
-597247.23
 20
-1162160.54
 10
-597265.73
 20
-1162186.34
 10
-597279.62
 20
-1162240.54
 10
-597275.27
 20
-1162240.6
 10
-597277.1
 20
-1162270.09
 10
-597272.8
 20
-1162285.07
 10
-597269.01
 20
-1162286.58
 10
-597265.22
 20
-1162287.37
 10
-597241.18
 20
-1162287.05
 10
-597236.21
 20
-1162286.72
 10
-597230.92
 20
-1162287.35
 10
-597225.63
 20
-1162287.98
 10
-597205.47
 20
-1162294.78
 10
-597202.91
 20
-1162298.2
 10
-597196.92
 20
-1162312.74
 10
-597196.34
 20
-1162316.31
 10
-597191.36
 20
-1162314.29
 10
-597194.37
 20
-1162299.89
 10
-597201.16
 20
-1162285.89
 10
-597213.74
 20
-1162280
 10
-597229.23
 20
-1162274.79
 10
-597243.07
 20
-1162275.41
 10
-597262.93
 20
-1162277.6
 10
-597265.03
 20
-1162263.8
 10
-597262.71
 20
-1162241.17
 10
-597257.8
 20
-1162211.54
 10
-597250.22
 20
-1162188.09
 10
-597238.52
 20
-1162174.54
 10
-597218.76
 20
-1162156.07
 10
-597209.56
 20
-1162147
 10
-597204.98
 20
-1162141.56
 10
-597188.5
 20
-1162120.56
 10
-597187.97
 20
-1162119.49
 10
-597179.11
 20
-1162109.57
 10
-597158.58
 20
-1162083.6
 10
-597157.19
 20
-1162083.54
 10
-597152.29
 20
-1162077.36
 10
-597151.8
 20
-1162075.37
 10
-597141.96
 20
-1162057.39
 10
-597141.1
 20
-1162052.84
 10
-597141.56
 20
-1162043.71
 10
-597143.55
 20
-1162036.39
 10
-597156.65
 20
-1161991.99
 10
-597159.98
 20
-1161980.72
 10
-597168.99
 20
-1161951.45
 10
-597175.61
 20
-1161956.32
 97
0
 75
0
 76
1
 98
0
  0
HATCH
  5
2013F
100
AcDbEntity
  8
vodní toky
100
AcDbHatch
 10
0
 20
0
 30
0
210
0
220
0
230
1
  2
SOLID
 70
1
 71
0
 91
1
 92
2
 72
0
 73
1
 93
14
 10
-597242.4151
 20
-1160926.3674
 10
-597242.46
 20
-1160926.68
 10
-597244.7978
 20
-1160941.6771
 10
-597248.8873
 20
-1160948.5515
 10
-597262.6637
 20
-1160973.6909
 10
-597256.29
 20
-1160976.55
 10
-597251.02
 20
-1160967.36
 10
-597242.5
 20
-1160952.15
 10
-597238.8773
 20
-1160944.9815
 10
-597235.6682
 20
-1160929.045
 10
-597234.8124
 20
-1160924.7162
 10
-597233.6128
 20
-1160918.8342
 10
-597233.92
 20
-1160919.06
 10
-597242.4151
 20
-1160926.3674
 97
0
 75
0
 76
1
 98
0
  0
HATCH
  5
20140
100
AcDbEntity
  8
vodní toky
100
AcDbHatch
 10
0
 20
0
 30
0
210
0
220
0
230
1
  2
SOLID
 70
1
 71
0
 91
1
 92
2
 72
0
 73
1
 93
10
 10
-593629.9
 20
-1168755.63
 10
-593581.66
 20
-1168666.73
 10
-593513.37
 20
-1168493.22
 10
-593451.5
 20
-1168334.88
 10
-593454.05
 20
-1168332.08
 10
-593508.22
 20
-1168470.71
 10
-593547.74
 20
-1168571.85
 10
-593583.63
 20
-1168663.1
 10
-593631.03
 20
-1168754.155
 10
-593629.9
 20
-1168755.63
 97
0
 75
0
 76
1
 98
0
  0
HATCH
  5
20141
100
AcDbEntity
  8
vodní toky
100
AcDbHatch
 10
0
 20
0
 30
0
210
0
220
0
230
1
  2
SOLID
 70
1
 71
0
 91
1
 92
2
 72
0
 73
1
 93
28
 10
-593486.11
 20
-1168266.61
 10
-593485.36
 20
-1168239.89
 10
-593480.3
 20
-1168213.29
 10
-593470.6
 20
-1168184.64
 10
-593456.38
 20
-1168146.07
 10
-593447.66
 20
-1168122.08
 10
-593446.22
 20
-1168117.46
 10
-593440.77
 20
-1168103.8
 10
-593432.92
 20
-1168090.9
 10
-593425.07
 20
-1168078
 10
-593392.12
 20
-1168050.42
 10
-593349.54
 20
-1168014.58
 10
-593297.04
 20
-1167969.42
 10
-593298.56
 20
-1167967.38
 10
-593334.83
 20
-1167997.4
 10
-593411.44
 20
-1168061.325
 10
-593428.24
 20
-1168075.37
 10
-593436.74
 20
-1168088.435
 10
-593445.24
 20
-1168101.5
 10
-593450.34
 20
-1168115.95
 10
-593452.87
 20
-1168119.43
 10
-593464.75
 20
-1168156.31
 10
-593475.33
 20
-1168187.06
 10
-593483.86
 20
-1168212.03
 10
-593486.58
 20
-1168224.2
 10
-593489.3
 20
-1168236.37
 10
-593489.78
 20
-1168262.76
 10
-593486.11
 20
-1168266.61
 97
0
 75
0
 76
1
 98
0
  0
HATCH
  5
20142
100
AcDbEntity
  8
vodní toky
100
AcDbHatch
 10
0
 20
0
 30
0
210
0
220
0
230
1
  2
SOLID
 70
1
 71
0
 91
1
 92
2
 72
0
 73
1
 93
19
 10
-593294.38
 20
-1167967.14
 10
-593281.91
 20
-1167957.98
 10
-593271.26
 20
-1167947.965
 10
-593260.61
 20
-1167937.95
 10
-593252.01
 20
-1167923.78
 10
-593243.41
 20
-1167909.61
 10
-593239.425
 20
-1167901.715
 10
-593235.44
 20
-1167893.82
 10
-593228.34
 20
-1167881.8
 10
-593223.99
 20
-1167868.33
 10
-593226.32
 20
-1167867.5
 10
-593227.19
 20
-1167869.9
 10
-593233.52
 20
-1167878.56
 10
-593239.74
 20
-1167890.3
 10
-593248
 20
-1167906.59
 10
-593263.56
 20
-1167935.37
 10
-593282.92
 20
-1167953.89
 10
-593295.81
 20
-1167965.21
 10
-593294.38
 20
-1167967.14
 97
0
 75
0
 76
1
 98
0
  0
HATCH
  5
20143
100
AcDbEntity
  8
vodní toky
100
AcDbHatch
 10
0
 20
0
 30
0
210
0
220
0
230
1
  2
SOLID
 70
1
 71
0
 91
1
 92
2
 72
0
 73
1
 93
49
 10
-601017.46
 20
-1159805
 10
-601010.7542
 20
-1159807.7628
 10
-601007.84
 20
-1159792.52
 10
-601005.2
 20
-1159774.24
 10
-601003.399
 20
-1159749.708
 10
-601003.36
 20
-1159725.11
 10
-601004
 20
-1159693
 10
-601011.865
 20
-1159665.79
 10
-601021.66
 20
-1159654.02
 10
-601049.61
 20
-1159621.97
 10
-601072.82
 20
-1159602.17
 10
-601084.04
 20
-1159588.53
 10
-601142.4
 20
-1159537.95
 10
-601175.479
 20
-1159496.359
 10
-601220.97
 20
-1159466.41
 10
-601244.82
 20
-1159453.185
 10
-601276.73
 20
-1159436.26
 10
-601302.13
 20
-1159421.97
 10
-601326.47
 20
-1159406.34
 10
-601348.825
 20
-1159385.3
 10
-601366.68
 20
-1159356.52
 10
-601367.38
 20
-1159355.09
 10
-601371.02
 20
-1159341.72
 10
-601387.11
 20
-1159361.65
 10
-601377.79
 20
-1159380.04
 10
-601352.54
 20
-1159407.75
 10
-601327.76
 20
-1159425.845
 10
-601314.1
 20
-1159436.08
 10
-601276.265
 20
-1159457.35
 10
-601256.96
 20
-1159467.4
 10
-601246.64
 20
-1159474.12
 10
-601236.32
 20
-1159480.84
 10
-601234.39
 20
-1159481
 10
-601219.435
 20
-1159491.085
 10
-601198.97
 20
-1159505.645
 10
-601186.78
 20
-1159514.33
 10
-601152.27
 20
-1159555.2
 10
-601120.26
 20
-1159582.765
 10
-601105.82
 20
-1159594.53
 10
-601086.395
 20
-1159613.035
 10
-601069.03
 20
-1159630
 10
-601037.826
 20
-1159664.238
 10
-601031.48
 20
-1159676.58
 10
-601019.45
 20
-1159704.98
 10
-601013.66
 20
-1159728.81
 10
-601012.67
 20
-1159747.71
 10
-601014.575
 20
-1159774.08
 10
-601016.6135
 20
-1159800.7595
 10
-601017.46
 20
-1159805
 97
0
 75
0
 76
1
 98
0
  0
HATCH
  5
20144
100
AcDbEntity
  8
vodní toky
100
AcDbHatch
 10
0
 20
0
 30
0
210
0
220
0
230
1
  2
SOLID
 70
1
 71
0
 91
1
 92
2
 72
0
 73
1
 93
70
 10
-601371.02
 20
-1159341.72
 10
-601374.64
 20
-1159328.39
 10
-601378.39
 20
-1159319.92
 10
-601386.19
 20
-1159293.57
 10
-601389.86
 20
-1159274.56
 10
-601388.5289
 20
-1159259.7938
 10
-601385.89
 20
-1159252.49
 10
-601380.16
 20
-1159239.38
 10
-601376.54
 20
-1159221.18
 10
-601372.3
 20
-1159209.5
 10
-601365.94
 20
-1159197.47
 10
-601358.31
 20
-1159189.26
 10
-601355.62
 20
-1159182.35
 10
-601353.58
 20
-1159164.81
 10
-601354.94
 20
-1159150.7
 10
-601357.34
 20
-1159142.8
 10
-601359.36
 20
-1159126.31
 10
-601361.17
 20
-1159119.235
 10
-601365.52
 20
-1159101.81
 10
-601375.79
 20
-1159079.54
 10
-601380.53
 20
-1159070.88
 10
-601404.23
 20
-1159042.76
 10
-601438.55
 20
-1159015.81
 10
-601465.46
 20
-1158984.9
 10
-601499.41
 20
-1158914.65
 10
-601500.1
 20
-1158899.06
 10
-601496.005
 20
-1158858.015
 10
-601498.23
 20
-1158844.855
 10
-601502.67
 20
-1158824.39
 10
-601519.91
 20
-1158797.22
 10
-601538.58
 20
-1158766.93
 10
-601551.52
 20
-1158750.22
 10
-601584.28
 20
-1158729.11
 10
-601622.15
 20
-1158710.84
 10
-601640.19
 20
-1158699.42
 10
-601655.34
 20
-1158717.23
 10
-601633.785
 20
-1158737.09
 10
-601613.345
 20
-1158749.55
 10
-601583.08
 20
-1158767.65
 10
-601565.9
 20
-1158780.45
 10
-601552.21
 20
-1158793.91
 10
-601540.01
 20
-1158809.445
 10
-601528.29
 20
-1158827.175
 10
-601517.74
 20
-1158858.59
 10
-601516.01
 20
-1158889.8
 10
-601515.06
 20
-1158926.47
 10
-601506.085
 20
-1158954.38
 10
-601489.96
 20
-1158988.45
 10
-601479.115
 20
-1159005.12
 10
-601465.39
 20
-1159020.86
 10
-601447.58
 20
-1159036.75
 10
-601417.42
 20
-1159061.855
 10
-601404.425
 20
-1159075.04
 10
-601395.93
 20
-1159085.75
 10
-601385.53
 20
-1159110.55
 10
-601376.38
 20
-1159145.18
 10
-601380.73
 20
-1159184.25
 10
-601385.61
 20
-1159189.66
 10
-601390.83
 20
-1159204.165
 10
-601396.74
 20
-1159221.11
 10
-601398.36
 20
-1159229.64
 10
-601403.625
 20
-1159240.835
 10
-601409.03
 20
-1159258.47
 10
-601408.78
 20
-1159260.76
 10
-601409.675
 20
-1159269.165
 10
-601408.86
 20
-1159281.405
 10
-601404.095
 20
-1159305.66
 10
-601396.765
 20
-1159332.835
 10
-601387.11
 20
-1159361.65
 10
-601371.02
 20
-1159341.72
 97
0
 75
0
 76
1
 98
0
  0
HATCH
  5
20145
100
AcDbEntity
  8
vodní toky
100
AcDbHatch
 10
0
 20
0
 30
0
210
0
220
0
230
1
  2
SOLID
 70
1
 71
0
 91
1
 92
2
 72
0
 73
1
 93
14
 10
-596495.62
 20
-1159901.25
 10
-596517.21
 20
-1159931.805
 10
-596538.8
 20
-1159962.36
 10
-596561.15
 20
-1159990.23
 10
-596580.905
 20
-1160014.49
 10
-596597.97
 20
-1160039.97
 10
-596588.33
 20
-1160045.635
 10
-596578.26
 20
-1160051.54
 10
-596569.11
 20
-1160037.24
 10
-596556.315
 20
-1160020.965
 10
-596543.52
 20
-1160004.69
 10
-596513.545
 20
-1159957.39
 10
-596483.57
 20
-1159910.09
 10
-596495.62
 20
-1159901.25
 97
0
 75
0
 76
1
 98
0
  0
HATCH
  5
20146
100
AcDbEntity
  8
vodní toky
100
AcDbHatch
 10
0
 20
0
 30
0
210
0
220
0
230
1
  2
SOLID
 70
1
 71
0
 91
1
 92
2
 72
0
 73
1
 93
13
 10
-596570.89
 20
-1160553.11
 10
-596571.99
 20
-1160560.93
 10
-596570.53
 20
-1160579.75
 10
-596582.8644
 20
-1160627.2025
 10
-596595.66
 20
-1160674.52
 10
-596600.71
 20
-1160696.155
 10
-596605.76
 20
-1160717.79
 10
-596589.54
 20
-1160720.76
 10
-596580.49
 20
-1160682.5
 10
-596567.53
 20
-1160633.77
 10
-596554.57
 20
-1160585.04
 10
-596548.57
 20
-1160557.06
 10
-596570.89
 20
-1160553.11
 97
0
 75
0
 76
1
 98
0
  0
HATCH
  5
20147
100
AcDbEntity
  8
vodní toky
100
AcDbHatch
 10
0
 20
0
 30
0
210
0
220
0
230
1
  2
SOLID
 70
1
 71
0
 91
1
 92
2
 72
0
 73
1
 93
9
 10
-596606.11
 20
-1160719.99
 10
-596614.06
 20
-1160770.235
 10
-596622.01
 20
-1160820.48
 10
-596625.57
 20
-1160837.7
 10
-596605.58
 20
-1160831.19
 10
-596600.305
 20
-1160797.945
 10
-596594.63
 20
-1160757.415
 10
-596589.9
 20
-1160723.01
 10
-596606.11
 20
-1160719.99
 97
0
 75
0
 76
1
 98
0
  0
HATCH
  5
20148
100
AcDbEntity
  8
vodní toky
100
AcDbHatch
 10
0
 20
0
 30
0
210
0
220
0
230
1
  2
SOLID
 70
1
 71
0
 91
1
 92
2
 72
0
 73
1
 93
43
 10
-596610.26
 20
-1160059.77
 10
-596613.08
 20
-1160074.3
 10
-596615.74
 20
-1160088.56
 10
-596618.66
 20
-1160094.86
 10
-596619.56
 20
-1160104.66
 10
-596617.65
 20
-1160132.62
 10
-596615.04
 20
-1160146.32
 10
-596603.09
 20
-1160188.16
 10
-596600.5
 20
-1160192.53
 10
-596593.2
 20
-1160219.04
 10
-596589.27
 20
-1160235.75
 10
-596577.92
 20
-1160284.1
 10
-596569.46
 20
-1160325.92
 10
-596561.59
 20
-1160374.87
 10
-596560
 20
-1160406.345
 10
-596558.41
 20
-1160437.82
 10
-596559.62
 20
-1160445.64
 10
-596558.47
 20
-1160453.91
 10
-596557.54
 20
-1160458.15
 10
-596558.5
 20
-1160461.41
 10
-596560.93
 20
-1160463.52
 10
-596563.35
 20
-1160464.78
 10
-596565.89
 20
-1160465.73
 10
-596566.09
 20
-1160466.56
 10
-596563.83
 20
-1160472.62
 10
-596560.51
 20
-1160471.51
 10
-596559.4813
 20
-1160473.4693
 10
-596545.51
 20
-1160475.6
 10
-596531.5
 20
-1160478.72
 10
-596532.7
 20
-1160463.55
 10
-596530.24
 20
-1160450.85
 10
-596537.78
 20
-1160430.63
 10
-596554.145
 20
-1160335.445
 10
-596570.51
 20
-1160240.26
 10
-596580.65
 20
-1160207.185
 10
-596590.79
 20
-1160174.11
 10
-596602.39
 20
-1160141.59
 10
-596605.58
 20
-1160112.28
 10
-596598.76
 20
-1160089.71
 10
-596596.04
 20
-1160083.35
 10
-596593.32
 20
-1160076.99
 10
-596590.16
 20
-1160071.51
 10
-596610.26
 20
-1160059.77
 97
0
 75
0
 76
1
 98
0
  0
HATCH
  5
20149
100
AcDbEntity
  8
vodní toky
100
AcDbHatch
 10
0
 20
0
 30
0
210
0
220
0
230
1
  2
SOLID
 70
1
 71
0
 91
1
 92
2
 72
0
 73
1
 93
6
 10
-596885.15
 20
-1160487.16
 10
-596900.6
 20
-1160486.46
 10
-596900.75
 20
-1160493.37
 10
-596898.4
 20
-1160493.14
 10
-596886.945
 20
-1160493.55
 10
-596885.15
 20
-1160487.16
 97
0
 75
0
 76
1
 98
0
  0
HATCH
  5
2014A
100
AcDbEntity
  8
vodní toky
100
AcDbHatch
 10
0
 20
0
 30
0
210
0
220
0
230
1
  2
SOLID
 70
1
 71
0
 91
1
 92
2
 72
0
 73
1
 93
52
 10
-596691.5335
 20
-1160517.6671
 10
-596710.46
 20
-1160530.39
 10
-596722.03
 20
-1160532.74
 10
-596734
 20
-1160528.48
 10
-596748.94
 20
-1160521.67
 10
-596767.3
 20
-1160517.24
 10
-596769.11
 20
-1160517.27
 10
-596771.31
 20
-1160517.43
 10
-596781.57
 20
-1160522.1
 10
-596791.83
 20
-1160526.77
 10
-596797.35
 20
-1160527.955
 10
-596802.87
 20
-1160529.14
 10
-596806.61
 20
-1160528.52
 10
-596810.34
 20
-1160527.315
 10
-596814.07
 20
-1160526.11
 10
-596818.31
 20
-1160522.435
 10
-596822.55
 20
-1160518.76
 10
-596845.3
 20
-1160503.71
 10
-596858.34
 20
-1160496.78
 10
-596870.6
 20
-1160491.71
 10
-596884.22
 20
-1160487.72
 10
-596885.15
 20
-1160487.16
 10
-596886.8786
 20
-1160493.5691
 10
-596878.055
 20
-1160496.11
 10
-596870.54
 20
-1160498.33
 10
-596859.705
 20
-1160503.87
 10
-596848.87
 20
-1160509.41
 10
-596831.6
 20
-1160520.44
 10
-596826.19
 20
-1160524.62
 10
-596820.78
 20
-1160528.8
 10
-596817.45
 20
-1160530.9
 10
-596810.2107
 20
-1160534.7327
 10
-596801.075
 20
-1160535.355
 10
-596790.35
 20
-1160533.51
 10
-596781.2059
 20
-1160528.3975
 10
-596771.935
 20
-1160523.3283
 10
-596767.524
 20
-1160522.681
 10
-596758.0316
 20
-1160524.5076
 10
-596749.9555
 20
-1160526.3351
 10
-596743.7731
 20
-1160529.3619
 10
-596740.0446
 20
-1160531.5155
 10
-596736.4723
 20
-1160533.6639
 10
-596730.325
 20
-1160536.34
 10
-596723.98
 20
-1160538.41
 10
-596715.53
 20
-1160538.4
 10
-596707.26
 20
-1160536.42
 10
-596697.58
 20
-1160531.17
 10
-596692.85
 20
-1160528.725
 10
-596688.12
 20
-1160526.28
 10
-596686.18
 20
-1160525.41
 10
-596684.24
 20
-1160524.54
 10
-596691.5335
 20
-1160517.6671
 97
0
 75
0
 76
1
 98
0
  0
HATCH
  5
2014B
100
AcDbEntity
  8
vodní toky
100
AcDbHatch
 10
0
 20
0
 30
0
210
0
220
0
230
1
  2
SOLID
 70
1
 71
0
 91
1
 92
2
 72
0
 73
1
 93
15
 10
-596901.15
 20
-1160493.41
 10
-596901
 20
-1160486.51
 10
-596905.36
 20
-1160487.14
 10
-596910.18
 20
-1160487.84
 10
-596934.33
 20
-1160496.04
 10
-596948.9
 20
-1160502.66
 10
-596965.92
 20
-1160512.98
 10
-596970.01
 20
-1160515.48
 10
-596966.2927
 20
-1160521.46
 10
-596949.335
 20
-1160512.575
 10
-596936.7
 20
-1160505.64
 10
-596926.98
 20
-1160501.46
 10
-596917.26
 20
-1160497.28
 10
-596909.04
 20
-1160494.2
 10
-596901.15
 20
-1160493.41
 97
0
 75
0
 76
1
 98
0
  0
HATCH
  5
2014C
100
AcDbEntity
  8
vodní toky
100
AcDbHatch
 10
0
 20
0
 30
0
210
0
220
0
230
1
  2
SOLID
 70
1
 71
0
 91
1
 92
2
 72
0
 73
1
 93
10
 10
-596982.84
 20
-1160522.72
 10
-596993.62
 20
-1160531.2
 10
-597012.9
 20
-1160546.325
 10
-597028.5758
 20
-1160560.02
 10
-597020.0489
 20
-1160565.1713
 10
-597016.04
 20
-1160561.19
 10
-596994.98
 20
-1160540.275
 10
-596987.28
 20
-1160534.96
 10
-596978.96
 20
-1160529.18
 10
-596982.84
 20
-1160522.72
 97
0
 75
0
 76
1
 98
0
  0
HATCH
  5
2014D
100
AcDbEntity
  8
vodní toky
100
AcDbHatch
 10
0
 20
0
 30
0
210
0
220
0
230
1
  2
SOLID
 70
1
 71
0
 91
1
 92
2
 72
0
 73
1
 93
28
 10
-597030.2947
 20
-1160562.3881
 10
-597036.659
 20
-1160570.4273
 10
-597046.6625
 20
-1160584.3415
 10
-597047.6863
 20
-1160583.3695
 10
-597054.495
 20
-1160592.695
 10
-597055.42
 20
-1160595.75
 10
-597056.25
 20
-1160597.82
 10
-597057.08
 20
-1160599.89
 10
-597058.22
 20
-1160602.47
 10
-597059.475
 20
-1160606.315
 10
-597060.73
 20
-1160610.16
 10
-597061.57
 20
-1160612.7
 10
-597060.98
 20
-1160614.28
 10
-597059.39
 20
-1160624.14
 10
-597054.7327
 20
-1160631.5508
 10
-597043.11
 20
-1160642.63
 10
-597039.68
 20
-1160646.43
 10
-597035.43
 20
-1160641.73
 10
-597038.54
 20
-1160639.14
 10
-597053.43
 20
-1160625.37
 10
-597053.93
 20
-1160620.47
 10
-597055.04
 20
-1160615.9
 10
-597053.35
 20
-1160608.36
 10
-597049.48
 20
-1160600.29
 10
-597039.805
 20
-1160588.15
 10
-597030.13
 20
-1160576.01
 10
-597022.22
 20
-1160567.11
 10
-597030.2947
 20
-1160562.3881
 97
0
 75
0
 76
1
 98
0
  0
HATCH
  5
2014E
100
AcDbEntity
  8
vodní toky
100
AcDbHatch
 10
0
 20
0
 30
0
210
0
220
0
230
1
  2
SOLID
 70
1
 71
0
 91
1
 92
2
 72
0
 73
1
 93
9
 10
-597017.26
 20
-1160678.06
 10
-597017.66
 20
-1160684.88
 10
-597018.2
 20
-1160690.54
 10
-597019.68
 20
-1160699.44
 10
-597012.99
 20
-1160699.22
 10
-597010.56
 20
-1160694.11
 10
-597010.58
 20
-1160685.64
 10
-597010.6
 20
-1160677.17
 10
-597017.26
 20
-1160678.06
 97
0
 75
0
 76
1
 98
0
  0
HATCH
  5
2014F
100
AcDbEntity
  8
vodní toky
100
AcDbHatch
 10
0
 20
0
 30
0
210
0
220
0
230
1
  2
SOLID
 70
1
 71
0
 91
1
 92
2
 72
0
 73
1
 93
11
 10
-597028.98
 20
-1160738.31
 10
-597030.73
 20
-1160749.83
 10
-597031.74
 20
-1160761
 10
-597031.85
 20
-1160773.77
 10
-597024.16
 20
-1160774.05
 10
-597023.885
 20
-1160765.545
 10
-597023.25
 20
-1160756.82
 10
-597020.0792
 20
-1160730.767
 10
-597017.2834
 20
-1160719.8455
 10
-597024.35
 20
-1160720.63
 10
-597028.98
 20
-1160738.31
 97
0
 75
0
 76
1
 98
0
  0
HATCH
  5
20150
100
AcDbEntity
  8
vodní toky
100
AcDbHatch
 10
0
 20
0
 30
0
210
0
220
0
230
1
  2
SOLID
 70
1
 71
0
 91
1
 92
2
 72
0
 73
1
 93
16
 10
-597032.22
 20
-1160780.83
 10
-597033.28
 20
-1160784.76
 10
-597036.165
 20
-1160791.415
 10
-597042.395
 20
-1160802.265
 10
-597051.13
 20
-1160813.88
 10
-597061.37
 20
-1160824.89
 10
-597075.17
 20
-1160837.29
 10
-597070.42
 20
-1160842.4
 10
-597063.43
 20
-1160836.09
 10
-597050.205
 20
-1160823.705
 10
-597040.685
 20
-1160812.16
 10
-597035.315
 20
-1160803.83
 10
-597029.51
 20
-1160794.35
 10
-597027.305
 20
-1160787.17
 10
-597026.14
 20
-1160781.33
 10
-597032.22
 20
-1160780.83
 97
0
 75
0
 76
1
 98
0
  0
HATCH
  5
20151
100
AcDbEntity
  8
vodní toky
100
AcDbHatch
 10
0
 20
0
 30
0
210
0
220
0
230
1
  2
SOLID
 70
1
 71
0
 91
1
 92
2
 72
0
 73
1
 93
7
 10
-597156.22
 20
-1160890.96
 10
-597183.275
 20
-1160894.4
 10
-597209.89
 20
-1160898.18
 10
-597209.31
 20
-1160905.095
 10
-597182.11
 20
-1160901.715
 10
-597155.28
 20
-1160898.42
 10
-597156.22
 20
-1160890.96
 97
0
 75
0
 76
1
 98
0
  0
HATCH
  5
20152
100
AcDbEntity
  8
vodní toky
100
AcDbHatch
 10
0
 20
0
 30
0
210
0
220
0
230
1
  2
SOLID
 70
1
 71
0
 91
1
 92
2
 72
0
 73
1
 93
13
 10
-597220.05
 20
-1160907.21
 10
-597223.34
 20
-1160902.81
 10
-597230.295
 20
-1160906.42
 10
-597235.765
 20
-1160911.03
 10
-597238.12
 20
-1160914.5
 10
-597239.145
 20
-1160916.48
 10
-597242.115
 20
-1160924.68
 10
-597242.4151
 20
-1160926.3674
 10
-597233.9396
 20
-1160918.7473
 10
-597232.1512
 20
-1160916.3109
 10
-597228.82
 20
-1160912.945
 10
-597224.87
 20
-1160909.7
 10
-597220.05
 20
-1160907.21
 97
0
 75
0
 76
1
 98
0
  0
HATCH
  5
20153
100
AcDbEntity
  8
vodní toky
100
AcDbHatch
 10
0
 20
0
 30
0
210
0
220
0
230
1
  2
SOLID
 70
1
 71
0
 91
1
 92
2
 72
0
 73
1
 93
26
 10
-596627.76
 20
-1160849.02
 10
-596635.2
 20
-1160874.74
 10
-596638.545
 20
-1160890.67
 10
-596649.91
 20
-1160944.255
 10
-596657.93
 20
-1160981.91
 10
-596667.62
 20
-1161030.92
 10
-596677.31
 20
-1161079.93
 10
-596688.22
 20
-1161130.245
 10
-596698.47
 20
-1161177.5
 10
-596715.225
 20
-1161253.235
 10
-596731.98
 20
-1161328.97
 10
-596714.26
 20
-1161332.11
 10
-596706.82
 20
-1161294.84
 10
-596698.4341
 20
-1161251.2377
 10
-596683.91
 20
-1161179.06
 10
-596673.765
 20
-1161131.715
 10
-596663.62
 20
-1161084.37
 10
-596656.24
 20
-1161049.85
 10
-596643.94
 20
-1160989.61
 10
-596637.34
 20
-1160960.39
 10
-596630.8777
 20
-1160933.8405
 10
-596624.89
 20
-1160907.18
 10
-596618.34
 20
-1160880.7
 10
-596607.8504
 20
-1160840.2637
 10
-596615.675
 20
-1160843.705
 10
-596627.76
 20
-1160849.02
 97
0
 75
0
 76
1
 98
0
  0
ENDSEC
  0
SECTION
  2
OBJECTS
  0
DICTIONARY
  5
C
330
0
100
AcDbDictionary
281
     1
  3
ACAD_GROUP
350
D
  3
ACAD_LAYOUT
350
1A
  3
ACAD_MLEADERSTYLE
350
43
  3
ACAD_PLOTSETTINGS
350
19
  3
ACAD_PLOTSTYLENAME
350
E
  3
ACAD_TABLESTYLE
350
42
  0
DICTIONARY
  5
D
102
{ACAD_REACTORS
330
C
102
}
330
C
100
AcDbDictionary
281
     1
  0
DICTIONARY
  5
1A
102
{ACAD_REACTORS
330
C
102
}
330
C
100
AcDbDictionary
281
     1
  3
Layout1
350
1E
  3
Model
350
22
  0
DICTIONARY
  5
43
102
{ACAD_REACTORS
330
C
102
}
330
C
100
AcDbDictionary
281
     1
  0
DICTIONARY
  5
19
102
{ACAD_REACTORS
330
C
102
}
330
C
100
AcDbDictionary
281
     1
  0
ACDBDICTIONARYWDFLT
  5
E
102
{ACAD_REACTORS
330
C
102
}
330
C
100
AcDbDictionary
281
     1
  3
Normal
350
F
100
AcDbDictionaryWithDefault
340
F
  0
DICTIONARY
  5
42
102
{ACAD_REACTORS
330
C
102
}
330
C
100
AcDbDictionary
281
     1
  0
LAYOUT
  5
1E
102
{ACAD_REACTORS
330
1A
102
}
330
1A
100
AcDbPlotSettings
  1

  2
none_device
  4

  6

 40
0.0
 41
0.0
 42
0.0
 43
0.0
 44
0.0
 45
0.0
 46
0.0
 47
0.0
 48
0.0
 49
0.0
140
0.0
141
0.0
142
1.0
143
1.0
 70
   688
 72
     0
 73
     0
 74
     5
  7

 75
    16
 76
     0
 77
     2
 78
   300
147
1.0
148
0.0
149
0.0
100
AcDbLayout
  1
Layout1
 70
     1
 71
     1
 10
0.0
 20
0.0
 11
12.0
 21
9.0
 12
0.0
 22
0.0
 32
0.0
 14
1.000000000000000E+20
 24
1.000000000000000E+20
 34
1.000000000000000E+20
 15
-1.000000000000000E+20
 25
-1.000000000000000E+20
 35
-1.000000000000000E+20
146
0.0
 13
0.0
 23
0.0
 33
0.0
 16
1.0
 26
0.0
 36
0.0
 17
0.0
 27
1.0
 37
0.0
 76
     0
330
1B
  0
LAYOUT
  5
22
102
{ACAD_REACTORS
330
1A
102
}
330
1A
100
AcDbPlotSettings
  1

  2
none_device
  4

  6

 40
0.0
 41
0.0
 42
0.0
 43
0.0
 44
0.0
 45
0.0
 46
0.0
 47
0.0
 48
0.0
 49
0.0
140
0.0
141
0.0
142
1.0
143
1.0
 70
  1712
 72
     0
 73
     0
 74
     0
  7

 75
     0
 76
     0
 77
     2
 78
   300
147
1.0
148
0.0
149
0.0
100
AcDbLayout
  1
Model
 70
     1
 71
     0
 10
0.0
 20
0.0
 11
12.0
 21
9.0
 12
0.0
 22
0.0
 32
0.0
 14
30.0
 24
49.75
 34
0.0
 15
130.5
 25
163.1318914119703
 35
0.0
146
0.0
 13
0.0
 23
0.0
 33
0.0
 16
1.0
 26
0.0
 36
0.0
 17
0.0
 27
1.0
 37
0.0
 76
     0
330
1F
331
29
  0
ENDSEC
  0
EOF
