  0
SECTION
  2
HEADER
  9
$ACADVER
  1
AC1018
  9
$ACADMAINTVER
 70
     0
  9
$DWGCODEPAGE
  3
ANSI_1252
  9
$EXTMIN
 10
-601077.6864
 20
-1164257.6364
 30
0.0
  9
$EXTMAX
 10
-595428.3363
 20
-1157024.8773
 30
0.0
  9
$LIMMIN
 10
0.0
 20
0.0
  9
$LIMMAX
 10
12.0
 20
9.0
  9
$ORTHOMODE
 70
     0
  9
$REGENMODE
 70
     1
  9
$FILLMODE
 70
     1
  9
$QTEXTMODE
 70
     0
  9
$MIRRTEXT
 70
     1
  9
$LTSCALE
 40
1.0
  9
$ATTMODE
 70
     1
  9
$TEXTSIZE
 40
0.2
  9
$TRACEWID
 40
0.05
  9
$TEXTSTYLE
  7
Standard
  9
$CLAYER
  8
0
  9
$CELTYPE
  6
ByLayer
  9
$CECOLOR
 62
   256
  9
$CELTSCALE
 40
1.0
  9
$DISPSILH
 70
     0
  9
$LUNITS
 70
     2
  9
$LUPREC
 70
     4
  9
$SKETCHINC
 40
0.1
  9
$FILLETRAD
 40
0.5
  9
$AUNITS
 70
     0
  9
$AUPREC
 70
     0
  9
$MENU
  1
.
  9
$ELEVATION
 40
0.0
  9
$PELEVATION
 40
0.0
  9
$THICKNESS
 40
0.0
  9
$LIMCHECK
 70
     0
  9
$CHAMFERA
 40
0.5
  9
$CHAMFERB
 40
0.5
  9
$CHAMFERC
 40
1.0
  9
$CHAMFERD
 40
0.0
  9
$SKPOLY
 70
     0
  9
$ANGBASE
 50
0.0
  9
$ANGDIR
 70
     0
  9
$PDMODE
 70
     0
  9
$PDSIZE
 40
0.0
  9
$PLINEWID
 40
0.0
  9
$SPLFRAME
 70
     0
  9
$SPLINETYPE
 70
     6
  9
$SPLINESEGS
 70
     8
  9
$HANDSEED
  5
00020034
  9
$SURFTAB1
 70
     6
  9
$SURFTAB2
 70
     6
  9
$SURFTYPE
 70
     6
  9
$SURFU
 70
     6
  9
$SURFV
 70
     6
  9
$UCSBASE
  2

  9
$UCSNAME
  2

  9
$UCSORG
 10
0.0
 20
0.0
 30
0.0
  9
$UCSXDIR
 10
1.0
 20
0.0
 30
0.0
  9
$UCSYDIR
 10
0.0
 20
1.0
 30
0.0
  9
$UCSORTHOREF
  2

  9
$UCSORTHOVIEW
 70
     0
  9
$UCSORGTOP
 10
0.0
 20
0.0
 30
0.0
  9
$UCSORGBOTTOM
 10
0.0
 20
0.0
 30
0.0
  9
$UCSORGLEFT
 10
0.0
 20
0.0
 30
0.0
  9
$UCSORGRIGHT
 10
0.0
 20
0.0
 30
0.0
  9
$UCSORGFRONT
 10
0.0
 20
0.0
 30
0.0
  9
$UCSORGBACK
 10
0.0
 20
0.0
 30
0.0
  9
$PUCSBASE
  2

  9
$PUCSNAME
  2

  9
$PUCSORG
 10
0.0
 20
0.0
 30
0.0
  9
$PUCSXDIR
 10
1.0
 20
0.0
 30
0.0
  9
$PUCSYDIR
 10
0.0
 20
1.0
 30
0.0
  9
$PUCSORTHOREF
  2

  9
$PUCSORTHOVIEW
 70
     0
  9
$PUCSORGTOP
 10
0.0
 20
0.0
 30
0.0
  9
$PUCSORGBOTTOM
 10
0.0
 20
0.0
 30
0.0
  9
$PUCSORGLEFT
 10
0.0
 20
0.0
 30
0.0
  9
$PUCSORGRIGHT
 10
0.0
 20
0.0
 30
0.0
  9
$PUCSORGFRONT
 10
0.0
 20
0.0
 30
0.0
  9
$PUCSORGBACK
 10
0.0
 20
0.0
 30
0.0
  9
$WORLDVIEW
 70
     1
  9
$SHADEDGE
 70
     3
  9
$SHADEDIF
 70
    70
  9
$TILEMODE
 70
     1
  9
$MAXACTVP
 70
    64
  9
$PINSBASE
 10
0.0
 20
0.0
 30
0.0
  9
$PLIMCHECK
 70
     0
  9
$PEXTMIN
 10
1.000000000000000E+20
 20
1.000000000000000E+20
 30
1.000000000000000E+20
  9
$PEXTMAX
 10
-1.000000000000000E+20
 20
-1.000000000000000E+20
 30
-1.000000000000000E+20
  9
$PLIMMIN
 10
0.0
 20
0.0
  9
$PLIMMAX
 10
12.0
 20
9.0
  9
$UNITMODE
 70
     0
  9
$VISRETAIN
 70
     1
  9
$PLINEGEN
 70
     0
  9
$PSLTSCALE
 70
     1
  9
$TREEDEPTH
 70
  3020
  9
$CMLSTYLE
  2
Standard
  9
$CMLJUST
 70
     0
  9
$CMLSCALE
 40
1.0
  9
$PROXYGRAPHICS
 70
     1
  9
$MEASUREMENT
 70
     0
  9
$CELWEIGHT
370
    -1
  9
$ENDCAPS
280
     0
  9
$JOINSTYLE
280
     0
  9
$LWDISPLAY
290
     0
  9
$INSUNITS
 70
     1
  9
$HYPERLINKBASE
  1

  9
$STYLESHEET
  1

  9
$XEDIT
290
     1
  9
$CEPSNTYPE
380
     0
  9
$PSTYLEMODE
290
     1
  9
$EXTNAMES
290
     1
  9
$PSVPSCALE
 40
0.0
  9
$OLESTARTUP
290
     0
  9
$SORTENTS
280
   127
  9
$INDEXCTL
280
     0
  9
$HIDETEXT
280
     1
  9
$XCLIPFRAME
290
     0
  9
$HALOGAP
280
     0
  9
$OBSCOLOR
 70
   257
  9
$OBSLTYPE
280
     0
  9
$INTERSECTIONDISPLAY
280
     0
  9
$INTERSECTIONCOLOR
 70
   257
  9
$DIMASSOC
280
     2
  9
$PROJECTNAME
  1

  0
ENDSEC
  0
SECTION
  2
CLASSES
  0
CLASS
  1
ACDBDICTIONARYWDFLT
  2
AcDbDictionaryWithDefault
  3
ObjectDBX Classes
 90
        0
 91
        4
280
     0
281
     0
  0
ENDSEC
  0
SECTION
  2
TABLES
  0
TABLE
  2
VPORT
  5
8
330
0
100
AcDbSymbolTable
 70
     1
  0
VPORT
  5
29
330
8
100
AcDbSymbolTableRecord
100
AcDbViewportTableRecord
  2
*Active
 70
     0
 10
0.0
 20
0.0
 11
1.0
 21
1.0
 12
80.25
 22
106.4409457059851
 13
0.0
 23
0.0
 14
0.5
 24
0.5
 15
0.5
 25
0.5
 16
0.0
 26
0.0
 36
1.0
 17
0.0
 27
0.0
 37
0.0
 40
113.3818914119703
 41
0.8863849310366128
 42
50.0
 43
0.0
 44
0.0
 50
0.0
 51
0.0
 71
     0
 72
  1000
 73
     1
 74
     3
 75
     0
 76
     0
 77
     0
 78
     0
281
     0
 65
     1
110
0.0
120
0.0
130
0.0
111
1.0
121
0.0
131
0.0
112
0.0
122
1.0
132
0.0
 79
     0
146
0.0
  0
ENDTAB
  0
TABLE
  2
LTYPE
  5
5
330
0
100
AcDbSymbolTable
 70
     1
  0
LTYPE
  5
14
330
5
100
AcDbSymbolTableRecord
100
AcDbLinetypeTableRecord
  2
ByBlock
 70
     0
  3

 72
    65
 73
     0
 40
0.0
  0
LTYPE
  5
15
330
5
100
AcDbSymbolTableRecord
100
AcDbLinetypeTableRecord
  2
ByLayer
 70
     0
  3

 72
    65
 73
     0
 40
0.0
  0
LTYPE
  5
16
330
5
100
AcDbSymbolTableRecord
100
AcDbLinetypeTableRecord
  2
Continuous
 70
     0
  3
Solid line
 72
    65
 73
     0
 40
0.0
  0
ENDTAB
  0
TABLE
  2
LAYER
  5
2
330
0
100
AcDbSymbolTable
 70
     1
  0
LAYER
  5
10
330
2
100
AcDbSymbolTableRecord
100
AcDbLayerTableRecord
  2
0
 70
     0
 62
     7
  6
Continuous
370
    -3
390
F
  0
LAYER
  5
20033
330
2
100
AcDbSymbolTableRecord
100
AcDbLayerTableRecord
  2
vodní toky před regulací
 70
     0
 62
     7
  6
Continuous
370
    -3
390
F
  0
ENDTAB
  0
TABLE
  2
STYLE
  5
3
330
0
100
AcDbSymbolTable
 70
     1
  0
STYLE
  5
11
330
3
100
AcDbSymbolTableRecord
100
AcDbTextStyleTableRecord
  2
Standard
 70
     0
 40
0.0
 41
1.0
 50
0.0
 71
     0
 42
0.2
  3
txt
  4

  0
ENDTAB
  0
TABLE
  2
VIEW
  5
6
330
0
100
AcDbSymbolTable
 70
     0
  0
ENDTAB
  0
TABLE
  2
UCS
  5
7
330
0
100
AcDbSymbolTable
 70
     0
  0
ENDTAB
  0
TABLE
  2
APPID
  5
9
330
0
100
AcDbSymbolTable
 70
     1
  0
APPID
  5
12
330
9
100
AcDbSymbolTableRecord
100
AcDbRegAppTableRecord
  2
ACAD
 70
     0
  0
ENDTAB
  0
TABLE
  2
DIMSTYLE
  5
A
330
0
100
AcDbSymbolTable
 70
     1
100
AcDbDimStyleTable
  0
DIMSTYLE
105
27
330
A
100
AcDbSymbolTableRecord
100
AcDbDimStyleTableRecord
  2
Standard
 70
     0
340
11
  0
ENDTAB
  0
TABLE
  2
BLOCK_RECORD
  5
1
330
0
100
AcDbSymbolTable
 70
     1
  0
BLOCK_RECORD
  5
1F
330
1
100
AcDbSymbolTableRecord
100
AcDbBlockTableRecord
  2
*Model_Space
340
22
  0
BLOCK_RECORD
  5
1B
330
1
100
AcDbSymbolTableRecord
100
AcDbBlockTableRecord
  2
*Paper_Space
340
1E
  0
ENDTAB
  0
ENDSEC
  0
SECTION
  2
BLOCKS
  0
BLOCK
  5
20
330
1F
100
AcDbEntity
  8
0
100
AcDbBlockBegin
  2
*Model_Space
 70
     0
 10
0.0
 20
0.0
 30
0.0
  3
*Model_Space
  1

  0
ENDBLK
  5
21
330
1F
100
AcDbEntity
  8
0
100
AcDbBlockEnd
  0
BLOCK
  5
1C
330
1B
100
AcDbEntity
 67
     1
  8
0
100
AcDbBlockBegin
  2
*Paper_Space
 70
     0
 10
0.0
 20
0.0
 30
0.0
  3
*Paper_Space
  1

  0
ENDBLK
  5
1D
330
1B
100
AcDbEntity
 67
     1
  8
0
100
AcDbBlockEnd
  0
ENDSEC
  0
SECTION
  2
ENTITIES
  0
HATCH
  5
20000
100
AcDbEntity
  8
vodní toky před regulací
100
AcDbHatch
 10
0
 20
0
 30
0
210
0
220
0
230
1
  2
SOLID
 70
1
 71
0
 91
1
 92
2
 72
0
 73
1
 93
31
 10
-596708.1904
 20
-1162326.7889
 10
-596672.4673
 20
-1162294.9677
 10
-596659.9215
 20
-1162276.9322
 10
-596646.7545
 20
-1162249.8061
 10
-596640.8587
 20
-1162211.1887
 10
-596631.1924
 20
-1162147.8743
 10
-596627.8092
 20
-1162091.3263
 10
-596623.231
 20
-1162034.8498
 10
-596616.6929
 20
-1161984.9967
 10
-596603.6434
 20
-1161942.9482
 10
-596577.061
 20
-1161884.9503
 10
-596563.5396
 20
-1161867.4091
 10
-596550.0183
 20
-1161849.8679
 10
-596525.6059
 20
-1161834.823
 10
-596508.6666
 20
-1161822.7567
 10
-596509.03
 20
-1161822.1671
 10
-596528.7794
 20
-1161830.2708
 10
-596552.4118
 20
-1161844.835
 10
-596568.38
 20
-1161864.705
 10
-596582.3774
 20
-1161884.9503
 10
-596599.1727
 20
-1161917.846
 10
-596609.4432
 20
-1161941.4983
 10
-596622.0094
 20
-1161982.0968
 10
-596630.3523
 20
-1162046.3561
 10
-596634.5756
 20
-1162097.1261
 10
-596638.4421
 20
-1162161.4071
 10
-596651.0083
 20
-1162249.854
 10
-596663.6771
 20
-1162273.572
 10
-596674.6908
 20
-1162289.4859
 10
-596708.4911
 20
-1162318.636
 10
-596708.1904
 20
-1162326.7889
 97
0
 75
0
 76
1
 98
0
  0
HATCH
  5
20001
100
AcDbEntity
  8
vodní toky před regulací
100
AcDbHatch
 10
0
 20
0
 30
0
210
0
220
0
230
1
  2
SOLID
 70
1
 71
0
 91
1
 92
2
 72
0
 73
1
 93
13
 10
-596736.7063
 20
-1161508.0996
 10
-596736.7063
 20
-1161520.6658
 10
-596726.8236
 20
-1161507.6913
 10
-596714.4788
 20
-1161493.029
 10
-596686.3206
 20
-1161460.5533
 10
-596660.4028
 20
-1161440.47
 10
-596634.485
 20
-1161423.1568
 10
-596575.4535
 20
-1161389.9143
 10
-596580.5801
 20
-1161387.6104
 10
-596638.2307
 20
-1161418.6257
 10
-596665.7148
 20
-1161437.475
 10
-596690.4288
 20
-1161456.3243
 10
-596736.7063
 20
-1161508.0996
 97
0
 75
0
 76
1
 98
0
  0
HATCH
  5
20002
100
AcDbEntity
  8
vodní toky před regulací
100
AcDbHatch
 10
0
 20
0
 30
0
210
0
220
0
230
1
  2
SOLID
 70
1
 71
0
 91
1
 92
2
 72
0
 73
1
 93
17
 10
-596706.7248
 20
-1162366.6731
 10
-596683.7969
 20
-1162361.666
 10
-596623.5636
 20
-1162350.5799
 10
-596540.5681
 20
-1162335.368
 10
-596524.8901
 20
-1162330.3139
 10
-596465.2308
 20
-1162311.2961
 10
-596379.6339
 20
-1162287.2494
 10
-596362.5626
 20
-1162280.3914
 10
-596270.8264
 20
-1162243.5388
 10
-596186.8434
 20
-1162209.8008
 10
-596187.8336
 20
-1162207.3358
 10
-596263.4463
 20
-1162237.7112
 10
-596379.5244
 20
-1162284.3426
 10
-596449.0397
 20
-1162304.4089
 10
-596542.8031
 20
-1162331.4746
 10
-596706.9642
 20
-1162360.2875
 10
-596706.7248
 20
-1162366.6731
 97
0
 75
0
 76
1
 98
0
  0
HATCH
  5
20003
100
AcDbEntity
  8
vodní toky před regulací
100
AcDbHatch
 10
0
 20
0
 30
0
210
0
220
0
230
1
  2
SOLID
 70
1
 71
0
 91
1
 92
2
 72
0
 73
1
 93
10
 10
-596691.9277
 20
-1162793.6265
 10
-596572.3997
 20
-1162753.726
 10
-596488.7184
 20
-1162724.8479
 10
-596257.2099
 20
-1162667.4541
 10
-596257.42
 20
-1162665.942
 10
-596307.656
 20
-1162677.9586
 10
-596489.6541
 20
-1162721.9176
 10
-596577.1652
 20
-1162751.7927
 10
-596692.002
 20
-1162790.712
 10
-596691.9277
 20
-1162793.6265
 97
0
 75
0
 76
1
 98
0
  0
HATCH
  5
20004
100
AcDbEntity
  8
vodní toky před regulací
100
AcDbHatch
 10
0
 20
0
 30
0
210
0
220
0
230
1
  2
SOLID
 70
1
 71
0
 91
1
 92
2
 72
0
 73
1
 93
60
 10
-597959.03
 20
-1159235.87
 10
-597941.49
 20
-1159267.76
 10
-597922.8324
 20
-1159301.4482
 10
-597887.92
 20
-1159363.5
 10
-597876.02
 20
-1159384.98
 10
-597851.57
 20
-1159432.73
 10
-597828.61
 20
-1159471.74
 10
-597820.82
 20
-1159485.72
 10
-597818.01
 20
-1159497.96
 10
-597805.99
 20
-1159552.86
 10
-597798.88
 20
-1159582.7
 10
-597795.77
 20
-1159590.91
 10
-597787.2
 20
-1159629.36
 10
-597783.63
 20
-1159645.44
 10
-597776.14
 20
-1159664.17
 10
-597772.98
 20
-1159691.09
 10
-597760.99
 20
-1159718.64
 10
-597747.89
 20
-1159773.71
 10
-597729.83
 20
-1159849.63
 10
-597718.53
 20
-1159897.18
 10
-597705.22
 20
-1159953.15
 10
-597702.5
 20
-1159964.6
 10
-597697.66
 20
-1159985.38
 10
-597692.005
 20
-1160010.8805
 10
-597685.8
 20
-1160038.83
 10
-597683.52
 20
-1160049.1
 10
-597678.35
 20
-1160079.2
 10
-597657.65
 20
-1160129.87
 10
-597655.35
 20
-1160134.16
 10
-597639.96
 20
-1160128.3
 10
-597646.0069
 20
-1160110.1974
 10
-597661.94
 20
-1160062.53
 10
-597671.08
 20
-1160044.16
 10
-597686.2282
 20
-1159980.7148
 10
-597688.19
 20
-1159972.57
 10
-597706.26
 20
-1159897.55
 10
-597723.08
 20
-1159827.65
 10
-597727.84
 20
-1159807.86
 10
-597733.34
 20
-1159785.48
 10
-597741.47
 20
-1159751.25
 10
-597749.61
 20
-1159717.49
 10
-597764.08
 20
-1159690.18
 10
-597768.22
 20
-1159664.65
 10
-597772.03
 20
-1159656.65
 10
-597796.19
 20
-1159552.77
 10
-597803.32
 20
-1159522.17
 10
-597810.5
 20
-1159495.79
 10
-597813.35
 20
-1159485.22
 10
-597821.62
 20
-1159469.24
 10
-597846.26
 20
-1159423.92
 10
-597868.88
 20
-1159383.48
 10
-597870.55
 20
-1159380.42
 10
-597882.93
 20
-1159358.13
 10
-597924.53
 20
-1159283.17
 10
-597933.08
 20
-1159265.29
 10
-597941.87
 20
-1159248.48
 10
-597950.45
 20
-1159232.92
 10
-597955.44
 20
-1159223.88
 10
-597963.75
 20
-1159227.31
 10
-597959.03
 20
-1159235.87
 97
0
 75
0
 76
1
 98
0
  0
HATCH
  5
20005
100
AcDbEntity
  8
vodní toky před regulací
100
AcDbHatch
 10
0
 20
0
 30
0
210
0
220
0
230
1
  2
SOLID
 70
1
 71
0
 91
1
 92
2
 72
0
 73
1
 93
54
 10
-595744.8603
 20
-1159205.786
 10
-595737.7212
 20
-1159196.4742
 10
-595776.3835
 20
-1159208.9506
 10
-595820.1787
 20
-1159206.088
 10
-595863.9738
 20
-1159203.2253
 10
-595897.2851
 20
-1159200.4172
 10
-595930.5963
 20
-1159197.609
 10
-595949.995
 20
-1159198.0965
 10
-595962.0966
 20
-1159201.644
 10
-595976.8893
 20
-1159207.9919
 10
-595982.9082
 20
-1159210.9682
 10
-595988.9396
 20
-1159218.1572
 10
-595993.1209
 20
-1159225.1368
 10
-595994.0758
 20
-1159233.5149
 10
-595992.632
 20
-1159243.138
 10
-595992.2224
 20
-1159253.3607
 10
-595991.8128
 20
-1159263.5833
 10
-595995.3652
 20
-1159273.9107
 10
-595998.9175
 20
-1159284.238
 10
-595999.2994
 20
-1159295.0268
 10
-595999.6813
 20
-1159305.8156
 10
-595996.1203
 20
-1159316.1373
 10
-595992.5592
 20
-1159326.459
 10
-595981.499
 20
-1159345.6997
 10
-595970.4388
 20
-1159364.9404
 10
-595962.3686
 20
-1159400.3253
 10
-595968.0133
 20
-1159413.1951
 10
-595973.6579
 20
-1159426.0648
 10
-595961.4827
 20
-1159424.99
 10
-595949.3076
 20
-1159423.9152
 10
-595941.24
 20
-1159421.94
 10
-595940.33
 20
-1159421.6
 10
-595937.44
 20
-1159419.87
 10
-595935.0381
 20
-1159417.8452
 10
-595932.1049
 20
-1159414.3869
 10
-595930.7861
 20
-1159404.2237
 10
-595931.6507
 20
-1159399.1421
 10
-595932.5153
 20
-1159394.0606
 10
-595946.0196
 20
-1159359.3753
 10
-595959.5238
 20
-1159324.6901
 10
-595964.3218
 20
-1159306.5834
 10
-595969.1197
 20
-1159288.4766
 10
-595969.5142
 20
-1159269.8266
 10
-595967.4726
 20
-1159251.673
 10
-595962.0732
 20
-1159241.6939
 10
-595955.3842
 20
-1159233.1477
 10
-595942.79
 20
-1159226.3163
 10
-595919.02
 20
-1159225.85
 10
-595891.3191
 20
-1159228.3818
 10
-595863.6182
 20
-1159230.9136
 10
-595832.4617
 20
-1159236.8208
 10
-595801.3052
 20
-1159242.7279
 10
-595772.1749
 20
-1159246.1372
 10
-595744.8603
 20
-1159205.786
 97
0
 75
0
 76
1
 98
0
  0
HATCH
  5
20006
100
AcDbEntity
  8
vodní toky před regulací
100
AcDbHatch
 10
0
 20
0
 30
0
210
0
220
0
230
1
  2
SOLID
 70
1
 71
0
 91
1
 92
2
 72
0
 73
1
 93
48
 10
-595667.2179
 20
-1159101.8949
 10
-595629.555
 20
-1159046.07
 10
-595633.5147
 20
-1159026.9591
 10
-595636.3896
 20
-1158987.5014
 10
-595625.8243
 20
-1158954.6
 10
-595601.5123
 20
-1158926.3205
 10
-595557.2273
 20
-1158885.0718
 10
-595524.3214
 20
-1158847.9896
 10
-595483.0432
 20
-1158801.2655
 10
-595466.282
 20
-1158779.538
 10
-595443.9
 20
-1158750.52
 10
-595433.085
 20
-1158731.485
 10
-595430.7107
 20
-1158718.08
 10
-595428.3363
 20
-1158700.2324
 10
-595428.92
 20
-1158685.45
 10
-595432.2163
 20
-1158657.2429
 10
-595438.85
 20
-1158643.81
 10
-595465.7388
 20
-1158598.8889
 10
-595545.4958
 20
-1158539.0636
 10
-595593.91
 20
-1158485.36
 10
-595632.78
 20
-1158437.025
 10
-595635.9032
 20
-1158424.4635
 10
-595636.705
 20
-1158414.575
 10
-595631.4497
 20
-1158372.8105
 10
-595652.2681
 20
-1158370.8739
 10
-595657.53
 20
-1158410.8
 10
-595650.72
 20
-1158438.56
 10
-595628.15
 20
-1158482.05
 10
-595607.2783
 20
-1158520.6697
 10
-595541.4748
 20
-1158582.7484
 10
-595489.6123
 20
-1158631.6753
 10
-595470.0843
 20
-1158656.9325
 10
-595463.2556
 20
-1158685.7991
 10
-595466.16
 20
-1158699.07
 10
-595472.8
 20
-1158722.67
 10
-595508.4955
 20
-1158752.2233
 10
-595529.8843
 20
-1158780.5993
 10
-595546.5848
 20
-1158814.0611
 10
-595600.5377
 20
-1158877.8276
 10
-595661.2092
 20
-1158931.6309
 10
-595686.0407
 20
-1158950.8753
 10
-595694.1109
 20
-1158962.6702
 10
-595709.6306
 20
-1158987.5017
 10
-595712.8032
 20
-1158997.4949
 10
-595715.8385
 20
-1159011.0916
 10
-595711.3416
 20
-1159035.3821
 10
-595691.007
 20
-1159079.3782
 10
-595667.2179
 20
-1159101.8949
 97
0
 75
0
 76
1
 98
0
  0
HATCH
  5
20007
100
AcDbEntity
  8
vodní toky před regulací
100
AcDbHatch
 10
0
 20
0
 30
0
210
0
220
0
230
1
  2
SOLID
 70
1
 71
0
 91
1
 92
2
 72
0
 73
1
 93
111
 10
-597314.44
 20
-1162658.28
 10
-597321.5836
 20
-1162667.3175
 10
-597308.7592
 20
-1162679.0826
 10
-597293.9586
 20
-1162696.8919
 10
-597286.4159
 20
-1162705.8834
 10
-597276.338
 20
-1162732.4471
 10
-597264.6
 20
-1162764.6233
 10
-597247.5778
 20
-1162839.2309
 10
-597271.1946
 20
-1162894.2828
 10
-597297.4672
 20
-1162947.7923
 10
-597317.6165
 20
-1163004.4726
 10
-597348.8052
 20
-1163089.6196
 10
-597354.2378
 20
-1163108.1444
 10
-597353.1965
 20
-1163114.1656
 10
-597350.2086
 20
-1163120.232
 10
-597346.5553
 20
-1163125.574
 10
-597313.0659
 20
-1163153.1897
 10
-597308.3776
 20
-1163164.0549
 10
-597303.7373
 20
-1163196.2657
 10
-597261.7565
 20
-1163224.1803
 10
-597240.3049
 20
-1163248.7992
 10
-597198.6151
 20
-1163318.4842
 10
-597171.8538
 20
-1163369.8755
 10
-597153.9227
 20
-1163456.4055
 10
-597151.6472
 20
-1163482.4955
 10
-597152.7111
 20
-1163533.0866
 10
-597180.2363
 20
-1163583.4286
 10
-597174.9645
 20
-1163601.1072
 10
-597160.3168
 20
-1163626.8894
 10
-597113.2343
 20
-1163655.5011
 10
-597092.1376
 20
-1163656.9377
 10
-597089.3082
 20
-1163657.4704
 10
-597088.4904
 20
-1163659.1937
 10
-597093.111
 20
-1163662.4503
 10
-597099.8112
 20
-1163665.9814
 10
-597100.6204
 20
-1163666.9774
 10
-597101.3505
 20
-1163669.6032
 10
-597103.2066
 20
-1163688.4008
 10
-597097.758
 20
-1163706.9717
 10
-597049.0617
 20
-1163766.7108
 10
-597025.8827
 20
-1163826.8315
 10
-597031.8585
 20
-1163872.6482
 10
-597049.605
 20
-1163901.6203
 10
-597053.9511
 20
-1163916.8315
 10
-597052.5024
 20
-1163932.0428
 10
-597036.2046
 20
-1163950.3556
 10
-597015.5607
 20
-1163981.6605
 10
-596992.8112
 20
-1164042.5056
 10
-596992.6827
 20
-1164107.5632
 10
-596953.1321
 20
-1164153.3082
 10
-596941.1342
 20
-1164167.9986
 10
-596930.6311
 20
-1164185.745
 10
-596930.269
 20
-1164210.8034
 10
-596937.4821
 20
-1164234.89
 10
-596943.5294
 20
-1164253.0156
 10
-596931.5366
 20
-1164257.6364
 10
-596919.766
 20
-1164212.908
 10
-596917.9551
 20
-1164184.6585
 10
-596933.1664
 20
-1164158.5821
 10
-596945.1181
 20
-1164144.9383
 10
-596982.603
 20
-1164104.4372
 10
-596985.8625
 20
-1164030.1917
 10
-597008.3173
 20
-1163975.8658
 10
-597028.2368
 20
-1163946.8475
 10
-597045.2589
 20
-1163927.6967
 10
-597046.7076
 20
-1163917.9181
 10
-597043.0859
 20
-1163903.7933
 10
-597025.6635
 20
-1163872.8866
 10
-597019.9068
 20
-1163829.5478
 10
-597020.8094
 20
-1163820.9007
 10
-597043.267
 20
-1163761.6404
 10
-597091.5265
 20
-1163706.3185
 10
-597097.0497
 20
-1163687.576
 10
-597095.103
 20
-1163670.9564
 10
-597093.9191
 20
-1163668.7883
 10
-597092.4581
 20
-1163668.1058
 10
-597089.0366
 20
-1163665.7561
 10
-597084.102
 20
-1163660.8658
 10
-597082.4058
 20
-1163657.3919
 10
-597083.3776
 20
-1163653.6223
 10
-597087.9521
 20
-1163651.7662
 10
-597109.0693
 20
-1163649.8874
 10
-597156.8761
 20
-1163622.3622
 10
-597168.6396
 20
-1163601.4694
 10
-597174.4635
 20
-1163585.2648
 10
-597146.7353
 20
-1163535.4407
 10
-597145.8525
 20
-1163481.7712
 10
-597147.1532
 20
-1163460.0251
 10
-597165.7276
 20
-1163368.1912
 10
-597191.9199
 20
-1163317.5637
 10
-597235.2915
 20
-1163245.0865
 10
-597258.2846
 20
-1163219.6258
 10
-597300.2966
 20
-1163192.1007
 10
-597302.7639
 20
-1163162.4251
 10
-597309.102
 20
-1163149.9301
 10
-597316.5529
 20
-1163143.242
 10
-597339.9933
 20
-1163125.9362
 10
-597344.864
 20
-1163121.3527
 10
-597349.0499
 20
-1163114.4714
 10
-597349.9751
 20
-1163108.9278
 10
-597349.3258
 20
-1163103.9568
 10
-597344.8492
 20
-1163090.2706
 10
-597311.9178
 20
-1163004.0226
 10
-597291.3102
 20
-1162948.5167
 10
-597242.1158
 20
-1162839.2316
 10
-597257.917
 20
-1162764.684
 10
-597269.8741
 20
-1162729.9679
 10
-597280.5582
 20
-1162699.7264
 10
-597287.8017
 20
-1162689.9477
 10
-597302.1693
 20
-1162673.65
 10
-597314.44
 20
-1162658.28
 97
0
 75
0
 76
1
 98
0
  0
HATCH
  5
20008
100
AcDbEntity
  8
vodní toky před regulací
100
AcDbHatch
 10
0
 20
0
 30
0
210
0
220
0
230
1
  2
SOLID
 70
1
 71
0
 91
1
 92
2
 72
0
 73
1
 93
9
 10
-597344.8666
 20
-1162679.1957
 10
-597350.3647
 20
-1162680.4175
 10
-597324.947
 20
-1162692.234
 10
-597301.9491
 20
-1162705.6344
 10
-597282.5728
 20
-1162715.232
 10
-597286.1719
 20
-1162705.9286
 10
-597306.4762
 20
-1162696.399
 10
-597322.774
 20
-1162687.7068
 10
-597344.8666
 20
-1162679.1957
 97
0
 75
0
 76
1
 98
0
  0
HATCH
  5
20009
100
AcDbEntity
  8
vodní toky před regulací
100
AcDbHatch
 10
0
 20
0
 30
0
210
0
220
0
230
1
  2
SOLID
 70
1
 71
0
 91
1
 92
2
 72
0
 73
1
 93
27
 10
-597069.0142
 20
-1162435.3576
 10
-597071.6878
 20
-1162472.0127
 10
-597079.3149
 20
-1162545.7956
 10
-597080.3449
 20
-1162590.0419
 10
-597078.6591
 20
-1162637.9375
 10
-597082.6566
 20
-1162689.7726
 10
-597092.951
 20
-1162745.5396
 10
-597103.3616
 20
-1162782.1961
 10
-597118.2307
 20
-1162807.7677
 10
-597142.94
 20
-1162851.14
 10
-597162.0181
 20
-1162884.9681
 10
-597191.36
 20
-1162922.58
 10
-597211.836
 20
-1162946.504
 10
-597309.7524
 20
-1162997.9355
 10
-597311.9178
 20
-1163004.0226
 10
-597263.887
 20
-1162979.533
 10
-597206.82
 20
-1162950.23
 10
-597156.7971
 20
-1162887.3655
 10
-597147.7124
 20
-1162872.4964
 10
-597136.8978
 20
-1162854.6763
 10
-597095.8837
 20
-1162786.4539
 10
-597084.4687
 20
-1162745.8808
 10
-597073.0254
 20
-1162690.8018
 10
-597071.769
 20
-1162648.082
 10
-597069.8807
 20
-1162583.8816
 10
-597057.2145
 20
-1162462.9849
 10
-597069.0142
 20
-1162435.3576
 97
0
 75
0
 76
1
 98
0
  0
HATCH
  5
2000A
100
AcDbEntity
  8
vodní toky před regulací
100
AcDbHatch
 10
0
 20
0
 30
0
210
0
220
0
230
1
  2
SOLID
 70
1
 71
0
 91
1
 92
2
 72
0
 73
1
 93
15
 10
-597316.0855
 20
-1162999.9446
 10
-597373.3455
 20
-1163016.629
 10
-597453.0116
 20
-1163040.3891
 10
-597521.3332
 20
-1163049.6882
 10
-597578.0887
 20
-1163050.332
 10
-597615.5508
 20
-1163049.394
 10
-597613.874
 20
-1163054.8593
 10
-597581.5954
 20
-1163055.7632
 10
-597523.5498
 20
-1163055.3728
 10
-597455.3535
 20
-1163046.4503
 10
-597392.2869
 20
-1163027.1905
 10
-597364.8372
 20
-1163018.8076
 10
-597332.2459
 20
-1163008.8546
 10
-597317.6579
 20
-1163004.3996
 10
-597316.0855
 20
-1162999.9446
 97
0
 75
0
 76
1
 98
0
  0
HATCH
  5
2000B
100
AcDbEntity
  8
vodní toky před regulací
100
AcDbHatch
 10
0
 20
0
 30
0
210
0
220
0
230
1
  2
SOLID
 70
1
 71
0
 91
1
 92
2
 72
0
 73
1
 93
44
 10
-597206.1086
 20
-1162949.3713
 10
-597216.3487
 20
-1162955.1503
 10
-597213.1726
 20
-1162954.4118
 10
-597178.5043
 20
-1162947.0959
 10
-597088.0065
 20
-1162944.3006
 10
-597034.9809
 20
-1162946.9015
 10
-597000.242
 20
-1162950.75
 10
-596976.4946
 20
-1162955.1779
 10
-596879.2325
 20
-1162978.1936
 10
-596796.7711
 20
-1163014.5325
 10
-596762.4195
 20
-1163056.8551
 10
-596754.147
 20
-1163075.7586
 10
-596746.0793
 20
-1163094.9529
 10
-596740.879
 20
-1163136.4611
 10
-596737.0014
 20
-1163166.9521
 10
-596733.1999
 20
-1163216.4493
 10
-596729.8586
 20
-1163266.1533
 10
-596729.1817
 20
-1163278.6447
 10
-596727.0356
 20
-1163335.6638
 10
-596726.1299
 20
-1163370.1041
 10
-596724.814
 20
-1163389.2338
 10
-596718.577
 20
-1163475.032
 10
-596717.6011
 20
-1163494.9691
 10
-596715.6119
 20
-1163535.6043
 10
-596713.2382
 20
-1163584.0974
 10
-596712.0609
 20
-1163608.0878
 10
-596710.7508
 20
-1163634.1053
 10
-596708.488
 20
-1163633.9533
 10
-596711.1279
 20
-1163567.6051
 10
-596716.4081
 20
-1163473.4837
 10
-596719.5568
 20
-1163431.4254
 10
-596727.6748
 20
-1163265.5855
 10
-596732.5666
 20
-1163165.6535
 10
-596743.049
 20
-1163093.6745
 10
-596759.8208
 20
-1163055.2391
 10
-596794.762
 20
-1163010.5143
 10
-596875.8257
 20
-1162976.2719
 10
-596973.134
 20
-1162951.1368
 10
-596998.8845
 20
-1162946.1787
 10
-597035.48
 20
-1162942.12
 10
-597088.7927
 20
-1162941.3306
 10
-597133.5175
 20
-1162942.7283
 10
-597178.2423
 20
-1162944.1259
 10
-597206.1086
 20
-1162949.3713
 97
0
 75
0
 76
1
 98
0
  0
HATCH
  5
2000C
100
AcDbEntity
  8
vodní toky před regulací
100
AcDbHatch
 10
0
 20
0
 30
0
210
0
220
0
230
1
  2
SOLID
 70
1
 71
0
 91
1
 92
2
 72
0
 73
1
 93
15
 10
-597035.48
 20
-1162942.12
 10
-597032.8081
 20
-1162942.507
 10
-596997.9612
 20
-1162918.134
 10
-596933.9811
 20
-1162889.5739
 10
-596853.2668
 20
-1162857.4279
 10
-596754.9472
 20
-1162818.5375
 10
-596691.9277
 20
-1162793.6265
 10
-596692.002
 20
-1162790.712
 10
-596714.9655
 20
-1162799.7586
 10
-596770.3384
 20
-1162821.7529
 10
-596838.4282
 20
-1162848.7985
 10
-596887.777
 20
-1162868.4
 10
-596937.1258
 20
-1162888.0015
 10
-596999.37
 20
-1162916.35
 10
-597035.48
 20
-1162942.12
 97
0
 75
0
 76
1
 98
0
  0
HATCH
  5
2000D
100
AcDbEntity
  8
vodní toky před regulací
100
AcDbHatch
 10
0
 20
0
 30
0
210
0
220
0
230
1
  2
SOLID
 70
1
 71
0
 91
1
 92
2
 72
0
 73
1
 93
23
 10
-598359.53
 20
-1157417.25
 10
-598362.3298
 20
-1157403.5705
 10
-598374.16
 20
-1157448.34
 10
-598386.9362
 20
-1157513.9519
 10
-598395.07
 20
-1157563.52
 10
-598386.272
 20
-1157629.86
 10
-598385.4535
 20
-1157696.4612
 10
-598341.6421
 20
-1157745.8149
 10
-598301.7384
 20
-1157800.1335
 10
-598288.4562
 20
-1157836.2889
 10
-598291.08
 20
-1157881.34
 10
-598293.9703
 20
-1157932.9686
 10
-598283.54
 20
-1157918.62
 10
-598280.8846
 20
-1157856.4232
 10
-598278.3091
 20
-1157834.8257
 10
-598295.0207
 20
-1157797.5947
 10
-598334.1098
 20
-1157743.5547
 10
-598376.9922
 20
-1157693.0304
 10
-598378.5977
 20
-1157626.7366
 10
-598388.1927
 20
-1157564.8412
 10
-598377.7823
 20
-1157515.2456
 10
-598367.08
 20
-1157447.14
 10
-598359.53
 20
-1157417.25
 97
0
 75
0
 76
1
 98
0
  0
HATCH
  5
2000E
100
AcDbEntity
  8
vodní toky před regulací
100
AcDbHatch
 10
0
 20
0
 30
0
210
0
220
0
230
1
  2
SOLID
 70
1
 71
0
 91
1
 92
2
 72
0
 73
1
 93
24
 10
-598378.6648
 20
-1157024.8773
 10
-598387.7704
 20
-1157030.3119
 10
-598395.1211
 20
-1157055.9847
 10
-598393.9849
 20
-1157087.796
 10
-598386.3905
 20
-1157118.7084
 10
-598368.5048
 20
-1157151.0373
 10
-598341.8414
 20
-1157196.5535
 10
-598341.1248
 20
-1157200.5273
 10
-598345.0111
 20
-1157220.4808
 10
-598343.0966
 20
-1157250.6554
 10
-598339.2461
 20
-1157277.3436
 10
-598328.2561
 20
-1157347.6833
 10
-598323.14
 20
-1157364.27
 10
-598323.295
 20
-1157349.7762
 10
-598326.586
 20
-1157316.706
 10
-598336.5008
 20
-1157251.3151
 10
-598338.0544
 20
-1157222.1847
 10
-598333.2148
 20
-1157199.0673
 10
-598334.85
 20
-1157193.0542
 10
-598350.7448
 20
-1157166.9573
 10
-598376.895
 20
-1157123.9178
 10
-598386.4248
 20
-1157086.4373
 10
-598387.7704
 20
-1157053.2278
 10
-598378.6648
 20
-1157024.8773
 97
0
 75
0
 76
1
 98
0
  0
HATCH
  5
2000F
100
AcDbEntity
  8
vodní toky před regulací
100
AcDbHatch
 10
0
 20
0
 30
0
210
0
220
0
230
1
  2
SOLID
 70
1
 71
0
 91
1
 92
2
 72
0
 73
1
 93
27
 10
-595667.2179
 20
-1159101.8949
 10
-595649.4822
 20
-1159119.4872
 10
-595630.7906
 20
-1159164.4261
 10
-595639.4816
 20
-1159183.0497
 10
-595664.9567
 20
-1159199.2272
 10
-595685.7417
 20
-1159201.6918
 10
-595706.5266
 20
-1159204.1565
 10
-595744.8167
 20
-1159206.6293
 10
-595772.1347
 20
-1159244.9307
 10
-595753.2292
 20
-1159246.6705
 10
-595714.5969
 20
-1159243.2661
 10
-595687.096
 20
-1159240.5612
 10
-595670.7501
 20
-1159236.378
 10
-595655.233
 20
-1159232.3615
 10
-595638.2814
 20
-1159227.6546
 10
-595618.895
 20
-1159220.77
 10
-595605.1055
 20
-1159211.2955
 10
-595596.1041
 20
-1159201.3629
 10
-595587.1027
 20
-1159191.4303
 10
-595584.8866
 20
-1159176.5333
 10
-595582.6704
 20
-1159161.6363
 10
-595584.3822
 20
-1159151.5466
 10
-595586.0939
 20
-1159141.457
 10
-595591.8109
 20
-1159128.1558
 10
-595605.3582
 20
-1159097.4526
 10
-595627.73
 20
-1159047.17
 10
-595667.2179
 20
-1159101.8949
 97
0
 75
0
 76
1
 98
0
  0
HATCH
  5
20010
100
AcDbEntity
  8
vodní toky před regulací
100
AcDbHatch
 10
0
 20
0
 30
0
210
0
220
0
230
1
  2
SOLID
 70
1
 71
0
 91
1
 92
2
 72
0
 73
1
 93
22
 10
-597934.3925
 20
-1161358.5781
 10
-597941.813
 20
-1161356.9523
 10
-597946.4516
 20
-1161356.6149
 10
-597959.2713
 20
-1161357.7983
 10
-597972.617
 20
-1161362.1207
 10
-597991.5508
 20
-1161369.3697
 10
-598013.6402
 20
-1161379.8877
 10
-598045.6567
 20
-1161397.5067
 10
-598069.6743
 20
-1161417.3101
 10
-598081.7683
 20
-1161424.6794
 10
-598099.023
 20
-1161432.2186
 10
-598116.404
 20
-1161437.1036
 10
-598114.3759
 20
-1161446.2344
 10
-598096.8765
 20
-1161442.3198
 10
-598075.8385
 20
-1161433.6118
 10
-598062.2449
 20
-1161426.0953
 10
-598040.7486
 20
-1161407.4312
 10
-598011.5858
 20
-1161390.9324
 10
-597985.7426
 20
-1161379.5524
 10
-597961.494
 20
-1161369.369
 10
-597958.28
 20
-1161368.3514
 10
-597934.3925
 20
-1161358.5781
 97
0
 75
0
 76
1
 98
0
  0
HATCH
  5
20011
100
AcDbEntity
  8
vodní toky před regulací
100
AcDbHatch
 10
0
 20
0
 30
0
210
0
220
0
230
1
  2
SOLID
 70
1
 71
0
 91
1
 92
2
 72
0
 73
1
 93
17
 10
-598116.4287
 20
-1161436.9923
 10
-598123.8207
 20
-1161436.8258
 10
-598133.2748
 20
-1161433.9279
 10
-598156.7635
 20
-1161417.6768
 10
-598192.9622
 20
-1161396.6083
 10
-598219.9618
 20
-1161382.0748
 10
-598277.3699
 20
-1161354.9711
 10
-598280.1952
 20
-1161356.1549
 10
-598280.61
 20
-1161356.28
 10
-598287.51
 20
-1161359.22
 10
-598233.144
 20
-1161385.5416
 10
-598202.3042
 20
-1161402.1086
 10
-598160.34
 20
-1161425.285
 10
-598137.26
 20
-1161441.06
 10
-598126.59
 20
-1161444.89
 10
-598114.3759
 20
-1161446.2344
 10
-598116.4287
 20
-1161436.9923
 97
0
 75
0
 76
1
 98
0
  0
HATCH
  5
20012
100
AcDbEntity
  8
vodní toky před regulací
100
AcDbHatch
 10
0
 20
0
 30
0
210
0
220
0
230
1
  2
SOLID
 70
1
 71
0
 91
1
 92
2
 72
0
 73
1
 93
25
 10
-601071.4329
 20
-1161088.9382
 10
-601064.1379
 20
-1161087.1813
 10
-601069.1396
 20
-1161022.9913
 10
-601064.2527
 20
-1161001.2682
 10
-601046.8384
 20
-1160946.4043
 10
-601029.6126
 20
-1160899.5479
 10
-601005.7873
 20
-1160826.4525
 10
-600971.6731
 20
-1160748.8359
 10
-600960.1678
 20
-1160707.7455
 10
-600959.1816
 20
-1160684.7348
 10
-600959.1793
 20
-1160654.0918
 10
-600961.01
 20
-1160626.38
 10
-600972.6
 20
-1160584.8
 10
-600983.55
 20
-1160583.08
 10
-600969.2056
 20
-1160629.0727
 10
-600966.7422
 20
-1160654.3279
 10
-600967.564
 20
-1160684.7348
 10
-600968.38
 20
-1160706.785
 10
-600979.42
 20
-1160748.34
 10
-601014
 20
-1160824.54
 10
-601041.84
 20
-1160904.32
 10
-601073.2538
 20
-1160999.5135
 10
-601077.3577
 20
-1161022.1694
 10
-601077.6864
 20
-1161037.4551
 10
-601071.4329
 20
-1161088.9382
 97
0
 75
0
 76
1
 98
0
  0
HATCH
  5
20013
100
AcDbEntity
  8
vodní toky před regulací
100
AcDbHatch
 10
0
 20
0
 30
0
210
0
220
0
230
1
  2
SOLID
 70
1
 71
0
 91
1
 92
2
 72
0
 73
1
 93
23
 10
-600983.55
 20
-1160583.08
 10
-600972.6
 20
-1160584.8
 10
-600985.9726
 20
-1160560.313
 10
-600999.08
 20
-1160531.05
 10
-601009.86
 20
-1160495.145
 10
-601019.0819
 20
-1160464.4295
 10
-601031.16
 20
-1160424.44
 10
-601048.54
 20
-1160366.59
 10
-601057.98
 20
-1160336.8
 10
-601061.42
 20
-1160311.61
 10
-601058.965
 20
-1160260.05
 10
-601053.995
 20
-1160172.15
 10
-601048.3993
 20
-1160073.1837
 10
-601040.43
 20
-1159985.94
 10
-601034.48
 20
-1159921.91
 10
-601040.75
 20
-1159925.79
 10
-601052.23
 20
-1160000.66
 10
-601064.7
 20
-1160113.575
 10
-601065.36
 20
-1160208.67
 10
-601070.5697
 20
-1160343.2906
 10
-601038.025
 20
-1160456.81
 10
-601006.4
 20
-1160538.52
 10
-600983.55
 20
-1160583.08
 97
0
 75
0
 76
1
 98
0
  0
HATCH
  5
20014
100
AcDbEntity
  8
vodní toky před regulací
100
AcDbHatch
 10
0
 20
0
 30
0
210
0
220
0
230
1
  2
SOLID
 70
1
 71
0
 91
1
 92
2
 72
0
 73
1
 93
45
 10
-600600.2978
 20
-1161680.8491
 10
-600607.2009
 20
-1161672.2201
 10
-600616.15
 20
-1161661.06
 10
-600630.21
 20
-1161643.35
 10
-600651.38
 20
-1161616.4
 10
-600663.6299
 20
-1161600.8055
 10
-600695.865
 20
-1161558.815
 10
-600718.15
 20
-1161529.45
 10
-600747.15
 20
-1161491.88
 10
-600797.59
 20
-1161436.05
 10
-600835.665
 20
-1161398.68
 10
-600848.73
 20
-1161386.86
 10
-600871.9
 20
-1161369.52
 10
-600896.415
 20
-1161350.965
 10
-600928.14
 20
-1161325.705
 10
-600958.2
 20
-1161299.17
 10
-600981.2061
 20
-1161271.1775
 10
-600997.69
 20
-1161251.23
 10
-601006.58
 20
-1161238.43
 10
-601024.58
 20
-1161208.71
 10
-601042.8417
 20
-1161163.6849
 10
-601054.95
 20
-1161136.56
 10
-601060.623
 20
-1161104.4885
 10
-601064.335
 20
-1161087.51
 10
-601071.305
 20
-1161088.945
 10
-601065.06
 20
-1161121.925
 10
-601043.49
 20
-1161180.57
 10
-601033.19
 20
-1161202.44
 10
-601022.955
 20
-1161218.68
 10
-600977.63
 20
-1161284.68
 10
-600944.78
 20
-1161320.65
 10
-600921.08
 20
-1161340.3
 10
-600878.38
 20
-1161371.4
 10
-600851.87
 20
-1161390.67
 10
-600826.53
 20
-1161414.88
 10
-600798.545
 20
-1161443.71
 10
-600760.855
 20
-1161483.33
 10
-600737.865
 20
-1161511.485
 10
-600700.09
 20
-1161561.915
 10
-600676.28
 20
-1161593.86
 10
-600656.38
 20
-1161620.075
 10
-600636.48
 20
-1161646.29
 10
-600622.63
 20
-1161663.395
 10
-600604.8234
 20
-1161684.7163
 10
-600600.2978
 20
-1161680.8491
 97
0
 75
0
 76
1
 98
0
  0
HATCH
  5
20015
100
AcDbEntity
  8
vodní toky před regulací
100
AcDbHatch
 10
0
 20
0
 30
0
210
0
220
0
230
1
  2
SOLID
 70
1
 71
0
 91
1
 92
2
 72
0
 73
1
 93
54
 10
-599844.18
 20
-1161630.77
 10
-599849.1646
 20
-1161625.0483
 10
-599870.178
 20
-1161643.8693
 10
-599900.7231
 20
-1161671.4575
 10
-599911.1303
 20
-1161675.1477
 10
-599942.4399
 20
-1161678.6302
 10
-600003.1224
 20
-1161680.2597
 10
-600012.9449
 20
-1161681.7531
 10
-600056.0958
 20
-1161701.2283
 10
-600103.4852
 20
-1161722.2903
 10
-600129.6481
 20
-1161733.6851
 10
-600155.811
 20
-1161745.0799
 10
-600189.543
 20
-1161761.4935
 10
-600222.54
 20
-1161776.1
 10
-600272.3252
 20
-1161796.1791
 10
-600321.3753
 20
-1161814.4512
 10
-600341.04
 20
-1161816.88
 10
-600365.6078
 20
-1161818.8791
 10
-600390.3256
 20
-1161818.8308
 10
-600425.1998
 20
-1161814.9481
 10
-600455.305
 20
-1161808.13
 10
-600483.546
 20
-1161799.6221
 10
-600509.9528
 20
-1161777.4477
 10
-600559.1251
 20
-1161721.3643
 10
-600600.044
 20
-1161680.7119
 10
-600604.8234
 20
-1161684.7163
 10
-600573.6297
 20
-1161718.0312
 10
-600542.51
 20
-1161755.2003
 10
-600517.3197
 20
-1161781.8561
 10
-600487.63
 20
-1161807.64
 10
-600457.0957
 20
-1161817.069
 10
-600425.8318
 20
-1161824.6382
 10
-600389.1751
 20
-1161828.8568
 10
-600366.01
 20
-1161828.79
 10
-600343.23
 20
-1161826.65
 10
-600320.64
 20
-1161823.35
 10
-600269.6772
 20
-1161804.0699
 10
-600220.3132
 20
-1161785.4761
 10
-600187.6507
 20
-1161770.2144
 10
-600154.9883
 20
-1161754.9527
 10
-600126.604
 20
-1161743.5579
 10
-600085.45
 20
-1161727.32
 10
-600052.8049
 20
-1161711.7593
 10
-600028.3325
 20
-1161700.2953
 10
-600007.5451
 20
-1161691.7792
 10
-600000.835
 20
-1161690.55
 10
-599978.3866
 20
-1161689.8367
 10
-599943.0977
 20
-1161688.2197
 10
-599918.5797
 20
-1161685.8701
 10
-599904.3839
 20
-1161684.1733
 10
-599894.8402
 20
-1161680.7843
 10
-599864.208
 20
-1161653.9256
 10
-599841.2699
 20
-1161633.8131
 10
-599844.18
 20
-1161630.77
 97
0
 75
0
 76
1
 98
0
  0
HATCH
  5
20016
100
AcDbEntity
  8
vodní toky před regulací
100
AcDbHatch
 10
0
 20
0
 30
0
210
0
220
0
230
1
  2
SOLID
 70
1
 71
0
 91
1
 92
2
 72
0
 73
1
 93
29
 10
-598294.1948
 20
-1157932.8541
 10
-598306.0373
 20
-1157998.3039
 10
-598316.7949
 20
-1158055.7984
 10
-598336.8099
 20
-1158138.5635
 10
-598348.2917
 20
-1158184.5638
 10
-598355.0285
 20
-1158219.3156
 10
-598372.16
 20
-1158305.28
 10
-598380.85
 20
-1158344.07
 10
-598380
 20
-1158355.45
 10
-598371.54
 20
-1158390.57
 10
-598360.15
 20
-1158435.63
 10
-598356.15
 20
-1158453.26
 10
-598350.6
 20
-1158451.95
 10
-598350.48
 20
-1158450.9251
 10
-598352.8228
 20
-1158439.7032
 10
-598359.52
 20
-1158416.82
 10
-598363
 20
-1158402.99
 10
-598366.27
 20
-1158391.7
 10
-598369.88
 20
-1158378.18
 10
-598371.77
 20
-1158368.84
 10
-598374.73
 20
-1158354.32
 10
-598374.5
 20
-1158342.61
 10
-598364.1646
 20
-1158288.3076
 10
-598352.5934
 20
-1158227.1971
 10
-598343.164
 20
-1158184.7652
 10
-598321.1242
 20
-1158099.9832
 10
-598299.5285
 20
-1157995.7727
 10
-598283.54
 20
-1157918.62
 10
-598294.1948
 20
-1157932.8541
 97
0
 75
0
 76
1
 98
0
  0
HATCH
  5
20017
100
AcDbEntity
  8
vodní toky před regulací
100
AcDbHatch
 10
0
 20
0
 30
0
210
0
220
0
230
1
  2
SOLID
 70
1
 71
0
 91
1
 92
2
 72
0
 73
1
 93
7
 10
-598139.9441
 20
-1158182.9883
 10
-598171.0835
 20
-1158343.1339
 10
-598129.0593
 20
-1158334.7553
 10
-598112.5117
 20
-1158324.2278
 10
-598084.61
 20
-1158272.6016
 10
-598049.6725
 20
-1158189.4656
 10
-598139.9441
 20
-1158182.9883
 97
0
 75
0
 76
1
 98
0
  0
HATCH
  5
20018
100
AcDbEntity
  8
vodní toky před regulací
100
AcDbHatch
 10
0
 20
0
 30
0
210
0
220
0
230
1
  2
SOLID
 70
1
 71
0
 91
1
 92
2
 72
0
 73
1
 93
36
 10
-598278.3091
 20
-1157834.8257
 10
-598279.16
 20
-1157848.2
 10
-598236.8811
 20
-1157841.55
 10
-598161.5
 20
-1157857.5
 10
-598149.08
 20
-1157866.68
 10
-598112.9439
 20
-1157905.2219
 10
-598090.9914
 20
-1157931.6083
 10
-598081.099
 20
-1157965.3532
 10
-598091.5667
 20
-1157991.7033
 10
-598088.0019
 20
-1158012.8178
 10
-598064.7831
 20
-1158043.6024
 10
-598040.2921
 20
-1158065.9987
 10
-598030.6781
 20
-1158081.4145
 10
-598030.109
 20
-1158100.0592
 10
-598031.1414
 20
-1158117.0024
 10
-598032.9667
 20
-1158130.2358
 10
-598041.3593
 20
-1158155.9606
 10
-598063.2076
 20
-1158188.1782
 10
-598053.6028
 20
-1158189.2268
 10
-598033.5535
 20
-1158157.2505
 10
-598024.6541
 20
-1158131.0893
 10
-598022.8005
 20
-1158116.6317
 10
-598021.178
 20
-1158092.6253
 10
-598025.2666
 20
-1158075.4832
 10
-598036.5167
 20
-1158059.3574
 10
-598061.4825
 20
-1158036.1591
 10
-598080.4455
 20
-1158011.1655
 10
-598083.2604
 20
-1157992.1284
 10
-598073.4021
 20
-1157963.1589
 10
-598081.465
 20
-1157927.2003
 10
-598111.9
 20
-1157894.74
 10
-598144.61
 20
-1157860.93
 10
-598157.05
 20
-1157851.84
 10
-598171.08
 20
-1157849.54
 10
-598235.98
 20
-1157834.87
 10
-598278.3091
 20
-1157834.8257
 97
0
 75
0
 76
1
 98
0
  0
HATCH
  5
20019
100
AcDbEntity
  8
vodní toky před regulací
100
AcDbHatch
 10
0
 20
0
 30
0
210
0
220
0
230
1
  2
SOLID
 70
1
 71
0
 91
1
 92
2
 72
0
 73
1
 93
13
 10
-598350.9575
 20
-1158451.7864
 10
-598356.5298
 20
-1158452.8633
 10
-598337.0306
 20
-1158481.7083
 10
-598311.1009
 20
-1158514.6718
 10
-598276.9665
 20
-1158524.5908
 10
-598228.6118
 20
-1158532.4943
 10
-598195.6535
 20
-1158539.8539
 10
-598194.0673
 20
-1158532.7507
 10
-598228.4604
 20
-1158525.0707
 10
-598271.3598
 20
-1158518.6639
 10
-598308.4727
 20
-1158508.4296
 10
-598330.6433
 20
-1158480.6441
 10
-598350.9575
 20
-1158451.7864
 97
0
 75
0
 76
1
 98
0
  0
HATCH
  5
2001A
100
AcDbEntity
  8
vodní toky před regulací
100
AcDbHatch
 10
0
 20
0
 30
0
210
0
220
0
230
1
  2
SOLID
 70
1
 71
0
 91
1
 92
2
 72
0
 73
1
 93
15
 10
-598244.9742
 20
-1157842.8539
 10
-598219.5303
 20
-1158059.0794
 10
-598206.29
 20
-1158173.08
 10
-598180.9767
 20
-1158311.9018
 10
-598169.21
 20
-1158402.39
 10
-598183.1151
 20
-1158460.5827
 10
-598187.9507
 20
-1158493.6411
 10
-598195.7355
 20
-1158539.2381
 10
-598188.36
 20
-1158540.97
 10
-598176.6441
 20
-1158463.0578
 10
-598169.9713
 20
-1158437.1082
 10
-598161.07
 20
-1158401.74
 10
-598192.44
 20
-1158183.92
 10
-598239.4253
 20
-1157841.9056
 10
-598244.9742
 20
-1157842.8539
 97
0
 75
0
 76
1
 98
0
  0
HATCH
  5
2001B
100
AcDbEntity
  8
vodní toky před regulací
100
AcDbHatch
 10
0
 20
0
 30
0
210
0
220
0
230
1
  2
SOLID
 70
1
 71
0
 91
1
 92
2
 72
0
 73
1
 93
27
 10
-598187.9507
 20
-1158538.3113
 10
-598196.4769
 20
-1158537.9406
 10
-598179.4244
 20
-1158608.375
 10
-598155.0045
 20
-1158634.3246
 10
-598130.491
 20
-1158656.9377
 10
-598091.7082
 20
-1158737.5926
 10
-598067.9299
 20
-1158824.5892
 10
-598038.933
 20
-1158929.9212
 10
-598010.7895
 20
-1159041.9921
 10
-597970.7161
 20
-1159211.5159
 10
-597965.5751
 20
-1159223.1932
 10
-597964.9944
 20
-1159224.3517
 10
-597963.8001
 20
-1159227.2866
 10
-597963.7747
 20
-1159227.3203
 10
-597955.44
 20
-1159223.88
 10
-597955.5302
 20
-1159223.6667
 10
-597956.942
 20
-1159220.2275
 10
-597971.7423
 20
-1159158.5715
 10
-597998.4893
 20
-1159043.6972
 10
-598026.3467
 20
-1158927.801
 10
-598057.827
 20
-1158821.1813
 10
-598081.7198
 20
-1158732.7952
 10
-598125.7671
 20
-1158647.3661
 10
-598139.2322
 20
-1158635.1622
 10
-598169.7748
 20
-1158607.4804
 10
-598177.5708
 20
-1158583.9084
 10
-598187.9507
 20
-1158538.3113
 97
0
 75
0
 76
1
 98
0
  0
HATCH
  5
2001C
100
AcDbEntity
  8
vodní toky před regulací
100
AcDbHatch
 10
0
 20
0
 30
0
210
0
220
0
230
1
  2
SOLID
 70
1
 71
0
 91
1
 92
2
 72
0
 73
1
 93
29
 10
-598287.4264
 20
-1161359.2698
 10
-598277.06
 20
-1161354.827
 10
-598321.1663
 20
-1161335.1829
 10
-598341.152
 20
-1161326.6364
 10
-598372.0033
 20
-1161317.509
 10
-598378.27
 20
-1161315.42
 10
-598412.9102
 20
-1161309.6421
 10
-598460.41
 20
-1161301.83
 10
-598495.6465
 20
-1161296.1978
 10
-598513.8571
 20
-1161293.8968
 10
-598538.5364
 20
-1161301.7557
 10
-598564.7546
 20
-1161312.7498
 10
-598587.8884
 20
-1161323.8923
 10
-598610.3355
 20
-1161334.9477
 10
-598619.0777
 20
-1161338.3386
 10
-598624.7483
 20
-1161337.837
 10
-598625.6345
 20
-1161343.9749
 10
-598621.055
 20
-1161344.865
 10
-598610.64
 20
-1161343.18
 10
-598580.34
 20
-1161327.41
 10
-598531.42
 20
-1161306.46
 10
-598511.4015
 20
-1161299.6509
 10
-598464.56
 20
-1161306.59
 10
-598417.3888
 20
-1161314.6021
 10
-598380.3322
 20
-1161321.9593
 10
-598343.7817
 20
-1161331.8958
 10
-598324.565
 20
-1161341.1565
 10
-598305.3484
 20
-1161350.4171
 10
-598287.4264
 20
-1161359.2698
 97
0
 75
0
 76
1
 98
0
  0
HATCH
  5
2001D
100
AcDbEntity
  8
vodní toky před regulací
100
AcDbHatch
 10
0
 20
0
 30
0
210
0
220
0
230
1
  2
SOLID
 70
1
 71
0
 91
1
 92
2
 72
0
 73
1
 93
18
 10
-598633.6
 20
-1161331.53
 10
-598647.2485
 20
-1161321.4549
 10
-598683.5864
 20
-1161291.0148
 10
-598707.4755
 20
-1161276.216
 10
-598754.2038
 20
-1161261.0664
 10
-598842.3756
 20
-1161213.0334
 10
-598846.0696
 20
-1161220.6453
 10
-598757.8238
 20
-1161267.9773
 10
-598711.321
 20
-1161282.558
 10
-598686.268
 20
-1161298.196
 10
-598654.9304
 20
-1161325.0605
 10
-598638.9326
 20
-1161336.7269
 10
-598632.3159
 20
-1161341.5399
 10
-598625.6379
 20
-1161343.9974
 10
-598625.1768
 20
-1161340.9056
 10
-598624.5892
 20
-1161337.8699
 10
-598628.7782
 20
-1161335.6162
 10
-598633.6
 20
-1161331.53
 97
0
 75
0
 76
1
 98
0
  0
HATCH
  5
2001E
100
AcDbEntity
  8
vodní toky před regulací
100
AcDbHatch
 10
0
 20
0
 30
0
210
0
220
0
230
1
  2
SOLID
 70
1
 71
0
 91
1
 92
2
 72
0
 73
1
 93
18
 10
-599161.6209
 20
-1161164.8889
 10
-599191.6734
 20
-1161169.087
 10
-599226.9777
 20
-1161176.5216
 10
-599284.9008
 20
-1161206.8997
 10
-599327.4129
 20
-1161233.4011
 10
-599394.7892
 20
-1161274.8143
 10
-599514.9023
 20
-1161349.7569
 10
-599645.6
 20
-1161450
 10
-599640.32
 20
-1161455.83
 10
-599514.6943
 20
-1161362.8171
 10
-599390.6695
 20
-1161282.8025
 10
-599321.3042
 20
-1161241.1669
 10
-599277.7887
 20
-1161214.4102
 10
-599239.4514
 20
-1161192.6973
 10
-599221.8769
 20
-1161184.5969
 10
-599191.5684
 20
-1161177.2299
 10
-599160.0511
 20
-1161171.9425
 10
-599161.6209
 20
-1161164.8889
 97
0
 75
0
 76
1
 98
0
  0
HATCH
  5
2001F
100
AcDbEntity
  8
vodní toky před regulací
100
AcDbHatch
 10
0
 20
0
 30
0
210
0
220
0
230
1
  2
SOLID
 70
1
 71
0
 91
1
 92
2
 72
0
 73
1
 93
16
 10
-599049.7293
 20
-1161152.3011
 10
-599053.0764
 20
-1161159.3066
 10
-599009.9091
 20
-1161174.6795
 10
-598940.1642
 20
-1161199.5171
 10
-598901.3654
 20
-1161214.3219
 10
-598883.2082
 20
-1161220.0943
 10
-598868.4031
 20
-1161220.2253
 10
-598846.0207
 20
-1161220.4234
 10
-598841.6951
 20
-1161213.4604
 10
-598855.9112
 20
-1161211.6905
 10
-598869.3495
 20
-1161212.3221
 10
-598884.1955
 20
-1161211.5379
 10
-598900.9162
 20
-1161206.0871
 10
-598934.2177
 20
-1161194.7541
 10
-598997.0744
 20
-1161173.3631
 10
-599049.7293
 20
-1161152.3011
 97
0
 75
0
 76
1
 98
0
  0
HATCH
  5
20020
100
AcDbEntity
  8
vodní toky před regulací
100
AcDbHatch
 10
0
 20
0
 30
0
210
0
220
0
230
1
  2
SOLID
 70
1
 71
0
 91
1
 92
2
 72
0
 73
1
 93
13
 10
-599640.32
 20
-1161455.83
 10
-599645.6
 20
-1161450
 10
-599681.7682
 20
-1161480.3606
 10
-599722.0093
 20
-1161514.182
 10
-599797.0996
 20
-1161577.3248
 10
-599839.6329
 20
-1161616.2811
 10
-599849.446
 20
-1161624.8192
 10
-599842.3462
 20
-1161632.8649
 10
-599833.67
 20
-1161625.5472
 10
-599789.2014
 20
-1161584.8939
 10
-599718.4463
 20
-1161522.9422
 10
-599675.5758
 20
-1161485.2972
 10
-599640.32
 20
-1161455.83
 97
0
 75
0
 76
1
 98
0
  0
HATCH
  5
20021
100
AcDbEntity
  8
vodní toky před regulací
100
AcDbHatch
 10
0
 20
0
 30
0
210
0
220
0
230
1
  2
SOLID
 70
1
 71
0
 91
1
 92
2
 72
0
 73
1
 93
21
 10
-598944.04
 20
-1161731.03
 10
-598950
 20
-1161794.25
 10
-598944.682
 20
-1161853.9263
 10
-598939.385
 20
-1161880.41
 10
-598933.605
 20
-1161901.125
 10
-598921.86
 20
-1161934.91
 10
-598893.84
 20
-1161963.41
 10
-598833.48
 20
-1161958.82
 10
-598735.14
 20
-1161924.17
 10
-598747.8477
 20
-1161912.3787
 10
-598799.175
 20
-1161933.41
 10
-598835.0569
 20
-1161946.075
 10
-598887.7148
 20
-1161952.5667
 10
-598902.7385
 20
-1161939.4021
 10
-598913.8599
 20
-1161926.692
 10
-598921.486
 20
-1161904.4492
 10
-598927.165
 20
-1161881.37
 10
-598934.1961
 20
-1161850.431
 10
-598938.0092
 20
-1161794.5063
 10
-598931.6
 20
-1161739.49
 10
-598944.04
 20
-1161731.03
 97
0
 75
0
 76
1
 98
0
  0
HATCH
  5
20022
100
AcDbEntity
  8
vodní toky před regulací
100
AcDbHatch
 10
0
 20
0
 30
0
210
0
220
0
230
1
  2
SOLID
 70
1
 71
0
 91
1
 92
2
 72
0
 73
1
 93
33
 10
-596743.9396
 20
-1161420.4074
 10
-596840.0192
 20
-1161428.1885
 10
-596953.143
 20
-1161444.1589
 10
-597037.9283
 20
-1161456.1286
 10
-597084.8844
 20
-1161454.8697
 10
-597103.8639
 20
-1161452.2273
 10
-597123.4942
 20
-1161453.475
 10
-597147.1171
 20
-1161463.6417
 10
-597158.6375
 20
-1161471.5665
 10
-597187.3759
 20
-1161490.7393
 10
-597205.0337
 20
-1161513.027
 10
-597211.3315
 20
-1161526.8466
 10
-597220.9841
 20
-1161558.6171
 10
-597222.6439
 20
-1161596.7929
 10
-597217.9859
 20
-1161638.4657
 10
-597213.9933
 20
-1161731.6265
 10
-597244.3537
 20
-1161843.9602
 10
-597232.8745
 20
-1161855.8606
 10
-597198.0229
 20
-1161731.6265
 10
-597204.6772
 20
-1161638.4657
 10
-597206.6735
 20
-1161565.5175
 10
-597196.7482
 20
-1161532.9112
 10
-597187.3759
 20
-1161516.0258
 10
-597158.1879
 20
-1161488.2781
 10
-597135.8514
 20
-1161477.0866
 10
-597118.7347
 20
-1161468.5104
 10
-597105.9462
 20
-1161466.5341
 10
-597085.8068
 20
-1161468.2657
 10
-597047.6347
 20
-1161470.7763
 10
-596945.1578
 20
-1161458.7984
 10
-596842.6809
 20
-1161446.8206
 10
-596741.9248
 20
-1161437.5571
 10
-596743.9396
 20
-1161420.4074
 97
0
 75
0
 76
1
 98
0
  0
HATCH
  5
20023
100
AcDbEntity
  8
vodní toky před regulací
100
AcDbHatch
 10
0
 20
0
 30
0
210
0
220
0
230
1
  2
SOLID
 70
1
 71
0
 91
1
 92
2
 72
0
 73
1
 93
51
 10
-596647.4904
 20
-1160911.5668
 10
-596642.9904
 20
-1160893.4386
 10
-596701.1684
 20
-1160953.703
 10
-596785.6245
 20
-1161039.0861
 10
-596802.4434
 20
-1161074.6216
 10
-596815.9844
 20
-1161107.7934
 10
-596832.413
 20
-1161156.4726
 10
-596848.1204
 20
-1161196.5124
 10
-596860.9823
 20
-1161240.6736
 10
-596886.1665
 20
-1161305.1751
 10
-596896.9676
 20
-1161336.314
 10
-596911.0909
 20
-1161445.448
 10
-596925.2141
 20
-1161554.582
 10
-596934.2016
 20
-1161615.5686
 10
-596947.1799
 20
-1161659.5252
 10
-596980.6069
 20
-1161720.8443
 10
-597012.5213
 20
-1161797.2447
 10
-597022.7927
 20
-1161849.8858
 10
-597008.0275
 20
-1161957.0939
 10
-597005.9276
 20
-1162043.9722
 10
-597020.8668
 20
-1162143.2636
 10
-597039.3437
 20
-1162202.6979
 10
-597046.0124
 20
-1162237.5952
 10
-597069.0142
 20
-1162435.3576
 10
-597057.0748
 20
-1162463.3133
 10
-597054.9368
 20
-1162437.8139
 10
-597045.9034
 20
-1162330.0754
 10
-597025.9318
 20
-1162207.2583
 10
-597007.3986
 20
-1162149.7447
 10
-596992.5894
 20
-1162045.5391
 10
-596997.0751
 20
-1161951.4602
 10
-597011.1213
 20
-1161851.1575
 10
-597002.2498
 20
-1161806.2322
 10
-596970.6331
 20
-1161725.9866
 10
-596939.6567
 20
-1161671.4196
 10
-596923.7158
 20
-1161625.5504
 10
-596915.1158
 20
-1161548.1421
 10
-596902.1034
 20
-1161437.1025
 10
-596892.4739
 20
-1161354.931
 10
-596876.3656
 20
-1161310.5408
 10
-596855.8345
 20
-1161257.1577
 10
-596848.5209
 20
-1161237.029
 10
-596836.5157
 20
-1161196.9029
 10
-596830.0521
 20
-1161178.5401
 10
-596823.6422
 20
-1161159.2109
 10
-596807.1033
 20
-1161111.3949
 10
-596795.4759
 20
-1161081.6165
 10
-596776.2122
 20
-1161046.7377
 10
-596714.8316
 20
-1160979.794
 10
-596697.3166
 20
-1160962.0486
 10
-596647.4904
 20
-1160911.5668
 97
0
 75
0
 76
1
 98
0
  0
HATCH
  5
20024
100
AcDbEntity
  8
vodní toky před regulací
100
AcDbHatch
 10
0
 20
0
 30
0
210
0
220
0
230
1
  2
SOLID
 70
1
 71
0
 91
1
 92
2
 72
0
 73
1
 93
24
 10
-596996.4722
 20
-1161973.143
 10
-596964.3739
 20
-1161928.8474
 10
-596933.2386
 20
-1161905.0947
 10
-596892.4739
 20
-1161875.5643
 10
-596862.548
 20
-1161853.4706
 10
-596836.623
 20
-1161804.9482
 10
-596814.1542
 20
-1161754.875
 10
-596796.8211
 20
-1161688.1107
 10
-596782.6979
 20
-1161582.1865
 10
-596766.0068
 20
-1161554.582
 10
-596736.637
 20
-1161520.8789
 10
-596736.6185
 20
-1161508.0406
 10
-596766.0068
 20
-1161543.0266
 10
-596785.2658
 20
-1161576.4088
 10
-596788.9637
 20
-1161582.8185
 10
-596795.5372
 20
-1161634.1856
 10
-596802.1108
 20
-1161685.5528
 10
-596817.364
 20
-1161743.3196
 10
-596821.5766
 20
-1161759.2735
 10
-596866.9503
 20
-1161848.8997
 10
-596936.7694
 20
-1161899.317
 10
-596968.2257
 20
-1161922.4278
 10
-596998.2914
 20
-1161966.0382
 10
-596996.4722
 20
-1161973.143
 97
0
 75
0
 76
1
 98
0
  0
HATCH
  5
20025
100
AcDbEntity
  8
vodní toky před regulací
100
AcDbHatch
 10
0
 20
0
 30
0
210
0
220
0
230
1
  2
SOLID
 70
1
 71
0
 91
1
 92
2
 72
0
 73
1
 93
15
 10
-596708.3608
 20
-1162318.5236
 10
-596784.2508
 20
-1162369.1515
 10
-596845.7172
 20
-1162401.6547
 10
-596901.0089
 20
-1162437.1384
 10
-596936.8909
 20
-1162467.6163
 10
-596975.6588
 20
-1162507.223
 10
-597014.3323
 20
-1162556.2472
 10
-597011.8793
 20
-1162561.1827
 10
-596969.8743
 20
-1162510.2696
 10
-596934.0411
 20
-1162473.9304
 10
-596896.2652
 20
-1162442.0658
 10
-596840.3937
 20
-1162406.045
 10
-596782.3042
 20
-1162375.1362
 10
-596708.326
 20
-1162327.2862
 10
-596708.3608
 20
-1162318.5236
 97
0
 75
0
 76
1
 98
0
  0
HATCH
  5
20026
100
AcDbEntity
  8
vodní toky před regulací
100
AcDbHatch
 10
0
 20
0
 30
0
210
0
220
0
230
1
  2
SOLID
 70
1
 71
0
 91
1
 92
2
 72
0
 73
1
 93
58
 10
-597028.0889
 20
-1161841.7007
 10
-597080.0881
 20
-1161817.948
 10
-597137.8649
 20
-1161778.7882
 10
-597197.5676
 20
-1161722.9372
 10
-597262.2456
 20
-1161665.5616
 10
-597272.0509
 20
-1161657.3766
 10
-597284.2613
 20
-1161641.8366
 10
-597288.8631
 20
-1161629.1301
 10
-597292.5784
 20
-1161615.0872
 10
-597292.8994
 20
-1161599.0837
 10
-597284.8748
 20
-1161536.7675
 10
-597266.752
 20
-1161471.1771
 10
-597257.0296
 20
-1161383.6589
 10
-597258.1346
 20
-1161370.0213
 10
-597262.406
 20
-1161343.9373
 10
-597265.26
 20
-1161319.4696
 10
-597273.3194
 20
-1161268.4262
 10
-597270.7516
 20
-1161200.378
 10
-597254.0605
 20
-1161138.7494
 10
-597228.1566
 20
-1161043.1041
 10
-597188.5801
 20
-1160952.5796
 10
-597170.4097
 20
-1160911.0179
 10
-597174.4285
 20
-1160910.9426
 10
-597203.6663
 20
-1160978.9001
 10
-597219.9071
 20
-1161016.6488
 10
-597230.833
 20
-1161042.0439
 10
-597237.5299
 20
-1161068.6147
 10
-597254.3815
 20
-1161128.3174
 10
-597266.2578
 20
-1161176.7858
 10
-597272.1211
 20
-1161200.7141
 10
-597273.4799
 20
-1161227.0195
 10
-597275.6071
 20
-1161268.1973
 10
-597272.838
 20
-1161283.9939
 10
-597268.3442
 20
-1161318.981
 10
-597265.9368
 20
-1161337.6782
 10
-597264.6284
 20
-1161345.5465
 10
-597260.1212
 20
-1161371.2058
 10
-597259.6777
 20
-1161384.1404
 10
-597264.8568
 20
-1161432.1271
 10
-597268.9268
 20
-1161470.0097
 10
-597276.2083
 20
-1161499.2125
 10
-597287.6173
 20
-1161536.3435
 10
-597290.9536
 20
-1161557.4856
 10
-597294.6648
 20
-1161588.8987
 10
-597296.0456
 20
-1161604.9521
 10
-597295.6055
 20
-1161616.7679
 10
-597291.0157
 20
-1161632.8214
 10
-597286.3192
 20
-1161644.2966
 10
-597274.1292
 20
-1161660.7469
 10
-597266.1266
 20
-1161668.3663
 10
-597244.2665
 20
-1161687.062
 10
-597193.7158
 20
-1161731.9247
 10
-597140.6508
 20
-1161781.9474
 10
-597097.7421
 20
-1161810.2444
 10
-597084.3638
 20
-1161819.0671
 10
-597022.5149
 20
-1161849.204
 10
-597021.447
 20
-1161843.6127
 10
-597028.0889
 20
-1161841.7007
 97
0
 75
0
 76
1
 98
0
  0
HATCH
  5
20027
100
AcDbEntity
  8
vodní toky před regulací
100
AcDbHatch
 10
0
 20
0
 30
0
210
0
220
0
230
1
  2
SOLID
 70
1
 71
0
 91
1
 92
2
 72
0
 73
1
 93
8
 10
-596706.8206
 20
-1162366.153
 10
-596707.0322
 20
-1162360.1386
 10
-596731.3
 20
-1162365.07
 10
-596782.3042
 20
-1162375.1362
 10
-596802.3581
 20
-1162385.6856
 10
-596737.3251
 20
-1162372.5137
 10
-596712.5899
 20
-1162367.5038
 10
-596706.8206
 20
-1162366.153
 97
0
 75
0
 76
1
 98
0
  0
HATCH
  5
20028
100
AcDbEntity
  8
vodní toky před regulací
100
AcDbHatch
 10
0
 20
0
 30
0
210
0
220
0
230
1
  2
SOLID
 70
1
 71
0
 91
1
 92
2
 72
0
 73
1
 93
44
 10
-597442.4425
 20
-1161645.4815
 10
-597459.048
 20
-1161635.5356
 10
-597483.3732
 20
-1161617.8619
 10
-597517.6576
 20
-1161547.251
 10
-597523.9789
 20
-1161533.2146
 10
-597528.032
 20
-1161526.996
 10
-597531.0653
 20
-1161523.5197
 10
-597534.9659
 20
-1161520.5183
 10
-597539.7949
 20
-1161517.7092
 10
-597614.415
 20
-1161503.1615
 10
-597627.704
 20
-1161495.0864
 10
-597636.4069
 20
-1161486.2356
 10
-597686.59
 20
-1161405.93
 10
-597704.7447
 20
-1161379.3278
 10
-597714.9273
 20
-1161372.3072
 10
-597734.867
 20
-1161364.8407
 10
-597793.3737
 20
-1161368.1597
 10
-597875.7141
 20
-1161366.6816
 10
-597903.7004
 20
-1161365.1604
 10
-597929.4102
 20
-1161359.9479
 10
-597934.427
 20
-1161358.598
 10
-597957.95
 20
-1161368.31
 10
-597949.7844
 20
-1161367.2359
 10
-597944.7752
 20
-1161367.5644
 10
-597939.1502
 20
-1161368.3445
 10
-597934.0588
 20
-1161369.4736
 10
-597905.5229
 20
-1161376.002
 10
-597792.0649
 20
-1161379.3278
 10
-597734.8193
 20
-1161375.8715
 10
-597721.4967
 20
-1161381.2235
 10
-597713.9381
 20
-1161386.1282
 10
-597664.6711
 20
-1161460.7225
 10
-597642.3117
 20
-1161497.2443
 10
-597631.7208
 20
-1161506.04
 10
-597618.3566
 20
-1161513.1799
 10
-597545.5698
 20
-1161527.3323
 10
-597540.4268
 20
-1161530.58
 10
-597536.9879
 20
-1161533.6579
 10
-597532.2224
 20
-1161540.755
 10
-597524.6601
 20
-1161558.7759
 10
-597491.9971
 20
-1161623.1641
 10
-597439.3397
 20
-1161657.2147
 10
-597439.9966
 20
-1161653.273
 10
-597442.4425
 20
-1161645.4815
 97
0
 75
0
 76
1
 98
0
  0
HATCH
  5
20029
100
AcDbEntity
  8
vodní toky před regulací
100
AcDbHatch
 10
0
 20
0
 30
0
210
0
220
0
230
1
  2
SOLID
 70
1
 71
0
 91
1
 92
2
 72
0
 73
1
 93
31
 10
-597420.27
 20
-1160954.08
 10
-597420.83
 20
-1160952.08
 10
-597429.23
 20
-1160953.15
 10
-597427.79
 20
-1160963.6
 10
-597427.55
 20
-1160965.56
 10
-597427.64
 20
-1160974.35
 10
-597429.3213
 20
-1160989.3294
 10
-597431.94
 20
-1161011.45
 10
-597433.06
 20
-1161013.93
 10
-597434.9053
 20
-1161028.0069
 10
-597442.51
 20
-1161090.5
 10
-597444.3489
 20
-1161103.966
 10
-597445.81
 20
-1161113.36
 10
-597447.59
 20
-1161118.82
 10
-597450.17
 20
-1161126.72
 10
-597455.08
 20
-1161137.64
 10
-597462.95
 20
-1161157.16
 10
-597465.29
 20
-1161166.12
 10
-597469.48
 20
-1161183.27
 10
-597471
 20
-1161190.73
 10
-597471.1
 20
-1161191.45
 10
-597462.86
 20
-1161193.21
 10
-597462.22
 20
-1161193.3
 10
-597461.98
 20
-1161192.77
 10
-597457.09
 20
-1161167.41
 10
-597455.66
 20
-1161160.43
 10
-597438.45
 20
-1161120.58
 10
-597428.7465
 20
-1161047.3457
 10
-597419.38
 20
-1160972.5
 10
-597420.56
 20
-1160970.45
 10
-597420.27
 20
-1160954.08
 97
0
 75
0
 76
1
 98
0
  0
HATCH
  5
2002A
100
AcDbEntity
  8
vodní toky před regulací
100
AcDbHatch
 10
0
 20
0
 30
0
210
0
220
0
230
1
  2
SOLID
 70
1
 71
0
 91
1
 92
2
 72
0
 73
1
 93
10
 10
-597401.85
 20
-1161673.91
 10
-597407.01
 20
-1161684.12
 10
-597392.25
 20
-1161696.79
 10
-597379.06
 20
-1161707.35
 10
-597366.43
 20
-1161714.25
 10
-597360.57
 20
-1161705.88
 10
-597378.23
 20
-1161694.8
 10
-597384.54
 20
-1161688.68
 10
-597392.28
 20
-1161681.18
 10
-597401.85
 20
-1161673.91
 97
0
 75
0
 76
1
 98
0
  0
HATCH
  5
2002B
100
AcDbEntity
  8
vodní toky před regulací
100
AcDbHatch
 10
0
 20
0
 30
0
210
0
220
0
230
1
  2
SOLID
 70
1
 71
0
 91
1
 92
2
 72
0
 73
1
 93
12
 10
-595953.7173
 20
-1159480.2059
 10
-595970.5663
 20
-1159473.2035
 10
-596020.9598
 20
-1159583.1928
 10
-596025.9992
 20
-1159598.4204
 10
-596018.9879
 20
-1159624.4935
 10
-595996.4204
 20
-1159688.3618
 10
-595968.3753
 20
-1159754.9689
 10
-595960.0056
 20
-1159729.8598
 10
-595992.9147
 20
-1159646.2942
 10
-596007.0209
 20
-1159599.6146
 10
-595987.6563
 20
-1159547.6982
 10
-595953.7173
 20
-1159480.2059
 97
0
 75
0
 76
1
 98
0
  0
HATCH
  5
2002C
100
AcDbEntity
  8
vodní toky před regulací
100
AcDbHatch
 10
0
 20
0
 30
0
210
0
220
0
230
1
  2
SOLID
 70
1
 71
0
 91
1
 92
2
 72
0
 73
1
 93
40
 10
-596692.3756
 20
-1160074.0927
 10
-596675.3601
 20
-1160183.2415
 10
-596661.5942
 20
-1160216.8497
 10
-596649.1482
 20
-1160242.2633
 10
-596601.3269
 20
-1160285.0179
 10
-596595.4238
 20
-1160293.9855
 10
-596585.9221
 20
-1160336.065
 10
-596578.7676
 20
-1160367.7496
 10
-596571.1787
 20
-1160457.8695
 10
-596568.9613
 20
-1160492.9881
 10
-596562.0508
 20
-1160519.6411
 10
-596549.6185
 20
-1160550.4516
 10
-596539.8953
 20
-1160574.5483
 10
-596533.5012
 20
-1160600.7059
 10
-596529.807
 20
-1160651.7056
 10
-596535.245
 20
-1160700.9515
 10
-596547.5048
 20
-1160738.1522
 10
-596558.0735
 20
-1160764.7853
 10
-596574.5584
 20
-1160804.5168
 10
-596561.678
 20
-1160799.8386
 10
-596541.1107
 20
-1160746.5543
 10
-596526.3673
 20
-1160703.4677
 10
-596518.2707
 20
-1160652.2688
 10
-596524.6763
 20
-1160597.7305
 10
-596534.3467
 20
-1160565.6177
 10
-596540.7408
 20
-1160545.3786
 10
-596551.7323
 20
-1160518.7454
 10
-596559.7645
 20
-1160493.3805
 10
-596562.301
 20
-1160458.715
 10
-596566.7398
 20
-1160404.1804
 10
-596569.4965
 20
-1160364.0954
 10
-596577.8043
 20
-1160326.5531
 10
-596587.8245
 20
-1160292.4161
 10
-596596.1837
 20
-1160280.0364
 10
-596644.6842
 20
-1160234.1824
 10
-596655.0416
 20
-1160210.9312
 10
-596665.9818
 20
-1160180.6514
 10
-596676.0997
 20
-1160112.7742
 10
-596683.0751
 20
-1160067.1173
 10
-596692.3756
 20
-1160074.0927
 97
0
 75
0
 76
1
 98
0
  0
HATCH
  5
2002D
100
AcDbEntity
  8
vodní toky před regulací
100
AcDbHatch
 10
0
 20
0
 30
0
210
0
220
0
230
1
  2
SOLID
 70
1
 71
0
 91
1
 92
2
 72
0
 73
1
 93
42
 10
-596565.9193
 20
-1160413.4386
 10
-596525.6564
 20
-1160412.7147
 10
-596478.7459
 20
-1160408.0644
 10
-596441.0635
 20
-1160396.7972
 10
-596424.3269
 20
-1160391.0811
 10
-596416.987
 20
-1160387.854
 10
-596411.3999
 20
-1160384.0113
 10
-596406.3606
 20
-1160379.9207
 10
-596402.8549
 20
-1160374.6995
 10
-596396.7201
 20
-1160360.9954
 10
-596390.147
 20
-1160329.5644
 10
-596385.3268
 20
-1160287.0586
 10
-596381.3617
 20
-1160279.8282
 10
-596364.512
 20
-1160258.5753
 10
-596356.8643
 20
-1160250.4685
 10
-596345.4502
 20
-1160238.4179
 10
-596336.2479
 20
-1160231.8448
 10
-596331.4276
 20
-1160230.5302
 10
-596230.404
 20
-1160243.4544
 10
-596169.6721
 20
-1160242.4154
 10
-596132.3733
 20
-1160245.8126
 10
-596127.7208
 20
-1160232.0899
 10
-596170.9609
 20
-1160228.2444
 10
-596229.6683
 20
-1160227.7491
 10
-596329.2366
 20
-1160212.5638
 10
-596338.6545
 20
-1160213.6183
 10
-596347.0248
 20
-1160217.3841
 10
-596358.1581
 20
-1160227.0246
 10
-596377.2607
 20
-1160248.7281
 10
-596397.1583
 20
-1160275.2271
 10
-596402.417
 20
-1160285.2969
 10
-596407.2633
 20
-1160329.6366
 10
-596413.6975
 20
-1160360.0395
 10
-596416.3297
 20
-1160365.7508
 10
-596418.8494
 20
-1160369.6053
 10
-596423.2314
 20
-1160372.735
 10
-596431.2411
 20
-1160377.0388
 10
-596443.4261
 20
-1160381.1874
 10
-596480.3361
 20
-1160394.8725
 10
-596525.593
 20
-1160398.7639
 10
-596567.6596
 20
-1160400.8086
 10
-596565.9193
 20
-1160413.4386
 97
0
 75
0
 76
1
 98
0
  0
HATCH
  5
2002E
100
AcDbEntity
  8
vodní toky před regulací
100
AcDbHatch
 10
0
 20
0
 30
0
210
0
220
0
230
1
  2
SOLID
 70
1
 71
0
 91
1
 92
2
 72
0
 73
1
 93
33
 10
-597174.3346
 20
-1160911.006
 10
-597170.1092
 20
-1160910.5917
 10
-597161.055
 20
-1160890.5299
 10
-597155.3386
 20
-1160884.9253
 10
-597112.572
 20
-1160844.8905
 10
-597074.5356
 20
-1160808.0567
 10
-597059.9559
 20
-1160779.6608
 10
-597050.8139
 20
-1160746.6227
 10
-597045.7363
 20
-1160710.2048
 10
-597042.2533
 20
-1160690.0826
 10
-597041.5062
 20
-1160670.2808
 10
-597071.7928
 20
-1160597.0332
 10
-597100.5398
 20
-1160549.6853
 10
-597126.7502
 20
-1160525.1659
 10
-597228.21
 20
-1160444.8436
 10
-597246.7694
 20
-1160430.1507
 10
-597247.3922
 20
-1160432.9538
 10
-597201.1541
 20
-1160471.054
 10
-597135.7865
 20
-1160522.8936
 10
-597132.0677
 20
-1160525.6415
 10
-597103.4504
 20
-1160552.5008
 10
-597081.0933
 20
-1160590.2693
 10
-597074.5416
 20
-1160601.6306
 10
-597045.4239
 20
-1160671.1729
 10
-597045.7675
 20
-1160690.0663
 10
-597047.1406
 20
-1160699.5585
 10
-597048.5527
 20
-1160707.9198
 10
-597054.6187
 20
-1160746.6684
 10
-597064.1834
 20
-1160779.6608
 10
-597077.4644
 20
-1160806.7585
 10
-597134.3597
 20
-1160859.9831
 10
-597164.7688
 20
-1160889.5828
 10
-597174.3346
 20
-1160911.006
 97
0
 75
0
 76
1
 98
0
  0
HATCH
  5
2002F
100
AcDbEntity
  8
vodní toky před regulací
100
AcDbHatch
 10
0
 20
0
 30
0
210
0
220
0
230
1
  2
SOLID
 70
1
 71
0
 91
1
 92
2
 72
0
 73
1
 93
55
 10
-597655.35
 20
-1160134.16
 10
-597646.68
 20
-1160150.36
 10
-597636.88
 20
-1160165.55
 10
-597620.71
 20
-1160189.74
 10
-597612.83
 20
-1160205.51
 10
-597604.91
 20
-1160230.73
 10
-597601.47
 20
-1160248.14
 10
-597596.29
 20
-1160273.91
 10
-597590.2
 20
-1160304.22
 10
-597570.33
 20
-1160402.99
 10
-597566.76
 20
-1160420.96
 10
-597561.39
 20
-1160450.94
 10
-597554.87
 20
-1160488.56
 10
-597555.03
 20
-1160530.12
 10
-597554.65
 20
-1160536.69
 10
-597553.64
 20
-1160544.18
 10
-597546.05
 20
-1160571.12
 10
-597535.38
 20
-1160602.91
 10
-597525.47
 20
-1160632.9
 10
-597524.14
 20
-1160646.83
 10
-597525.95
 20
-1160662.8
 10
-597525.04
 20
-1160671.56
 10
-597521.38
 20
-1160682.32
 10
-597497.06
 20
-1160753.92
 10
-597492.22
 20
-1160766.72
 10
-597485.3999
 20
-1160786.1606
 10
-597433.12
 20
-1160938.93
 10
-597429.53
 20
-1160953.19
 10
-597420.83
 20
-1160952.08
 10
-597451.8852
 20
-1160868.2876
 10
-597473.49
 20
-1160804.92
 10
-597491.71
 20
-1160751.48
 10
-597500.31
 20
-1160723.86
 10
-597511.8
 20
-1160690.94
 10
-597515.73
 20
-1160680.12
 10
-597519.4
 20
-1160665.19
 10
-597519.36
 20
-1160657.18
 10
-597518.42
 20
-1160638.47
 10
-597519.54
 20
-1160632.11
 10
-597535.62
 20
-1160584.76
 10
-597547.1
 20
-1160550.06
 10
-597548.69
 20
-1160540.82
 10
-597549.02
 20
-1160510.25
 10
-597549.35
 20
-1160479.8
 10
-597559.23
 20
-1160430.87
 10
-597569.11
 20
-1160382.71
 10
-597591.03
 20
-1160273.12
 10
-597599.99
 20
-1160229.16
 10
-597609.75
 20
-1160198.84
 10
-597617.55
 20
-1160185.14
 10
-597639.61
 20
-1160150.7
 10
-597640.58
 20
-1160142.64
 10
-597638.58
 20
-1160132.05
 10
-597639.96
 20
-1160128.3
 10
-597655.35
 20
-1160134.16
 97
0
 75
0
 76
1
 98
0
  0
HATCH
  5
20030
100
AcDbEntity
  8
vodní toky před regulací
100
AcDbHatch
 10
0
 20
0
 30
0
210
0
220
0
230
1
  2
SOLID
 70
1
 71
0
 91
1
 92
2
 72
0
 73
1
 93
43
 10
-595961.8877
 20
-1159725.7849
 10
-595965.81
 20
-1159735.29
 10
-595971.0202
 20
-1159748.5319
 10
-595968.3753
 20
-1159754.9689
 10
-595955.5228
 20
-1159785.8689
 10
-595941.52
 20
-1159832.58
 10
-595887.2548
 20
-1159973.9993
 10
-595852.1969
 20
-1160019.5829
 10
-595809.6823
 20
-1160038.2889
 10
-595780.255
 20
-1160062.072
 10
-595735.0525
 20
-1160110.2862
 10
-595718.4824
 20
-1160135.8042
 10
-595699.2513
 20
-1160167.147
 10
-595692.2777
 20
-1160188.835
 10
-595688.7663
 20
-1160202.7702
 10
-595685.65
 20
-1160224.79
 10
-595685.955
 20
-1160259.265
 10
-595699.38
 20
-1160290.82
 10
-595725.87
 20
-1160303.65
 10
-595795.2566
 20
-1160303.1416
 10
-595903.869
 20
-1160274.0893
 10
-595994.255
 20
-1160251.94
 10
-596128.1998
 20
-1160232.0614
 10
-596132.3733
 20
-1160245.8126
 10
-595902.63
 20
-1160291.8
 10
-595796.355
 20
-1160321.79
 10
-595726.47
 20
-1160322.44
 10
-595686.21
 20
-1160301.98
 10
-595676.4807
 20
-1160277.3148
 10
-595671.2158
 20
-1160256.7817
 10
-595669.1098
 20
-1160225.7189
 10
-595673.1901
 20
-1160198.4731
 10
-595677.9477
 20
-1160181.6299
 10
-595685.2994
 20
-1160162.9351
 10
-595705.3032
 20
-1160130.0944
 10
-595723.8999
 20
-1160101.5338
 10
-595759.866
 20
-1160060.4661
 10
-595798.4248
 20
-1160027.0027
 10
-595838.1127
 20
-1160006.6996
 10
-595870.7391
 20
-1159965.3428
 10
-595920.6398
 20
-1159832.3002
 10
-595945.83
 20
-1159760.55
 10
-595961.8877
 20
-1159725.7849
 97
0
 75
0
 76
1
 98
0
  0
HATCH
  5
20031
100
AcDbEntity
  8
vodní toky před regulací
100
AcDbHatch
 10
0
 20
0
 30
0
210
0
220
0
230
1
  2
SOLID
 70
1
 71
0
 91
1
 92
2
 72
0
 73
1
 93
20
 10
-596574.49
 20
-1160804.27
 10
-596579.4827
 20
-1160812.8087
 10
-596584.9747
 20
-1160823.0081
 10
-596592.9741
 20
-1160837.8642
 10
-596600.9736
 20
-1160852.7203
 10
-596613.4171
 20
-1160865.6717
 10
-596620.9095
 20
-1160872.5269
 10
-596630.743
 20
-1160881.8382
 10
-596643.3198
 20
-1160895.1299
 10
-596647.8883
 20
-1160912.716
 10
-596626.813
 20
-1160890.8128
 10
-596617.1713
 20
-1160880.5382
 10
-596605.0868
 20
-1160868.1558
 10
-596593.0024
 20
-1160855.7735
 10
-596581.8792
 20
-1160837.5203
 10
-596570.756
 20
-1160819.2671
 10
-596564.8375
 20
-1160806.9444
 10
-596561.66
 20
-1160799.815
 10
-596570.65
 20
-1160802.66
 10
-596574.49
 20
-1160804.27
 97
0
 75
0
 76
1
 98
0
  0
HATCH
  5
20032
100
AcDbEntity
  8
vodní toky před regulací
100
AcDbHatch
 10
0
 20
0
 30
0
210
0
220
0
230
1
  2
SOLID
 70
1
 71
0
 91
1
 92
2
 72
0
 73
1
 93
18
 10
-596581.5464
 20
-1161387.0314
 10
-596575.5786
 20
-1161390.0788
 10
-596562.7125
 20
-1161382.7394
 10
-596503.1818
 20
-1161354.8482
 10
-596443.6511
 20
-1161326.9569
 10
-596404.924
 20
-1161295.8633
 10
-596376.5502
 20
-1161270.173
 10
-596348.4
 20
-1161248.13
 10
-596239.58
 20
-1161124.45
 10
-596236.41
 20
-1161116.25
 10
-596241.6068
 20
-1161120.7057
 10
-596351.531
 20
-1161240.7561
 10
-596377.43
 20
-1161261.96
 10
-596409.72
 20
-1161291.74
 10
-596445.8708
 20
-1161321.9624
 10
-596508.8815
 20
-1161351.4352
 10
-596565.7332
 20
-1161378.0271
 10
-596581.5464
 20
-1161387.0314
 97
0
 75
0
 76
1
 98
0
  0
ENDSEC
  0
SECTION
  2
OBJECTS
  0
DICTIONARY
  5
C
330
0
100
AcDbDictionary
281
     1
  3
ACAD_GROUP
350
D
  3
ACAD_LAYOUT
350
1A
  3
ACAD_MLEADERSTYLE
350
43
  3
ACAD_PLOTSETTINGS
350
19
  3
ACAD_PLOTSTYLENAME
350
E
  3
ACAD_TABLESTYLE
350
42
  0
DICTIONARY
  5
D
102
{ACAD_REACTORS
330
C
102
}
330
C
100
AcDbDictionary
281
     1
  0
DICTIONARY
  5
1A
102
{ACAD_REACTORS
330
C
102
}
330
C
100
AcDbDictionary
281
     1
  3
Layout1
350
1E
  3
Model
350
22
  0
DICTIONARY
  5
43
102
{ACAD_REACTORS
330
C
102
}
330
C
100
AcDbDictionary
281
     1
  0
DICTIONARY
  5
19
102
{ACAD_REACTORS
330
C
102
}
330
C
100
AcDbDictionary
281
     1
  0
ACDBDICTIONARYWDFLT
  5
E
102
{ACAD_REACTORS
330
C
102
}
330
C
100
AcDbDictionary
281
     1
  3
Normal
350
F
100
AcDbDictionaryWithDefault
340
F
  0
DICTIONARY
  5
42
102
{ACAD_REACTORS
330
C
102
}
330
C
100
AcDbDictionary
281
     1
  0
LAYOUT
  5
1E
102
{ACAD_REACTORS
330
1A
102
}
330
1A
100
AcDbPlotSettings
  1

  2
none_device
  4

  6

 40
0.0
 41
0.0
 42
0.0
 43
0.0
 44
0.0
 45
0.0
 46
0.0
 47
0.0
 48
0.0
 49
0.0
140
0.0
141
0.0
142
1.0
143
1.0
 70
   688
 72
     0
 73
     0
 74
     5
  7

 75
    16
 76
     0
 77
     2
 78
   300
147
1.0
148
0.0
149
0.0
100
AcDbLayout
  1
Layout1
 70
     1
 71
     1
 10
0.0
 20
0.0
 11
12.0
 21
9.0
 12
0.0
 22
0.0
 32
0.0
 14
1.000000000000000E+20
 24
1.000000000000000E+20
 34
1.000000000000000E+20
 15
-1.000000000000000E+20
 25
-1.000000000000000E+20
 35
-1.000000000000000E+20
146
0.0
 13
0.0
 23
0.0
 33
0.0
 16
1.0
 26
0.0
 36
0.0
 17
0.0
 27
1.0
 37
0.0
 76
     0
330
1B
  0
LAYOUT
  5
22
102
{ACAD_REACTORS
330
1A
102
}
330
1A
100
AcDbPlotSettings
  1

  2
none_device
  4

  6

 40
0.0
 41
0.0
 42
0.0
 43
0.0
 44
0.0
 45
0.0
 46
0.0
 47
0.0
 48
0.0
 49
0.0
140
0.0
141
0.0
142
1.0
143
1.0
 70
  1712
 72
     0
 73
     0
 74
     0
  7

 75
     0
 76
     0
 77
     2
 78
   300
147
1.0
148
0.0
149
0.0
100
AcDbLayout
  1
Model
 70
     1
 71
     0
 10
0.0
 20
0.0
 11
12.0
 21
9.0
 12
0.0
 22
0.0
 32
0.0
 14
30.0
 24
49.75
 34
0.0
 15
130.5
 25
163.1318914119703
 35
0.0
146
0.0
 13
0.0
 23
0.0
 33
0.0
 16
1.0
 26
0.0
 36
0.0
 17
0.0
 27
1.0
 37
0.0
 76
     0
330
1F
331
29
  0
ENDSEC
  0
EOF
