  0
SECTION
  2
HEADER
  9
$ACADVER
  1
AC1018
  9
$ACADMAINTVER
 70
     0
  9
$DWGCODEPAGE
  3
ANSI_1252
  9
$EXTMIN
 10
16.5674516163915
 20
49.1649636154457
 30
0.0
  9
$EXTMAX
 10
16.6422749561246
 20
49.2282308492561
 30
0.0
  9
$LIMMIN
 10
0.0
 20
0.0
  9
$LIMMAX
 10
12.0
 20
9.0
  9
$ORTHOMODE
 70
     0
  9
$REGENMODE
 70
     1
  9
$FILLMODE
 70
     1
  9
$QTEXTMODE
 70
     0
  9
$MIRRTEXT
 70
     1
  9
$LTSCALE
 40
1.0
  9
$ATTMODE
 70
     1
  9
$TEXTSIZE
 40
0.2
  9
$TRACEWID
 40
0.05
  9
$TEXTSTYLE
  7
Standard
  9
$CLAYER
  8
0
  9
$CELTYPE
  6
ByLayer
  9
$CECOLOR
 62
   256
  9
$CELTSCALE
 40
1.0
  9
$DISPSILH
 70
     0
  9
$LUNITS
 70
     2
  9
$LUPREC
 70
     4
  9
$SKETCHINC
 40
0.1
  9
$FILLETRAD
 40
0.5
  9
$AUNITS
 70
     0
  9
$AUPREC
 70
     0
  9
$MENU
  1
.
  9
$ELEVATION
 40
0.0
  9
$PELEVATION
 40
0.0
  9
$THICKNESS
 40
0.0
  9
$LIMCHECK
 70
     0
  9
$CHAMFERA
 40
0.5
  9
$CHAMFERB
 40
0.5
  9
$CHAMFERC
 40
1.0
  9
$CHAMFERD
 40
0.0
  9
$SKPOLY
 70
     0
  9
$ANGBASE
 50
0.0
  9
$ANGDIR
 70
     0
  9
$PDMODE
 70
     0
  9
$PDSIZE
 40
0.0
  9
$PLINEWID
 40
0.0
  9
$SPLFRAME
 70
     0
  9
$SPLINETYPE
 70
     6
  9
$SPLINESEGS
 70
     8
  9
$HANDSEED
  5
00020034
  9
$SURFTAB1
 70
     6
  9
$SURFTAB2
 70
     6
  9
$SURFTYPE
 70
     6
  9
$SURFU
 70
     6
  9
$SURFV
 70
     6
  9
$UCSBASE
  2

  9
$UCSNAME
  2

  9
$UCSORG
 10
0.0
 20
0.0
 30
0.0
  9
$UCSXDIR
 10
1.0
 20
0.0
 30
0.0
  9
$UCSYDIR
 10
0.0
 20
1.0
 30
0.0
  9
$UCSORTHOREF
  2

  9
$UCSORTHOVIEW
 70
     0
  9
$UCSORGTOP
 10
0.0
 20
0.0
 30
0.0
  9
$UCSORGBOTTOM
 10
0.0
 20
0.0
 30
0.0
  9
$UCSORGLEFT
 10
0.0
 20
0.0
 30
0.0
  9
$UCSORGRIGHT
 10
0.0
 20
0.0
 30
0.0
  9
$UCSORGFRONT
 10
0.0
 20
0.0
 30
0.0
  9
$UCSORGBACK
 10
0.0
 20
0.0
 30
0.0
  9
$PUCSBASE
  2

  9
$PUCSNAME
  2

  9
$PUCSORG
 10
0.0
 20
0.0
 30
0.0
  9
$PUCSXDIR
 10
1.0
 20
0.0
 30
0.0
  9
$PUCSYDIR
 10
0.0
 20
1.0
 30
0.0
  9
$PUCSORTHOREF
  2

  9
$PUCSORTHOVIEW
 70
     0
  9
$PUCSORGTOP
 10
0.0
 20
0.0
 30
0.0
  9
$PUCSORGBOTTOM
 10
0.0
 20
0.0
 30
0.0
  9
$PUCSORGLEFT
 10
0.0
 20
0.0
 30
0.0
  9
$PUCSORGRIGHT
 10
0.0
 20
0.0
 30
0.0
  9
$PUCSORGFRONT
 10
0.0
 20
0.0
 30
0.0
  9
$PUCSORGBACK
 10
0.0
 20
0.0
 30
0.0
  9
$WORLDVIEW
 70
     1
  9
$SHADEDGE
 70
     3
  9
$SHADEDIF
 70
    70
  9
$TILEMODE
 70
     1
  9
$MAXACTVP
 70
    64
  9
$PINSBASE
 10
0.0
 20
0.0
 30
0.0
  9
$PLIMCHECK
 70
     0
  9
$PEXTMIN
 10
1.000000000000000E+20
 20
1.000000000000000E+20
 30
1.000000000000000E+20
  9
$PEXTMAX
 10
-1.000000000000000E+20
 20
-1.000000000000000E+20
 30
-1.000000000000000E+20
  9
$PLIMMIN
 10
0.0
 20
0.0
  9
$PLIMMAX
 10
12.0
 20
9.0
  9
$UNITMODE
 70
     0
  9
$VISRETAIN
 70
     1
  9
$PLINEGEN
 70
     0
  9
$PSLTSCALE
 70
     1
  9
$TREEDEPTH
 70
  3020
  9
$CMLSTYLE
  2
Standard
  9
$CMLJUST
 70
     0
  9
$CMLSCALE
 40
1.0
  9
$PROXYGRAPHICS
 70
     1
  9
$MEASUREMENT
 70
     0
  9
$CELWEIGHT
370
    -1
  9
$ENDCAPS
280
     0
  9
$JOINSTYLE
280
     0
  9
$LWDISPLAY
290
     0
  9
$INSUNITS
 70
     1
  9
$HYPERLINKBASE
  1

  9
$STYLESHEET
  1

  9
$XEDIT
290
     1
  9
$CEPSNTYPE
380
     0
  9
$PSTYLEMODE
290
     1
  9
$EXTNAMES
290
     1
  9
$PSVPSCALE
 40
0.0
  9
$OLESTARTUP
290
     0
  9
$SORTENTS
280
   127
  9
$INDEXCTL
280
     0
  9
$HIDETEXT
280
     1
  9
$XCLIPFRAME
290
     0
  9
$HALOGAP
280
     0
  9
$OBSCOLOR
 70
   257
  9
$OBSLTYPE
280
     0
  9
$INTERSECTIONDISPLAY
280
     0
  9
$INTERSECTIONCOLOR
 70
   257
  9
$DIMASSOC
280
     2
  9
$PROJECTNAME
  1

  0
ENDSEC
  0
SECTION
  2
CLASSES
  0
CLASS
  1
ACDBDICTIONARYWDFLT
  2
AcDbDictionaryWithDefault
  3
ObjectDBX Classes
 90
        0
 91
        4
280
     0
281
     0
  0
ENDSEC
  0
SECTION
  2
TABLES
  0
TABLE
  2
VPORT
  5
8
330
0
100
AcDbSymbolTable
 70
     1
  0
VPORT
  5
29
330
8
100
AcDbSymbolTableRecord
100
AcDbViewportTableRecord
  2
*Active
 70
     0
 10
0.0
 20
0.0
 11
1.0
 21
1.0
 12
80.25
 22
106.4409457059851
 13
0.0
 23
0.0
 14
0.5
 24
0.5
 15
0.5
 25
0.5
 16
0.0
 26
0.0
 36
1.0
 17
0.0
 27
0.0
 37
0.0
 40
113.3818914119703
 41
0.8863849310366128
 42
50.0
 43
0.0
 44
0.0
 50
0.0
 51
0.0
 71
     0
 72
  1000
 73
     1
 74
     3
 75
     0
 76
     0
 77
     0
 78
     0
281
     0
 65
     1
110
0.0
120
0.0
130
0.0
111
1.0
121
0.0
131
0.0
112
0.0
122
1.0
132
0.0
 79
     0
146
0.0
  0
ENDTAB
  0
TABLE
  2
LTYPE
  5
5
330
0
100
AcDbSymbolTable
 70
     1
  0
LTYPE
  5
14
330
5
100
AcDbSymbolTableRecord
100
AcDbLinetypeTableRecord
  2
ByBlock
 70
     0
  3

 72
    65
 73
     0
 40
0.0
  0
LTYPE
  5
15
330
5
100
AcDbSymbolTableRecord
100
AcDbLinetypeTableRecord
  2
ByLayer
 70
     0
  3

 72
    65
 73
     0
 40
0.0
  0
LTYPE
  5
16
330
5
100
AcDbSymbolTableRecord
100
AcDbLinetypeTableRecord
  2
Continuous
 70
     0
  3
Solid line
 72
    65
 73
     0
 40
0.0
  0
ENDTAB
  0
TABLE
  2
LAYER
  5
2
330
0
100
AcDbSymbolTable
 70
     1
  0
LAYER
  5
10
330
2
100
AcDbSymbolTableRecord
100
AcDbLayerTableRecord
  2
0
 70
     0
 62
     7
  6
Continuous
370
    -3
390
F
  0
LAYER
  5
20033
330
2
100
AcDbSymbolTableRecord
100
AcDbLayerTableRecord
  2
vodní toky před regulací
 70
     0
 62
     7
  6
Continuous
370
    -3
390
F
  0
ENDTAB
  0
TABLE
  2
STYLE
  5
3
330
0
100
AcDbSymbolTable
 70
     1
  0
STYLE
  5
11
330
3
100
AcDbSymbolTableRecord
100
AcDbTextStyleTableRecord
  2
Standard
 70
     0
 40
0.0
 41
1.0
 50
0.0
 71
     0
 42
0.2
  3
txt
  4

  0
ENDTAB
  0
TABLE
  2
VIEW
  5
6
330
0
100
AcDbSymbolTable
 70
     0
  0
ENDTAB
  0
TABLE
  2
UCS
  5
7
330
0
100
AcDbSymbolTable
 70
     0
  0
ENDTAB
  0
TABLE
  2
APPID
  5
9
330
0
100
AcDbSymbolTable
 70
     1
  0
APPID
  5
12
330
9
100
AcDbSymbolTableRecord
100
AcDbRegAppTableRecord
  2
ACAD
 70
     0
  0
ENDTAB
  0
TABLE
  2
DIMSTYLE
  5
A
330
0
100
AcDbSymbolTable
 70
     1
100
AcDbDimStyleTable
  0
DIMSTYLE
105
27
330
A
100
AcDbSymbolTableRecord
100
AcDbDimStyleTableRecord
  2
Standard
 70
     0
340
11
  0
ENDTAB
  0
TABLE
  2
BLOCK_RECORD
  5
1
330
0
100
AcDbSymbolTable
 70
     1
  0
BLOCK_RECORD
  5
1F
330
1
100
AcDbSymbolTableRecord
100
AcDbBlockTableRecord
  2
*Model_Space
340
22
  0
BLOCK_RECORD
  5
1B
330
1
100
AcDbSymbolTableRecord
100
AcDbBlockTableRecord
  2
*Paper_Space
340
1E
  0
ENDTAB
  0
ENDSEC
  0
SECTION
  2
BLOCKS
  0
BLOCK
  5
20
330
1F
100
AcDbEntity
  8
0
100
AcDbBlockBegin
  2
*Model_Space
 70
     0
 10
0.0
 20
0.0
 30
0.0
  3
*Model_Space
  1

  0
ENDBLK
  5
21
330
1F
100
AcDbEntity
  8
0
100
AcDbBlockEnd
  0
BLOCK
  5
1C
330
1B
100
AcDbEntity
 67
     1
  8
0
100
AcDbBlockBegin
  2
*Paper_Space
 70
     0
 10
0.0
 20
0.0
 30
0.0
  3
*Paper_Space
  1

  0
ENDBLK
  5
1D
330
1B
100
AcDbEntity
 67
     1
  8
0
100
AcDbBlockEnd
  0
ENDSEC
  0
SECTION
  2
ENTITIES
  0
HATCH
  5
20000
100
AcDbEntity
  8
vodní toky před regulací
100
AcDbHatch
 10
0
 20
0
 30
0
210
0
220
0
230
1
  2
SOLID
 70
1
 71
0
 91
1
 92
2
 72
0
 73
1
 93
31
 10
16.6301439509184
 20
49.1824422141769
 10
16.630584382961
 20
49.1827611564023
 10
16.6307289747811
 20
49.1829345011754
 10
16.6308686730562
 20
49.1831897216177
 10
16.6308923021657
 20
49.1835406743839
 10
16.6309310429403
 20
49.1841160720091
 10
16.6308940359085
 20
49.184624916375
 10
16.6308734326433
 20
49.1851342732966
 10
16.6308893013639
 20
49.1855863009874
 10
16.6310054619349
 20
49.1859748257756
 10
16.6312827601548
 20
49.1865189944932
 10
16.6314413994873
 20
49.1866888591905
 10
16.6316000385428
 20
49.1868587235691
 10
16.6319109059198
 20
49.1870167656287
 10
16.6321242199184
 20
49.1871409735579
 10
16.6321183961496
 20
49.1871458948182
 10
16.6318609253224
 20
49.1870544073054
 10
16.6315599903556
 20
49.1869014147342
 10
16.6313713997229
 20
49.1867083705629
 10
16.6312102442255
 20
49.1865138701999
 10
16.6310295291493
 20
49.1862035682959
 10
16.6309242212118
 20
49.1859821985925
 10
16.6308125211096
 20
49.1856071037123
 10
16.6307932207219
 20
49.1850245336889
 10
16.6308102740641
 20
49.1845665394254
 10
16.6308520611484
 20
49.1839880901663
 10
16.6308107254017
 20
49.1831851930586
 10
16.6306728109082
 20
49.1829609238495
 10
16.6305459957414
 20
49.182808024629
 10
16.6301278604389
 20
49.1825148175364
 10
16.6301439509184
 20
49.1824422141769
 97
0
 75
0
 76
1
 98
0
  0
HATCH
  5
20001
100
AcDbEntity
  8
vodní toky před regulací
100
AcDbHatch
 10
0
 20
0
 30
0
210
0
220
0
230
1
  2
SOLID
 70
1
 71
0
 91
1
 92
2
 72
0
 73
1
 93
13
 10
16.6285508680488
 20
49.1897344256774
 10
16.6285693535581
 20
49.1896220745058
 10
16.6286850761461
 20
49.1897476048431
 10
16.6288319018648
 20
49.1898905990935
 10
16.6291682359252
 20
49.1902081043465
 10
16.6294922408145
 20
49.1904126512929
 10
16.6298203227816
 20
49.190592430529
 10
16.6305766902719
 20
49.1909465495498
 10
16.630503368616
 20
49.1909622064051
 10
16.629762562561
 20
49.1906293310044
 10
16.6294153739977
 20
49.1904343076746
 10
16.6291059751742
 20
49.1902419540045
 10
16.6285508680488
 20
49.1897344256774
 97
0
 75
0
 76
1
 98
0
  0
HATCH
  5
20002
100
AcDbEntity
  8
vodní toky před regulací
100
AcDbHatch
 10
0
 20
0
 30
0
210
0
220
0
230
1
  2
SOLID
 70
1
 71
0
 91
1
 92
2
 72
0
 73
1
 93
17
 10
16.630222591195
 20
49.1820870313627
 10
16.630527937709
 20
49.1821539005034
 10
16.6313331501906
 20
49.182311077985
 10
16.6324427548842
 20
49.1825270746928
 10
16.6326491566829
 20
49.1825873714879
 10
16.6334348948074
 20
49.1828148969146
 10
16.6345670157161
 20
49.183112370218
 10
16.6347897747737
 20
49.1831901339472
 10
16.6359868295537
 20
49.1836080035725
 10
16.6370827313818
 20
49.1839905459042
 10
16.6370656036463
 20
49.1840116313874
 10
16.636078925496
 20
49.183667216503
 10
16.634564236873
 20
49.1831384649213
 10
16.6336456026992
 20
49.1828920757602
 10
16.6324065479323
 20
49.1825597308863
 10
16.6302099358715
 20
49.182143892798
 10
16.630222591195
 20
49.1820870313627
 97
0
 75
0
 76
1
 98
0
  0
HATCH
  5
20003
100
AcDbEntity
  8
vodní toky před regulací
100
AcDbHatch
 10
0
 20
0
 30
0
210
0
220
0
230
1
  2
SOLID
 70
1
 71
0
 91
1
 92
2
 72
0
 73
1
 93
10
 10
16.6310521875146
 20
49.1782839970641
 10
16.6326236343299
 20
49.1787559400861
 10
16.6337224314661
 20
49.1790947723894
 10
16.6367954440946
 20
49.1798309546686
 10
16.636790356998
 20
49.1798442717762
 10
16.6361228802961
 20
49.1796884432409
 10
16.6337053633671
 20
49.1791200700698
 10
16.6325558007938
 20
49.1787686328085
 10
16.6310468891485
 20
49.1783099833827
 10
16.6310521875146
 20
49.1782839970641
 97
0
 75
0
 76
1
 98
0
  0
HATCH
  5
20004
100
AcDbEntity
  8
vodní toky před regulací
100
AcDbHatch
 10
0
 20
0
 30
0
210
0
220
0
230
1
  2
SOLID
 70
1
 71
0
 91
1
 92
2
 72
0
 73
1
 93
60
 10
16.6085269983928
 20
49.2088695356159
 10
16.6088133886517
 20
49.2086013772574
 10
16.6091176787017
 20
49.2083182215649
 10
16.6096856072813
 20
49.2077971901056
 10
16.6098796706978
 20
49.2076166488134
 10
16.6102837273943
 20
49.2072133684343
 10
16.6106545564478
 20
49.206886786719
 10
16.6107814702488
 20
49.2067693260568
 10
16.6108378643419
 20
49.2066626096756
 10
16.6110828411432
 20
49.2061833909815
 10
16.61122386171
 20
49.2059234764887
 10
16.6112784045412
 20
49.2058530799577
 10
16.6114520411077
 20
49.2055175981496
 10
16.6115244648587
 20
49.2053772841954
 10
16.6116542834649
 20
49.2052170652932
 10
16.6117370959053
 20
49.2049794399836
 10
16.6119413190386
 20
49.2047447132181
 10
16.612201262453
 20
49.2042650155513
 10
16.6125596175618
 20
49.203603699203
 10
16.6127839026286
 20
49.2031894939077
 10
16.6130480218042
 20
49.2027019506119
 10
16.6131020137756
 20
49.2026022091291
 10
16.6131986853223
 20
49.2024211004064
 10
16.6133134348826
 20
49.2021985751002
 10
16.6134392977647
 20
49.2019546855907
 10
16.6134855453329
 20
49.2018650687185
 10
16.6136004551908
 20
49.201600952629
 10
16.613957572643
 20
49.2011679303023
 10
16.6139952767896
 20
49.2011317969655
 10
16.6141966163098
 20
49.201199053616
 10
16.6140874306082
 20
49.2013550600684
 10
16.6137997781325
 20
49.2017658424221
 10
16.6136479936844
 20
49.2019212514286
 10
16.6133477843055
 20
49.2024738527577
 10
16.6133090104142
 20
49.2025447765274
 10
16.6129518633709
 20
49.2031980391837
 10
16.6126193111343
 20
49.2038067327901
 10
16.6125251859488
 20
49.2039790671602
 10
16.6124171444761
 20
49.204173842481
 10
16.6122557449021
 20
49.2044720219335
 10
16.6120948999388
 20
49.2047659894441
 10
16.6118571923425
 20
49.2049961746969
 10
16.6117630581473
 20
49.2052204259446
 10
16.6116992749776
 20
49.2052882688838
 10
16.6112164300715
 20
49.2061936647736
 10
16.6110740150175
 20
49.2064603546982
 10
16.6109371395624
 20
49.2066892672376
 10
16.6108826626755
 20
49.2067810143923
 10
16.6107462498079
 20
49.2069158923309
 10
16.6103431905998
 20
49.207297265366
 10
16.6099748867084
 20
49.2076369595142
 10
16.6099475854938
 20
49.2076627035293
 10
16.6097457775682
 20
49.2078500228465
 10
16.6090675513247
 20
49.2084799965267
 10
16.6089245052443
 20
49.2086315885457
 10
16.6087797617636
 20
49.2087733821231
 10
16.6086397270876
 20
49.2089042029114
 10
16.6085582986304
 20
49.2089802016394
 10
16.6084499622997
 20
49.2089415038153
 10
16.6085269983928
 20
49.2088695356159
 97
0
 75
0
 76
1
 98
0
  0
HATCH
  5
20005
100
AcDbEntity
  8
vodní toky před regulací
100
AcDbHatch
 10
0
 20
0
 30
0
210
0
220
0
230
1
  2
SOLID
 70
1
 71
0
 91
1
 92
2
 72
0
 73
1
 93
54
 10
16.6386980982425
 20
49.2112746612249
 10
16.6387818386495
 20
49.2113647913578
 10
16.6382725530122
 20
49.2112160099729
 10
16.637670673128
 20
49.211199426248
 10
16.6370687948657
 20
49.2111828403751
 10
16.6366100690132
 20
49.2111758615838
 10
16.6361513445084
 20
49.2111688819599
 10
16.6358873287861
 20
49.2111458365715
 10
16.6357273955514
 20
49.2111024613024
 10
16.6355348552548
 20
49.2110314555051
 10
16.6354570925551
 20
49.2109990466242
 10
16.6353853539466
 20
49.2109289607371
 10
16.635338555618
 20
49.210862529359
 10
16.6353378439076
 20
49.2107867025085
 10
16.635371697449
 20
49.2107020552135
 10
16.6353923190723
 20
49.2106110506834
 10
16.6354129404727
 20
49.2105200470422
 10
16.6353796476447
 20
49.210424289523
 10
16.635346356163
 20
49.2103285329831
 10
16.6353570087641
 20
49.2102317045517
 10
16.6353676613234
 20
49.2101348761178
 10
16.6354314341913
 20
49.2100460224079
 10
16.635495208195
 20
49.2099571687578
 10
16.6356744330866
 20
49.2097957962601
 10
16.6358536568106
 20
49.2096344234797
 10
16.6360158131869
 20
49.2093258279105
 10
16.6359577057412
 20
49.209205323907
 10
16.6358995997955
 20
49.2090848208622
 10
16.636064166591
 20
49.2091061588579
 10
16.6362287321637
 20
49.2091274965226
 10
16.6363359216074
 20
49.2091529276803
 10
16.6363478399319
 20
49.209156844125
 10
16.6363847344825
 20
49.209175095552
 10
16.6364145348396
 20
49.2091955125567
 10
16.6364494780067
 20
49.2092292579885
 10
16.636452532856
 20
49.2093213956293
 10
16.6364332631172
 20
49.209365996458
 10
16.6364139934908
 20
49.2094105963891
 10
16.6361787113245
 20
49.2097077029841
 10
16.6359434278475
 20
49.210004808287
 10
16.6358513284611
 20
49.2101620748485
 10
16.6357592297075
 20
49.2103193423228
 10
16.635726423659
 20
49.2104857083233
 10
16.6357275921973
 20
49.2106499828754
 10
16.6357866036246
 20
49.2107444054748
 10
16.6358653211101
 20
49.2108272590555
 10
16.6360271475823
 20
49.2109004693787
 10
16.6363508477621
 20
49.210927535615
 10
16.636732600644
 20
49.2109315817914
 10
16.6371143535888
 20
49.2109356267053
 10
16.6375482268355
 20
49.2109128196468
 10
16.6379820995364
 20
49.2108900118515
 10
16.63838464898
 20
49.2108875835881
 10
16.6386980982425
 20
49.2112746612249
 97
0
 75
0
 76
1
 98
0
  0
HATCH
  5
20006
100
AcDbEntity
  8
vodní toky před regulací
100
AcDbHatch
 10
0
 20
0
 30
0
210
0
220
0
230
1
  2
SOLID
 70
1
 71
0
 91
1
 92
2
 72
0
 73
1
 93
48
 10
16.6396049970546
 20
49.2122782998011
 10
16.6400369510483
 20
49.2128136858379
 10
16.6399548242658
 20
49.2129807411472
 10
16.6398575978827
 20
49.213330758669
 10
16.6399534336889
 20
49.2136350979951
 10
16.6402436750993
 20
49.2139113489465
 10
16.6407874490226
 20
49.2143227840023
 10
16.641182052698
 20
49.2146860099112
 10
16.6416767599896
 20
49.2151435009414
 10
16.6418735925525
 20
49.2153538984588
 10
16.6421364284418
 20
49.2156348895823
 10
16.642256065435
 20
49.2158154894224
 10
16.6422687739569
 20
49.2159376273451
 10
16.6422749561246
 20
49.2160994861198
 10
16.6422452687784
 20
49.2162310919528
 10
16.6421588322961
 20
49.2164801153385
 10
16.6420485537232
 20
49.2165938318055
 10
16.6416155498547
 20
49.2169695822763
 10
16.6404390514735
 20
49.2174276895869
 10
16.6396993225374
 20
49.2178612313425
 10
16.6390977407746
 20
49.2182559590629
 10
16.6390366468865
 20
49.218365261942
 10
16.6390111668718
 20
49.2184529013158
 10
16.6390215017949
 20
49.2188313714199
 10
16.6387345026736
 20
49.218828638953
 10
16.6387213772782
 20
49.2184665992942
 10
16.6388551354655
 20
49.218224959585
 10
16.6392271210277
 20
49.2178578561479
 10
16.6395687626179
 20
49.217532660833
 10
16.6405581370781
 20
49.2170409813299
 10
16.6413378908791
 20
49.2166534614375
 10
16.6416415349132
 20
49.2164464387378
 10
16.6417771547242
 20
49.2161949195921
 10
16.6417570152853
 20
49.2160734703073
 10
16.6417010693713
 20
49.21585607385
 10
16.641257315583
 20
49.2155574792124
 10
16.6410070969745
 20
49.2152831822838
 10
16.6408283414497
 20
49.2149679269411
 10
16.6401857074612
 20
49.2143458554204
 10
16.6394367522678
 20
49.2138063904701
 10
16.6391261457511
 20
49.2136104186718
 10
16.6390333434497
 20
49.2134971912164
 10
16.6388580363263
 20
49.2132602319442
 10
16.6388294270918
 20
49.2131678292232
 10
16.6388079885419
 20
49.2130433403875
 10
16.6389050640651
 20
49.2128304932077
 10
16.6392472453348
 20
49.2124567118194
 10
16.6396049970546
 20
49.2122782998011
 97
0
 75
0
 76
1
 98
0
  0
HATCH
  5
20007
100
AcDbEntity
  8
vodní toky před regulací
100
AcDbHatch
 10
0
 20
0
 30
0
210
0
220
0
230
1
  2
SOLID
 70
1
 71
0
 91
1
 92
2
 72
0
 73
1
 93
111
 10
16.6223634032328
 20
49.1788937419196
 10
16.6222792823943
 20
49.1788060475284
 10
16.6224714945309
 20
49.1787132339919
 10
16.6226995524975
 20
49.1785682876469
 10
16.6228156508072
 20
49.1784951752021
 10
16.6229921842968
 20
49.1782674011676
 10
16.6231996156164
 20
49.177991048924
 10
16.6235415497434
 20
49.177340428201
 10
16.6233004949144
 20
49.1768254406769
 10
16.6230209578699
 20
49.176321680321
 10
16.6228295959285
 20
49.1757954782814
 10
16.6225295908554
 20
49.1750041122241
 10
16.6224827711975
 20
49.1748332458882
 10
16.6225058324481
 20
49.1747804169796
 10
16.6225555052362
 20
49.1747290622115
 10
16.6226131856456
 20
49.1746848260918
 10
16.6231105070928
 20
49.1744702351366
 10
16.6231904282885
 20
49.1743776160764
 10
16.6233011055318
 20
49.1740941061029
 10
16.6239146502197
 20
49.1738850317743
 10
16.6242433967303
 20
49.1736856160277
 10
16.6249144178675
 20
49.1731027985632
 10
16.6253549448538
 20
49.1726691368521
 10
16.6257267459364
 20
49.1719127908801
 10
16.625796153365
 20
49.1716817219322
 10
16.6258560657603
 20
49.1712283742555
 10
16.6255547948423
 20
49.1707517312582
 10
16.6256526843965
 20
49.1705987564676
 10
16.6258903386686
 20
49.1703823725806
 10
16.6265744158404
 20
49.1701719719492
 10
16.6268641920222
 20
49.1701794733624
 10
16.6269035556865
 20
49.1701774392482
 10
16.6269172413401
 20
49.1701628203245
 10
16.6268590270604
 20
49.1701292478606
 10
16.6267728603301
 20
49.1700912155791
 10
16.6267632914406
 20
49.1700815302058
 10
16.626757198213
 20
49.1700573494857
 10
16.6267595368197
 20
49.1698874948765
 10
16.6268611440399
 20
49.1697267117149
 10
16.6276129892776
 20
49.1692395589176
 10
16.6280174500868
 20
49.1687243848973
 10
16.6280033441954
 20
49.1683089863757
 10
16.6278039761375
 20
49.168032841386
 10
16.6277670863365
 20
49.167892650811
 10
16.6278092079224
 20
49.1677580471223
 10
16.6280583542758
 20
49.1676100319583
 10
16.6283858609579
 20
49.16735004741
 10
16.6287855073684
 20
49.1668279797226
 10
16.6288829143311
 20
49.1662464380238
 10
16.629489417999
 20
49.1658755730095
 10
16.6296745983511
 20
49.1657557959776
 10
16.6298438899293
 20
49.1656072545491
 10
16.6298856651037
 20
49.1653835616544
 10
16.6298227299079
 20
49.16516125469
 10
16.6297669266469
 20
49.1649933676283
 10
16.6299372305534
 20
49.1649636154457
 10
16.6300319590825
 20
49.1653748699481
 10
16.6300151206952
 20
49.1656291886679
 10
16.6297693903888
 20
49.1658476682669
 10
16.629586378498
 20
49.1659581325593
 10
16.6290157491859
 20
49.1662841051261
 10
16.6288621446791
 20
49.1669447751772
 10
16.6284761021492
 20
49.1674088405843
 10
16.6281618349688
 20
49.1676490799153
 10
16.6279015807271
 20
49.1678038892487
 10
16.627867448287
 20
49.1678899204803
 10
16.6278960588308
 20
49.1680196992654
 10
16.6280881634289
 20
49.1683128283938
 10
16.6281029263566
 20
49.1687058613157
 10
16.6280779036632
 20
49.1687823026912
 10
16.627684544775
 20
49.1692904799266
 10
16.6269451519811
 20
49.1697385613453
 10
16.6268422754247
 20
49.1699008068698
 10
16.6268443758199
 20
49.1700512759042
 10
16.626857330023
 20
49.1700718020774
 10
16.6268762475939
 20
49.1700793131034
 10
16.6269194453965
 20
49.1701036208089
 10
16.6269795384509
 20
49.170152102558
 10
16.626997557679
 20
49.1701847975934
 10
16.6269787625744
 20
49.17021756347
 10
16.6269136571972
 20
49.1702297468629
 10
16.6266229507904
 20
49.1702261794011
 10
16.6259305950595
 20
49.1704261676254
 10
16.6257394607307
 20
49.1706016186422
 10
16.6256362114983
 20
49.1707408823511
 10
16.6259410130035
 20
49.1712130905221
 10
16.6258741036304
 20
49.171693786728
 10
16.625824378787
 20
49.1718869582766
 10
16.6254360046762
 20
49.1726901047918
 10
16.6250043609328
 20
49.1731174867489
 10
16.6243062987059
 20
49.173723646582
 10
16.6239552929938
 20
49.173929101667
 10
16.6233418956336
 20
49.1741346637066
 10
16.6232645814521
 20
49.1743976037998
 10
16.6231597643696
 20
49.1745032026953
 10
16.623048317428
 20
49.1745558101117
 10
16.6227032021969
 20
49.1746879193259
 10
16.6226300368907
 20
49.1747241993291
 10
16.6225628282062
 20
49.1747816839552
 10
16.6225420531127
 20
49.1748303548276
 10
16.6225435916115
 20
49.1748754254879
 10
16.6225844957423
 20
49.1750021089548
 10
16.6229066464667
 20
49.1758050000193
 10
16.623105987427
 20
49.176321144163
 10
16.6236160380917
 20
49.1773456915291
 10
16.6232908446468
 20
49.1779969540609
 10
16.6230766878404
 20
49.1782958035299
 10
16.6228864747063
 20
49.1785558748548
 10
16.6227732981883
 20
49.1786363141656
 10
16.6225533700542
 20
49.1787681637196
 10
16.6223634032328
 20
49.1788937419196
 97
0
 75
0
 76
1
 98
0
  0
HATCH
  5
20008
100
AcDbEntity
  8
vodní toky před regulací
100
AcDbHatch
 10
0
 20
0
 30
0
210
0
220
0
230
1
  2
SOLID
 70
1
 71
0
 91
1
 92
2
 72
0
 73
1
 93
9
 10
16.6219792385293
 20
49.1786773816057
 10
16.6219060554585
 20
49.1786611524124
 10
16.6222700868057
 20
49.178580031688
 10
16.6226034476999
 20
49.1784824138353
 10
16.6228818204684
 20
49.1784153003547
 10
16.6228190449225
 20
49.1784950065094
 10
16.6225281159323
 20
49.178560616448
 10
16.6222930581393
 20
49.1786226047104
 10
16.6219792385293
 20
49.1786773816057
 97
0
 75
0
 76
1
 98
0
  0
HATCH
  5
20009
100
AcDbEntity
  8
vodní toky před regulací
100
AcDbHatch
 10
0
 20
0
 30
0
210
0
220
0
230
1
  2
SOLID
 70
1
 71
0
 91
1
 92
2
 72
0
 73
1
 93
27
 10
16.6253824929499
 20
49.1811235949652
 10
16.6253999622361
 20
49.1807932933217
 10
16.6254045019337
 20
49.1801262646125
 10
16.6254555553194
 20
49.1797296774813
 10
16.6255490150084
 20
49.1793030824406
 10
16.6255707612579
 20
49.1788357835996
 10
16.6255124167797
 20
49.1783272570965
 10
16.6254243722554
 20
49.1779894800691
 10
16.6252592171175
 20
49.1777465093935
 10
16.6249860591762
 20
49.1773348956292
 10
16.6247756571281
 20
49.177014045189
 10
16.6244308557343
 20
49.1766494633786
 10
16.6241868235796
 20
49.1764158129886
 10
16.6229272177894
 20
49.1758615121825
 10
16.6229066464667
 20
49.1758050000193
 10
16.6235256023777
 20
49.176070294889
 10
16.6242607099673
 20
49.1763873388333
 10
16.624850384892
 20
49.1769976470386
 10
16.624952398446
 20
49.1771393506561
 10
16.625073662057
 20
49.1773091068888
 10
16.6255326170429
 20
49.1779586250624
 10
16.6256285976714
 20
49.1783323880135
 10
16.6257036240581
 20
49.1788358713805
 10
16.6256579070913
 20
49.1792190290345
 10
16.6255892031884
 20
49.1797948481532
 10
16.6255840714927
 20
49.1808879684845
 10
16.6253824929499
 20
49.1811235949652
 97
0
 75
0
 76
1
 98
0
  0
HATCH
  5
2000A
100
AcDbEntity
  8
vodní toky před regulací
100
AcDbHatch
 10
0
 20
0
 30
0
210
0
220
0
230
1
  2
SOLID
 70
1
 71
0
 91
1
 92
2
 72
0
 73
1
 93
15
 10
16.6228438103599
 20
49.1758374389231
 10
16.6220875160791
 20
49.1756330185594
 10
16.6210360959641
 20
49.1753437086107
 10
16.6201181007991
 20
49.175194629466
 10
16.6193450910973
 20
49.1751340915174
 10
16.6188328517067
 20
49.1751063155522
 10
16.6188637645766
 20
49.1750590709456
 10
16.6193052676306
 20
49.1750821481543
 10
16.6200962422182
 20
49.1751416659934
 10
16.6210130819999
 20
49.175287257334
 10
16.6218447596031
 20
49.1755203138321
 10
16.6222067491035
 20
49.1756217504061
 10
16.622636544885
 20
49.1757421846819
 10
16.6228289239277
 20
49.1757960910064
 10
16.6228438103599
 20
49.1758374389231
 97
0
 75
0
 76
1
 98
0
  0
HATCH
  5
2000B
100
AcDbEntity
  8
vodní toky před regulací
100
AcDbHatch
 10
0
 20
0
 30
0
210
0
220
0
230
1
  2
SOLID
 70
1
 71
0
 91
1
 92
2
 72
0
 73
1
 93
44
 10
16.6242691479002
 20
49.1763957024996
 10
16.6241380059377
 20
49.1763341555498
 10
16.6241802320862
 20
49.1763438222566
 10
16.6246422434154
 20
49.1764426751948
 10
16.6258722648128
 20
49.1765549590115
 10
16.6265992121618
 20
49.176582846043
 10
16.6270786153894
 20
49.1765819393509
 10
16.6274089771437
 20
49.176565251175
 10
16.628769212885
 20
49.1764532573584
 10
16.6299471925672
 20
49.1762078596819
 10
16.6304778790167
 20
49.1758625770204
 10
16.6306184851337
 20
49.1757015390983
 10
16.6307567250203
 20
49.175537703607
 10
16.630888667328
 20
49.1751716000722
 10
16.6309863731147
 20
49.1749027239502
 10
16.6311109818954
 20
49.1744638438116
 10
16.6312296169182
 20
49.1740226709797
 10
16.631257211113
 20
49.1739116403194
 10
16.6313702988564
 20
49.1734039124458
 10
16.6314332782497
 20
49.1730968614864
 10
16.6314793435617
 20
49.1729270949183
 10
16.6316905154654
 20
49.1721660012686
 10
16.6317331296083
 20
49.1719886880701
 10
16.6318199855762
 20
49.1716272937011
 10
16.6319236335551
 20
49.1711960138189
 10
16.6319749501365
 20
49.1709826548174
 10
16.6320310566558
 20
49.1707512998517
 10
16.6320616881531
 20
49.1707548396782
 10
16.6319281673696
 20
49.1713455022463
 10
16.6317178148776
 20
49.1721819347333
 10
16.6316130540663
 20
49.1725549351046
 10
16.6312585618202
 20
49.174029852457
 10
16.6310449406438
 20
49.174918609141
 10
16.6307961697304
 20
49.1755520544861
 10
16.6305109417619
 20
49.1758795303623
 10
16.6299686826913
 20
49.1762457223328
 10
16.6288128461214
 20
49.1764737235133
 10
16.6274488625347
 20
49.1766046223124
 10
16.6270904038895
 20
49.1766241192835
 10
16.6265853721618
 20
49.1766251148334
 10
16.6258571739422
 20
49.1765807546791
 10
16.6252493095618
 20
49.1765251194168
 10
16.6246414464006
 20
49.1764694818454
 10
16.6242691479002
 20
49.1763957024996
 97
0
 75
0
 76
1
 98
0
  0
HATCH
  5
2000C
100
AcDbEntity
  8
vodní toky před regulací
100
AcDbHatch
 10
0
 20
0
 30
0
210
0
220
0
230
1
  2
SOLID
 70
1
 71
0
 91
1
 92
2
 72
0
 73
1
 93
15
 10
16.6265853721618
 20
49.1766251148334
 10
16.6266223787647
 20
49.1766242315883
 10
16.6270617433233
 20
49.1768757501109
 10
16.6278922549375
 20
49.1771927954891
 10
16.628945716695
 20
49.1775580298571
 10
16.6302293721158
 20
49.1780005262866
 10
16.6310521875146
 20
49.1782839970641
 10
16.6310468891485
 20
49.1783099833827
 10
16.6307470194372
 20
49.1782069649572
 10
16.6300241999436
 20
49.177956941014
 10
16.6291353884011
 20
49.1776494895956
 10
16.6284912196392
 20
49.1774266574006
 10
16.6278470566694
 20
49.1772038216027
 10
16.6270399069194
 20
49.1768903418011
 10
16.6265853721618
 20
49.1766251148334
 97
0
 75
0
 76
1
 98
0
  0
HATCH
  5
2000D
100
AcDbEntity
  8
vodní toky před regulací
100
AcDbHatch
 10
0
 20
0
 30
0
210
0
220
0
230
1
  2
SOLID
 70
1
 71
0
 91
1
 92
2
 72
0
 73
1
 93
23
 10
16.6003763671203
 20
49.2247414239063
 10
16.6003179426918
 20
49.2248610143353
 10
16.6002225945987
 20
49.2244493141572
 10
16.6001451238566
 20
49.2238503606272
 10
16.6001073219847
 20
49.2233993356075
 10
16.6003254053261
 20
49.2228147462382
 10
16.6004349549374
 20
49.2222201010321
 10
16.6011058434496
 20
49.2218212480827
 10
16.6017307170062
 20
49.2213742231274
 10
16.6019654007761
 20
49.221063829324
 10
16.6019961191145
 20
49.2206585182553
 10
16.6020329128685
 20
49.2201941441405
 10
16.6021540844716
 20
49.2203325151305
 10
16.6020984789978
 20
49.2208911455733
 10
16.6021017376169
 20
49.2210867263084
 10
16.6018186579911
 20
49.2214034192453
 10
16.6012053149639
 20
49.2218487419494
 10
16.6005453779976
 20
49.222258959836
 10
16.6004255415764
 20
49.2228500954574
 10
16.6002031459754
 20
49.2233941776877
 10
16.6002719830413
 20
49.2238476512046
 10
16.600317463165
 20
49.2244668926253
 10
16.6003763671203
 20
49.2247414239063
 97
0
 75
0
 76
1
 98
0
  0
HATCH
  5
2000E
100
AcDbEntity
  8
vodní toky před regulací
100
AcDbHatch
 10
0
 20
0
 30
0
210
0
220
0
230
1
  2
SOLID
 70
1
 71
0
 91
1
 92
2
 72
0
 73
1
 93
24
 10
16.5995355125818
 20
49.2282308492561
 10
16.5994192422557
 20
49.2281734514772
 10
16.5993568293932
 20
49.2279368158067
 10
16.5994193390773
 20
49.2276535121589
 10
16.5995686787981
 20
49.2273844939461
 10
16.5998605920903
 20
49.2271127692237
 10
16.600291803628
 20
49.2267316376469
 10
16.6003074558978
 20
49.2266968038925
 10
16.6002838823934
 20
49.2265146529597
 10
16.6003545912816
 20
49.2262467343988
 10
16.6004465762711
 20
49.2260118584437
 10
16.6007004964126
 20
49.2253936307253
 10
16.6007948326133
 20
49.2252502897013
 10
16.6007713076788
 20
49.2253797192044
 10
16.6006775355042
 20
49.2256721939659
 10
16.6004456009966
 20
49.2262472179543
 10
16.6003813615773
 20
49.2265061502528
 10
16.6004132746429
 20
49.2267175098022
 10
16.6003820705346
 20
49.2267696868318
 10
16.600126545605
 20
49.2269876230573
 10
16.5997059951246
 20
49.2273471080765
 10
16.5995205327577
 20
49.2276729746581
 10
16.5994530993798
 20
49.2279685760905
 10
16.5995355125818
 20
49.2282308492561
 97
0
 75
0
 76
1
 98
0
  0
HATCH
  5
2000F
100
AcDbEntity
  8
vodní toky před regulací
100
AcDbHatch
 10
0
 20
0
 30
0
210
0
220
0
230
1
  2
SOLID
 70
1
 71
0
 91
1
 92
2
 72
0
 73
1
 93
27
 10
16.6396049970546
 20
49.2122782998011
 10
16.6398728966296
 20
49.2121380865823
 10
16.6401940290629
 20
49.2117542909506
 10
16.640102791258
 20
49.2115794121527
 10
16.6397789054816
 20
49.2114102430981
 10
16.6394988736639
 20
49.2113681941976
 10
16.6392188438335
 20
49.2113261438197
 10
16.6386999327878
 20
49.2112671633984
 10
16.6383834241398
 20
49.210898409424
 10
16.6386439828786
 20
49.2109010602198
 10
16.6391661907642
 20
49.2109686997039
 10
16.6395375184134
 20
49.2110193645622
 10
16.6397544422728
 20
49.2110725049245
 10
16.6399603009612
 20
49.2111233564424
 10
16.640184722096
 20
49.2111817615109
 10
16.640439171311
 20
49.2112619808356
 10
16.6406134342049
 20
49.2113599671307
 10
16.6407216809536
 20
49.211457439283
 10
16.6408299281281
 20
49.2115549113322
 10
16.6408382805866
 20
49.2116902369685
 10
16.6408466344553
 20
49.2118255626975
 10
16.640808446374
 20
49.2119141253813
 10
16.6407702596678
 20
49.2120026872534
 10
16.6406726918729
 20
49.2121161075173
 10
16.6404426875767
 20
49.2123775778551
 10
16.640063474284
 20
49.2128056080447
 10
16.6396049970546
 20
49.2122782998011
 97
0
 75
0
 76
1
 98
0
  0
HATCH
  5
20010
100
AcDbEntity
  8
vodní toky před regulací
100
AcDbHatch
 10
0
 20
0
 30
0
210
0
220
0
230
1
  2
SOLID
 70
1
 71
0
 91
1
 92
2
 72
0
 73
1
 93
22
 10
16.6119933642759
 20
49.189915281473
 10
16.6118897476638
 20
49.1899226476915
 10
16.6118259770158
 20
49.1899211826095
 10
16.6116528531012
 20
49.1898982163647
 10
16.6114771817179
 20
49.1898466773314
 10
16.6112296002487
 20
49.1897635733249
 10
16.6109437948421
 20
49.1896481930931
 10
16.6105330494506
 20
49.1894597329437
 10
16.6102346358642
 20
49.1892594714632
 10
16.610080534128
 20
49.1891818990383
 10
16.6098562896839
 20
49.1890978201677
 10
16.6096264097571
 20
49.1890373486815
 10
16.6096675364853
 20
49.1889576747378
 10
16.60990046186
 20
49.1890095846967
 10
16.610174588264
 20
49.1891077691754
 10
16.6103489279958
 20
49.1891881066374
 10
16.6106146296414
 20
49.1893757455586
 10
16.6109881002077
 20
49.1895514328409
 10
16.6113238382243
 20
49.1896781467037
 10
16.611639590627
 20
49.1897926206798
 10
16.6116819313548
 20
49.189804823864
 10
16.6119933642759
 20
49.189915281473
 97
0
 75
0
 76
1
 98
0
  0
HATCH
  5
20011
100
AcDbEntity
  8
vodní toky před regulací
100
AcDbHatch
 10
0
 20
0
 30
0
210
0
220
0
230
1
  2
SOLID
 70
1
 71
0
 91
1
 92
2
 72
0
 73
1
 93
17
 10
16.6096259087355
 20
49.1890383198888
 10
16.6095248340415
 20
49.1890326646535
 10
16.6093916042757
 20
49.1890494364986
 10
16.6090472481239
 20
49.1891720282983
 10
16.6085224172479
 20
49.1893254042425
 10
16.6081326999464
 20
49.189429243651
 10
16.6073096572046
 20
49.1896160703273
 10
16.607272864875
 20
49.1896027553884
 10
16.6072673913355
 20
49.1896012359485
 10
16.6071776086414
 20
49.1895682807002
 10
16.6079580022882
 20
49.1893855067725
 10
16.6084031000646
 20
49.1892671992941
 10
16.6090096822049
 20
49.1891005505739
 10
16.6093477611582
 20
49.1889818204665
 10
16.6094989503393
 20
49.1889578903225
 10
16.6096675364853
 20
49.1889576747378
 10
16.6096259087355
 20
49.1890383198888
 97
0
 75
0
 76
1
 98
0
  0
HATCH
  5
20012
100
AcDbEntity
  8
vodní toky před regulací
100
AcDbHatch
 10
0
 20
0
 30
0
210
0
220
0
230
1
  2
SOLID
 70
1
 71
0
 91
1
 92
2
 72
0
 73
1
 93
25
 10
16.5688053307772
 20
49.1892870980358
 10
16.5689022281723
 20
49.1893098898876
 10
16.5687388884208
 20
49.1898788890779
 10
16.5687733543262
 20
49.1900778394602
 10
16.5689295836239
 20
49.1905852348776
 10
16.5690951106236
 20
49.191020860101
 10
16.5693117782619
 20
49.1916974705498
 10
16.5696620977161
 20
49.1924244920746
 10
16.5697581501063
 20
49.1928030128303
 10
16.5697375062362
 20
49.193009685845
 10
16.5696921317779
 20
49.1932836359733
 10
16.569626096721
 20
49.1935296010836
 10
16.569406385563
 20
49.1938900696553
 10
16.5692544693423
 20
49.1938948119421
 10
16.5695182925583
 20
49.1934975691901
 10
16.5695893183956
 20
49.1932741805473
 10
16.5696231650766
 20
49.1930015453319
 10
16.5696447078036
 20
49.19280362448
 10
16.5695556916182
 20
49.1924214019947
 10
16.5691969209735
 20
49.191706592135
 10
16.5689353996406
 20
49.1909663221151
 10
16.5686479809141
 20
49.1900847840395
 10
16.5686255777121
 20
49.1898782549169
 10
16.5686437456506
 20
49.1897412819092
 10
16.5688053307772
 20
49.1892870980358
 97
0
 75
0
 76
1
 98
0
  0
HATCH
  5
20013
100
AcDbEntity
  8
vodní toky před regulací
100
AcDbHatch
 10
0
 20
0
 30
0
210
0
220
0
230
1
  2
SOLID
 70
1
 71
0
 91
1
 92
2
 72
0
 73
1
 93
23
 10
16.5692544693423
 20
49.1938948119421
 10
16.569406385563
 20
49.1938900696553
 10
16.5691876848992
 20
49.1940959955369
 10
16.568965522264
 20
49.194344875871
 10
16.5687652622257
 20
49.1946553955317
 10
16.5685939449093
 20
49.1949210342184
 10
16.568369919027
 20
49.1952668076432
 10
16.5680470933403
 20
49.1957671028457
 10
16.5678741648972
 20
49.1960242546375
 10
16.5677899017502
 20
49.1962461106068
 10
16.5677469684886
 20
49.1967094393062
 10
16.5676844782025
 20
49.1975000887948
 10
16.5676141181385
 20
49.1983902781054
 10
16.5675935137466
 20
49.1991779735283
 10
16.5675797714196
 20
49.1997561780944
 10
16.5674999849115
 20
49.1997154004512
 10
16.5674543551609
 20
49.1990349150197
 10
16.5674516163915
 20
49.1980133475396
 10
16.5675835719286
 20
49.1971625620174
 10
16.5677120440427
 20
49.1959539997591
 10
16.5683242470859
 20
49.1949707530749
 10
16.5688767405284
 20
49.1942709848607
 10
16.5692544693423
 20
49.1938948119421
 97
0
 75
0
 76
1
 98
0
  0
HATCH
  5
20014
100
AcDbEntity
  8
vodní toky před regulací
100
AcDbHatch
 10
0
 20
0
 30
0
210
0
220
0
230
1
  2
SOLID
 70
1
 71
0
 91
1
 92
2
 72
0
 73
1
 93
45
 10
16.5761078079442
 20
49.1844527840927
 10
16.5760008866037
 20
49.1845232293091
 10
16.5758623136842
 20
49.1846143171852
 10
16.5756443386989
 20
49.1847590016737
 10
16.5753157127553
 20
49.1849793919149
 10
16.5751255538356
 20
49.185106919363
 10
16.5746237410337
 20
49.1854510318275
 10
16.5742763228764
 20
49.1856919271423
 10
16.5738251670302
 20
49.1859996565808
 10
16.5730545463771
 20
49.1864498169501
 10
16.5724798987115
 20
49.1867469435045
 10
16.5722841990502
 20
49.1868399307887
 10
16.5719425004822
 20
49.186972456036
 10
16.5715806558636
 20
49.1871145365018
 10
16.5711105390989
 20
49.1873095579107
 10
16.570661238963
 20
49.1875175926636
 10
16.5703059851989
 20
49.1877455055734
 10
16.5700516051434
 20
49.1879078288786
 10
16.5699113882665
 20
49.1880136276412
 10
16.5696218477227
 20
49.1882618437486
 10
16.56930605724
 20
49.1886466323078
 10
16.5691007149849
 20
49.1888773688483
 10
16.5689758155514
 20
49.1891585776789
 10
16.5689000268768
 20
49.1893067598864
 10
16.5688070853562
 20
49.1892871614665
 10
16.5689411340705
 20
49.1889983863984
 10
16.5693222335296
 20
49.1884950501653
 10
16.5694951232125
 20
49.1883095357978
 10
16.5696587834832
 20
49.1881742901789
 10
16.570374764085
 20
49.1876282658745
 10
16.5708760964288
 20
49.187338592397
 10
16.571228450914
 20
49.1871859335031
 10
16.5718569043759
 20
49.1869493574877
 10
16.5722470157394
 20
49.1868028208641
 10
16.5726284836217
 20
49.1866109833426
 10
16.573052865436
 20
49.1863804092203
 10
16.5736255863958
 20
49.1860627909858
 10
16.5739808338779
 20
49.1858333994022
 10
16.5745707078293
 20
49.1854192170261
 10
16.5749427413798
 20
49.1851567355046
 10
16.5752529610626
 20
49.1849416847662
 10
16.5755631780534
 20
49.1847266331857
 10
16.5757773934111
 20
49.184587153805
 10
16.5760518108904
 20
49.1844138194428
 10
16.5761078079442
 20
49.1844527840927
 97
0
 75
0
 76
1
 98
0
  0
HATCH
  5
20015
100
AcDbEntity
  8
vodní toky před regulací
100
AcDbHatch
 10
0
 20
0
 30
0
210
0
220
0
230
1
  2
SOLID
 70
1
 71
0
 91
1
 92
2
 72
0
 73
1
 93
54
 10
16.5863461512997
 20
49.1856337653992
 10
16.5862697068771
 20
49.1856800876155
 10
16.5860109354487
 20
49.1854914578789
 10
16.585635128599
 20
49.1852152084335
 10
16.5854986436195
 20
49.1851721299731
 10
16.5850767689597
 20
49.1851106473908
 10
16.58425154618
 20
49.1850372554134
 10
16.5841197885396
 20
49.1850143819315
 10
16.5835600708431
 20
49.1847984367161
 10
16.582944898039
 20
49.1845641929921
 10
16.5826049289358
 20
49.184436954185
 10
16.5822649615784
 20
49.1843097143742
 10
16.5818291896795
 20
49.1841302649542
 10
16.5814007717365
 20
49.1839676823945
 10
16.580751490644
 20
49.1837398908681
 10
16.5801095673285
 20
49.1835289634777
 10
16.5798449696991
 20
49.1834881763776
 10
16.5795128672835
 20
49.1834464743441
 10
16.5791756900218
 20
49.1834229298488
 10
16.5786943241436
 20
49.183423811919
 10
16.5782736544187
 20
49.1834555613252
 10
16.577875907508
 20
49.1835042247824
 10
16.5774829474536
 20
49.1836768462684
 10
16.5767293103392
 20
49.1841305267329
 10
16.5761110662645
 20
49.1844542569547
 10
16.5760518108904
 20
49.1844138194428
 10
16.5765265581439
 20
49.1841462507862
 10
16.5770059959323
 20
49.1838441514702
 10
16.5773890010153
 20
49.1836302871866
 10
16.5778320758385
 20
49.1834285817419
 10
16.5782624617053
 20
49.1833739085056
 10
16.5787000447767
 20
49.1833365682518
 10
16.5792062168609
 20
49.1833344122312
 10
16.5795220472471
 20
49.1833574795588
 10
16.5798295582547
 20
49.1833987071665
 10
16.5801327621833
 20
49.183450120223
 10
16.580799279176
 20
49.1836719141416
 10
16.5814450124416
 20
49.1838860181415
 10
16.5818678985405
 20
49.1840541337606
 10
16.5822907861449
 20
49.184222247729
 10
16.5826610495244
 20
49.1843516413594
 10
16.5831983116253
 20
49.1845367128583
 10
16.5836205296906
 20
49.1847074782795
 10
16.5839373447685
 20
49.1848336938828
 10
16.5842082625453
 20
49.1849299815282
 10
16.5842979616531
 20
49.1849474757113
 10
16.5846030737676
 20
49.1849756141721
 10
16.5850819779138
 20
49.1850242778008
 10
16.5854128981045
 20
49.1850690490636
 10
16.5856040021102
 20
49.1850979783907
 10
16.5857291552619
 20
49.1851375269949
 10
16.5861072286155
 20
49.1854073386754
 10
16.5863903412596
 20
49.1856093798377
 10
16.5863461512997
 20
49.1856337653992
 97
0
 75
0
 76
1
 98
0
  0
HATCH
  5
20016
100
AcDbEntity
  8
vodní toky před regulací
100
AcDbHatch
 10
0
 20
0
 30
0
210
0
220
0
230
1
  2
SOLID
 70
1
 71
0
 91
1
 92
2
 72
0
 73
1
 93
29
 10
16.6020296796374
 20
49.2201949506493
 10
16.6019646979752
 20
49.2195983503436
 10
16.6019027771724
 20
49.2190739226539
 10
16.6017518283442
 20
49.2183146115298
 10
16.6016630534907
 20
49.2178922453378
 10
16.601622428744
 20
49.2175750348362
 10
16.6015155667497
 20
49.2167899097167
 10
16.6014542505147
 20
49.2164347066576
 10
16.6014826562912
 20
49.2163337876491
 10
16.6016499773492
 20
49.2160279861543
 10
16.6018719613721
 20
49.2156361514789
 10
16.6019525842293
 20
49.2154824021535
 10
16.6020263932086
 20
49.2154994826691
 10
16.6020265175276
 20
49.2155087617297
 10
16.6019779738256
 20
49.2156068233956
 10
16.6018527836291
 20
49.2158049291645
 10
16.6017848680028
 20
49.215925208051
 10
16.601723568806
 20
49.2160229815183
 10
16.6016543361511
 20
49.2161403630554
 10
16.6016147497575
 20
49.216222037713
 10
16.6015529108364
 20
49.2163489883338
 10
16.6015387573964
 20
49.2164539024438
 10
16.6015996228258
 20
49.216949383602
 10
16.6016673019152
 20
49.2175069270164
 10
16.6017333342974
 20
49.2178954050597
 10
16.6019089382811
 20
49.2186747067274
 10
16.6020497959782
 20
49.2196272762724
 10
16.6021540844716
 20
49.2203325151305
 10
16.6020296796374
 20
49.2201949506493
 97
0
 75
0
 76
1
 98
0
  0
HATCH
  5
20017
100
AcDbEntity
  8
vodní toky před regulací
100
AcDbHatch
 10
0
 20
0
 30
0
210
0
220
0
230
1
  2
SOLID
 70
1
 71
0
 91
1
 92
2
 72
0
 73
1
 93
7
 10
16.6045042890919
 20
49.2181078430347
 10
16.6043157103882
 20
49.2166459651849
 10
16.6048768813941
 20
49.2167615111683
 10
16.6050871811526
 20
49.2168716322588
 10
16.6053917782507
 20
49.2173601706493
 10
16.6057458984908
 20
49.2181372215408
 10
16.6045042890919
 20
49.2181078430347
 97
0
 75
0
 76
1
 98
0
  0
HATCH
  5
20018
100
AcDbEntity
  8
vodní toky před regulací
100
AcDbHatch
 10
0
 20
0
 30
0
210
0
220
0
230
1
  2
SOLID
 70
1
 71
0
 91
1
 92
2
 72
0
 73
1
 93
36
 10
16.6021017376169
 20
49.2210867263084
 10
16.6021098743164
 20
49.2209663321645
 10
16.6026771180686
 20
49.2210666808363
 10
16.6037295458341
 20
49.22099698877
 10
16.603912620108
 20
49.2209269274966
 10
16.6044627421505
 20
49.2206172937966
 10
16.6048013231827
 20
49.2204026172544
 10
16.6049861580793
 20
49.2201104901738
 10
16.6048821855701
 20
49.2198647878048
 10
16.6049620099038
 20
49.2196794628351
 10
16.6053243579142
 20
49.2194266875322
 10
16.605691684293
 20
49.219250135983
 10
16.6058456557465
 20
49.219121607941
 10
16.6058809430794
 20
49.2189554668937
 10
16.605891860779
 20
49.2188029895189
 10
16.6058864809135
 20
49.2186829126582
 10
16.6058099056426
 20
49.2184448078376
 10
16.6055592678192
 20
49.2181356444954
 10
16.6056919042954
 20
49.2181355563808
 10
16.6059183457397
 20
49.2184408227406
 10
16.606001194418
 20
49.2186833190844
 10
16.6060051539075
 20
49.2188143681558
 10
16.6059918652723
 20
49.2190305640043
 10
16.6059107600597
 20
49.2191798683744
 10
16.6057334101639
 20
49.219313162285
 10
16.6053584192501
 20
49.2194964250746
 10
16.6050627055652
 20
49.2197015418225
 10
16.6049961834112
 20
49.2198690192045
 10
16.6050879721855
 20
49.2201375506927
 10
16.6049248404567
 20
49.220451238374
 10
16.604461515596
 20
49.2207120155638
 10
16.603965141659
 20
49.2209826575995
 10
16.6037819271542
 20
49.221051894979
 10
16.6035870355717
 20
49.2210588891517
 10
16.6026795531175
 20
49.2211272740717
 10
16.6021017376169
 20
49.2210867263084
 97
0
 75
0
 76
1
 98
0
  0
HATCH
  5
20019
100
AcDbEntity
  8
vodní toky před regulací
100
AcDbHatch
 10
0
 20
0
 30
0
210
0
220
0
230
1
  2
SOLID
 70
1
 71
0
 91
1
 92
2
 72
0
 73
1
 93
13
 10
16.6020212726712
 20
49.2155005994972
 10
16.6019468151535
 20
49.2154855814063
 10
16.6022555211182
 20
49.2152465582188
 10
16.6026580641336
 20
49.2149769331488
 10
16.6031385518897
 20
49.2149212688041
 10
16.6038101320317
 20
49.2148973745186
 10
16.6042707889731
 20
49.2148634500811
 10
16.6042819507402
 20
49.214928489446
 10
16.6038012390018
 20
49.2149638908248
 10
16.6032063179553
 20
49.2149796802572
 10
16.6026847155814
 20
49.2150352828685
 10
16.6023411197478
 20
49.2152622509021
 10
16.6020212726712
 20
49.2155005994972
 97
0
 75
0
 76
1
 98
0
  0
HATCH
  5
2001A
100
AcDbEntity
  8
vodní toky před regulací
100
AcDbHatch
 10
0
 20
0
 30
0
210
0
220
0
230
1
  2
SOLID
 70
1
 71
0
 91
1
 92
2
 72
0
 73
1
 93
15
 10
16.6025685808092
 20
49.2210471954719
 10
16.6032351336482
 20
49.219138668754
 10
16.6035841582131
 20
49.2181322654071
 10
16.6041345831283
 20
49.2169156251643
 10
16.6044287539278
 20
49.2161180039268
 10
16.604324886472
 20
49.2155842913105
 10
16.6043076932865
 20
49.2152840598477
 10
16.6042687608586
 20
49.2148688762793
 10
16.6043719732726
 20
49.2148605248531
 10
16.6044168532812
 20
49.2155684206494
 10
16.604469614454
 20
49.2158068732101
 10
16.6045388864657
 20
49.2161316867824
 10
16.6037891897866
 20
49.2180487462566
 10
16.6026429173881
 20
49.2210610407851
 10
16.6025685808092
 20
49.2210471954719
 97
0
 75
0
 76
1
 98
0
  0
HATCH
  5
2001B
100
AcDbEntity
  8
vodní toky před regulací
100
AcDbHatch
 10
0
 20
0
 30
0
210
0
220
0
230
1
  2
SOLID
 70
1
 71
0
 91
1
 92
2
 72
0
 73
1
 93
27
 10
16.6043736344415
 20
49.2148846904995
 10
16.6042567273819
 20
49.2148797594712
 10
16.604593418558
 20
49.2142665381471
 10
16.6049649837552
 20
49.2140581520721
 10
16.605332898645
 20
49.2138796849826
 10
16.605981204941
 20
49.2131960952019
 10
16.6064340897874
 20
49.2124412980572
 10
16.606985232146
 20
49.2115276175902
 10
16.6075346515188
 20
49.2105528606376
 10
16.6083316038804
 20
49.209075977114
 10
16.6084189840598
 20
49.2089765458269
 10
16.6084286172506
 20
49.2089667495878
 10
16.6084492441256
 20
49.2089416645974
 10
16.6084496404442
 20
49.2089413878545
 10
16.6085582986304
 20
49.2089802016394
 10
16.6085567531131
 20
49.2089820214571
 10
16.6085324143527
 20
49.2090114049163
 10
16.6082394919648
 20
49.2095483323104
 10
16.6077050182839
 20
49.2105495063505
 10
16.6071538620779
 20
49.2115587405516
 10
16.6065669319932
 20
49.2124815335137
 10
16.606110435603
 20
49.2132486431902
 10
16.6053832388105
 20
49.2139698266829
 10
16.6051814664741
 20
49.2140659147247
 10
16.604723787742
 20
49.2142838674543
 10
16.6045825995546
 20
49.2144870718391
 10
16.6043736344415
 20
49.2148846904995
 97
0
 75
0
 76
1
 98
0
  0
HATCH
  5
2001C
100
AcDbEntity
  8
vodní toky před regulací
100
AcDbHatch
 10
0
 20
0
 30
0
210
0
220
0
230
1
  2
SOLID
 70
1
 71
0
 91
1
 92
2
 72
0
 73
1
 93
29
 10
16.6071788224301
 20
49.1895679162818
 10
16.6073136718432
 20
49.1896176582279
 10
16.6066830685808
 20
49.1897506467035
 10
16.6063978481656
 20
49.1898077344645
 10
16.6059635582883
 20
49.1898595096768
 10
16.6058749959862
 20
49.1898721272667
 10
16.6053939639025
 20
49.1898902909263
 10
16.6047345194558
 20
49.1899142041326
 10
16.604245567717
 20
49.18993048376
 10
16.6039937718298
 20
49.1899334447282
 10
16.603668731376
 20
49.1898393153106
 10
16.6033273272782
 20
49.1897156666012
 10
16.6030282161309
 20
49.1895936733644
 10
16.6027383447166
 20
49.1894731222612
 10
16.6026241025311
 20
49.189434350394
 10
16.602546013699
 20
49.1894333499967
 10
16.6025429835949
 20
49.1893776174671
 10
16.6026067627572
 20
49.1893740891501
 10
16.6027463396502
 20
49.1893992275767
 10
16.603136369716
 20
49.1895695244313
 10
16.6037727433845
 20
49.1898041392761
 10
16.6040357573902
 20
49.1898843753802
 10
16.6046849342789
 20
49.1898676345905
 10
16.6053401909255
 20
49.1898416158457
 10
16.6058565130615
 20
49.1898116690955
 10
16.6063697357512
 20
49.1897581706079
 10
16.6066455198631
 20
49.1896939541891
 10
16.6069213017492
 20
49.1896297379076
 10
16.6071788224301
 20
49.1895679162818
 97
0
 75
0
 76
1
 98
0
  0
HATCH
  5
2001D
100
AcDbEntity
  8
vodní toky před regulací
100
AcDbHatch
 10
0
 20
0
 30
0
210
0
220
0
230
1
  2
SOLID
 70
1
 71
0
 91
1
 92
2
 72
0
 73
1
 93
18
 10
16.6024159663998
 20
49.1894811752136
 10
16.6022149280813
 20
49.1895580487181
 10
16.6016743417116
 20
49.1897950447509
 10
16.6013266432431
 20
49.1899042420129
 10
16.6006668894205
 20
49.1899944784607
 10
16.5993932806411
 20
49.1903386004884
 10
16.5993541304731
 20
49.1902669728609
 10
16.6006277123285
 20
49.189929190065
 10
16.6012835497671
 20
49.1898438218799
 10
16.6016483624908
 20
49.1897282478806
 10
16.602115465778
 20
49.1895183824669
 10
16.6023508976017
 20
49.1894295547028
 10
16.6024482540544
 20
49.1893929246872
 10
16.602542970422
 20
49.1893774130192
 10
16.6025446972776
 20
49.1894055009831
 10
16.60254823242
 20
49.189433209748
 10
16.6024877673823
 20
49.1894493068922
 10
16.6024159663998
 20
49.1894811752136
 97
0
 75
0
 76
1
 98
0
  0
HATCH
  5
2001E
100
AcDbEntity
  8
vodní toky před regulací
100
AcDbHatch
 10
0
 20
0
 30
0
210
0
220
0
230
1
  2
SOLID
 70
1
 71
0
 91
1
 92
2
 72
0
 73
1
 93
18
 10
16.5949675358614
 20
49.1904600336138
 10
16.5945638088538
 20
49.1903934051378
 10
16.5940932276984
 20
49.1902927548912
 10
16.5933480180358
 20
49.1899650786635
 10
16.5928072987735
 20
49.1896869807503
 10
16.5919494704856
 20
49.1892514838971
 10
16.5904218869836
 20
49.1884651354851
 10
16.5887873812526
 20
49.1874423191139
 10
16.5888680152205
 20
49.1873953132198
 10
16.5904440255821
 20
49.1883485754392
 10
16.5920174669051
 20
49.18918405715
 10
16.5929020962859
 20
49.1896234679688
 10
16.5934561248232
 20
49.1899048195229
 10
16.5939469785747
 20
49.1901360614238
 10
16.5941747338385
 20
49.1902254981392
 10
16.5945772697953
 20
49.1903207067755
 10
16.5949993676548
 20
49.1903984920348
 10
16.5949675358614
 20
49.1904600336138
 97
0
 75
0
 76
1
 98
0
  0
HATCH
  5
2001F
100
AcDbEntity
  8
vodní toky před regulací
100
AcDbHatch
 10
0
 20
0
 30
0
210
0
220
0
230
1
  2
SOLID
 70
1
 71
0
 91
1
 92
2
 72
0
 73
1
 93
16
 10
16.5964751970771
 20
49.190680890912
 10
16.5964398871679
 20
49.1906150195078
 10
16.5970514129492
 20
49.1905193641592
 10
16.5980394426772
 20
49.1903648099956
 10
16.598590535252
 20
49.1902699976872
 10
16.5988467300331
 20
49.1902359612653
 10
16.5990488714836
 20
49.1902491167274
 10
16.5993544698924
 20
49.1902690040461
 10
16.5994031933753
 20
49.1903354414233
 10
16.5992066660991
 20
49.1903375088961
 10
16.599024293929
 20
49.190318858408
 10
16.5988206299
 20
49.1903115031682
 10
16.5985845040644
 20
49.190344054453
 10
16.5981135227753
 20
49.1904131478327
 10
16.5972245404526
 20
49.1905435558942
 10
16.5964751970771
 20
49.190680890912
 97
0
 75
0
 76
1
 98
0
  0
HATCH
  5
20020
100
AcDbEntity
  8
vodní toky před regulací
100
AcDbHatch
 10
0
 20
0
 30
0
210
0
220
0
230
1
  2
SOLID
 70
1
 71
0
 91
1
 92
2
 72
0
 73
1
 93
13
 10
16.5888680152205
 20
49.1873953132198
 10
16.5887873812526
 20
49.1874423191139
 10
16.5883389467682
 20
49.1871358444778
 10
16.5878400825382
 20
49.1867944811392
 10
16.5869092621131
 20
49.1861572042536
 10
16.5863867464872
 20
49.1857677060898
 10
16.5862655301434
 20
49.1856818630887
 10
16.5863742597453
 20
49.1856168138259
 10
16.5864817743903
 20
49.1856906442482
 10
16.5870281767189
 20
49.1860971890197
 10
16.5879016294449
 20
49.1867196154993
 10
16.588430704584
 20
49.187097710148
 10
16.5888680152205
 20
49.1873953132198
 97
0
 75
0
 76
1
 98
0
  0
HATCH
  5
20021
100
AcDbEntity
  8
vodní toky před regulací
100
AcDbHatch
 10
0
 20
0
 30
0
210
0
220
0
230
1
  2
SOLID
 70
1
 71
0
 91
1
 92
2
 72
0
 73
1
 93
21
 10
16.5987713236457
 20
49.1856091429413
 10
16.5987833658928
 20
49.1850381653846
 10
16.5989439954499
 20
49.1845097834083
 10
16.5990553361987
 20
49.1842781350736
 10
16.5991647477549
 20
49.1840985283393
 10
16.5993748065742
 20
49.1838078427418
 10
16.5997990302593
 20
49.183580154289
 10
16.600615483963
 20
49.183679591081
 10
16.6019055804298
 20
49.1840845111328
 10
16.6017148619706
 20
49.1841776374329
 10
16.6010458577001
 20
49.1839399553029
 10
16.6005751665747
 20
49.1837920107581
 10
16.5998665643687
 20
49.1836830241655
 10
16.5996422293489
 20
49.1837861839638
 10
16.599471786591
 20
49.1838890558853
 10
16.5993349428529
 20
49.1840805356709
 10
16.5992234194879
 20
49.1842813771342
 10
16.5990818513938
 20
49.1845511796443
 10
16.5989472868418
 20
49.1850474773873
 10
16.5989534840603
 20
49.185545545536
 10
16.5987713236457
 20
49.1856091429413
 97
0
 75
0
 76
1
 98
0
  0
HATCH
  5
20022
100
AcDbEntity
  8
vodní toky před regulací
100
AcDbHatch
 10
0
 20
0
 30
0
210
0
220
0
230
1
  2
SOLID
 70
1
 71
0
 91
1
 92
2
 72
0
 73
1
 93
33
 10
16.6283231960133
 20
49.1905114846306
 10
16.6270240170827
 20
49.1903492675645
 10
16.6255043992318
 20
49.1900973780953
 10
16.6243654690958
 20
49.1899085757922
 10
16.623723095887
 20
49.1898745318991
 10
16.6234603104729
 20
49.1898798458996
 10
16.6231943738821
 20
49.1898497512806
 10
16.6228871048573
 20
49.1897360619399
 10
16.6227416239106
 20
49.1896540933238
 10
16.622377836552
 20
49.1894549462533
 10
16.6221697841
 20
49.1892386409597
 10
16.6221042234729
 20
49.189109007575
 10
16.6220193293762
 20
49.1888156440083
 10
16.6220528912165
 20
49.1884727254735
 10
16.6221777774723
 20
49.1881046377255
 10
16.6223693816146
 20
49.1872755707078
 10
16.6221206344117
 20
49.1862419368898
 10
16.6222947266429
 20
49.1861466160444
 10
16.6225872192065
 20
49.1872909805752
 10
16.6223593122305
 20
49.1881174796429
 10
16.622224691662
 20
49.1887677587862
 10
16.6223120762456
 20
49.1890688579457
 10
16.6224150621176
 20
49.1892288681247
 10
16.6227723578219
 20
49.1895051142378
 10
16.6230605691601
 20
49.1896267251303
 10
16.6232814295144
 20
49.1897199166731
 10
16.6234529654831
 20
49.1897499244332
 10
16.6237302315285
 20
49.1897538726405
 10
16.6242546246143
 20
49.189768251644
 10
16.6256348680479
 20
49.1899741926612
 10
16.6270151231068
 20
49.1901801162694
 10
16.6283759091382
 20
49.1903600963102
 10
16.6283231960133
 20
49.1905114846306
 97
0
 75
0
 76
1
 98
0
  0
HATCH
  5
20023
100
AcDbEntity
  8
vodní toky před regulací
100
AcDbHatch
 10
0
 20
0
 30
0
210
0
220
0
230
1
  2
SOLID
 70
1
 71
0
 91
1
 92
2
 72
0
 73
1
 93
51
 10
16.6288903564861
 20
49.1951538901062
 10
16.6289250779233
 20
49.1953203082688
 10
16.6282200557024
 20
49.1947254060564
 10
16.6271935233729
 20
49.1938805795451
 10
16.6270163689854
 20
49.1935466472346
 10
16.6268804553587
 20
49.1932370089598
 10
16.6267279703861
 20
49.1927859384587
 10
16.6265726137044
 20
49.192412805671
 10
16.6264621407996
 20
49.1920055686922
 10
16.6262135083464
 20
49.1914045905572
 10
16.6261119896541
 20
49.1911157693686
 10
16.6260799258386
 20
49.1901264122917
 10
16.6260478646554
 20
49.1891370551518
 10
16.6260150105507
 20
49.1885831232269
 10
16.6259026619358
 20
49.1881776024795
 10
16.6255369387941
 20
49.1875971252478
 10
16.6252140494277
 20
49.1868832683898
 10
16.625151412939
 20
49.1864027122603
 10
16.6255105657804
 20
49.1854584379972
 10
16.6256670444038
 20
49.1846837095736
 10
16.6256093829202
 20
49.1837815643138
 10
16.6254448269709
 20
49.183232357542
 10
16.6254052212261
 20
49.1829139184955
 10
16.6253824929499
 20
49.1811235949652
 10
16.6255864599581
 20
49.1808851670983
 10
16.6255781008947
 20
49.1811152122032
 10
16.6255427825602
 20
49.1820871846187
 10
16.6256344623948
 20
49.1832045206271
 10
16.6258026143007
 20
49.183736608999
 10
16.6258512754269
 20
49.18468256525
 10
16.6256516629105
 20
49.1855193712561
 10
16.6253124809847
 20
49.1864026003211
 10
16.6253673784855
 20
49.1868128213719
 10
16.6256805506783
 20
49.1875607694875
 10
16.6260227835548
 20
49.1880785141188
 10
16.626172729947
 20
49.1885039920963
 10
16.6261761361122
 20
49.1892043719772
 10
16.6261902434466
 20
49.1902096951698
 10
16.6262006844229
 20
49.1909536541774
 10
16.626355100923
 20
49.1913660698713
 10
16.6265566203578
 20
49.1918631537318
 10
16.6266267696288
 20
49.1920501720525
 10
16.626731494734
 20
49.1924205059866
 10
16.6267926485086
 20
49.1925909160411
 10
16.6268516481361
 20
49.1927699145806
 10
16.6270069090198
 20
49.1932133736609
 10
16.6271217113786
 20
49.1934908269665
 10
16.6273331844511
 20
49.1938212453388
 10
16.6280720464213
 20
49.1944789589499
 10
16.6282848813665
 20
49.194654504255
 10
16.6288903564861
 20
49.1951538901062
 97
0
 75
0
 76
1
 98
0
  0
HATCH
  5
20024
100
AcDbEntity
  8
vodní toky před regulací
100
AcDbHatch
 10
0
 20
0
 30
0
210
0
220
0
230
1
  2
SOLID
 70
1
 71
0
 91
1
 92
2
 72
0
 73
1
 93
24
 10
16.6256917912769
 20
49.1853260930878
 10
16.6260644244953
 20
49.1857530862303
 10
16.6264541542448
 20
49.1859954810475
 10
16.6269667313474
 20
49.1862988177655
 10
16.6273424142962
 20
49.1865252105859
 10
16.6276246481527
 20
49.1869840361881
 10
16.627857462462
 20
49.1874533936798
 10
16.6279956740728
 20
49.188067029375
 10
16.628032495477
 20
49.1890276881662
 10
16.6282195645981
 20
49.1892905869138
 10
16.6285706123488
 20
49.189620236051
 10
16.6285519789257
 20
49.1897350378367
 10
16.6282025654144
 20
49.1893939007356
 10
16.627988967828
 20
49.1890768689733
 10
16.627947955525
 20
49.1890159958225
 10
16.6279338569637
 20
49.1885503975614
 10
16.6279197574477
 20
49.1880847982748
 10
16.6277966806406
 20
49.1875536123622
 10
16.6277626899464
 20
49.1874069106394
 10
16.6272756424092
 20
49.1865618325041
 10
16.6263974939125
 20
49.1860437326252
 10
16.6260024412139
 20
49.1858067670644
 10
16.6256565237874
 20
49.1853878604002
 10
16.6256917912769
 20
49.1853260930878
 97
0
 75
0
 76
1
 98
0
  0
HATCH
  5
20025
100
AcDbEntity
  8
vodní toky před regulací
100
AcDbHatch
 10
0
 20
0
 30
0
210
0
220
0
230
1
  2
SOLID
 70
1
 71
0
 91
1
 92
2
 72
0
 73
1
 93
15
 10
16.6301294723001
 20
49.1825159480883
 10
16.6291688757872
 20
49.1819901337051
 10
16.6283783588327
 20
49.1816402671706
 10
16.6276764511035
 20
49.1812697015381
 10
16.6272319078381
 20
49.1809626050086
 10
16.6267614406126
 20
49.1805711054427
 10
16.6263061230405
 20
49.180095495678
 10
16.626346838429
 20
49.1800537345035
 10
16.6268448133051
 20
49.1805494451233
 10
16.6272800628357
 20
49.1809089004579
 10
16.6277483961475
 20
49.181230221186
 10
16.6284574215561
 20
49.1816061475023
 10
16.6292042267226
 20
49.1819385026604
 10
16.6301428327874
 20
49.1824376372122
 10
16.6301294723001
 20
49.1825159480883
 97
0
 75
0
 76
1
 98
0
  0
HATCH
  5
20026
100
AcDbEntity
  8
vodní toky před regulací
100
AcDbHatch
 10
0
 20
0
 30
0
210
0
220
0
230
1
  2
SOLID
 70
1
 71
0
 91
1
 92
2
 72
0
 73
1
 93
58
 10
16.6250671282935
 20
49.1864707841497
 10
16.6243229073116
 20
49.1866329893802
 10
16.6234771977611
 20
49.1869273657024
 10
16.62258063839
 20
49.1873691080557
 10
16.6216139543067
 20
49.187819673171
 10
16.6214681573795
 20
49.1878833902047
 10
16.6212787250763
 20
49.188010544536
 10
16.6211972471931
 20
49.1881197079718
 10
16.6211258934469
 20
49.1882416751607
 10
16.6210979521
 20
49.1883844470691
 10
16.6211156590104
 20
49.1889493386249
 10
16.6212662917698
 20
49.1895532488995
 10
16.6212700535541
 20
49.1903451010298
 10
16.6212349004754
 20
49.1904659636483
 10
16.6211382281924
 20
49.1906950493759
 10
16.6210632697543
 20
49.1909110521388
 10
16.6208781710716
 20
49.1913596350629
 10
16.6208129980667
 20
49.1919705078307
 10
16.6209499395345
 20
49.1925376154779
 10
16.6211624728846
 20
49.1934177450156
 10
16.6215690754486
 20
49.1942652851168
 10
16.6217557598477
 20
49.1946544080666
 10
16.6217008241137
 20
49.1946512031962
 10
16.6214020261027
 20
49.1940154043587
 10
16.6212360555123
 20
49.1936622336348
 10
16.6211244009698
 20
49.1934246410016
 10
16.6210721693901
 20
49.193180618024
 10
16.6209301993731
 20
49.1926305744634
 10
16.620839559754
 20
49.1921857741783
 10
16.6207948111643
 20
49.1919661811777
 10
16.6208150104141
 20
49.1917296826558
 10
16.6208466271056
 20
49.1913594737339
 10
16.6209076610669
 20
49.191220914406
 10
16.6210204785798
 20
49.1909124440653
 10
16.6210808484836
 20
49.1907476023322
 10
16.6211102818682
 20
49.1906785173339
 10
16.6212095454516
 20
49.1904534562817
 10
16.6212346400381
 20
49.1903382405677
 10
16.6212346476379
 20
49.1899042102351
 10
16.6212349071683
 20
49.1895615874308
 10
16.6211785800783
 20
49.1892934683981
 10
16.6210776256105
 20
49.1889504827694
 10
16.6210632459779
 20
49.1887582389214
 10
16.6210588753782
 20
49.1884738038547
 10
16.621063677221
 20
49.1883289434674
 10
16.6210870774209
 20
49.1882237272652
 10
16.6211733199422
 20
49.1880846279691
 10
16.621254276688
 20
49.1879865645648
 10
16.6214447709175
 20
49.1878512519084
 10
16.6215651458757
 20
49.1877908521191
 10
16.6218908460183
 20
49.1876447950321
 10
16.6226464073981
 20
49.1872924703251
 10
16.6234438480699
 20
49.1868964325031
 10
16.6240707699643
 20
49.186684834104
 10
16.6242662340389
 20
49.1866188591378
 10
16.6251541987872
 20
49.1864090759945
 10
16.6251605368656
 20
49.1864600962359
 10
16.6250671282935
 20
49.1864707841497
 97
0
 75
0
 76
1
 98
0
  0
HATCH
  5
20027
100
AcDbEntity
  8
vodní toky před regulací
100
AcDbHatch
 10
0
 20
0
 30
0
210
0
220
0
230
1
  2
SOLID
 70
1
 71
0
 91
1
 92
2
 72
0
 73
1
 93
8
 10
16.6302205197777
 20
49.18209158911
 10
16.63020878947
 20
49.1821451585282
 10
16.6298850574945
 20
49.1820776736615
 10
16.6292042267226
 20
49.1819385026604
 10
16.6289462323334
 20
49.1818248485857
 10
16.6298138290797
 20
49.1820053128659
 10
16.6301438198234
 20
49.1820739503558
 10
16.6302205197777
 20
49.18209158911
 97
0
 75
0
 76
1
 98
0
  0
HATCH
  5
20028
100
AcDbEntity
  8
vodní toky před regulací
100
AcDbHatch
 10
0
 20
0
 30
0
210
0
220
0
230
1
  2
SOLID
 70
1
 71
0
 91
1
 92
2
 72
0
 73
1
 93
44
 10
16.6191264668211
 20
49.187825284931
 10
16.6188853173783
 20
49.187898177988
 10
16.6185274874365
 20
49.1880327095448
 10
16.6179558375508
 20
49.1886309160483
 10
16.6178489377914
 20
49.1887503071522
 10
16.6177844921178
 20
49.1888019921357
 10
16.6177379961594
 20
49.1888301438383
 10
16.617680369331
 20
49.1888532122777
 10
16.6176103619348
 20
49.1888736650619
 10
16.6165710819817
 20
49.1889316816102
 10
16.6163779180269
 20
49.1889910457565
 10
16.6162461672668
 20
49.1890617733224
 10
16.6154433258497
 20
49.189731290943
 10
16.6151564870678
 20
49.189951596962
 10
16.6150072446891
 20
49.1900045310208
 10
16.6147242513029
 20
49.1900520279765
 10
16.6139310714289
 20
49.1899658446723
 10
16.6128057176991
 20
49.1898995206356
 10
16.6124217253809
 20
49.1898860843205
 10
16.6120633449885
 20
49.1899078483173
 10
16.6119929230086
 20
49.1899150702245
 10
16.6116863717141
 20
49.1898055128404
 10
16.6117961718363
 20
49.1898230052269
 10
16.6118649844352
 20
49.1898249079537
 10
16.6119428625888
 20
49.1898233680496
 10
16.6120139765649
 20
49.189818192316
 10
16.6124128455612
 20
49.1897873938985
 10
16.6139653826481
 20
49.189867259831
 10
16.6147411564404
 20
49.1899534524503
 10
16.6149307719029
 20
49.1899184695681
 10
16.6150411032754
 20
49.1898819187575
 10
16.6158230418673
 20
49.1892625816285
 10
16.6161818418627
 20
49.1889576471651
 10
16.6163392643472
 20
49.1888892354052
 10
16.6165320759777
 20
49.1888383051765
 10
16.6175457647938
 20
49.1887820531784
 10
16.6176207012273
 20
49.1887579822435
 10
16.6176721428885
 20
49.1887337841199
 10
16.617747599999
 20
49.1886749326707
 10
16.6178772964495
 20
49.1885211159257
 10
16.6184176648662
 20
49.187976979307
 10
16.6191860688502
 20
49.1877233778963
 10
16.6191713037589
 20
49.1877579850621
 10
16.6191264668211
 20
49.187825284931
 97
0
 75
0
 76
1
 98
0
  0
HATCH
  5
20029
100
AcDbEntity
  8
vodní toky před regulací
100
AcDbHatch
 10
0
 20
0
 30
0
210
0
220
0
230
1
  2
SOLID
 70
1
 71
0
 91
1
 92
2
 72
0
 73
1
 93
31
 10
16.6184105891552
 20
49.1940282445649
 10
16.6184000036888
 20
49.1940455851655
 10
16.6182869881874
 20
49.1940279094396
 10
16.6183220255898
 20
49.1939358702723
 10
16.618328186754
 20
49.1939185783775
 10
16.6183399068347
 20
49.1938399035584
 10
16.6183390357863
 20
49.1937043555184
 10
16.6183358960432
 20
49.1935040558531
 10
16.6183242703888
 20
49.1934808019083
 10
16.6183198327666
 20
49.1933531644344
 10
16.6183081448239
 20
49.192787096616
 10
16.6183028947608
 20
49.1926649271239
 10
16.6182968004612
 20
49.1925795285121
 10
16.6182805611932
 20
49.1925289943861
 10
16.618257002914
 20
49.1924558728542
 10
16.6182061086889
 20
49.192353501289
 10
16.6181275041046
 20
49.1921713828567
 10
16.6181087815263
 20
49.1920890159473
 10
16.6180768865646
 20
49.1919316394398
 10
16.6180671404778
 20
49.1918634750757
 10
16.6180668369177
 20
49.1918569412969
 10
16.6181818333431
 20
49.1918491608579
 10
16.6181906963159
 20
49.1918489740649
 10
16.6181931895355
 20
49.191853944285
 10
16.6182225405272
 20
49.1920853989364
 10
16.6182317661842
 20
49.1921491849071
 10
16.6184078364456
 20
49.1925220825802
 10
16.6184323349038
 20
49.1931862094218
 10
16.6184498631337
 20
49.1938644177546
 10
16.6184307461372
 20
49.1938816068545
 10
16.6184105891552
 20
49.1940282445649
 97
0
 75
0
 76
1
 98
0
  0
HATCH
  5
2002A
100
AcDbEntity
  8
vodní toky před regulací
100
AcDbHatch
 10
0
 20
0
 30
0
210
0
220
0
230
1
  2
SOLID
 70
1
 71
0
 91
1
 92
2
 72
0
 73
1
 93
10
 10
16.619722019277
 20
49.1876102986814
 10
16.6196666714338
 20
49.1875140342275
 10
16.6198866564657
 20
49.1874150030571
 10
16.6200821187533
 20
49.1873333208742
 10
16.6202645527244
 20
49.187283820613
 10
16.6203321588566
 20
49.187364309613
 10
16.6200749599872
 20
49.1874463269866
 10
16.6199798791939
 20
49.1874949533288
 10
16.6198632607392
 20
49.1875545374191
 10
16.619722019277
 20
49.1876102986814
 97
0
 75
0
 76
1
 98
0
  0
HATCH
  5
2002B
100
AcDbEntity
  8
vodní toky před regulací
100
AcDbHatch
 10
0
 20
0
 30
0
210
0
220
0
230
1
  2
SOLID
 70
1
 71
0
 91
1
 92
2
 72
0
 73
1
 93
12
 10
16.6362513167056
 20
49.2086199640602
 10
16.6360110961044
 20
49.2086663408108
 10
16.6354851396436
 20
49.2076344018091
 10
16.6354387621049
 20
49.2074934000001
 10
16.6355727732994
 20
49.2072670398386
 10
16.6359746274523
 20
49.2067177453225
 10
16.6364552439407
 20
49.206149238549
 10
16.6365325401682
 20
49.2063817965908
 10
16.6359606164487
 20
49.2070972409701
 10
16.635699494008
 20
49.2075010056779
 10
16.6358874110697
 20
49.2079838347975
 10
16.6362513167056
 20
49.2086199640602
 97
0
 75
0
 76
1
 98
0
  0
HATCH
  5
2002C
100
AcDbEntity
  8
vodní toky před regulací
100
AcDbHatch
 10
0
 20
0
 30
0
210
0
220
0
230
1
  2
SOLID
 70
1
 71
0
 91
1
 92
2
 72
0
 73
1
 93
40
 10
16.6270456853722
 20
49.2025982335425
 10
16.6274384790249
 20
49.2016387745336
 10
16.6276757595211
 20
49.2013515676821
 10
16.627882970127
 20
49.2011363532195
 10
16.6285983531649
 20
49.20080020638
 10
16.6286920891664
 20
49.2007257210986
 10
16.6288836419327
 20
49.2003586607054
 10
16.6290278736116
 20
49.2000822750317
 10
16.6292640019443
 20
49.1992838532533
 10
16.6293459213739
 20
49.1989720047665
 10
16.6294794152026
 20
49.1987403694612
 10
16.629694359568
 20
49.19847688615
 10
16.6298624642912
 20
49.1982708171843
 10
16.6299881797179
 20
49.1980431126866
 10
16.6301136019296
 20
49.1975906982833
 10
16.6301118519208
 20
49.1971451606465
 10
16.6299993148541
 20
49.196800739883
 10
16.6298943055512
 20
49.196552431535
 10
16.6297278525395
 20
49.1961813101098
 10
16.6298966940362
 20
49.1962355538727
 10
16.6300989079725
 20
49.1967317827352
 10
16.6302366711865
 20
49.1971312219461
 10
16.6302718209625
 20
49.1975967837166
 10
16.6301042026649
 20
49.1980782222552
 10
16.629925027799
 20
49.1983560124182
 10
16.6298080179349
 20
49.1985308010242
 10
16.6296188766915
 20
49.1987583253891
 10
16.6294719746219
 20
49.1989773628841
 10
16.6293863689234
 20
49.1992848527714
 10
16.6292455760835
 20
49.1997681530092
 10
16.629148989803
 20
49.2001238847145
 10
16.6289804048633
 20
49.2004515307441
 10
16.6287934641914
 20
49.2007470796227
 10
16.6286611970036
 20
49.2008497035577
 10
16.6279319858748
 20
49.2012129067281
 10
16.6277564542558
 20
49.2014108018624
 10
16.6275626262531
 20
49.2016709754339
 10
16.6273246860893
 20
49.2022680891085
 10
16.6271623194206
 20
49.2026695675197
 10
16.6270456853722
 20
49.2025982335425
 97
0
 75
0
 76
1
 98
0
  0
HATCH
  5
2002D
100
AcDbEntity
  8
vodní toky před regulací
100
AcDbHatch
 10
0
 20
0
 30
0
210
0
220
0
230
1
  2
SOLID
 70
1
 71
0
 91
1
 92
2
 72
0
 73
1
 93
42
 10
16.629270391572
 20
49.1996861689078
 10
16.629818659166
 20
49.1997314571791
 10
16.6304518497051
 20
49.1998182558597
 10
16.6309494038693
 20
49.1999553162998
 10
16.6311693459784
 20
49.2000225547633
 10
16.631264743178
 20
49.2000584821917
 10
16.6313353202325
 20
49.2000982240359
 10
16.6313980587052
 20
49.2001396542575
 10
16.6314382102023
 20
49.2001897147294
 10
16.6315017558261
 20
49.2003181528323
 10
16.631545208597
 20
49.2006055054204
 10
16.6315484559783
 20
49.2009901856873
 10
16.631591921177
 20
49.2010586526688
 10
16.6317905605466
 20
49.2012649098413
 10
16.6318829832029
 20
49.2013447616783
 10
16.6320209950852
 20
49.2014635040159
 10
16.6321368854539
 20
49.2015311414646
 10
16.6322007211244
 20
49.2015475405931
 10
16.6335981150024
 20
49.2015293414028
 10
16.6344252278084
 20
49.2015971483291
 10
16.6349391373284
 20
49.2016027104466
 10
16.6349824415379
 20
49.2017298848152
 10
16.6343868067071
 20
49.2017226066812
 10
16.6335850584681
 20
49.2016704681218
 10
16.6322041915525
 20
49.201710285683
 10
16.6320772423768
 20
49.2016917810593
 10
16.6319685747505
 20
49.2016500448412
 10
16.6318308489561
 20
49.2015531212247
 10
16.631602132162
 20
49.2013406640308
 10
16.6313696239201
 20
49.2010845646853
 10
16.6313126855293
 20
49.2009894643745
 10
16.6313117813171
 20
49.2005883624786
 10
16.6312687128343
 20
49.2003103356812
 10
16.6312412001723
 20
49.2002567352198
 10
16.631212491359
 20
49.2002198443949
 10
16.631157307629
 20
49.2001876388062
 10
16.6310543553772
 20
49.2001414391613
 10
16.630894208177
 20
49.2000926024484
 10
16.6304107479864
 20
49.1999346684924
 10
16.6297990007892
 20
49.1998562488499
 10
16.6292280659591
 20
49.1997974126091
 10
16.629270391572
 20
49.1996861689078
 97
0
 75
0
 76
1
 98
0
  0
HATCH
  5
2002E
100
AcDbEntity
  8
vodní toky před regulací
100
AcDbHatch
 10
0
 20
0
 30
0
210
0
220
0
230
1
  2
SOLID
 70
1
 71
0
 91
1
 92
2
 72
0
 73
1
 93
33
 10
16.621702198459
 20
49.1946507269719
 10
16.6217592317506
 20
49.1946585085499
 10
16.6218532109027
 20
49.1948466112111
 10
16.6219229426932
 20
49.1949022361434
 10
16.6224474287702
 20
49.1953014404795
 10
16.6229121046415
 20
49.1956674594297
 10
16.6230692017958
 20
49.1959354047094
 10
16.6231452821998
 20
49.196239607735
 10
16.62316093853
 20
49.1965701069556
 10
16.6231788314631
 20
49.1967533732675
 10
16.623159871024
 20
49.1969311353363
 10
16.6226388337984
 20
49.1975567952037
 10
16.6221769244355
 20
49.1979523781284
 10
16.6217832304946
 20
49.1981463054625
 10
16.620280712988
 20
49.1987665218284
 10
16.6200058628153
 20
49.1988799724051
 10
16.6200014944103
 20
49.1988543098273
 10
16.6206884434176
 20
49.1985582970391
 10
16.6216566016651
 20
49.1981579013441
 10
16.6217113838703
 20
49.1981369219718
 10
16.6221413607761
 20
49.1979243971775
 10
16.6225019888841
 20
49.1976082949461
 10
16.6226081011781
 20
49.1975130391563
 10
16.6231077362115
 20
49.1969193794808
 10
16.6231308642796
 20
49.1967501284263
 10
16.6231261062916
 20
49.1966639370528
 10
16.6231191513036
 20
49.1965878190472
 10
16.6230934422664
 20
49.1962355281795
 10
16.6230115282317
 20
49.195931325871
 10
16.6228702375029
 20
49.1956762403385
 10
16.6221724166604
 20
49.1951454793263
 10
16.621801152147
 20
49.194851495165
 10
16.621702198459
 20
49.1946507269719
 97
0
 75
0
 76
1
 98
0
  0
HATCH
  5
2002F
100
AcDbEntity
  8
vodní toky před regulací
100
AcDbHatch
 10
0
 20
0
 30
0
210
0
220
0
230
1
  2
SOLID
 70
1
 71
0
 91
1
 92
2
 72
0
 73
1
 93
55
 10
16.6139952767896
 20
49.2011317969655
 10
16.6141374466399
 20
49.2009953344944
 10
16.6142935443465
 20
49.2008689932278
 10
16.6145498163663
 20
49.20066833924
 10
16.6146805711657
 20
49.2005349575128
 10
16.6148257988599
 20
49.2003171260434
 10
16.6148983919881
 20
49.2001647933638
 10
16.6150070452503
 20
49.1999393980592
 10
16.6151348039031
 20
49.1996742913634
 10
16.6155514542593
 20
49.1988104214928
 10
16.6156266417924
 20
49.1986532071456
 10
16.61574408455
 20
49.1983903547951
 10
16.6158884736517
 20
49.1980603068974
 10
16.6159475325632
 20
49.1976885822879
 10
16.6159623981325
 20
49.1976302096915
 10
16.6159872142925
 20
49.1975642201382
 10
16.6161304598862
 20
49.1973306904686
 10
16.6163228699066
 20
49.1970567729628
 10
16.6165022572512
 20
49.1967982143058
 10
16.6165409267759
 20
49.1966749562868
 10
16.6165397643835
 20
49.1965304274821
 10
16.6165650862122
 20
49.1964529866957
 10
16.6166308715619
 20
49.1963603201259
 10
16.6170681464456
 20
49.1957436568349
 10
16.6171530333086
 20
49.1956338904934
 10
16.6172747161448
 20
49.1954666650238
 10
16.6182129746503
 20
49.1941512894386
 10
16.6182829545514
 20
49.1940272621963
 10
16.6184000036888
 20
49.1940455851655
 10
16.6178529176186
 20
49.1947647586053
 10
16.6174648306305
 20
49.1953104439446
 10
16.6171375379609
 20
49.1957706374916
 10
16.6169795209627
 20
49.1960092728631
 10
16.6167742669216
 20
49.1962925025984
 10
16.6167047100583
 20
49.1963854449784
 10
16.6166326442925
 20
49.1965153841586
 10
16.6166213879995
 20
49.1965870368379
 10
16.6166066444346
 20
49.1967552227649
 10
16.6165819937885
 20
49.1968110033885
 10
16.6162928519565
 20
49.1972188126716
 10
16.616085102516
 20
49.1975179650065
 10
16.6160497949904
 20
49.1975990405001
 10
16.6160002463888
 20
49.1978720351126
 10
16.6159508740698
 20
49.1981439568237
 10
16.6157439778631
 20
49.1985718778847
 10
16.6155382128125
 20
49.1989929143112
 10
16.6150776453597
 20
49.1999515411006
 10
16.6148906110739
 20
49.200335914456
 10
16.6147127626658
 20
49.2005975657148
 10
16.6145861502519
 20
49.200712517807
 10
16.6142344087256
 20
49.2009991234883
 10
16.6142092940899
 20
49.2010702473736
 10
16.6142209721141
 20
49.2011668594889
 10
16.6141966163098
 20
49.201199053616
 10
16.6139952767896
 20
49.2011317969655
 97
0
 75
0
 76
1
 98
0
  0
HATCH
  5
20030
100
AcDbEntity
  8
vodní toky před regulací
100
AcDbHatch
 10
0
 20
0
 30
0
210
0
220
0
230
1
  2
SOLID
 70
1
 71
0
 91
1
 92
2
 72
0
 73
1
 93
43
 10
16.6365008671864
 20
49.2064164166305
 10
16.6364613186235
 20
49.2063276550948
 10
16.6364096896387
 20
49.2062042429127
 10
16.6364552439407
 20
49.206149238549
 10
16.6366760487783
 20
49.2058853470947
 10
16.636935790116
 20
49.2054811988408
 10
16.6378841236337
 20
49.2042690568795
 10
16.638429485542
 20
49.20389526333
 10
16.6390370864013
 20
49.2037689563737
 10
16.6394735698088
 20
49.2035846510384
 10
16.6401611986625
 20
49.2031970974833
 10
16.6404247885017
 20
49.2029848978417
 10
16.64073324269
 20
49.202723180614
 10
16.6408602597453
 20
49.2025359844976
 10
16.6409286451576
 20
49.2024147720079
 10
16.6410035170021
 20
49.2022208956302
 10
16.641050005056
 20
49.2019123649759
 10
16.6409131882039
 20
49.2016173109147
 10
16.6405705988588
 20
49.2014770963698
 10
16.6396231184965
 20
49.2014148352631
 10
16.6380984831572
 20
49.2015699979587
 10
16.6368326722901
 20
49.2016809779645
 10
16.6349758640141
 20
49.2017296781488
 10
16.6349391373284
 20
49.2016027104466
 10
16.6381414174559
 20
49.2014128424811
 10
16.6396355335748
 20
49.2012470447471
 10
16.6405900191052
 20
49.2013085195636
 10
16.641109280473
 20
49.2015302095121
 10
16.6412057944671
 20
49.2017601046198
 10
16.6412474654431
 20
49.2019487572105
 10
16.6412305654521
 20
49.2022285136421
 10
16.6411348632408
 20
49.2024681872033
 10
16.6410452019036
 20
49.2026142001861
 10
16.6409174239233
 20
49.2027742706479
 10
16.6405962262441
 20
49.2030486369852
 10
16.6403005135859
 20
49.2032860893284
 10
16.6397494160482
 20
49.2036186412299
 10
16.6391741087056
 20
49.2038807049278
 10
16.6386027299491
 20
49.2040240141386
 10
16.6380967584033
 20
49.2043623590085
 10
16.6372202970973
 20
49.2055038117552
 10
16.6367710916363
 20
49.2061210552087
 10
16.6365008671864
 20
49.2064164166305
 97
0
 75
0
 76
1
 98
0
  0
HATCH
  5
20031
100
AcDbEntity
  8
vodní toky před regulací
100
AcDbHatch
 10
0
 20
0
 30
0
210
0
220
0
230
1
  2
SOLID
 70
1
 71
0
 91
1
 92
2
 72
0
 73
1
 93
20
 10
16.6297284226474
 20
49.1961835826273
 10
16.6296728696664
 20
49.1961024270539
 10
16.6296129480745
 20
49.1960059421984
 10
16.6295256695643
 20
49.1958654056317
 10
16.6294383901846
 20
49.1957248688998
 10
16.6292876820306
 20
49.1955970771094
 10
16.6291955517073
 20
49.1955285630861
 10
16.6290750965099
 20
49.195435832531
 10
16.6289230722702
 20
49.1953048692072
 10
16.6288866188356
 20
49.195143231775
 10
16.6291419140505
 20
49.1953593819233
 10
16.6292583354558
 20
49.1954605401146
 10
16.6294049825009
 20
49.1955828985558
 10
16.6295516290529
 20
49.1957052558181
 10
16.6296765268045
 20
49.1958791764936
 10
16.6298014254324
 20
49.1960530970294
 10
16.6298640426558
 20
49.1961689768415
 10
16.6298969048889
 20
49.1962357822268
 10
16.6297784421733
 20
49.1962016791518
 10
16.6297284226474
 20
49.1961835826273
 97
0
 75
0
 76
1
 98
0
  0
HATCH
  5
20032
100
AcDbEntity
  8
vodní toky před regulací
100
AcDbHatch
 10
0
 20
0
 30
0
210
0
220
0
230
1
  2
SOLID
 70
1
 71
0
 91
1
 92
2
 72
0
 73
1
 93
18
 10
16.6304893355151
 20
49.1909664516405
 10
16.6305752256857
 20
49.1909449582041
 10
16.6307399413897
 20
49.1910229801592
 10
16.6315110012546
 20
49.1913297294874
 10
16.632282070518
 20
49.1916364745449
 10
16.632764647096
 20
49.1919517977786
 10
16.6331139380896
 20
49.1922088323458
 10
16.6334655448527
 20
49.1924330405961
 10
16.6347682279438
 20
49.1936436908072
 10
16.6347994189698
 20
49.1937200596368
 10
16.6347350738653
 20
49.193675215188
 10
16.6334119911177
 20
49.1924959521274
 10
16.6330898605266
 20
49.1922814153052
 10
16.6326931593508
 20
49.191984041498
 10
16.6322444464103
 20
49.1916789900875
 10
16.631428230431
 20
49.191354750774
 10
16.6306918047898
 20
49.1910622000099
 10
16.6304893355151
 20
49.1909664516405
 97
0
 75
0
 76
1
 98
0
  0
ENDSEC
  0
SECTION
  2
OBJECTS
  0
DICTIONARY
  5
C
330
0
100
AcDbDictionary
281
     1
  3
ACAD_GROUP
350
D
  3
ACAD_LAYOUT
350
1A
  3
ACAD_MLEADERSTYLE
350
43
  3
ACAD_PLOTSETTINGS
350
19
  3
ACAD_PLOTSTYLENAME
350
E
  3
ACAD_TABLESTYLE
350
42
  0
DICTIONARY
  5
D
102
{ACAD_REACTORS
330
C
102
}
330
C
100
AcDbDictionary
281
     1
  0
DICTIONARY
  5
1A
102
{ACAD_REACTORS
330
C
102
}
330
C
100
AcDbDictionary
281
     1
  3
Layout1
350
1E
  3
Model
350
22
  0
DICTIONARY
  5
43
102
{ACAD_REACTORS
330
C
102
}
330
C
100
AcDbDictionary
281
     1
  0
DICTIONARY
  5
19
102
{ACAD_REACTORS
330
C
102
}
330
C
100
AcDbDictionary
281
     1
  0
ACDBDICTIONARYWDFLT
  5
E
102
{ACAD_REACTORS
330
C
102
}
330
C
100
AcDbDictionary
281
     1
  3
Normal
350
F
100
AcDbDictionaryWithDefault
340
F
  0
DICTIONARY
  5
42
102
{ACAD_REACTORS
330
C
102
}
330
C
100
AcDbDictionary
281
     1
  0
LAYOUT
  5
1E
102
{ACAD_REACTORS
330
1A
102
}
330
1A
100
AcDbPlotSettings
  1

  2
none_device
  4

  6

 40
0.0
 41
0.0
 42
0.0
 43
0.0
 44
0.0
 45
0.0
 46
0.0
 47
0.0
 48
0.0
 49
0.0
140
0.0
141
0.0
142
1.0
143
1.0
 70
   688
 72
     0
 73
     0
 74
     5
  7

 75
    16
 76
     0
 77
     2
 78
   300
147
1.0
148
0.0
149
0.0
100
AcDbLayout
  1
Layout1
 70
     1
 71
     1
 10
0.0
 20
0.0
 11
12.0
 21
9.0
 12
0.0
 22
0.0
 32
0.0
 14
1.000000000000000E+20
 24
1.000000000000000E+20
 34
1.000000000000000E+20
 15
-1.000000000000000E+20
 25
-1.000000000000000E+20
 35
-1.000000000000000E+20
146
0.0
 13
0.0
 23
0.0
 33
0.0
 16
1.0
 26
0.0
 36
0.0
 17
0.0
 27
1.0
 37
0.0
 76
     0
330
1B
  0
LAYOUT
  5
22
102
{ACAD_REACTORS
330
1A
102
}
330
1A
100
AcDbPlotSettings
  1

  2
none_device
  4

  6

 40
0.0
 41
0.0
 42
0.0
 43
0.0
 44
0.0
 45
0.0
 46
0.0
 47
0.0
 48
0.0
 49
0.0
140
0.0
141
0.0
142
1.0
143
1.0
 70
  1712
 72
     0
 73
     0
 74
     0
  7

 75
     0
 76
     0
 77
     2
 78
   300
147
1.0
148
0.0
149
0.0
100
AcDbLayout
  1
Model
 70
     1
 71
     0
 10
0.0
 20
0.0
 11
12.0
 21
9.0
 12
0.0
 22
0.0
 32
0.0
 14
30.0
 24
49.75
 34
0.0
 15
130.5
 25
163.1318914119703
 35
0.0
146
0.0
 13
0.0
 23
0.0
 33
0.0
 16
1.0
 26
0.0
 36
0.0
 17
0.0
 27
1.0
 37
0.0
 76
     0
330
1F
331
29
  0
ENDSEC
  0
EOF
